0
SECTION
  2
HEADER
  9
$ACADVER
  1
AC1027
  9
$ACADMAINTVER
 70
     8
  9
$DWGCODEPAGE
  3
ANSI_1252
  9
$REQUIREDVERSIONS
160
                 0
  9
$COMMENTS
  1
File was created by Cadenas
  9
$CUSTOMPROPERTYTAG
  1
NN
  9
$CUSTOMPROPERTY
  1
Set Screw Intermediate Duty Two-Bolt Pillow Block Inch Bore
  9
$CUSTOMPROPERTYTAG
  1
NT
  9
$CUSTOMPROPERTY
  1
VSC Intermediate Duty Pillow Blocks
  9
$CUSTOMPROPERTYTAG
  1
NB
  9
$CUSTOMPROPERTY
  1
123593
  9
$CUSTOMPROPERTYTAG
  1
NBSYN
  9
$CUSTOMPROPERTY
  1
$PN.
  9
$CUSTOMPROPERTYTAG
  1
LINA
  9
$CUSTOMPROPERTY
  1
123593
  9
$CUSTOMPROPERTYTAG
  1
RS
  9
$CUSTOMPROPERTY
  1
211
  9
$CUSTOMPROPERTYTAG
  1
SS
  9
$CUSTOMPROPERTY
  1
2
  9
$CUSTOMPROPERTYTAG
  1
PN
  9
$CUSTOMPROPERTY
  1
123593
  9
$CUSTOMPROPERTYTAG
  1
DESCRIPTION
  9
$CUSTOMPROPERTY
  1
P2B-VSC-200L
  9
$CUSTOMPROPERTYTAG
  1
LF
  9
$CUSTOMPROPERTY
  1
RE-LUBE
  9
$CUSTOMPROPERTYTAG
  1
WEIGHT
  9
$CUSTOMPROPERTY
  1
9.0
  9
$CUSTOMPROPERTYTAG
  1
A
  9
$CUSTOMPROPERTY
  1
2.22
  9
$CUSTOMPROPERTYTAG
  1
B
  9
$CUSTOMPROPERTY
  1
8.88
  9
$CUSTOMPROPERTYTAG
  1
C
  9
$CUSTOMPROPERTY
  1
2.30
  9
$CUSTOMPROPERTYTAG
  1
DMIN
  9
$CUSTOMPROPERTY
  1
6.38
  9
$CUSTOMPROPERTYTAG
  1
DMAX
  9
$CUSTOMPROPERTY
  1
7.44
  9
$CUSTOMPROPERTYTAG
  1
F
  9
$CUSTOMPROPERTY
  1
5/8
  9
$CUSTOMPROPERTYTAG
  1
G
  9
$CUSTOMPROPERTY
  1
1.21
  9
$CUSTOMPROPERTYTAG
  1
H
  9
$CUSTOMPROPERTY
  1
0.88
  9
$CUSTOMPROPERTYTAG
  1
J
  9
$CUSTOMPROPERTY
  1
4.96
  9
$CUSTOMPROPERTYTAG
  1
L
  9
$CUSTOMPROPERTY
  1
2.71
  9
$CUSTOMPROPERTYTAG
  1
M
  9
$CUSTOMPROPERTY
  1
2.50
  9
$CUSTOMPROPERTYTAG
  1
R
  9
$CUSTOMPROPERTY
  1
0.87
  9
$CUSTOMPROPERTYTAG
  1
S
  9
$CUSTOMPROPERTY
  1
1.35
  9
$CUSTOMPROPERTYTAG
  1
U
  9
$CUSTOMPROPERTY
  1
3.94
  9
$CUSTOMPROPERTYTAG
  1
V
  9
$CUSTOMPROPERTY
  1
7.88
  9
$CUSTOMPROPERTYTAG
  1
W
  9
$CUSTOMPROPERTY
  1
0.81
  9
$CUSTOMPROPERTYTAG
  1
X
  9
$CUSTOMPROPERTY
  1
0.12
  9
$CUSTOMPROPERTYTAG
  1
COMPANY
  9
$CUSTOMPROPERTY
  1
baldor
  9
$INSBASE
 10
0.0
 20
0.0
 30
0.0
  9
$EXTMIN
 10
1.000000000000000E+20
 20
1.000000000000000E+20
 30
1.000000000000000E+20
  9
$EXTMAX
 10
-1.000000000000000E+20
 20
-1.000000000000000E+20
 30
-1.000000000000000E+20
  9
$LIMMIN
 10
0.0
 20
0.0
  9
$LIMMAX
 10
12.0
 20
9.0
  9
$ORTHOMODE
 70
     0
  9
$REGENMODE
 70
     1
  9
$FILLMODE
 70
     1
  9
$QTEXTMODE
 70
     0
  9
$MIRRTEXT
 70
     1
  9
$LTSCALE
 40
1.0
  9
$ATTMODE
 70
     1
  9
$TEXTSIZE
 40
0.2
  9
$TRACEWID
 40
0.05
  9
$TEXTSTYLE
  7
Standard
  9
$CLAYER
  8
0
  9
$CELTYPE
  6
ByLayer
  9
$CECOLOR
 62
   256
  9
$CELTSCALE
 40
1.0
  9
$DISPSILH
 70
     0
  9
$DIMSCALE
 40
1.0
  9
$DIMASZ
 40
0.18
  9
$DIMEXO
 40
0.0625
  9
$DIMDLI
 40
0.38
  9
$DIMRND
 40
0.0
  9
$DIMDLE
 40
0.0
  9
$DIMEXE
 40
0.18
  9
$DIMTP
 40
0.0
  9
$DIMTM
 40
0.0
  9
$DIMTXT
 40
0.18
  9
$DIMCEN
 40
0.09
  9
$DIMTSZ
 40
0.0
  9
$DIMTOL
 70
     0
  9
$DIMLIM
 70
     0
  9
$DIMTIH
 70
     1
  9
$DIMTOH
 70
     1
  9
$DIMSE1
 70
     0
  9
$DIMSE2
 70
     0
  9
$DIMTAD
 70
     0
  9
$DIMZIN
 70
     0
  9
$DIMBLK
  1

  9
$DIMASO
 70
     1
  9
$DIMSHO
 70
     1
  9
$DIMPOST
  1

  9
$DIMAPOST
  1

  9
$DIMALT
 70
     0
  9
$DIMALTD
 70
     2
  9
$DIMALTF
 40
25.4
  9
$DIMLFAC
 40
1.0
  9
$DIMTOFL
 70
     0
  9
$DIMTVP
 40
0.0
  9
$DIMTIX
 70
     0
  9
$DIMSOXD
 70
     0
  9
$DIMSAH
 70
     0
  9
$DIMBLK1
  1

  9
$DIMBLK2
  1

  9
$DIMSTYLE
  2
Standard
  9
$DIMCLRD
 70
     0
  9
$DIMCLRE
 70
     0
  9
$DIMCLRT
 70
     0
  9
$DIMTFAC
 40
1.0
  9
$DIMGAP
 40
0.09
  9
$DIMJUST
 70
     0
  9
$DIMSD1
 70
     0
  9
$DIMSD2
 70
     0
  9
$DIMTOLJ
 70
     1
  9
$DIMTZIN
 70
     0
  9
$DIMALTZ
 70
     0
  9
$DIMALTTZ
 70
     0
  9
$DIMUPT
 70
     0
  9
$DIMDEC
 70
     4
  9
$DIMTDEC
 70
     4
  9
$DIMALTU
 70
     2
  9
$DIMALTTD
 70
     2
  9
$DIMTXSTY
  7
Standard
  9
$DIMAUNIT
 70
     0
  9
$DIMADEC
 70
     0
  9
$DIMALTRND
 40
0.0
  9
$DIMAZIN
 70
     0
  9
$DIMDSEP
 70
    46
  9
$DIMATFIT
 70
     3
  9
$DIMFRAC
 70
     0
  9
$DIMLDRBLK
  1

  9
$DIMLUNIT
 70
     2
  9
$DIMLWD
 70
    -2
  9
$DIMLWE
 70
    -2
  9
$DIMTMOVE
 70
     0
  9
$DIMFXL
 40
1.0
  9
$DIMFXLON
 70
     0
  9
$DIMJOGANG
 40
0.7853981633974483
  9
$DIMTFILL
 70
     0
  9
$DIMTFILLCLR
 70
     0
  9
$DIMARCSYM
 70
     0
  9
$DIMLTYPE
  6

  9
$DIMLTEX1
  6

  9
$DIMLTEX2
  6

  9
$DIMTXTDIRECTION
 70
     0
  9
$LUNITS
 70
     2
  9
$LUPREC
 70
     4
  9
$SKETCHINC
 40
0.1
  9
$FILLETRAD
 40
0.5
  9
$AUNITS
 70
     0
  9
$AUPREC
 70
     0
  9
$MENU
  1
.
  9
$ELEVATION
 40
0.0
  9
$PELEVATION
 40
0.0
  9
$THICKNESS
 40
0.0
  9
$LIMCHECK
 70
     0
  9
$CHAMFERA
 40
0.0
  9
$CHAMFERB
 40
0.0
  9
$CHAMFERC
 40
0.0
  9
$CHAMFERD
 40
0.0
  9
$SKPOLY
 70
     0
  9
$TDCREATE
 40
2458168.998201875
  9
$TDUCREATE
 40
2458168.956535209
  9
$TDUPDATE
 40
2458168.99820206
  9
$TDUUPDATE
 40
2458168.956535393
  9
$TDINDWG
 40
0.0000000116
  9
$TDUSRTIMER
 40
0.0000000116
  9
$USRTIMER
 70
     1
  9
$ANGBASE
 50
0.0
  9
$ANGDIR
 70
     0
  9
$PDMODE
 70
     0
  9
$PDSIZE
 40
0.0
  9
$PLINEWID
 40
0.0
  9
$SPLFRAME
 70
     0
  9
$SPLINETYPE
 70
     6
  9
$SPLINESEGS
 70
     8
  9
$HANDSEED
  5
1BD
  9
$SURFTAB1
 70
     6
  9
$SURFTAB2
 70
     6
  9
$SURFTYPE
 70
     6
  9
$SURFU
 70
     6
  9
$SURFV
 70
     6
  9
$UCSBASE
  2

  9
$UCSNAME
  2

  9
$UCSORG
 10
0.0
 20
0.0
 30
0.0
  9
$UCSXDIR
 10
1.0
 20
0.0
 30
0.0
  9
$UCSYDIR
 10
0.0
 20
1.0
 30
0.0
  9
$UCSORTHOREF
  2

  9
$UCSORTHOVIEW
 70
     0
  9
$UCSORGTOP
 10
0.0
 20
0.0
 30
0.0
  9
$UCSORGBOTTOM
 10
0.0
 20
0.0
 30
0.0
  9
$UCSORGLEFT
 10
0.0
 20
0.0
 30
0.0
  9
$UCSORGRIGHT
 10
0.0
 20
0.0
 30
0.0
  9
$UCSORGFRONT
 10
0.0
 20
0.0
 30
0.0
  9
$UCSORGBACK
 10
0.0
 20
0.0
 30
0.0
  9
$PUCSBASE
  2

  9
$PUCSNAME
  2

  9
$PUCSORG
 10
0.0
 20
0.0
 30
0.0
  9
$PUCSXDIR
 10
1.0
 20
0.0
 30
0.0
  9
$PUCSYDIR
 10
0.0
 20
1.0
 30
0.0
  9
$PUCSORTHOREF
  2

  9
$PUCSORTHOVIEW
 70
     0
  9
$PUCSORGTOP
 10
0.0
 20
0.0
 30
0.0
  9
$PUCSORGBOTTOM
 10
0.0
 20
0.0
 30
0.0
  9
$PUCSORGLEFT
 10
0.0
 20
0.0
 30
0.0
  9
$PUCSORGRIGHT
 10
0.0
 20
0.0
 30
0.0
  9
$PUCSORGFRONT
 10
0.0
 20
0.0
 30
0.0
  9
$PUCSORGBACK
 10
0.0
 20
0.0
 30
0.0
  9
$USERI1
 70
     0
  9
$USERI2
 70
     0
  9
$USERI3
 70
     0
  9
$USERI4
 70
     0
  9
$USERI5
 70
     0
  9
$USERR1
 40
0.0
  9
$USERR2
 40
0.0
  9
$USERR3
 40
0.0
  9
$USERR4
 40
0.0
  9
$USERR5
 40
0.0
  9
$WORLDVIEW
 70
     1
  9
$SHADEDGE
 70
     3
  9
$SHADEDIF
 70
    70
  9
$TILEMODE
 70
     1
  9
$MAXACTVP
 70
    64
  9
$PINSBASE
 10
0.0
 20
0.0
 30
0.0
  9
$PLIMCHECK
 70
     0
  9
$PEXTMIN
 10
1.000000000000000E+20
 20
1.000000000000000E+20
 30
1.000000000000000E+20
  9
$PEXTMAX
 10
-1.000000000000000E+20
 20
-1.000000000000000E+20
 30
-1.000000000000000E+20
  9
$PLIMMIN
 10
0.0
 20
0.0
  9
$PLIMMAX
 10
12.0
 20
9.0
  9
$UNITMODE
 70
     0
  9
$VISRETAIN
 70
     1
  9
$PLINEGEN
 70
     0
  9
$PSLTSCALE
 70
     1
  9
$TREEDEPTH
 70
  3020
  9
$CMLSTYLE
  2
Standard
  9
$CMLJUST
 70
     0
  9
$CMLSCALE
 40
1.0
  9
$PROXYGRAPHICS
 70
     1
  9
$MEASUREMENT
 70
     0
  9
$CELWEIGHT
370
    -1
  9
$ENDCAPS
280
     0
  9
$JOINSTYLE
280
     0
  9
$LWDISPLAY
290
     0
  9
$INSUNITS
 70
     1
  9
$HYPERLINKBASE
  1

  9
$STYLESHEET
  1

  9
$XEDIT
290
     1
  9
$CEPSNTYPE
380
     0
  9
$PSTYLEMODE
290
     1
  9
$FINGERPRINTGUID
  2
{492E9AFB-2388-4ED0-A6F0-6123CE91FBCD}
  9
$VERSIONGUID
  2
{FAEB1C32-E019-11D5-929B-00C0DF256EC4}
  9
$EXTNAMES
290
     1
  9
$PSVPSCALE
 40
0.0
  9
$OLESTARTUP
290
     0
  9
$SORTENTS
280
   127
  9
$INDEXCTL
280
     0
  9
$HIDETEXT
280
     1
  9
$XCLIPFRAME
280
     2
  9
$HALOGAP
280
     0
  9
$OBSCOLOR
 70
   257
  9
$OBSLTYPE
280
     0
  9
$INTERSECTIONDISPLAY
280
     0
  9
$INTERSECTIONCOLOR
 70
   257
  9
$DIMASSOC
280
     2
  9
$PROJECTNAME
  1

  9
$CAMERADISPLAY
290
     0
  9
$LENSLENGTH
 40
50.0
  9
$CAMERAHEIGHT
 40
0.0
  9
$STEPSPERSEC
 40
2.0
  9
$STEPSIZE
 40
6.0
  9
$3DDWFPREC
 40
2.0
  9
$PSOLWIDTH
 40
0.25
  9
$PSOLHEIGHT
 40
4.0
  9
$LOFTANG1
 40
1.570796326794897
  9
$LOFTANG2
 40
1.570796326794897
  9
$LOFTMAG1
 40
0.0
  9
$LOFTMAG2
 40
0.0
  9
$LOFTPARAM
 70
     7
  9
$LOFTNORMALS
280
     1
  9
$LATITUDE
 40
37.795
  9
$LONGITUDE
 40
-122.394
  9
$NORTHDIRECTION
 40
0.0
  9
$TIMEZONE
 70
 -8000
  9
$LIGHTGLYPHDISPLAY
280
     1
  9
$TILEMODELIGHTSYNCH
280
     1
  9
$CMATERIAL
347
44
  9
$SOLIDHIST
280
     0
  9
$SHOWHIST
280
     1
  9
$DWFFRAME
280
     2
  9
$DGNFRAME
280
     2
  9
$REALWORLDSCALE
290
     1
  9
$INTERFERECOLOR
 62
   256
  9
$CSHADOW
280
     0
  9
$SHADOWPLANELOCATION
 40
0.0
  0
ENDSEC
  0
SECTION
  2
CLASSES
  0
CLASS
  1
ACDBDICTIONARYWDFLT
  2
AcDbDictionaryWithDefault
  3
ObjectDBX Classes
 90
        0
 91
        4
280
     0
281
     0
  0
CLASS
  1
VISUALSTYLE
  2
AcDbVisualStyle
  3
ObjectDBX Classes
 90
     4095
 91
        4
280
     0
281
     0
  0
CLASS
  1
MATERIAL
  2
AcDbMaterial
  3
ObjectDBX Classes
 90
     1153
 91
        4
280
     0
281
     0
  0
CLASS
  1
SCALE
  2
AcDbScale
  3
ObjectDBX Classes
 90
     1153
 91
        4
280
     0
281
     0
  0
CLASS
  1
TABLESTYLE
  2
AcDbTableStyle
  3
ObjectDBX Classes
 90
     4095
 91
        4
280
     0
281
     0
  0
CLASS
  1
MLEADERSTYLE
  2
AcDbMLeaderStyle
  3
ACDB_MLEADERSTYLE_CLASS
 90
     4095
 91
        4
280
     0
281
     0
  0
CLASS
  1
SUN
  2
AcDbSun
  3
SCENEOE
 90
     1153
 91
        4
280
     0
281
     0
  0
CLASS
  1
DICTIONARYVAR
  2
AcDbDictionaryVar
  3
ObjectDBX Classes
 90
        0
 91
        4
280
     0
281
     0
  0
CLASS
  1
CELLSTYLEMAP
  2
AcDbCellStyleMap
  3
ObjectDBX Classes
 90
     1152
 91
        4
280
     0
281
     0
  0
ENDSEC
  0
SECTION
  2
TABLES
  0
TABLE
  2
VPORT
  5
8
330
0
100
AcDbSymbolTable
 70
     1
  0
VPORT
  5
29
330
8
100
AcDbSymbolTableRecord
100
AcDbViewportTableRecord
  2
*Active
 70
     0
 10
0.0
 20
0.0
 11
1.0
 21
1.0
 12
0.0
 22
-0.0980000000000008
 13
0.0
 23
0.0
 14
0.5
 24
0.5
 15
0.5
 25
0.5
 16
0.0
 26
0.0
 36
1.0
 17
0.0
 27
0.0
 37
0.0
 40
2.78052
 41
3.257520176082173
 42
50.0
 43
0.0
 44
0.0
 50
0.0
 51
0.0
 71
     0
 72
   100
 73
     1
 74
     3
 75
     0
 76
     0
 77
     0
 78
     0
281
     0
 65
     1
110
0.0
120
0.0
130
0.0
111
1.0
121
0.0
131
0.0
112
0.0
122
1.0
132
0.0
 79
     0
146
0.0
348
2F
 60
     3
 61
     5
292
     1
282
     1
141
0.0
142
0.0
 63
   250
361
6D
  0
ENDTAB
  0
TABLE
  2
LTYPE
  5
5
330
0
100
AcDbSymbolTable
 70
     3
  0
LTYPE
  5
14
330
5
100
AcDbSymbolTableRecord
100
AcDbLinetypeTableRecord
  2
ByBlock
 70
     0
  3

 72
    65
 73
     0
 40
0.0
  0
LTYPE
  5
15
330
5
100
AcDbSymbolTableRecord
100
AcDbLinetypeTableRecord
  2
ByLayer
 70
     0
  3

 72
    65
 73
     0
 40
0.0
  0
LTYPE
  5
16
330
5
100
AcDbSymbolTableRecord
100
AcDbLinetypeTableRecord
  2
Continuous
 70
     0
  3
Solid line
 72
    65
 73
     0
 40
0.0
  0
LTYPE
  5
A2
330
5
100
AcDbSymbolTableRecord
100
AcDbLinetypeTableRecord
  2
Dashed
 70
     0
  3

 72
    65
 73
     2
 40
2.0
 49
1.0
 74
     0
 49
-1.0
 74
     0
  0
LTYPE
  5
11F
330
5
100
AcDbSymbolTableRecord
100
AcDbLinetypeTableRecord
  2
Center
 70
     0
  3

 72
    65
 73
     4
 40
1.5
 49
0.45
 74
     0
 49
-0.5
 74
     0
 49
0.05
 74
     0
 49
-0.5
 74
     0
  0
ENDTAB
  0
TABLE
  2
LAYER
  5
2
330
0
100
AcDbSymbolTable
 70
     7
  0
LAYER
  5
10
330
2
100
AcDbSymbolTableRecord
100
AcDbLayerTableRecord
  2
0
 70
     0
 62
     7
  6
Continuous
370
    -3
390
F
347
46
348
0
  0
LAYER
  5
72
330
2
100
AcDbSymbolTableRecord
100
AcDbLayerTableRecord
  2
AM_6
 70
     0
 62
    -2
  6
Continuous
370
    35
390
F
347
46
348
0
  0
LAYER
  5
A3
330
2
100
AcDbSymbolTableRecord
100
AcDbLayerTableRecord
  2
AM_9
 70
     0
 62
     6
  6
Dashed
370
    25
390
F
347
46
348
0
  0
LAYER
  5
C0
330
2
100
AcDbSymbolTableRecord
100
AcDbLayerTableRecord
  2
AM_4
 70
     0
 62
     7
  6
Continuous
370
    50
390
F
347
46
348
0
  0
LAYER
  5
120
330
2
100
AcDbSymbolTableRecord
100
AcDbLayerTableRecord
  2
AM_7
 70
     0
 62
     7
  6
Center
370
    25
390
F
347
46
348
0
  0
LAYER
  5
135
330
2
100
AcDbSymbolTableRecord
100
AcDbLayerTableRecord
  2
AM_5
 70
     0
 62
     3
  6
Continuous
370
    25
390
F
347
46
348
0
  0
LAYER
  5
1B0
330
2
100
AcDbSymbolTableRecord
100
AcDbLayerTableRecord
  2
ConnectionPoints
 70
     0
 62
     7
  6
Continuous
370
    50
390
F
347
46
348
0
  0
ENDTAB
  0
TABLE
  2
STYLE
  5
3
330
0
100
AcDbSymbolTable
 70
     1
  0
STYLE
  5
11
330
3
100
AcDbSymbolTableRecord
100
AcDbTextStyleTableRecord
  2
Standard
 70
     0
 40
0.0
 41
1.0
 50
0.0
 71
     0
 42
0.2
  3
txt
  4

  0
ENDTAB
  0
TABLE
  2
VIEW
  5
6
330
0
100
AcDbSymbolTable
 70
     0
  0
ENDTAB
  0
TABLE
  2
UCS
  5
7
330
0
100
AcDbSymbolTable
 70
     0
  0
ENDTAB
  0
TABLE
  2
APPID
  5
9
330
0
100
AcDbSymbolTable
 70
     1
  0
APPID
  5
12
330
9
100
AcDbSymbolTableRecord
100
AcDbRegAppTableRecord
  2
ACAD
 70
     0
  0
ENDTAB
  0
TABLE
  2
DIMSTYLE
  5
A
330
0
100
AcDbSymbolTable
 70
     1
100
AcDbDimStyleTable
  0
DIMSTYLE
105
27
330
A
100
AcDbSymbolTableRecord
100
AcDbDimStyleTableRecord
  2
Standard
 70
     0
178
     0
340
11
  0
ENDTAB
  0
TABLE
  2
BLOCK_RECORD
  5
1
330
0
100
AcDbSymbolTable
 70
     5
  0
BLOCK_RECORD
  5
1F
330
1
100
AcDbSymbolTableRecord
100
AcDbBlockTableRecord
  2
*Model_Space
340
22
 70
     0
280
     1
281
     0
  0
BLOCK_RECORD
  5
1B
330
1
100
AcDbSymbolTableRecord
100
AcDbBlockTableRecord
  2
*Paper_Space
340
1E
 70
     0
280
     1
281
     0
  0
BLOCK_RECORD
  5
23
330
1
100
AcDbSymbolTableRecord
100
AcDbBlockTableRecord
  2
*Paper_Space0
340
26
 70
     0
280
     1
281
     0
  0
BLOCK_RECORD
  5
6E
330
1
100
AcDbSymbolTableRecord
100
AcDbBlockTableRecord
  2
1_123593_4
340
0
102
{BLKREFS
331
6F
102
}
 70
     0
280
     1
281
     0
  0
BLOCK_RECORD
  5
90
330
1
100
AcDbSymbolTableRecord
100
AcDbBlockTableRecord
  2
2_405020c_Inch_0_in_123593_4
340
0
102
{BLKREFS
331
91
102
}
 70
     0
280
     1
281
     0
  0
BLOCK_RECORD
  5
DE
330
1
100
AcDbSymbolTableRecord
100
AcDbBlockTableRecord
  2
3_389935_0_in_123593_4
340
0
102
{BLKREFS
331
DF
102
}
 70
     0
280
     1
281
     0
  0
BLOCK_RECORD
  5
138
330
1
100
AcDbSymbolTableRecord
100
AcDbBlockTableRecord
  2
4_123593vsc_0_in_123593_4
340
0
102
{BLKREFS
331
139
102
}
 70
     0
280
     1
281
     0
  0
ENDTAB
  0
ENDSEC
  0
SECTION
  2
BLOCKS
  0
BLOCK
  5
20
330
1F
100
AcDbEntity
  8
0
100
AcDbBlockBegin
  2
*Model_Space
 70
     0
 10
0.0
 20
0.0
 30
0.0
  3
*Model_Space
  1

  0
ENDBLK
  5
21
330
1F
100
AcDbEntity
  8
0
100
AcDbBlockEnd
  0
BLOCK
  5
1C
330
1B
100
AcDbEntity
 67
     1
  8
0
100
AcDbBlockBegin
  2
*Paper_Space
 70
     0
 10
0.0
 20
0.0
 30
0.0
  3
*Paper_Space
  1

  0
ENDBLK
  5
1D
330
1B
100
AcDbEntity
 67
     1
  8
0
100
AcDbBlockEnd
  0
BLOCK
  5
24
330
23
100
AcDbEntity
  8
0
100
AcDbBlockBegin
  2
*Paper_Space0
 70
     0
 10
0.0
 20
0.0
 30
0.0
  3
*Paper_Space0
  1

  0
ENDBLK
  5
25
330
23
100
AcDbEntity
  8
0
100
AcDbBlockEnd
  0
BLOCK
  5
70
330
6E
100
AcDbEntity
  8
0
100
AcDbBlockBegin
  2
1_123593_4
 70
     2
 10
0.0
 20
0.0
 30
0.0
  3
1_123593_4
  1

  0
ATTDEF
  5
73
330
6E
100
AcDbEntity
  8
AM_6
100
AcDbText
 10
9.440000000000001
 20
1.265
 30
0.0
 40
0.5
  1
Set Screw Intermediate Duty Two-Bolt Pillow Block Inch Bore
100
AcDbAttributeDefinition
  3

  2
NN
 70
     8
280
     0
  0
ATTDEF
  5
74
330
6E
100
AcDbEntity
  8
AM_6
100
AcDbText
 10
9.440000000000001
 20
0.7649999999999999
 30
0.0
 40
0.5
  1
VSC Intermediate Duty Pillow Blocks
100
AcDbAttributeDefinition
  3

  2
NT
 70
     8
280
     0
  0
ATTDEF
  5
75
330
6E
100
AcDbEntity
  8
AM_6
100
AcDbText
 10
9.440000000000001
 20
0.2649999999999999
 30
0.0
 40
0.5
  1
123593
100
AcDbAttributeDefinition
  3

  2
NB
 70
     8
280
     0
  0
ATTDEF
  5
76
330
6E
100
AcDbEntity
  8
AM_6
100
AcDbText
 10
9.440000000000001
 20
-0.2350000000000001
 30
0.0
 40
0.5
  1
$PN.
100
AcDbAttributeDefinition
  3

  2
NBSYN
 70
     8
280
     0
  0
ATTDEF
  5
77
330
6E
100
AcDbEntity
  8
AM_6
100
AcDbText
 10
9.440000000000001
 20
-0.7350000000000001
 30
0.0
 40
0.5
  1
123593
100
AcDbAttributeDefinition
  3

  2
LINA
 70
     8
280
     0
  0
ATTDEF
  5
78
330
6E
100
AcDbEntity
  8
AM_6
100
AcDbText
 10
9.440000000000001
 20
-1.235
 30
0.0
 40
0.5
  1
211
100
AcDbAttributeDefinition
  3

  2
RS
 70
     8
280
     0
  0
ATTDEF
  5
79
330
6E
100
AcDbEntity
  8
AM_6
100
AcDbText
 10
9.440000000000001
 20
-1.735
 30
0.0
 40
0.5
  1
2
100
AcDbAttributeDefinition
  3

  2
SS
 70
     8
280
     0
  0
ATTDEF
  5
7A
330
6E
100
AcDbEntity
  8
AM_6
100
AcDbText
 10
9.440000000000001
 20
-2.235
 30
0.0
 40
0.5
  1
123593
100
AcDbAttributeDefinition
  3

  2
PN
 70
     8
280
     0
  0
ATTDEF
  5
7B
330
6E
100
AcDbEntity
  8
AM_6
100
AcDbText
 10
9.440000000000001
 20
-2.735
 30
0.0
 40
0.5
  1
P2B-VSC-200L
100
AcDbAttributeDefinition
  3

  2
DESCRIPTION
 70
     8
280
     0
  0
ATTDEF
  5
7C
330
6E
100
AcDbEntity
  8
AM_6
100
AcDbText
 10
9.440000000000001
 20
-3.235
 30
0.0
 40
0.5
  1
RE-LUBE
100
AcDbAttributeDefinition
  3

  2
LF
 70
     8
280
     0
  0
ATTDEF
  5
7D
330
6E
100
AcDbEntity
  8
AM_6
100
AcDbText
 10
9.440000000000001
 20
-3.735
 30
0.0
 40
0.5
  1
9.0
100
AcDbAttributeDefinition
  3

  2
WEIGHT
 70
     8
280
     0
  0
ATTDEF
  5
7E
330
6E
100
AcDbEntity
  8
AM_6
100
AcDbText
 10
9.440000000000001
 20
-4.235
 30
0.0
 40
0.5
  1
2.22
100
AcDbAttributeDefinition
  3

  2
A
 70
     8
280
     0
  0
ATTDEF
  5
7F
330
6E
100
AcDbEntity
  8
AM_6
100
AcDbText
 10
9.440000000000001
 20
-4.735
 30
0.0
 40
0.5
  1
8.88
100
AcDbAttributeDefinition
  3

  2
B
 70
     8
280
     0
  0
ATTDEF
  5
80
330
6E
100
AcDbEntity
  8
AM_6
100
AcDbText
 10
9.440000000000001
 20
-5.235
 30
0.0
 40
0.5
  1
2.30
100
AcDbAttributeDefinition
  3

  2
C
 70
     8
280
     0
  0
ATTDEF
  5
81
330
6E
100
AcDbEntity
  8
AM_6
100
AcDbText
 10
9.440000000000001
 20
-5.735
 30
0.0
 40
0.5
  1
6.38
100
AcDbAttributeDefinition
  3

  2
DMIN
 70
     8
280
     0
  0
ATTDEF
  5
82
330
6E
100
AcDbEntity
  8
AM_6
100
AcDbText
 10
9.440000000000001
 20
-6.235
 30
0.0
 40
0.5
  1
7.44
100
AcDbAttributeDefinition
  3

  2
DMAX
 70
     8
280
     0
  0
ATTDEF
  5
83
330
6E
100
AcDbEntity
  8
AM_6
100
AcDbText
 10
9.440000000000001
 20
-6.735
 30
0.0
 40
0.5
  1
5/8
100
AcDbAttributeDefinition
  3

  2
F
 70
     8
280
     0
  0
ATTDEF
  5
84
330
6E
100
AcDbEntity
  8
AM_6
100
AcDbText
 10
9.440000000000001
 20
-7.235
 30
0.0
 40
0.5
  1
1.21
100
AcDbAttributeDefinition
  3

  2
G
 70
     8
280
     0
  0
ATTDEF
  5
85
330
6E
100
AcDbEntity
  8
AM_6
100
AcDbText
 10
9.440000000000001
 20
-7.735
 30
0.0
 40
0.5
  1
0.88
100
AcDbAttributeDefinition
  3

  2
H
 70
     8
280
     0
  0
ATTDEF
  5
86
330
6E
100
AcDbEntity
  8
AM_6
100
AcDbText
 10
9.440000000000001
 20
-8.235
 30
0.0
 40
0.5
  1
4.96
100
AcDbAttributeDefinition
  3

  2
J
 70
     8
280
     0
  0
ATTDEF
  5
87
330
6E
100
AcDbEntity
  8
AM_6
100
AcDbText
 10
9.440000000000001
 20
-8.735
 30
0.0
 40
0.5
  1
2.71
100
AcDbAttributeDefinition
  3

  2
L
 70
     8
280
     0
  0
ATTDEF
  5
88
330
6E
100
AcDbEntity
  8
AM_6
100
AcDbText
 10
9.440000000000001
 20
-9.235
 30
0.0
 40
0.5
  1
2.50
100
AcDbAttributeDefinition
  3

  2
M
 70
     8
280
     0
  0
ATTDEF
  5
89
330
6E
100
AcDbEntity
  8
AM_6
100
AcDbText
 10
9.440000000000001
 20
-9.735
 30
0.0
 40
0.5
  1
0.87
100
AcDbAttributeDefinition
  3

  2
R
 70
     8
280
     0
  0
ATTDEF
  5
8A
330
6E
100
AcDbEntity
  8
AM_6
100
AcDbText
 10
9.440000000000001
 20
-10.235
 30
0.0
 40
0.5
  1
1.35
100
AcDbAttributeDefinition
  3

  2
S
 70
     8
280
     0
  0
ATTDEF
  5
8B
330
6E
100
AcDbEntity
  8
AM_6
100
AcDbText
 10
9.440000000000001
 20
-10.735
 30
0.0
 40
0.5
  1
3.94
100
AcDbAttributeDefinition
  3

  2
U
 70
     8
280
     0
  0
ATTDEF
  5
8C
330
6E
100
AcDbEntity
  8
AM_6
100
AcDbText
 10
9.440000000000001
 20
-11.235
 30
0.0
 40
0.5
  1
7.88
100
AcDbAttributeDefinition
  3

  2
V
 70
     8
280
     0
  0
ATTDEF
  5
8D
330
6E
100
AcDbEntity
  8
AM_6
100
AcDbText
 10
9.440000000000001
 20
-11.735
 30
0.0
 40
0.5
  1
0.81
100
AcDbAttributeDefinition
  3

  2
W
 70
     8
280
     0
  0
ATTDEF
  5
8E
330
6E
100
AcDbEntity
  8
AM_6
100
AcDbText
 10
9.440000000000001
 20
-12.235
 30
0.0
 40
0.5
  1
0.12
100
AcDbAttributeDefinition
  3

  2
X
 70
     8
280
     0
  0
ATTDEF
  5
8F
330
6E
100
AcDbEntity
  8
AM_6
100
AcDbText
 10
9.440000000000001
 20
-12.735
 30
0.0
 40
0.5
  1
baldor
100
AcDbAttributeDefinition
  3

  2
COMPANY
 70
     8
280
     0
  0
INSERT
  5
91
330
6E
100
AcDbEntity
  8
0
100
AcDbBlockReference
  2
2_405020c_Inch_0_in_123593_4
 10
0.0
 20
0.0
 30
0.0
  0
INSERT
  5
DF
330
6E
100
AcDbEntity
  8
0
100
AcDbBlockReference
  2
3_389935_0_in_123593_4
 10
0.0
 20
0.0
 30
0.0
  0
INSERT
  5
139
330
6E
100
AcDbEntity
  8
0
100
AcDbBlockReference
  2
4_123593vsc_0_in_123593_4
 10
0.0
 20
0.0
 30
0.0
  0
ENDBLK
  5
71
330
6E
100
AcDbEntity
  8
0
100
AcDbBlockEnd
  0
BLOCK
  5
92
330
90
100
AcDbEntity
  8
0
100
AcDbBlockBegin
  2
2_405020c_Inch_0_in_123593_4
 70
     2
 10
0.0
 20
0.0
 30
0.0
  3
2_405020c_Inch_0_in_123593_4
  1

  0
ATTDEF
  5
94
330
90
100
AcDbEntity
  8
AM_6
100
AcDbText
 10
7.047873900422386
 20
0.1406500000000011
 30
0.0
 40
0.5
  1
405020C -Inch
100
AcDbAttributeDefinition
  3

  2
NN
 70
     8
280
     0
  0
ATTDEF
  5
95
330
90
100
AcDbEntity
  8
AM_6
100
AcDbText
 10
7.047873900422386
 20
-0.3593499999999989
 30
0.0
 40
0.5
  1
Grease fitting
100
AcDbAttributeDefinition
  3

  2
NT
 70
     8
280
     0
  0
ATTDEF
  5
96
330
90
100
AcDbEntity
  8
AM_6
100
AcDbText
 10
7.047873900422386
 20
-0.859349999999999
 30
0.0
 40
0.5
  1
405020c-Inch
100
AcDbAttributeDefinition
  3

  2
NB
 70
     8
280
     0
  0
ATTDEF
  5
97
330
90
100
AcDbEntity
  8
AM_6
100
AcDbText
 10
7.047873900422386
 20
-1.359349999999999
 30
0.0
 40
0.5
  1
$MN.-Inch
100
AcDbAttributeDefinition
  3

  2
NBSYN
 70
     8
280
     0
  0
ATTDEF
  5
98
330
90
100
AcDbEntity
  8
AM_6
100
AcDbText
 10
7.047873900422386
 20
-1.859349999999999
 30
0.0
 40
0.5
  1
405020c
100
AcDbAttributeDefinition
  3

  2
LINA
 70
     8
280
     0
  0
ATTDEF
  5
99
330
90
100
AcDbEntity
  8
AM_6
100
AcDbText
 10
7.047873900422386
 20
-2.359349999999999
 30
0.0
 40
0.5
  1
405020c
100
AcDbAttributeDefinition
  3

  2
MN
 70
     8
280
     0
  0
ATTDEF
  5
9A
330
90
100
AcDbEntity
  8
AM_6
100
AcDbText
 10
7.047873900422386
 20
-2.859349999999999
 30
0.0
 40
0.5
  1
0.230
100
AcDbAttributeDefinition
  3

  2
NDR
 70
     8
280
     0
  0
ATTDEF
  5
9B
330
90
100
AcDbEntity
  8
AM_6
100
AcDbText
 10
7.047873900422386
 20
-3.359349999999999
 30
0.0
 40
0.5
  1
0.210
100
AcDbAttributeDefinition
  3

  2
KDR
 70
     8
280
     0
  0
ATTDEF
  5
9C
330
90
100
AcDbEntity
  8
AM_6
100
AcDbText
 10
7.047873900422386
 20
-3.859349999999999
 30
0.0
 40
0.5
  1
0.157
100
AcDbAttributeDefinition
  3

  2
BZE
 70
     8
280
     0
  0
ATTDEF
  5
9D
330
90
100
AcDbEntity
  8
AM_6
100
AcDbText
 10
7.047873900422386
 20
-4.359349999999999
 30
0.0
 40
0.5
  1
9/32
100
AcDbAttributeDefinition
  3

  2
WAF
 70
     8
280
     0
  0
ATTDEF
  5
9E
330
90
100
AcDbEntity
  8
AM_6
100
AcDbText
 10
7.047873900422386
 20
-4.859349999999999
 30
0.0
 40
0.5
  1
0.2813
100
AcDbAttributeDefinition
  3

  2
WAF1
 70
     8
280
     0
  0
ATTDEF
  5
9F
330
90
100
AcDbEntity
  8
AM_6
100
AcDbText
 10
7.047873900422386
 20
-5.359349999999999
 30
0.0
 40
0.5
  1
0.545
100
AcDbAttributeDefinition
  3

  2
BL
 70
     8
280
     0
  0
ATTDEF
  5
A0
330
90
100
AcDbEntity
  8
AM_6
100
AcDbText
 10
7.047873900422386
 20
-5.859349999999999
 30
0.0
 40
0.5
  1
0.200
100
AcDbAttributeDefinition
  3

  2
TL
 70
     8
280
     0
  0
ATTDEF
  5
A1
330
90
100
AcDbEntity
  8
AM_6
100
AcDbText
 10
7.047873900422386
 20
-6.359349999999999
 30
0.0
 40
0.5
  1
baldor
100
AcDbAttributeDefinition
  3

  2
COMPANY
 70
     8
280
     0
  0
LWPOLYLINE
  5
A4
330
90
100
AcDbEntity
  8
AM_9
100
AcDbPolyline
 90
        3
 70
     0
 43
0.0
 10
1.858445505107036
 20
0.0000000000000001
 10
1.841130201853428
 20
-0.0350043999316989
 10
1.82561286479952
 20
-0.070325
  0
LWPOLYLINE
  5
A5
330
90
100
AcDbEntity
  8
AM_9
100
AcDbPolyline
 90
        3
 70
     0
 43
0.0
 10
1.82561286479952
 20
0.070325
 10
1.841056044587869
 20
0.0351625000000001
 10
1.858445505107036
 20
0.0000000000000001
  0
ELLIPSE
  5
A6
330
90
100
AcDbEntity
  8
AM_9
100
AcDbEllipse
 10
1.598061325481597
 20
0.0000000000000001
 30
0.0
 11
-1.838598171376523E-17
 21
-0.1000886227036577
 31
0.0
210
0.0
220
0.0
230
1.0
 40
0.7071067811865474
 41
0.0
 42
6.283185307179586
  0
LWPOLYLINE
  5
A7
330
90
100
AcDbEntity
  8
AM_9
100
AcDbPolyline
 90
        3
 70
     0
 43
0.0
 10
1.872753316878623
 20
-0.0703249999999999
 10
1.886020198117145
 20
-0.0351624999999999
 10
1.89734079862485
 20
0.0000000000000001
  0
LWPOLYLINE
  5
A8
330
90
100
AcDbEntity
  8
AM_9
100
AcDbPolyline
 90
        3
 70
     0
 43
0.0
 10
1.89734079862485
 20
0.0000000000000001
 10
1.886075129016799
 20
0.035004399931699
 10
1.872753316878623
 20
0.0703250000000001
  0
LWPOLYLINE
  5
A9
330
90
100
AcDbEntity
  8
AM_9
100
AcDbPolyline
 90
        3
 70
     0
 43
0.0
 10
1.801025383053293
 20
0.1406500000000001
 10
1.812291052661344
 20
0.1056456000683011
 10
1.82561286479952
 20
0.070325
  0
LINE
  5
AA
330
90
100
AcDbEntity
  8
AM_9
100
AcDbLine
 10
1.89734079862485
 20
0.0000000000000001
 30
0.0
 11
1.858445505107036
 21
0.0000000000000001
 31
0.0
  0
LWPOLYLINE
  5
AB
330
90
100
AcDbEntity
  8
AM_9
100
AcDbPolyline
 90
        3
 70
     0
 43
0.0
 10
1.82561286479952
 20
-0.070325
 10
1.812345983560998
 20
-0.1054874999999999
 10
1.801025383053293
 20
-0.1406499999999999
  0
LWPOLYLINE
  5
AC
330
90
100
AcDbEntity
  8
AM_9
100
AcDbPolyline
 90
        3
 70
     0
 43
0.0
 10
1.872753316878623
 20
0.0703250000000001
 10
1.857310137090274
 20
0.1054875000000001
 10
1.852687280824487
 20
0.1151895236091906
  0
LWPOLYLINE
  5
AD
330
90
100
AcDbEntity
  8
AM_9
100
AcDbPolyline
 90
        3
 70
     0
 43
0.0
 10
1.852686666155606
 20
-0.1151907939395562
 10
1.857235979824715
 20
-0.105645600068301
 10
1.872753316878623
 20
-0.0703249999999999
  0
LINE
  5
AE
330
90
100
AcDbEntity
  8
AM_9
100
AcDbLine
 10
1.602924067943882
 20
-0.1103623268442186
 30
0.0
 11
1.736909795675335
 21
-0.1162869051605621
 31
0.0
  0
LINE
  5
AF
330
90
100
AcDbEntity
  8
AM_9
100
AcDbLine
 10
1.736909795675334
 20
0.1162869051605623
 30
0.0
 11
1.602924067943882
 21
0.1103623268442188
 31
0.0
  0
ELLIPSE
  5
B0
330
90
100
AcDbEntity
  8
AM_9
100
AcDbEllipse
 10
1.786623133798003
 20
-0.0000000000000007
 30
0.0
 11
8.612328615003846E-18
 21
0.1406500000000014
 31
0.0
210
0.0
220
0.0
230
1.0
 40
0.7071067811865785
 41
3.798906696793653
 42
5.625871263975733
  0
ELLIPSE
  5
B1
330
90
100
AcDbEntity
  8
AM_9
100
AcDbEllipse
 10
1.808770106683541
 20
-0.000000000000001
 30
0.0
 11
6.694498085252859E-18
 21
0.1093294505797725
 31
0.0
210
0.0
220
0.0
230
1.0
 40
0.7071067811865474
 41
5.371737371100714
 42
5.928986666165875
  0
ELLIPSE
  5
B2
330
90
100
AcDbEntity
  8
AM_9
100
AcDbEllipse
 10
1.80877010668354
 20
0.0
 30
0.0
 11
6.694498085252781E-18
 21
0.1093294505797713
 31
0.0
210
0.0
220
0.0
230
1.0
 40
0.7071067811865597
 41
3.495791294603521
 42
3.967813964109136
  0
ELLIPSE
  5
B3
330
90
100
AcDbEntity
  8
AM_9
100
AcDbEllipse
 10
1.808770106683553
 20
-0.0000000000000173
 30
0.0
 11
6.694498085250574E-18
 21
0.1093294505797352
 31
0.0
210
0.0
220
0.0
230
1.0
 40
0.7071067811866325
 41
4.093584557017181
 42
5.139913414792953
  0
LWPOLYLINE
  5
B4
330
90
100
AcDbEntity
  8
AM_9
100
AcDbPolyline
 90
       12
 70
     0
 43
0.0
 10
1.828096000386055
 20
0.093970749983785
 10
1.832747292308212
 20
0.0946613854503881
 10
1.83841785659461
 20
0.0942043769633863
 10
1.843392617250383
 20
0.0926577241624706
 10
1.848464702367451
 20
0.090037359544616
 10
1.853694777092985
 20
0.0862461875041668
 10
1.859517917325052
 20
0.080646077764645
 10
1.865140495111468
 20
0.0736475455405519
 10
1.870404028792193
 20
0.0652949345694908
 10
1.875139851036003
 20
0.0556803717584774
 10
1.879179036978682
 20
0.0449636530841255
 10
1.879878755542638
 20
0.04274249755079
  0
LWPOLYLINE
  5
B5
330
90
100
AcDbEntity
  8
AM_9
100
AcDbPolyline
 90
        3
 70
     0
 43
0.0
 10
1.816139594723462
 20
0.0880472922810982
 10
1.817905695103343
 20
0.0892862454085847
 10
1.818702500364693
 20
0.0898038427400327
  0
LWPOLYLINE
  5
B6
330
90
100
AcDbEntity
  8
AM_9
100
AcDbPolyline
 90
        3
 70
     0
 43
0.0
 10
1.820627487547359
 20
-0.0909489638767606
 10
1.819908775999848
 20
-0.0905388195065008
 10
1.816319902606741
 20
-0.0881796120915811
  0
LWPOLYLINE
  5
B7
330
90
100
AcDbEntity
  8
AM_9
100
AcDbPolyline
 90
       12
 70
     0
 43
0.0
 10
1.879609483374646
 20
-0.0436138252892032
 10
1.876288601543757
 20
-0.0529299363468815
 10
1.87174452903144
 20
-0.062812963444566
 10
1.866665277546269
 20
-0.0714308603647693
 10
1.861254381254159
 20
-0.0786663730786692
 10
1.855736328601721
 20
-0.0844558874766371
 10
1.850318048579111
 20
-0.0888217837525073
 10
1.845150532600875
 20
-0.0918668516910506
 10
1.840263584077062
 20
-0.0937519263067385
 10
1.835440289718829
 20
-0.0946224166719236
 10
1.829948595841381
 20
-0.0943593753144966
 10
1.826060577847365
 20
-0.0933749680064057
  0
ELLIPSE
  5
B8
330
90
100
AcDbEntity
  8
AM_9
100
AcDbEllipse
 10
1.848711918620048
 20
0.0000000000000002
 30
0.0
 11
6.084620899749634E-18
 21
0.09936940028726624
 31
0.0
210
0.0
220
0.0
230
1.0
 40
0.7071067811865498
 41
2.656480407116015
 42
6.768297553653367
  0
ELLIPSE
  5
B9
330
90
100
AcDbEntity
  8
AM_9
100
AcDbEllipse
 10
1.897043247323986
 20
-0.0000000000014602
 30
0.0
 11
8.036249332146677E-18
 21
0.1312419113452438
 31
0.0
210
0.0
220
0.0
230
1.0
 40
0.7071067811864339
 41
2.655278868744071
 42
6.768297553643121
  0
ELLIPSE
  5
BA
330
90
100
AcDbEntity
  8
AM_9
100
AcDbEllipse
 10
1.925799490789801
 20
0.0000000000000001
 30
0.0
 11
8.079715312105972E-18
 21
0.1319517646676803
 31
0.0
210
0.0
220
0.0
230
1.0
 40
0.707106781186544
 41
3.587796129490433
 42
5.844803532225574
  0
ELLIPSE
  5
BB
330
90
100
AcDbEntity
  8
AM_9
100
AcDbEllipse
 10
1.972664067462932
 20
0.0000000000001456
 30
0.0
 11
6.357083428141114E-18
 21
0.1038190510532043
 31
0.0
210
0.0
220
0.0
230
1.0
 40
0.7071067811865225
 41
3.595225079813687
 42
3.674341234168419
  0
ELLIPSE
  5
BC
330
90
100
AcDbEntity
  8
AM_9
100
AcDbEllipse
 10
1.972664067462987
 20
0.0000000000000002
 30
0.0
 11
6.357083428131022E-18
 21
0.1038190510530395
 31
0.0
210
0.0
220
0.0
230
1.0
 40
0.7071067811865479
 41
3.695780238239593
 42
5.844803532225575
  0
ELLIPSE
  5
BD
330
90
100
AcDbEntity
  8
AM_9
100
AcDbEllipse
 10
1.739482681718906
 20
0.0000000000000001
 30
0.0
 11
7.124004163867291E-18
 21
0.1163438171532772
 31
0.0
210
0.0
220
0.0
230
1.0
 40
0.7071067811865468
 41
0.0
 42
6.283185307179586
  0
ELLIPSE
  5
BE
330
90
100
AcDbEntity
  8
AM_9
100
AcDbEllipse
 10
1.605364067560382
 20
0.0000000000000002
 30
0.0
 11
6.761045944280089E-18
 21
0.1104162595939889
 31
0.0
210
0.0
220
0.0
230
1.0
 40
0.7071067811865464
 41
0.0
 42
6.283185307179586
  0
ELLIPSE
  5
BF
330
90
100
AcDbEntity
  8
AM_9
100
AcDbEllipse
 10
1.739482681718907
 20
0.0000000000000007
 30
0.0
 11
8.612328615003789E-18
 21
0.1406500000000004
 31
0.0
210
0.0
220
0.0
230
1.0
 40
0.7071067811865469
 41
0.0
 42
6.283185307179586
  0
LINE
  5
C1
330
90
100
AcDbEntity
  8
AM_4
100
AcDbLine
 10
1.852687280824487
 20
0.1151895236091906
 30
0.0
 11
1.839920676571107
 21
0.1406500000000001
 31
0.0
  0
LINE
  5
C2
330
90
100
AcDbEntity
  8
AM_4
100
AcDbLine
 10
1.839920676571107
 20
-0.1406499999999999
 30
0.0
 11
1.852686666155606
 21
-0.1151907939395562
 31
0.0
  0
LINE
  5
C3
330
90
100
AcDbEntity
  8
AM_4
100
AcDbLine
 10
1.839920676571107
 20
0.1406500000000001
 30
0.0
 11
1.686185138945809
 21
0.1406500000000001
 31
0.0
  0
LWPOLYLINE
  5
C4
330
90
100
AcDbEntity
  8
AM_4
100
AcDbPolyline
 90
        3
 70
     0
 43
0.0
 10
1.653352498638293
 20
0.0703250000000001
 10
1.668795678426642
 20
0.1054875000000001
 10
1.686185138945809
 20
0.1406500000000001
  0
LWPOLYLINE
  5
C5
330
90
100
AcDbEntity
  8
AM_4
100
AcDbPolyline
 90
        3
 70
     0
 43
0.0
 10
1.628765016892066
 20
0.0000000000000001
 10
1.640030686500118
 20
0.035004399931699
 10
1.653352498638293
 20
0.0703250000000001
  0
LWPOLYLINE
  5
C6
330
90
100
AcDbEntity
  8
AM_4
100
AcDbPolyline
 90
        3
 70
     0
 43
0.0
 10
1.725080432463623
 20
0.1406500000000001
 10
1.713814762855572
 20
0.1056456000683012
 10
1.700492950717396
 20
0.0703250000000001
  0
LWPOLYLINE
  5
C7
330
90
100
AcDbEntity
  8
AM_4
100
AcDbPolyline
 90
        3
 70
     0
 43
0.0
 10
1.700492950717396
 20
0.0703250000000001
 10
1.685049770929047
 20
0.0351625000000001
 10
1.66766031040988
 20
0.0000000000000001
  0
LINE
  5
C8
330
90
100
AcDbEntity
  8
AM_4
100
AcDbLine
 10
1.66766031040988
 20
0.0000000000000001
 30
0.0
 11
1.628765016892066
 21
0.0000000000000001
 31
0.0
  0
LWPOLYLINE
  5
C9
330
90
100
AcDbEntity
  8
AM_4
100
AcDbPolyline
 90
        3
 70
     0
 43
0.0
 10
1.653352498638293
 20
-0.0703249999999999
 10
1.640085617399771
 20
-0.0351624999999999
 10
1.628765016892066
 20
0.0000000000000001
  0
LWPOLYLINE
  5
CA
330
90
100
AcDbEntity
  8
AM_4
100
AcDbPolyline
 90
        3
 70
     0
 43
0.0
 10
1.686185138945809
 20
-0.1406499999999999
 10
1.668869835692201
 20
-0.105645600068301
 10
1.653352498638293
 20
-0.0703249999999999
  0
LINE
  5
CB
330
90
100
AcDbEntity
  8
AM_4
100
AcDbLine
 10
1.839920676571107
 20
-0.1406499999999999
 30
0.0
 11
1.686185138945809
 21
-0.1406499999999999
 31
0.0
  0
LWPOLYLINE
  5
CC
330
90
100
AcDbEntity
  8
AM_4
100
AcDbPolyline
 90
        3
 70
     0
 43
0.0
 10
1.700492950717396
 20
-0.0703249999999999
 10
1.713759831955918
 20
-0.1054874999999999
 10
1.725080432463623
 20
-0.1406499999999999
  0
LWPOLYLINE
  5
CD
330
90
100
AcDbEntity
  8
AM_4
100
AcDbPolyline
 90
        3
 70
     0
 43
0.0
 10
1.66766031040988
 20
0.0000000000000001
 10
1.684975613663488
 20
-0.0350043999316988
 10
1.700492950717396
 20
-0.0703249999999999
  0
ELLIPSE
  5
CE
330
90
100
AcDbEntity
  8
AM_4
100
AcDbEllipse
 10
1.786623133798009
 20
0.0000000000000001
 30
0.0
 11
8.612328615003744E-18
 21
0.1406499999999997
 31
0.0
210
0.0
220
0.0
230
1.0
 40
0.7071067811865411
 41
5.625871263975747
 42
10.08209200397322
  0
ELLIPSE
  5
CF
330
90
100
AcDbEntity
  8
AM_4
100
AcDbEllipse
 10
1.808770106683542
 20
-0.0000000000000001
 30
0.0
 11
6.694498085252791E-18
 21
0.1093294505797714
 31
0.0
210
0.0
220
0.0
230
1.0
 40
0.7071067811865486
 41
5.928986666165877
 42
9.778976601783087
  0
ELLIPSE
  5
D0
330
90
100
AcDbEntity
  8
AM_4
100
AcDbEllipse
 10
1.848711918620048
 20
0.0000000000000003
 30
0.0
 11
6.084620899749635E-18
 21
0.09936940028726625
 31
0.0
210
0.0
220
0.0
230
1.0
 40
0.7071067811865475
 41
0.4851122464737792
 42
2.656480407116018
  0
LINE
  5
D1
330
90
100
AcDbEntity
  8
AM_4
100
AcDbLine
 10
1.815946915106387
 20
-0.0879044185632922
 30
0.0
 11
1.853768942820428
 21
-0.1160995625890069
 31
0.0
  0
LINE
  5
D2
330
90
100
AcDbEntity
  8
AM_4
100
AcDbLine
 10
1.853768942820428
 20
0.1160995625890072
 30
0.0
 11
1.815946915106386
 21
0.0879044185632924
 31
0.0
  0
ELLIPSE
  5
D3
330
90
100
AcDbEntity
  8
AM_4
100
AcDbEllipse
 10
1.897043247324522
 20
0.0000000000000002
 30
0.0
 11
8.036249332247498E-18
 21
0.1312419113468903
 31
0.0
210
0.0
220
0.0
230
1.0
 40
0.7071067811865432
 41
0.4987696701713773
 42
2.655278868744225
  0
LWPOLYLINE
  5
D4
330
90
100
AcDbEntity
  8
AM_4
100
AcDbPolyline
 90
       11
 70
     0
 43
0.0
 10
1.853639920195228
 20
-0.1160032301612008
 10
1.854273356491213
 20
-0.1164733033158069
 10
1.866272797064287
 20
-0.1241166058186466
 10
1.878868487991723
 20
-0.129877372140398
 10
1.891821117207593
 20
-0.1337196158128255
 10
1.904911047637113
 20
-0.1356570744077637
 10
1.917943595195917
 20
-0.1357354130098575
 10
1.930750000821714
 20
-0.1340175939193388
 10
1.943163109041248
 20
-0.1305806234433786
 10
1.955063622942463
 20
-0.1254997492618909
 10
1.966217982702076
 20
-0.1189296999636301
  0
LWPOLYLINE
  5
D5
330
90
100
AcDbEntity
  8
AM_4
100
AcDbPolyline
 90
       11
 70
     0
 43
0.0
 10
1.960999580329826
 20
0.1222394108073281
 10
1.955323298722841
 20
0.1253677517028367
 10
1.942641187858966
 20
0.1307620323317911
 10
1.929645983413241
 20
0.1342371474987314
 10
1.916552770925247
 20
0.1358142535551145
 10
1.903551258881767
 20
0.1355433499523866
 10
1.89080909599272
 20
0.13349020555536
 10
1.878485579099571
 20
0.1297329227235542
 10
1.866695257815326
 20
0.1243451617172049
 10
1.855539313392778
 20
0.1173914211304941
 10
1.852376142445035
 20
0.1150436308114966
  0
LINE
  5
D6
330
90
100
AcDbEntity
  8
AM_4
100
AcDbLine
 10
2.003825253996121
 20
0.0940018950300905
 30
0.0
 11
1.963493718641161
 21
0.1207116460677681
 31
0.0
  0
ELLIPSE
  5
D7
330
90
100
AcDbEntity
  8
AM_4
100
AcDbEllipse
 10
1.897043247323797
 20
0.0000000000019116
 30
0.0
 11
8.036249332114692E-18
 21
0.1312419113447215
 31
0.0
210
0.0
220
0.0
230
1.0
 40
0.707106781186433
 41
0.485112246473717
 42
0.4987696701715473
  0
ELLIPSE
  5
D8
330
90
100
AcDbEntity
  8
AM_4
100
AcDbEllipse
 10
1.983434521228265
 20
0.0000000000000001
 30
0.0
 11
-1.484390032546748E-17
 21
-0.08080642971672804
 31
0.0
210
0.0
220
0.0
230
1.0
 40
0.7071067811865461
 41
0.0
 42
6.283185307179586
  0
LWPOLYLINE
  5
D9
330
90
100
AcDbEntity
  8
AM_4
100
AcDbPolyline
 90
       19
 70
     0
 43
0.0
 10
2.00498666147194
 20
-0.0932165908265836
 10
2.005543190449578
 20
-0.092829294083984
 10
2.014477850881959
 20
-0.085541624536077
 10
2.022625974064133
 20
-0.0767749607932044
 10
2.029845300506802
 20
-0.0666432325415593
 10
2.035993162319496
 20
-0.0553119762205029
 10
2.040946232536665
 20
-0.0429910483727497
 10
2.044612674322387
 20
-0.0299148744108872
 10
2.046932457407183
 20
-0.0163281239438657
 10
2.047873900422387
 20
-0.0024598664777026
 10
2.047422209916228
 20
0.0114658009534097
 10
2.04557585820083
 20
0.0252269645810683
 10
2.042345353742835
 20
0.0386025689289903
 10
2.037751731806146
 20
0.051375438927655
 10
2.031829131893152
 20
0.0633246481585093
 10
2.024637758632035
 20
0.0742142382653929
 10
2.016280883257532
 20
0.0837982381034664
 10
2.006918265478475
 20
0.0918410656874471
 10
2.003677524437861
 20
0.0940995932062341
  0
ELLIPSE
  5
DA
330
90
100
AcDbEntity
  8
AM_4
100
AcDbEllipse
 10
1.972664067466486
 20
0.0000000000009352
 30
0.0
 11
6.357083428194607E-18
 21
0.1038190510540779
 31
0.0
210
0.0
220
0.0
230
1.0
 40
0.7071067811706785
 41
3.579974428505448
 42
3.59522507977566
  0
ELLIPSE
  5
DB
330
90
100
AcDbEntity
  8
AM_4
100
AcDbEllipse
 10
1.925799490789801
 20
0.0000000000000002
 30
0.0
 11
8.079715312105952E-18
 21
0.1319517646676799
 31
0.0
210
0.0
220
0.0
230
1.0
 40
0.7071067811865491
 41
5.844803532225582
 42
9.863159735723384
  0
ELLIPSE
  5
DC
330
90
100
AcDbEntity
  8
AM_4
100
AcDbEllipse
 10
1.972664067462988
 20
0.0000000000000001
 30
0.0
 11
6.357083428131004E-18
 21
0.1038190510530392
 31
0.0
210
0.0
220
0.0
230
1.0
 40
0.7071067811865499
 41
5.844803532225588
 42
9.863159735723377
  0
LINE
  5
DD
330
90
100
AcDbEntity
  8
AM_4
100
AcDbLine
 10
1.965404683772012
 20
-0.1194743720493999
 30
0.0
 11
2.003825253996121
 21
-0.0940018950300903
 31
0.0
  0
ENDBLK
  5
93
330
90
100
AcDbEntity
  8
0
100
AcDbBlockEnd
  0
BLOCK
  5
E0
330
DE
100
AcDbEntity
  8
0
100
AcDbBlockBegin
  2
3_389935_0_in_123593_4
 70
     2
 10
0.0
 20
0.0
 30
0.0
  3
3_389935_0_in_123593_4
  1

  0
ATTDEF
  5
E2
330
DE
100
AcDbEntity
  8
AM_6
100
AcDbText
 10
6.968059542428333
 20
0.87
 30
0.0
 40
0.5
  1
Set Screw Intermediate Duty Insert Inch Bore
100
AcDbAttributeDefinition
  3

  2
NN
 70
     8
280
     0
  0
ATTDEF
  5
E3
330
DE
100
AcDbEntity
  8
AM_6
100
AcDbText
 10
6.968059542428333
 20
0.37
 30
0.0
 40
0.5
  1
VSC Intermediate Duty Bearing Inserts
100
AcDbAttributeDefinition
  3

  2
NT
 70
     8
280
     0
  0
ATTDEF
  5
E4
330
DE
100
AcDbEntity
  8
AM_6
100
AcDbText
 10
6.968059542428333
 20
-0.13
 30
0.0
 40
0.5
  1
389935
100
AcDbAttributeDefinition
  3

  2
NB
 70
     8
280
     0
  0
ATTDEF
  5
E5
330
DE
100
AcDbEntity
  8
AM_6
100
AcDbText
 10
6.968059542428333
 20
-0.63
 30
0.0
 40
0.5
  1
$PN.
100
AcDbAttributeDefinition
  3

  2
NBSYN
 70
     8
280
     0
  0
ATTDEF
  5
E6
330
DE
100
AcDbEntity
  8
AM_6
100
AcDbText
 10
6.968059542428333
 20
-1.13
 30
0.0
 40
0.5
  1
389935
100
AcDbAttributeDefinition
  3

  2
LINA
 70
     8
280
     0
  0
ATTDEF
  5
E7
330
DE
100
AcDbEntity
  8
AM_6
100
AcDbText
 10
6.968059542428333
 20
-1.63
 30
0.0
 40
0.5
  1
211
100
AcDbAttributeDefinition
  3

  2
SERIES
 70
     8
280
     0
  0
ATTDEF
  5
E8
330
DE
100
AcDbEntity
  8
AM_6
100
AcDbText
 10
6.968059542428333
 20
-2.13
 30
0.0
 40
0.5
  1
2
100
AcDbAttributeDefinition
  3

  2
SS
 70
     8
280
     0
  0
ATTDEF
  5
E9
330
DE
100
AcDbEntity
  8
AM_6
100
AcDbText
 10
6.968059542428333
 20
-2.63
 30
0.0
 40
0.5
  1
389935
100
AcDbAttributeDefinition
  3

  2
PN
 70
     8
280
     0
  0
ATTDEF
  5
EA
330
DE
100
AcDbEntity
  8
AM_6
100
AcDbText
 10
6.968059542428333
 20
-3.13
 30
0.0
 40
0.5
  1
INS-VSC-200L
100
AcDbAttributeDefinition
  3

  2
DESCRIPTION
 70
     8
280
     0
  0
ATTDEF
  5
EB
330
DE
100
AcDbEntity
  8
AM_6
100
AcDbText
 10
6.968059542428333
 20
-3.63
 30
0.0
 40
0.5
  1
2.24
100
AcDbAttributeDefinition
  3

  2
WEIGHT
 70
     8
280
     0
  0
ATTDEF
  5
EC
330
DE
100
AcDbEntity
  8
AM_6
100
AcDbText
 10
6.968059542428333
 20
-4.13
 30
0.0
 40
0.5
  1
2.22
100
AcDbAttributeDefinition
  3

  2
A
 70
     8
280
     0
  0
ATTDEF
  5
ED
330
DE
100
AcDbEntity
  8
AM_6
100
AcDbText
 10
6.968059542428333
 20
-4.63
 30
0.0
 40
0.5
  1
0.94
100
AcDbAttributeDefinition
  3

  2
C
 70
     8
280
     0
  0
ATTDEF
  5
EE
330
DE
100
AcDbEntity
  8
AM_6
100
AcDbText
 10
6.968059542428333
 20
-5.13
 30
0.0
 40
0.5
  1
3.9370
100
AcDbAttributeDefinition
  3

  2
D
 70
     8
280
     0
  0
ATTDEF
  5
EF
330
DE
100
AcDbEntity
  8
AM_6
100
AcDbText
 10
6.968059542428333
 20
-5.63
 30
0.0
 40
0.5
  1
0.250
100
AcDbAttributeDefinition
  3

  2
J
 70
     8
280
     0
  0
ATTDEF
  5
F0
330
DE
100
AcDbEntity
  8
AM_6
100
AcDbText
 10
6.968059542428333
 20
-6.13
 30
0.0
 40
0.5
  1
2.71
100
AcDbAttributeDefinition
  3

  2
L
 70
     8
280
     0
  0
ATTDEF
  5
F1
330
DE
100
AcDbEntity
  8
AM_6
100
AcDbText
 10
6.968059542428333
 20
-6.63
 30
0.0
 40
0.5
  1
3/8-24
100
AcDbAttributeDefinition
  3

  2
N
 70
     8
280
     0
  0
ATTDEF
  5
F2
330
DE
100
AcDbEntity
  8
AM_6
100
AcDbText
 10
6.968059542428333
 20
-7.13
 30
0.0
 40
0.5
  1
0.87
100
AcDbAttributeDefinition
  3

  2
W
 70
     8
280
     0
  0
ATTDEF
  5
F3
330
DE
100
AcDbEntity
  8
AM_6
100
AcDbText
 10
6.968059542428333
 20
-7.63
 30
0.0
 40
0.5
  1
1.35
100
AcDbAttributeDefinition
  3

  2
Y
 70
     8
280
     0
  0
ATTDEF
  5
F4
330
DE
100
AcDbEntity
  8
AM_6
100
AcDbText
 10
6.968059542428333
 20
-8.129999999999999
 30
0.0
 40
0.5
  1
baldor
100
AcDbAttributeDefinition
  3

  2
COMPANY
 70
     8
280
     0
  0
LINE
  5
F5
330
DE
100
AcDbEntity
  8
AM_9
100
AcDbLine
 10
-2.0685
 20
0.2895454545454537
 30
0.0
 11
-2.0685
 21
0.2104545454545463
 31
0.0
  0
ARC
  5
F6
330
DE
100
AcDbEntity
  8
AM_9
100
AcDbCircle
 10
-1.983045454545455
 20
0.2104545454545454
 30
0.0
 40
0.0854545454545452
100
AcDbArc
 50
180.0
 51
270.0
  0
ARC
  5
F7
330
DE
100
AcDbEntity
  8
AM_9
100
AcDbCircle
 10
-1.983045454545455
 20
0.2895454545454548
 30
0.0
 40
0.0854545454545452
100
AcDbArc
 50
90.0
 51
180.0
  0
LINE
  5
F8
330
DE
100
AcDbEntity
  8
AM_9
100
AcDbLine
 10
-1.983045454545454
 20
0.3749999999999999
 30
0.0
 11
-1.983045454545454
 21
0.125
 31
0.0
  0
LINE
  5
F9
330
DE
100
AcDbEntity
  8
AM_9
100
AcDbLine
 10
-1.983045454545454
 20
0.125
 30
0.0
 11
-1.96447455623254
 21
0.125
 31
0.0
  0
LINE
  5
FA
330
DE
100
AcDbEntity
  8
AM_9
100
AcDbLine
 10
-1.932490302211718
 20
0.3749999999999999
 30
0.0
 11
-1.983045454545454
 21
0.3749999999999999
 31
0.0
  0
LINE
  5
FB
330
DE
100
AcDbEntity
  8
AM_9
100
AcDbLine
 10
0.9062254606848154
 20
-1.13995
 30
0.0
 11
1.207609810836984
 21
-1.13995
 31
0.0
  0
LINE
  5
FC
330
DE
100
AcDbEntity
  8
AM_9
100
AcDbLine
 10
1.207609810836984
 20
-0.8100500000000002
 30
0.0
 11
0.9062878834983065
 21
-0.8100500000000002
 31
0.0
  0
LWPOLYLINE
  5
FD
330
DE
100
AcDbEntity
  8
AM_9
100
AcDbPolyline
 90
       21
 70
     0
 43
0.0
 10
0.9063021295419829
 20
-1.139949999456804
 10
0.9137788174959802
 20
-1.138962040011972
 10
0.9242451129324032
 20
-1.133813045925902
 10
0.9338855130732157
 20
-1.124074494138954
 10
0.9420464213000936
 20
-1.110492762326361
 10
0.9490671152731963
 20
-1.092725187521032
 10
0.9545963079721672
 20
-1.07196737112191
 10
0.9588785986709321
 20
-1.047802626712242
 10
0.9617101306110967
 20
-1.022223461229676
 10
0.9632901021675682
 20
-0.9944924240971104
 10
0.9635553810580133
 20
-0.9673105569796657
 10
0.9625528913229822
 20
-0.9395602047656747
 10
0.9603408499887518
 20
-0.9137408970711839
 10
0.9567588034824985
 20
-0.8889310237329818
 10
0.9519196280577037
 20
-0.8669717899211279
 10
0.9455446629345039
 20
-0.8474632015292489
 10
0.9379055037030847
 20
-0.8318679617872435
 10
0.9286658913598205
 20
-0.8199575941129114
 10
0.9185215930524568
 20
-0.8127745366886413
 10
0.9070438729456755
 20
-0.810059230326073
 10
0.9063118531285629
 20
-0.810050000280598
  0
LWPOLYLINE
  5
FE
330
DE
100
AcDbEntity
  8
AM_9
100
AcDbPolyline
 90
       11
 70
     0
 43
0.0
 10
0.9063118531285629
 20
-0.810050000280598
 10
0.8953270306201285
 20
-0.8120012478356565
 10
0.8829229859242266
 20
-0.8185903808720878
 10
0.8709555462488108
 20
-0.8292537426574192
 10
0.8591894053104873
 20
-0.8442862225880478
 10
0.8486204569613766
 20
-0.8626756688852042
 10
0.8392576569930861
 20
-0.8848024420750776
 10
0.832004831176258
 20
-0.9090000683729859
 10
0.826877678253959
 20
-0.9358531645306528
 10
0.8248707785284889
 20
-0.9551367082420676
 10
0.8241822374279459
 20
-0.9750000000000001
  0
ELLIPSE
  5
FF
330
DE
100
AcDbEntity
  8
AM_9
100
AcDbEllipse
 10
1.207609810836984
 20
-0.9750000000000004
 30
0.0
 11
-3.030082342790331E-17
 21
-0.1649499999999996
 31
0.0
210
0.0
220
0.0
230
1.0
 40
0.4226182617407018
 41
3.518052230310449
 42
5.889495769660785
  0
LINE
  5
100
330
DE
100
AcDbEntity
  8
AM_9
100
AcDbLine
 10
1.175103092575817
 20
-1.120918500062369
 30
0.0
 11
1.189148379461475
 21
-1.138436997987122
 31
0.0
  0
LINE
  5
101
330
DE
100
AcDbEntity
  8
AM_9
100
AcDbLine
 10
1.18890576029697
 20
-0.8118656176421988
 30
0.0
 11
1.175103092575817
 21
-0.8290814999376308
 31
0.0
  0
LWPOLYLINE
  5
102
330
DE
100
AcDbEntity
  8
AM_9
100
AcDbPolyline
 90
       11
 70
     0
 43
0.0
 10
0.8241822374279459
 20
-0.9750000000000001
 10
0.8254657525755811
 20
-1.002088501332361
 10
0.82939711158291
 20
-1.029177002664723
 10
0.8355548428183536
 20
-1.053982486056475
 10
0.843977844327316
 20
-1.077239794102886
 10
0.8539057667289528
 20
-1.097203740388344
 10
0.8653838052853206
 20
-1.114241457389439
 10
0.8773681735717617
 20
-1.12699815659119
 10
0.8900028791497459
 20
-1.135722726686377
 10
0.9020002497283887
 20
-1.139641507568749
 10
0.9063021295419829
 20
-1.139949999456804
  0
LINE
  5
103
330
DE
100
AcDbEntity
  8
AM_9
100
AcDbLine
 10
1.0
 20
-1.2958
 30
0.0
 11
1.0
 21
0.8564499999999998
 31
0.0
  0
LINE
  5
104
330
DE
100
AcDbEntity
  8
AM_9
100
AcDbLine
 10
-1.0
 20
0.8564499999999998
 30
0.0
 11
-1.0
 21
-1.2958
 31
0.0
  0
LINE
  5
105
330
DE
100
AcDbEntity
  8
AM_9
100
AcDbLine
 10
1.0
 20
0.8564499999999998
 30
0.0
 11
1.01355
 21
0.87
 31
0.0
  0
LINE
  5
106
330
DE
100
AcDbEntity
  8
AM_9
100
AcDbLine
 10
-1.01355
 20
0.87
 30
0.0
 11
-1.0
 21
0.8564499999999998
 31
0.0
  0
LINE
  5
107
330
DE
100
AcDbEntity
  8
AM_9
100
AcDbLine
 10
-1.0
 20
-1.2958
 30
0.0
 11
-1.0542
 21
-1.35
 31
0.0
  0
LINE
  5
108
330
DE
100
AcDbEntity
  8
AM_9
100
AcDbLine
 10
1.0542
 20
-1.35
 30
0.0
 11
1.0
 21
-1.2958
 31
0.0
  0
LINE
  5
109
330
DE
100
AcDbEntity
  8
AM_9
100
AcDbLine
 10
1.355
 20
-0.7204518724393448
 30
0.0
 11
1.355
 21
-0.4699999999999999
 31
0.0
  0
LINE
  5
10A
330
DE
100
AcDbEntity
  8
AM_9
100
AcDbLine
 10
-1.355
 20
-0.4699999999999999
 30
0.0
 11
-1.355
 21
-0.7204518724393448
 31
0.0
  0
LINE
  5
10B
330
DE
100
AcDbEntity
  8
AM_9
100
AcDbLine
 10
1.355
 20
0.47
 30
0.0
 11
1.355
 21
0.7204518724393448
 31
0.0
  0
LINE
  5
10C
330
DE
100
AcDbEntity
  8
AM_9
100
AcDbLine
 10
-1.355
 20
0.7204518724393448
 30
0.0
 11
-1.355
 21
0.47
 31
0.0
  0
LINE
  5
10D
330
DE
100
AcDbEntity
  8
AM_9
100
AcDbLine
 10
1.885166666666667
 20
-0.3000000000000001
 30
0.0
 11
1.885166666666667
 21
-0.2
 31
0.0
  0
LINE
  5
10E
330
DE
100
AcDbEntity
  8
AM_9
100
AcDbLine
 10
-1.885166666666667
 20
-0.2
 30
0.0
 11
-1.885166666666667
 21
-0.3000000000000001
 31
0.0
  0
LINE
  5
10F
330
DE
100
AcDbEntity
  8
AM_9
100
AcDbLine
 10
-1.87196213904021
 20
0.47
 30
0.0
 11
1.87196213903914
 21
0.47
 31
0.0
  0
ARC
  5
110
330
DE
100
AcDbEntity
  8
AM_9
100
AcDbCircle
 10
1.87196213904021
 20
0.4199999999999994
 30
0.0
 40
0.0500000000000004
100
AcDbArc
 50
12.64566792865978
 51
90.0
  0
ARC
  5
111
330
DE
100
AcDbEntity
  8
AM_9
100
AcDbCircle
 10
-1.87196213904021
 20
0.4199999999999994
 30
0.0
 40
0.0500000000000005
100
AcDbArc
 50
90.0
 51
167.3543320713402
  0
LINE
  5
112
330
DE
100
AcDbEntity
  8
AM_9
100
AcDbLine
 10
-1.87196213904021
 20
-0.4699999999999999
 30
0.0
 11
1.87196213903914
 21
-0.4699999999999999
 31
0.0
  0
ARC
  5
113
330
DE
100
AcDbEntity
  8
AM_9
100
AcDbCircle
 10
1.87196213904021
 20
-0.4199999999999999
 30
0.0
 40
0.0500000000000001
100
AcDbArc
 50
270.0
 51
347.3543320713407
  0
ARC
  5
114
330
DE
100
AcDbEntity
  8
AM_9
100
AcDbCircle
 10
-1.87196213904021
 20
-0.4199999999999999
 30
0.0
 40
0.0500000000000001
100
AcDbArc
 50
192.6456679286593
 51
270.0
  0
LINE
  5
115
330
DE
100
AcDbEntity
  8
AM_9
100
AcDbLine
 10
-1.920749268022233
 20
-0.4309460516028147
 30
0.0
 11
1.920749268022035
 21
-0.4309460516028147
 31
0.0
  0
LINE
  5
116
330
DE
100
AcDbEntity
  8
AM_9
100
AcDbLine
 10
-1.945505654065287
 20
-0.2999999999999999
 30
0.0
 11
1.945505654065089
 21
-0.2999999999999999
 31
0.0
  0
ARC
  5
117
330
DE
100
AcDbEntity
  8
AM_9
100
AcDbCircle
 10
-0.0000000003330491
 20
0.0000000000629289
 30
0.0
 40
1.968500000338554
100
AcDbArc
 50
347.3543320716745
 51
351.233946551791
  0
ARC
  5
118
330
DE
100
AcDbEntity
  8
AM_9
100
AcDbCircle
 10
0.0000000003330103
 20
0.0000000000629222
 30
0.0
 40
1.968500000338514
100
AcDbArc
 50
188.7660534482089
 51
192.6456679283256
  0
LINE
  5
119
330
DE
100
AcDbEntity
  8
AM_9
100
AcDbLine
 10
-1.958313624014294
 20
-0.1999999999999998
 30
0.0
 11
1.95831362401428
 21
-0.1999999999999998
 31
0.0
  0
LINE
  5
11A
330
DE
100
AcDbEntity
  8
AM_9
100
AcDbLine
 10
-1.920749268022233
 20
0.4309460516028147
 30
0.0
 11
1.920749268022219
 21
0.4309460516028146
 31
0.0
  0
ARC
  5
11B
330
DE
100
AcDbEntity
  8
AM_9
100
AcDbCircle
 10
0.0000000000114191
 20
0.0000000000006806
 30
0.0
 40
1.968499999988695
100
AcDbArc
 50
354.1686752533045
 51
12.64566792871278
  0
ARC
  5
11C
330
DE
100
AcDbEntity
  8
AM_9
100
AcDbCircle
 10
0.0000000000669003
 20
-0.000000000013495
 30
0.0
 40
1.968500000068218
100
AcDbArc
 50
167.3543320713837
 51
169.0269788444886
  0
ARC
  5
11D
330
DE
100
AcDbEntity
  8
AM_9
100
AcDbCircle
 10
-0.0000000000016616
 20
-0.0000000000001168
 30
0.0
 40
1.968499999998321
100
AcDbArc
 50
176.3471955552939
 51
185.8313247466433
  0
LINE
  5
11E
330
DE
100
AcDbEntity
  8
AM_9
100
AcDbLine
 10
-1.932451098994069
 20
0.3749999999930116
 30
0.0
 11
-1.964527233203927
 21
0.1250000000000266
 31
0.0
  0
LINE
  5
121
330
DE
100
AcDbEntity
  8
AM_7
100
AcDbLine
 10
-0.1731975
 20
-0.975
 30
0.0
 11
0.1731975
 21
-0.975
 31
0.0
  0
LINE
  5
122
330
DE
100
AcDbEntity
  8
AM_7
100
AcDbLine
 10
-2.104175
 20
0.25
 30
0.0
 11
-1.319325
 21
0.25
 31
0.0
  0
ELLIPSE
  5
123
330
DE
100
AcDbEntity
  8
AM_4
100
AcDbEllipse
 10
1.207609810836984
 20
-0.9750000000000001
 30
0.0
 11
-3.030082342790337E-17
 21
-0.1649499999999999
 31
0.0
210
0.0
220
0.0
230
1.0
 40
0.4226182617406994
 41
5.889495769660784
 42
9.801237537490039
  0
LWPOLYLINE
  5
124
330
DE
100
AcDbEntity
  8
AM_4
100
AcDbPolyline
 90
       15
 70
     0
 43
0.0
 10
1.189151519887494
 20
-1.138440914996165
 10
1.189104908287963
 20
-1.138382737348943
 10
1.177847671152172
 20
-1.12185362258813
 10
1.167707093448475
 20
-1.101903791804017
 10
1.158552328056517
 20
-1.077609424481321
 10
1.151332739057424
 20
-1.05080368779874
 10
1.146105656627616
 20
-1.020460161813843
 10
1.143516510606511
 20
-0.9889212445269634
 10
1.143759954044508
 20
-0.955932071284969
 10
1.146916664242262
 20
-0.9234750545551462
 10
1.15295268768528
 20
-0.8922880517450589
 10
1.161563663589691
 20
-0.8635091660304433
 10
1.172180191870249
 20
-0.8386087351667904
 10
1.184489108458831
 20
-0.8177757954264533
 10
1.189133506620971
 20
-0.8115815587654702
  0
LWPOLYLINE
  5
125
330
DE
100
AcDbEntity
  8
AM_4
100
AcDbPolyline
 90
        9
 70
     0
 43
0.0
 10
1.189133506620971
 20
-0.8115815587654702
 10
1.197266787132109
 20
-0.8025982783701395
 10
1.210600240921377
 20
-0.7924246582131862
 10
1.223087869719477
 20
-0.7879321844023095
 10
1.235189368062639
 20
-0.7883931319046956
 10
1.246098182547132
 20
-0.7935640790923337
 10
1.256062239914536
 20
-0.8030971459992271
 10
1.262542247576108
 20
-0.8125119591389023
 10
1.268396877512762
 20
-0.8238580428904511
  0
LWPOLYLINE
  5
126
330
DE
100
AcDbEntity
  8
AM_4
100
AcDbPolyline
 90
       19
 70
     0
 43
0.0
 10
1.268396877512762
 20
-0.8238580428904511
 10
1.275346257421025
 20
-0.8421974358019797
 10
1.281067370400109
 20
-0.86330826340052
 10
1.286057473424227
 20
-0.8899030549765615
 10
1.289525915141454
 20
-0.9186373326905961
 10
1.291558952137441
 20
-0.9502987267060382
 10
1.291985755408416
 20
-0.9826239103620253
 10
1.290752272249859
 20
-1.01553060411455
 10
1.287819241683841
 20
-1.047288602157157
 10
1.283141987336347
 20
-1.076881931242763
 10
1.276685941591488
 20
-1.10347650635961
 10
1.268686051805973
 20
-1.125462874198244
 10
1.25901984567672
 20
-1.142967792616353
 10
1.248489678137133
 20
-1.154603299703845
 10
1.236786497516795
 20
-1.161152756889304
 10
1.224991198753719
 20
-1.162322904313522
 10
1.212765248235041
 20
-1.158704971773966
 10
1.200766987336685
 20
-1.150612886054212
 10
1.189151519887494
 20
-1.138440914996165
  0
LINE
  5
127
330
DE
100
AcDbEntity
  8
AM_4
100
AcDbLine
 10
1.355
 20
-1.2958
 30
0.0
 11
1.355
 21
-0.7204518724393448
 31
0.0
  0
LINE
  5
128
330
DE
100
AcDbEntity
  8
AM_4
100
AcDbLine
 10
-1.355
 20
-0.7204518724393448
 30
0.0
 11
-1.355
 21
-1.2958
 31
0.0
  0
LINE
  5
129
330
DE
100
AcDbEntity
  8
AM_4
100
AcDbLine
 10
1.355
 20
0.7204518724393448
 30
0.0
 11
1.355
 21
0.85645
 31
0.0
  0
LINE
  5
12A
330
DE
100
AcDbEntity
  8
AM_4
100
AcDbLine
 10
-1.355
 20
0.85645
 30
0.0
 11
-1.355
 21
0.7204518724393448
 31
0.0
  0
LWPOLYLINE
  5
12B
330
DE
100
AcDbEntity
  8
AM_4
100
AcDbPolyline
 90
       39
 70
     0
 43
0.0
 10
-0.1277226104911701
 20
-0.8460922713567913
 10
-0.108642040524016
 20
-0.8275676937707963
 10
-0.0864961106118245
 20
-0.8117640369082026
 10
-0.059805024343355
 20
-0.7986872417780723
 10
-0.0302599005834632
 20
-0.790300295426692
 10
-0.0023653814289806
 20
-0.7875169854241567
 10
0.0264566516425467
 20
-0.7896368539483807
 10
0.0528644240068566
 20
-0.7961821975534679
 10
0.0785285565446545
 20
-0.8072482354004634
 10
0.1019483213755292
 20
-0.8222345264573858
 10
0.1232275026002678
 20
-0.8412197701560222
 10
0.1417974237398672
 20
-0.864026282494023
 10
0.1569123534517156
 20
-0.8901511075210646
 10
0.1680500461451654
 20
-0.9193056046841862
 10
0.1745309356331886
 20
-0.9507124413215345
 10
0.175853689405592
 20
-0.9831030594805197
 10
0.1717079447328812
 20
-1.016177766066314
 10
0.1622837008235548
 20
-1.047511596577799
 10
0.1472330121663114
 20
-1.077637649857581
 10
0.1281311628611112
 20
-1.103446924866897
 10
0.1040230439429928
 20
-1.126168422068478
 10
0.0783962312062404
 20
-1.142822117085323
 10
0.0492376432213848
 20
-1.154992006307455
 10
0.0213147187423435
 20
-1.161115797845278
 10
-0.0081677232062406
 20
-1.162297377172351
 10
-0.0352498323886879
 20
-1.158689795156672
 10
-0.0620967653989348
 20
-1.150409257213472
 10
-0.0866651633263499
 20
-1.13813401596996
 10
-0.1095362699496227
 20
-1.121679015152518
 10
-0.1299583545759584
 20
-1.101347273257551
 10
-0.1473526635749677
 20
-1.077442877652923
 10
-0.161234467219607
 20
-1.05011486164404
 10
-0.1708280542905512
 20
-1.020128802097995
 10
-0.1755695333980721
 20
-0.9883642821578058
 10
-0.1750462891674479
 20
-0.9553503652156239
 10
-0.1691382117212063
 20
-0.923167072425705
 10
-0.1575749695871352
 20
-0.891553394059578
 10
-0.144450131089978
 20
-0.8679745711908115
 10
-0.1277226105057424
 20
-0.8460922713474491
  0
CIRCLE
  5
12C
330
DE
100
AcDbEntity
  8
AM_4
100
AcDbCircle
 10
0.0
 20
-0.975
 30
0.0
 40
0.16495
  0
LINE
  5
12D
330
DE
100
AcDbEntity
  8
AM_4
100
AcDbLine
 10
-1.3008
 20
-1.35
 30
0.0
 11
1.3008
 21
-1.35
 31
0.0
  0
LINE
  5
12E
330
DE
100
AcDbEntity
  8
AM_4
100
AcDbLine
 10
-1.355
 20
-1.2958
 30
0.0
 11
1.355
 21
-1.2958
 31
0.0
  0
LINE
  5
12F
330
DE
100
AcDbEntity
  8
AM_4
100
AcDbLine
 10
1.3008
 20
-1.35
 30
0.0
 11
1.355
 21
-1.2958
 31
0.0
  0
LINE
  5
130
330
DE
100
AcDbEntity
  8
AM_4
100
AcDbLine
 10
-1.355
 20
-1.2958
 30
0.0
 11
-1.3008
 21
-1.35
 31
0.0
  0
LINE
  5
131
330
DE
100
AcDbEntity
  8
AM_4
100
AcDbLine
 10
-1.355
 20
0.85645
 30
0.0
 11
1.355
 21
0.85645
 31
0.0
  0
LINE
  5
132
330
DE
100
AcDbEntity
  8
AM_4
100
AcDbLine
 10
-1.34145
 20
0.87
 30
0.0
 11
1.34145
 21
0.87
 31
0.0
  0
LINE
  5
133
330
DE
100
AcDbEntity
  8
AM_4
100
AcDbLine
 10
-1.34145
 20
0.87
 30
0.0
 11
-1.355
 21
0.85645
 31
0.0
  0
LINE
  5
134
330
DE
100
AcDbEntity
  8
AM_4
100
AcDbLine
 10
1.355
 20
0.85645
 30
0.0
 11
1.34145
 21
0.87
 31
0.0
  0
ARC
  5
136
330
DE
100
AcDbEntity
  8
AM_5
100
AcDbCircle
 10
0.0000000000000001
 20
-0.975
 30
0.0
 40
0.1875000000000001
100
AcDbArc
 50
165.0000000000001
 51
105.0
  0
ARC
  5
137
330
DE
100
AcDbEntity
  8
AM_5
100
AcDbCircle
 10
0.0
 20
-0.9749999999999999
 30
0.0
 40
0.1874999999999999
100
AcDbArc
 50
105.0
 51
14.99999999999997
  0
ENDBLK
  5
E1
330
DE
100
AcDbEntity
  8
0
100
AcDbBlockEnd
  0
BLOCK
  5
13A
330
138
100
AcDbEntity
  8
0
100
AcDbBlockBegin
  2
4_123593vsc_0_in_123593_4
 70
     2
 10
0.0
 20
0.0
 30
0.0
  3
4_123593vsc_0_in_123593_4
  1

  0
ATTDEF
  5
13C
330
138
100
AcDbEntity
  8
AM_6
100
AcDbText
 10
9.440000000000001
 20
1.265
 30
0.0
 40
0.5
  1
P2B-VSC -Inch - Body
100
AcDbAttributeDefinition
  3

  2
NN
 70
     8
280
     0
  0
ATTDEF
  5
13D
330
138
100
AcDbEntity
  8
AM_6
100
AcDbText
 10
9.440000000000001
 20
0.7649999999999999
 30
0.0
 40
0.5
  1
VSC Intermediate Duty Pillow Blocks
100
AcDbAttributeDefinition
  3

  2
NT
 70
     8
280
     0
  0
ATTDEF
  5
13E
330
138
100
AcDbEntity
  8
AM_6
100
AcDbText
 10
9.440000000000001
 20
0.2649999999999999
 30
0.0
 40
0.5
  1
123593vsc
100
AcDbAttributeDefinition
  3

  2
NB
 70
     8
280
     0
  0
ATTDEF
  5
13F
330
138
100
AcDbEntity
  8
AM_6
100
AcDbText
 10
9.440000000000001
 20
-0.2350000000000001
 30
0.0
 40
0.5
  1
$PN.
100
AcDbAttributeDefinition
  3

  2
NBSYN
 70
     8
280
     0
  0
ATTDEF
  5
140
330
138
100
AcDbEntity
  8
AM_6
100
AcDbText
 10
9.440000000000001
 20
-0.7350000000000001
 30
0.0
 40
0.5
  1
123593vsc
100
AcDbAttributeDefinition
  3

  2
LINA
 70
     8
280
     0
  0
ATTDEF
  5
141
330
138
100
AcDbEntity
  8
AM_6
100
AcDbText
 10
9.440000000000001
 20
-1.235
 30
0.0
 40
0.5
  1
211
100
AcDbAttributeDefinition
  3

  2
RS
 70
     8
280
     0
  0
ATTDEF
  5
142
330
138
100
AcDbEntity
  8
AM_6
100
AcDbText
 10
9.440000000000001
 20
-1.735
 30
0.0
 40
0.5
  1
2
100
AcDbAttributeDefinition
  3

  2
SS
 70
     8
280
     0
  0
ATTDEF
  5
143
330
138
100
AcDbEntity
  8
AM_6
100
AcDbText
 10
9.440000000000001
 20
-2.235
 30
0.0
 40
0.5
  1
123593vsc
100
AcDbAttributeDefinition
  3

  2
PN
 70
     8
280
     0
  0
ATTDEF
  5
144
330
138
100
AcDbEntity
  8
AM_6
100
AcDbText
 10
9.440000000000001
 20
-2.735
 30
0.0
 40
0.5
  1
P2B-VSC-200L
100
AcDbAttributeDefinition
  3

  2
DESCRIPTION
 70
     8
280
     0
  0
ATTDEF
  5
145
330
138
100
AcDbEntity
  8
AM_6
100
AcDbText
 10
9.440000000000001
 20
-3.235
 30
0.0
 40
0.5
  1
RE-LUBE
100
AcDbAttributeDefinition
  3

  2
LF
 70
     8
280
     0
  0
ATTDEF
  5
146
330
138
100
AcDbEntity
  8
AM_6
100
AcDbText
 10
9.440000000000001
 20
-3.735
 30
0.0
 40
0.5
  1
2.22
100
AcDbAttributeDefinition
  3

  2
A
 70
     8
280
     0
  0
ATTDEF
  5
147
330
138
100
AcDbEntity
  8
AM_6
100
AcDbText
 10
9.440000000000001
 20
-4.235
 30
0.0
 40
0.5
  1
8.88
100
AcDbAttributeDefinition
  3

  2
B
 70
     8
280
     0
  0
ATTDEF
  5
148
330
138
100
AcDbEntity
  8
AM_6
100
AcDbText
 10
9.440000000000001
 20
-4.735
 30
0.0
 40
0.5
  1
2.30
100
AcDbAttributeDefinition
  3

  2
C
 70
     8
280
     0
  0
ATTDEF
  5
149
330
138
100
AcDbEntity
  8
AM_6
100
AcDbText
 10
9.440000000000001
 20
-5.235
 30
0.0
 40
0.5
  1
6.38
100
AcDbAttributeDefinition
  3

  2
DMIN
 70
     8
280
     0
  0
ATTDEF
  5
14A
330
138
100
AcDbEntity
  8
AM_6
100
AcDbText
 10
9.440000000000001
 20
-5.735
 30
0.0
 40
0.5
  1
7.44
100
AcDbAttributeDefinition
  3

  2
DMAX
 70
     8
280
     0
  0
ATTDEF
  5
14B
330
138
100
AcDbEntity
  8
AM_6
100
AcDbText
 10
9.440000000000001
 20
-6.235
 30
0.0
 40
0.5
  1
5/8
100
AcDbAttributeDefinition
  3

  2
F
 70
     8
280
     0
  0
ATTDEF
  5
14C
330
138
100
AcDbEntity
  8
AM_6
100
AcDbText
 10
9.440000000000001
 20
-6.735
 30
0.0
 40
0.5
  1
1.21
100
AcDbAttributeDefinition
  3

  2
G
 70
     8
280
     0
  0
ATTDEF
  5
14D
330
138
100
AcDbEntity
  8
AM_6
100
AcDbText
 10
9.440000000000001
 20
-7.235
 30
0.0
 40
0.5
  1
0.88
100
AcDbAttributeDefinition
  3

  2
H
 70
     8
280
     0
  0
ATTDEF
  5
14E
330
138
100
AcDbEntity
  8
AM_6
100
AcDbText
 10
9.440000000000001
 20
-7.735
 30
0.0
 40
0.5
  1
4.96
100
AcDbAttributeDefinition
  3

  2
J
 70
     8
280
     0
  0
ATTDEF
  5
14F
330
138
100
AcDbEntity
  8
AM_6
100
AcDbText
 10
9.440000000000001
 20
-8.235
 30
0.0
 40
0.5
  1
2.71
100
AcDbAttributeDefinition
  3

  2
L
 70
     8
280
     0
  0
ATTDEF
  5
150
330
138
100
AcDbEntity
  8
AM_6
100
AcDbText
 10
9.440000000000001
 20
-8.735
 30
0.0
 40
0.5
  1
2.50
100
AcDbAttributeDefinition
  3

  2
M
 70
     8
280
     0
  0
ATTDEF
  5
151
330
138
100
AcDbEntity
  8
AM_6
100
AcDbText
 10
9.440000000000001
 20
-9.235
 30
0.0
 40
0.5
  1
0.87
100
AcDbAttributeDefinition
  3

  2
R
 70
     8
280
     0
  0
ATTDEF
  5
152
330
138
100
AcDbEntity
  8
AM_6
100
AcDbText
 10
9.440000000000001
 20
-9.735
 30
0.0
 40
0.5
  1
1.35
100
AcDbAttributeDefinition
  3

  2
S
 70
     8
280
     0
  0
ATTDEF
  5
153
330
138
100
AcDbEntity
  8
AM_6
100
AcDbText
 10
9.440000000000001
 20
-10.235
 30
0.0
 40
0.5
  1
3.94
100
AcDbAttributeDefinition
  3

  2
U
 70
     8
280
     0
  0
ATTDEF
  5
154
330
138
100
AcDbEntity
  8
AM_6
100
AcDbText
 10
9.440000000000001
 20
-10.735
 30
0.0
 40
0.5
  1
7.88
100
AcDbAttributeDefinition
  3

  2
V
 70
     8
280
     0
  0
ATTDEF
  5
155
330
138
100
AcDbEntity
  8
AM_6
100
AcDbText
 10
9.440000000000001
 20
-11.235
 30
0.0
 40
0.5
  1
0.81
100
AcDbAttributeDefinition
  3

  2
W
 70
     8
280
     0
  0
ATTDEF
  5
156
330
138
100
AcDbEntity
  8
AM_6
100
AcDbText
 10
9.440000000000001
 20
-11.735
 30
0.0
 40
0.5
  1
0.12
100
AcDbAttributeDefinition
  3

  2
X
 70
     8
280
     0
  0
ATTDEF
  5
157
330
138
100
AcDbEntity
  8
AM_6
100
AcDbText
 10
9.440000000000001
 20
-12.235
 30
0.0
 40
0.5
  1
baldor
100
AcDbAttributeDefinition
  3

  2
COMPANY
 70
     8
280
     0
  0
LINE
  5
158
330
138
100
AcDbEntity
  8
AM_9
100
AcDbLine
 10
-2.0685
 20
0.2895454545454537
 30
0.0
 11
-2.0685
 21
1.02952380952381
 31
0.0
  0
LINE
  5
159
330
138
100
AcDbEntity
  8
AM_9
100
AcDbLine
 10
-2.0685
 20
-1.029523809523809
 30
0.0
 11
-2.0685
 21
0.2104545454545464
 31
0.0
  0
LINE
  5
15A
330
138
100
AcDbEntity
  8
AM_9
100
AcDbLine
 10
-1.9805
 20
-0.9221357725914282
 30
0.0
 11
-1.9805
 21
0.922135772591428
 31
0.0
  0
LINE
  5
15B
330
138
100
AcDbEntity
  8
AM_9
100
AcDbLine
 10
2.0685
 20
-1.02952380952381
 30
0.0
 11
2.0685
 21
1.029523809523808
 31
0.0
  0
LINE
  5
15C
330
138
100
AcDbEntity
  8
AM_9
100
AcDbLine
 10
1.980499999999999
 20
-0.9221357725914284
 30
0.0
 11
1.980499999999999
 21
0.922135772591428
 31
0.0
  0
LINE
  5
15D
330
138
100
AcDbEntity
  8
AM_9
100
AcDbLine
 10
1.355
 20
-0.9200000000000003
 30
0.0
 11
-1.355
 21
-0.92
 31
0.0
  0
LINE
  5
15E
330
138
100
AcDbEntity
  8
AM_9
100
AcDbLine
 10
1.9685
 20
-0.920398221776207
 30
0.0
 11
1.9685
 21
0.9204097151318368
 31
0.0
  0
LINE
  5
15F
330
138
100
AcDbEntity
  8
AM_9
100
AcDbLine
 10
-1.9685
 20
0.9203982217762088
 30
0.0
 11
-1.9685
 21
-0.9204097151318368
 31
0.0
  0
LINE
  5
160
330
138
100
AcDbEntity
  8
AM_7
100
AcDbLine
 10
3.877
 20
-0.8100000000000003
 30
0.0
 11
4.003
 21
-0.8100000000000003
 31
0.0
  0
LINE
  5
161
330
138
100
AcDbEntity
  8
AM_7
100
AcDbLine
 10
3.94
 20
-0.8730000000000002
 30
0.0
 11
3.94
 21
-0.7470000000000003
 31
0.0
  0
LINE
  5
162
330
138
100
AcDbEntity
  8
AM_7
100
AcDbLine
 10
-4.003
 20
-0.8100000000000003
 30
0.0
 11
-3.877
 21
-0.8100000000000003
 31
0.0
  0
LINE
  5
163
330
138
100
AcDbEntity
  8
AM_7
100
AcDbLine
 10
-3.94
 20
-0.8730000000000002
 30
0.0
 11
-3.94
 21
-0.7470000000000003
 31
0.0
  0
LINE
  5
164
330
138
100
AcDbEntity
  8
AM_7
100
AcDbLine
 10
0.0
 20
1.265
 30
0.0
 11
0.0
 21
-1.461
 31
0.0
  0
LINE
  5
165
330
138
100
AcDbEntity
  8
AM_7
100
AcDbLine
 10
-4.077000000000001
 20
0.0000000000000005
 30
0.0
 11
-2.832999999999999
 21
0.0000000000000005
 31
0.0
  0
LINE
  5
166
330
138
100
AcDbEntity
  8
AM_7
100
AcDbLine
 10
-3.720000000000001
 20
-0.3569999999999994
 30
0.0
 11
-3.720000000000001
 21
0.3570000000000003
 31
0.0
  0
LINE
  5
167
330
138
100
AcDbEntity
  8
AM_7
100
AcDbLine
 10
2.832999999999999
 20
-0.0000000000000002
 30
0.0
 11
4.077000000000002
 21
-0.0000000000000001
 31
0.0
  0
LINE
  5
168
330
138
100
AcDbEntity
  8
AM_7
100
AcDbLine
 10
3.720000000000001
 20
-0.3570000000000004
 30
0.0
 11
3.720000000000001
 21
0.3570000000000002
 31
0.0
  0
LINE
  5
169
330
138
100
AcDbEntity
  8
AM_7
100
AcDbLine
 10
3.19
 20
-0.3570000000000005
 30
0.0
 11
3.19
 21
0.3570000000000002
 31
0.0
  0
LINE
  5
16A
330
138
100
AcDbEntity
  8
AM_7
100
AcDbLine
 10
-3.19
 20
-0.3569999999999998
 30
0.0
 11
-3.19
 21
0.3570000000000008
 31
0.0
  0
LINE
  5
16B
330
138
100
AcDbEntity
  8
AM_4
100
AcDbLine
 10
-4.21
 20
1.15
 30
0.0
 11
-4.44
 21
0.9199999999999996
 31
0.0
  0
LINE
  5
16C
330
138
100
AcDbEntity
  8
AM_4
100
AcDbLine
 10
-4.44
 20
-0.9199999999999992
 30
0.0
 11
-4.210000000000001
 21
-1.149999999999999
 31
0.0
  0
LINE
  5
16D
330
138
100
AcDbEntity
  8
AM_4
100
AcDbLine
 10
-4.44
 20
-0.9199999999999992
 30
0.0
 11
-4.44
 21
0.9199999999999997
 31
0.0
  0
LINE
  5
16E
330
138
100
AcDbEntity
  8
AM_4
100
AcDbLine
 10
4.210000000000001
 20
-1.15
 30
0.0
 11
4.44
 21
-0.9200000000000003
 31
0.0
  0
LINE
  5
16F
330
138
100
AcDbEntity
  8
AM_4
100
AcDbLine
 10
4.44
 20
0.9199999999999997
 30
0.0
 11
4.210000000000001
 21
1.15
 31
0.0
  0
LINE
  5
170
330
138
100
AcDbEntity
  8
AM_4
100
AcDbLine
 10
4.44
 20
-0.9200000000000003
 30
0.0
 11
4.44
 21
0.9199999999999996
 31
0.0
  0
LINE
  5
171
330
138
100
AcDbEntity
  8
AM_4
100
AcDbLine
 10
3.720000000000001
 20
0.3399999999999999
 30
0.0
 11
3.19
 21
0.3399999999999998
 31
0.0
  0
ARC
  5
172
330
138
100
AcDbEntity
  8
AM_4
100
AcDbCircle
 10
3.720000000000001
 20
-0.0000000000000001
 30
0.0
 40
0.3399999999999998
100
AcDbArc
 50
270.0
 51
90.0
  0
LINE
  5
173
330
138
100
AcDbEntity
  8
AM_4
100
AcDbLine
 10
3.19
 20
-0.3400000000000001
 30
0.0
 11
3.72
 21
-0.3399999999999999
 31
0.0
  0
ARC
  5
174
330
138
100
AcDbEntity
  8
AM_4
100
AcDbCircle
 10
3.19
 20
-0.0000000000000001
 30
0.0
 40
0.3399999999999999
100
AcDbArc
 50
90.0
 51
270.0
  0
LINE
  5
175
330
138
100
AcDbEntity
  8
AM_4
100
AcDbLine
 10
4.264000000000001
 20
-1.096
 30
0.0
 11
4.264000000000001
 21
1.095999999999999
 31
0.0
  0
LINE
  5
176
330
138
100
AcDbEntity
  8
AM_4
100
AcDbLine
 10
4.210000000000001
 20
1.15
 30
0.0
 11
2.178023809523809
 21
1.15
 31
0.0
  0
LINE
  5
177
330
138
100
AcDbEntity
  8
AM_4
100
AcDbLine
 10
4.210000000000001
 20
-1.15
 30
0.0
 11
2.17802380952381
 21
-1.15
 31
0.0
  0
CIRCLE
  5
178
330
138
100
AcDbEntity
  8
AM_4
100
AcDbCircle
 10
3.94
 20
-0.8100000000000003
 30
0.0
 40
0.06
  0
LINE
  5
179
330
138
100
AcDbEntity
  8
AM_4
100
AcDbLine
 10
-2.178023809523809
 20
-1.15
 30
0.0
 11
-4.210000000000001
 21
-1.149999999999999
 31
0.0
  0
LINE
  5
17A
330
138
100
AcDbEntity
  8
AM_4
100
AcDbLine
 10
-3.19
 20
0.3400000000000004
 30
0.0
 11
-3.720000000000001
 21
0.3400000000000002
 31
0.0
  0
ARC
  5
17B
330
138
100
AcDbEntity
  8
AM_4
100
AcDbCircle
 10
-3.19
 20
0.0000000000000005
 30
0.0
 40
0.34
100
AcDbArc
 50
270.0
 51
90.0
  0
LINE
  5
17C
330
138
100
AcDbEntity
  8
AM_4
100
AcDbLine
 10
-3.720000000000001
 20
-0.3399999999999994
 30
0.0
 11
-3.19
 21
-0.3399999999999995
 31
0.0
  0
ARC
  5
17D
330
138
100
AcDbEntity
  8
AM_4
100
AcDbCircle
 10
-3.720000000000001
 20
0.0000000000000005
 30
0.0
 40
0.3399999999999997
100
AcDbArc
 50
90.0
 51
270.0
  0
LINE
  5
17E
330
138
100
AcDbEntity
  8
AM_4
100
AcDbLine
 10
-2.17802380952381
 20
1.15
 30
0.0
 11
-4.21
 21
1.15
 31
0.0
  0
LINE
  5
17F
330
138
100
AcDbEntity
  8
AM_4
100
AcDbLine
 10
-4.264
 20
-1.096
 30
0.0
 11
-4.264
 21
1.095999999999999
 31
0.0
  0
CIRCLE
  5
180
330
138
100
AcDbEntity
  8
AM_4
100
AcDbCircle
 10
-3.94
 20
-0.8100000000000003
 30
0.0
 40
0.06
  0
LINE
  5
181
330
138
100
AcDbEntity
  8
AM_4
100
AcDbLine
 10
-3.567690194698176
 20
0.6249999999999998
 30
0.0
 11
-3.19
 21
0.6250000000000003
 31
0.0
  0
LINE
  5
182
330
138
100
AcDbEntity
  8
AM_4
100
AcDbLine
 10
-3.567690194698176
 20
0.6249999999999998
 30
0.0
 11
-3.567690194698176
 21
1.15
 31
0.0
  0
LINE
  5
183
330
138
100
AcDbEntity
  8
AM_4
100
AcDbLine
 10
-3.19
 20
-0.6249999999999994
 30
0.0
 11
-3.567690194698176
 21
-0.6249999999999997
 31
0.0
  0
LINE
  5
184
330
138
100
AcDbEntity
  8
AM_4
100
AcDbLine
 10
-3.567690194698176
 20
-1.15
 30
0.0
 11
-3.567690194698176
 21
-0.6249999999999997
 31
0.0
  0
LINE
  5
185
330
138
100
AcDbEntity
  8
AM_4
100
AcDbLine
 10
3.567690194698176
 20
-0.6250000000000001
 30
0.0
 11
3.19
 21
-0.625
 31
0.0
  0
LINE
  5
186
330
138
100
AcDbEntity
  8
AM_4
100
AcDbLine
 10
3.567690194698176
 20
-1.15
 30
0.0
 11
3.567690194698176
 21
-0.6250000000000001
 31
0.0
  0
LINE
  5
187
330
138
100
AcDbEntity
  8
AM_4
100
AcDbLine
 10
3.19
 20
0.625
 30
0.0
 11
3.567690194698176
 21
0.6249999999999999
 31
0.0
  0
LINE
  5
188
330
138
100
AcDbEntity
  8
AM_4
100
AcDbLine
 10
3.567690194698176
 20
0.6249999999999999
 30
0.0
 11
3.567690194698176
 21
1.15
 31
0.0
  0
LINE
  5
189
330
138
100
AcDbEntity
  8
AM_4
100
AcDbLine
 10
3.407841994192065
 20
-1.135575894355249
 30
0.0
 11
3.407841994192065
 21
-0.6250000000000001
 31
0.0
  0
LWPOLYLINE
  5
18A
330
138
100
AcDbEntity
  8
AM_4
100
AcDbPolyline
 90
       37
 70
     0
 43
0.0
 10
3.19
 20
0.625
 10
3.135527660782714
 20
0.6226216863073409
 10
3.081469888958169
 20
0.6155048456326302
 10
3.028238096810925
 20
0.6037036414306678
 10
2.976237410421458
 20
0.5873078879911928
 10
2.925863586412063
 20
0.5664423668979065
 10
2.877500000000001
 20
0.5412658773652745
 10
2.831514727280596
 20
0.5119700276806203
 10
2.788257743945913
 20
0.4787777769493617
 10
2.748058261758409
 20
0.4419417382415928
 10
2.711222223050639
 20
0.4017422560540877
 10
2.678029972319381
 20
0.3584852727194044
 10
2.648734122634726
 20
0.3125000000000008
 10
2.623557633102094
 20
0.264136413587938
 10
2.602692112008807
 20
0.2137625895785439
 10
2.586296358569333
 20
0.1617619031890765
 10
2.57449515436737
 20
0.1085301110418326
 10
2.567378313692659
 20
0.0544723392172876
 10
2.565
 20
0.0000000000000013
 10
2.567378313692659
 20
-0.054472339217285
 10
2.57449515436737
 20
-0.1085301110418301
 10
2.586296358569332
 20
-0.1617619031890741
 10
2.602692112008807
 20
-0.2137625895785415
 10
2.623557633102093
 20
-0.2641364135879358
 10
2.648734122634725
 20
-0.3124999999999986
 10
2.67802997231938
 20
-0.3584852727194024
 10
2.711222223050638
 20
-0.4017422560540857
 10
2.748058261758407
 20
-0.4419417382415909
 10
2.788257743945912
 20
-0.4787777769493601
 10
2.831514727280595
 20
-0.5119700276806187
 10
2.877499999999999
 20
-0.5412658773652731
 10
2.925863586412061
 20
-0.5664423668979053
 10
2.976237410421455
 20
-0.587307887991192
 10
3.028238096810923
 20
-0.6037036414306672
 10
3.081469888958166
 20
-0.6155048456326297
 10
3.135527660782712
 20
-0.6226216863073408
 10
3.189999999999998
 20
-0.625
  0
LINE
  5
18B
330
138
100
AcDbEntity
  8
AM_4
100
AcDbLine
 10
3.407841994192065
 20
0.625
 30
0.0
 11
3.407841994192065
 21
1.135575894355249
 31
0.0
  0
LINE
  5
18C
330
138
100
AcDbEntity
  8
AM_4
100
AcDbLine
 10
-3.407841994192064
 20
-1.135575894355249
 30
0.0
 11
-3.407841994192064
 21
-0.6249999999999997
 31
0.0
  0
LINE
  5
18D
330
138
100
AcDbEntity
  8
AM_4
100
AcDbLine
 10
-3.407841994192064
 20
0.6250000000000003
 30
0.0
 11
-3.407841994192064
 21
1.135575894355249
 31
0.0
  0
LWPOLYLINE
  5
18E
330
138
100
AcDbEntity
  8
AM_4
100
AcDbPolyline
 90
       37
 70
     0
 43
0.0
 10
-3.19
 20
-0.6249999999999994
 10
-3.135527660782714
 20
-0.6226216863073404
 10
-3.081469888958169
 20
-0.6155048456326296
 10
-3.028238096810925
 20
-0.6037036414306673
 10
-2.976237410421457
 20
-0.5873078879911924
 10
-2.925863586412063
 20
-0.5664423668979058
 10
-2.877500000000001
 20
-0.5412658773652739
 10
-2.831514727280596
 20
-0.5119700276806196
 10
-2.788257743945913
 20
-0.4787777769493611
 10
-2.748058261758409
 20
-0.4419417382415922
 10
-2.711222223050639
 20
-0.4017422560540871
 10
-2.678029972319381
 20
-0.3584852727194039
 10
-2.648734122634726
 20
-0.3125000000000002
 10
-2.623557633102094
 20
-0.2641364135879375
 10
-2.602692112008807
 20
-0.2137625895785434
 10
-2.586296358569333
 20
-0.161761903189076
 10
-2.57449515436737
 20
-0.1085301110418321
 10
-2.567378313692659
 20
-0.054472339217287
 10
-2.565
 20
-0.0000000000000008
 10
-2.567378313692659
 20
0.0544723392172855
 10
-2.57449515436737
 20
0.1085301110418306
 10
-2.586296358569332
 20
0.1617619031890745
 10
-2.602692112008807
 20
0.213762589578542
 10
-2.623557633102093
 20
0.2641364135879362
 10
-2.648734122634725
 20
0.312499999999999
 10
-2.67802997231938
 20
0.3584852727194028
 10
-2.711222223050638
 20
0.4017422560540861
 10
-2.748058261758407
 20
0.4419417382415913
 10
-2.788257743945912
 20
0.4787777769493604
 10
-2.831514727280595
 20
0.511970027680619
 10
-2.877499999999999
 20
0.5412658773652735
 10
-2.925863586412061
 20
0.5664423668979057
 10
-2.976237410421455
 20
0.5873078879911923
 10
-3.028238096810923
 20
0.6037036414306673
 10
-3.081469888958166
 20
0.61550484563263
 10
-3.135527660782712
 20
0.622621686307341
 10
-3.189999999999998
 20
0.6250000000000003
  0
LINE
  5
18F
330
138
100
AcDbEntity
  8
AM_4
100
AcDbLine
 10
-1.355
 20
-0.92
 30
0.0
 11
-1.958976190476191
 21
-0.9199999999999999
 31
0.0
  0
LINE
  5
190
330
138
100
AcDbEntity
  8
AM_4
100
AcDbLine
 10
1.958976190476189
 20
-0.9200000000000002
 30
0.0
 11
1.355
 21
-0.9200000000000003
 31
0.0
  0
LWPOLYLINE
  5
191
330
138
100
AcDbEntity
  8
AM_4
100
AcDbPolyline
 90
        3
 70
     0
 43
0.0
 10
1.95897619047619
 20
-0.9200000000000002
 10
1.966329104508933
 20
-0.9202470987944197
 10
1.968499999994831
 20
-0.9204148644053624
  0
LINE
  5
192
330
138
100
AcDbEntity
  8
AM_4
100
AcDbLine
 10
-1.958976190476189
 20
0.9199999999999999
 30
0.0
 11
1.95897619047619
 21
0.9199999999999999
 31
0.0
  0
LWPOLYLINE
  5
193
330
138
100
AcDbEntity
  8
AM_4
100
AcDbPolyline
 90
        3
 70
     0
 43
0.0
 10
-1.95897619047619
 20
0.9199999999999999
 10
-1.966329104508907
 20
0.9202470987944176
 10
-1.968499999994831
 20
0.9204148644053621
  0
LWPOLYLINE
  5
194
330
138
100
AcDbEntity
  8
AM_4
100
AcDbPolyline
 90
        4
 70
     0
 43
0.0
 10
-1.968499999999984
 20
-0.9204148644058119
 10
-1.968331097401042
 20
-0.9204002530887524
 10
-1.965445535985144
 20
-0.9201912323965254
 10
-1.95897619047619
 20
-0.9199999999999999
  0
LWPOLYLINE
  5
195
330
138
100
AcDbEntity
  8
AM_4
100
AcDbPolyline
 90
        4
 70
     0
 43
0.0
 10
1.968499999999984
 20
0.9204148644058119
 10
1.968331097401042
 20
0.9204002530887525
 10
1.965445535985144
 20
0.9201912323965254
 10
1.95897619047619
 20
0.9199999999999999
  0
LINE
  5
196
330
138
100
AcDbEntity
  8
AM_4
100
AcDbLine
 10
-2.0685
 20
1.02952380952381
 30
0.0
 11
-2.068499999999999
 21
1.040476190476186
 31
0.0
  0
LWPOLYLINE
  5
197
330
138
100
AcDbEntity
  8
AM_4
100
AcDbPolyline
 90
       19
 70
     0
 43
0.0
 10
-2.0685
 20
1.040476190476182
 10
-2.068916771161379
 20
1.050021819443783
 10
-2.070163912765328
 20
1.059494800411132
 10
-2.072231933311195
 20
1.068823038273125
 10
-2.075105093913921
 20
1.077935539507089
 10
-2.078761528086459
 20
1.086762952476355
 10
-2.083173408156938
 20
1.095238095238088
 10
-2.088307157054058
 20
1.103296466838441
 10
-2.094123703848869
 20
1.110876738203758
 10
-2.100578781108134
 20
1.117921218891854
 10
-2.10762326179623
 20
1.124376296151121
 10
-2.115203533161546
 20
1.130192842945933
 10
-2.123261904761898
 20
1.135326591843054
 10
-2.131737047523631
 20
1.139738471913535
 10
-2.140564460492896
 20
1.143394906086073
 10
-2.149676961726859
 20
1.146268066688801
 10
-2.159005199588853
 20
1.148336087234669
 10
-2.168478180556201
 20
1.149583228838619
 10
-2.178023809523802
 20
1.15
  0
LWPOLYLINE
  5
198
330
138
100
AcDbEntity
  8
AM_4
100
AcDbPolyline
 90
       15
 70
     0
 43
0.0
 10
-3.567690194698176
 20
1.15
 10
-3.552350783974588
 20
1.149905613589922
 10
-3.537128115428796
 20
1.149623172697263
 10
-3.522138042760133
 20
1.149154826867758
 10
-3.507494649472858
 20
1.148504140495964
 10
-3.493309380631813
 20
1.147676065698066
 10
-3.479690194698176
 20
1.14667690462328
 10
-3.466740741900392
 20
1.145514261490697
 10
-3.454559575393345
 20
1.144196984716578
 10
-3.443239401209344
 20
1.142735099572568
 10
-3.432866372709236
 20
1.141139731887323
 10
-3.423519434903314
 20
1.139423023372236
 10
-3.415269723632115
 20
1.137598039215686
 10
-3.408180024179726
 20
1.135678668649058
 10
-3.407841994192064
 20
1.135575894355249
  0
LINE
  5
199
330
138
100
AcDbEntity
  8
AM_4
100
AcDbLine
 10
-2.23424189343771
 20
0.7766096584436742
 30
0.0
 11
-3.407841994192064
 21
1.135575894355249
 31
0.0
  0
LINE
  5
19A
330
138
100
AcDbEntity
  8
AM_4
100
AcDbLine
 10
3.407841994192065
 20
1.135575894355249
 30
0.0
 11
2.234241893437711
 21
0.7766096584436745
 31
0.0
  0
LWPOLYLINE
  5
19B
330
138
100
AcDbEntity
  8
AM_4
100
AcDbPolyline
 90
       15
 70
     0
 43
0.0
 10
3.407841994192064
 20
1.135575894355249
 10
3.41486942156932
 20
1.137499808024147
 10
3.423059907305791
 20
1.13933008288165
 10
3.432351116859474
 20
1.14105278943094
 10
3.442672338515479
 20
1.14265481683498
 10
3.45394502154488
 20
1.144123972697894
 10
3.46608337402319
 20
1.145449075856465
 10
3.478995015758713
 20
1.146620041475536
 10
3.492581681361579
 20
1.147627957799699
 10
3.506739968102696
 20
1.14846515397713
 10
3.521362122870958
 20
1.149125258439405
 10
3.53633686223948
 20
1.149603247392986
 10
3.551550219399672
 20
1.149895483053317
 10
3.566886411517469
 20
1.149999741330567
 10
3.567690194698176
 20
1.15
  0
LWPOLYLINE
  5
19C
330
138
100
AcDbEntity
  8
AM_4
100
AcDbPolyline
 90
       19
 70
     0
 43
0.0
 10
2.178023823372059
 20
1.149999999999999
 10
2.168478194351762
 20
1.149583230045573
 10
2.159005213226724
 20
1.148336089639393
 10
2.149676975103249
 20
1.146268070272993
 10
2.140564473506001
 20
1.143394910822455
 10
2.131737060074415
 20
1.13973847776606
 10
2.123261916754842
 20
1.135326598767182
 10
2.115203544505375
 20
1.130192850888966
 10
2.107623272404612
 20
1.124376305052609
 10
2.100578790900332
 20
1.117921228684051
 10
2.094123712750358
 20
1.110876748812138
 10
2.088307164997094
 20
1.10329647818227
 10
2.083173415081068
 20
1.095238107231031
 10
2.078761533938986
 20
1.086762965027139
 10
2.075105098650305
 20
1.077935552520195
 10
2.072231936895389
 20
1.068823051649516
 10
2.070163915170054
 20
1.059494814049004
 10
2.068916772368336
 20
1.050021833239345
 10
2.068500000000001
 20
1.040476204324441
  0
LINE
  5
19D
330
138
100
AcDbEntity
  8
AM_4
100
AcDbLine
 10
2.0685
 20
1.040476190476191
 30
0.0
 11
2.068499999999999
 21
1.029523809523807
 31
0.0
  0
LWPOLYLINE
  5
19E
330
138
100
AcDbEntity
  8
AM_4
100
AcDbPolyline
 90
       19
 70
     0
 43
0.0
 10
1.968479108287094
 20
0.920413042842941
 10
1.977952576727651
 20
0.9216564761116821
 10
1.98728162341058
 20
0.9237208449197661
 10
1.996395248657591
 20
0.9265904381740638
 10
2.005224092277595
 20
0.9302434165372018
 10
2.013700961439645
 20
0.9346519786381082
 10
2.021761342050943
 20
0.9397825726572328
 10
2.029343889748045
 20
0.9455961516761521
 10
2.036390896764511
 20
0.9520484708481975
 10
2.042848731121844
 20
0.9590904241284529
 10
2.048668244801239
 20
0.9666684180004077
 10
2.053805147789678
 20
0.9747247793549789
 10
2.058220345153671
 20
0.9831981944176938
 10
2.061880234575309
 20
0.9920241753835376
 10
2.064756962086193
 20
1.001135551208087
 10
2.066828634052948
 20
1.010462978819718
 10
2.068079483800998
 20
1.019935470862251
 10
2.068499991608476
 20
1.029480935951597
 10
2.0685
 20
1.029523809523805
  0
LWPOLYLINE
  5
19F
330
138
100
AcDbEntity
  8
AM_4
100
AcDbPolyline
 90
       37
 70
     0
 43
0.0
 10
-1.968479108287094
 20
0.920413042842941
 10
-1.960198018845283
 20
0.8962391200590244
 10
-1.936998638880134
 20
0.8722589027927716
 10
-1.899057529681352
 20
0.84865489497723
 10
-1.846663445999407
 20
0.8256067373643653
 10
-1.780215138447531
 20
0.8032898403504698
 10
-1.70021831876878
 20
0.7818740489971295
 10
-1.607281811064309
 20
0.7615223504077522
 10
-1.502112918274346
 20
0.7423896332972945
 10
-1.385512039175737
 20
0.7246215091956172
 10
-1.258366576863958
 20
0.708353204255821
 10
-1.121644185079731
 20
0.693708530101569
 10
-0.9763854037797718
 20
0.6807989415458706
 10
-0.8236957399994219
 20
0.6697226883526577
 10
-0.6647372542765906
 20
0.660564067496755
 10
-0.5007197166693862
 20
0.6533927816130027
 10
-0.3328913996754965
 20
0.6482634085171166
 10
-0.1625295781247533
 20
0.6452149858355568
 10
0.0090691916535616
 20
0.6442707139056177
 10
0.1805989394072653
 20
0.6454377792068535
 10
0.3507542201834585
 20
0.6487072996676279
 10
0.518240049552867
 20
0.6540543922630445
 10
0.6817817592232805
 20
0.6614383623897891
 10
0.8401346980349234
 20
0.6708030135766344
 10
0.99209370450732
 20
0.6820770751735171
 10
1.136502278845859
 20
0.6951747447642208
 10
1.272261384603542
 20
0.7099963411745709
 10
1.398337813011965
 20
0.72642906310636
 10
1.51377204632391
 20
0.7443478476233388
 10
1.617685560322778
 20
0.7636163219556746
 10
1.709287510422342
 20
0.7840878413790757
 10
1.787880750471575
 20
0.8056066052696887
 10
1.852867138457805
 20
0.828008842840921
 10
1.903752088728606
 20
0.851124059538015
 10
1.940148336087241
 20
0.8747763346045557
 10
1.961778883114657
 20
0.898785659945653
 10
1.968479108287094
 20
0.9204130428429407
  0
LWPOLYLINE
  5
1A0
330
138
100
AcDbEntity
  8
AM_4
100
AcDbPolyline
 90
       19
 70
     0
 43
0.0
 10
-2.0685
 20
1.02952380952381
 10
-2.06808322883862
 20
1.019978180556209
 10
-2.06683608723467
 20
1.010505199588861
 10
-2.064768066688803
 20
1.001176961726867
 10
-2.061894906086076
 20
0.9920644604929033
 10
-2.058238471913538
 20
0.983237047523638
 10
-2.053826591843058
 20
0.974761904761905
 10
-2.048692842945937
 20
0.9667035331615524
 10
-2.042876296151126
 20
0.9591232617962364
 10
-2.03642121889186
 20
0.9520787811081403
 10
-2.029376738203764
 20
0.945623703848874
 10
-2.021796466838448
 20
0.9398071570540629
 10
-2.013738095238095
 20
0.9346734081569424
 10
-2.005262952476362
 20
0.9302615280864621
 10
-1.996435539507097
 20
0.9266050939139243
 10
-1.987323038273133
 20
0.9237319333111973
 10
-1.97799480041114
 20
0.9216639127653296
 10
-1.968521819443791
 20
0.9204167711613801
 10
-1.968479108287094
 20
0.920413042842941
  0
LINE
  5
1A1
330
138
100
AcDbEntity
  8
AM_4
100
AcDbLine
 10
2.0685
 20
-1.02952380952381
 30
0.0
 11
2.068499999999999
 21
-1.04047619047619
 31
0.0
  0
LWPOLYLINE
  5
1A2
330
138
100
AcDbEntity
  8
AM_4
100
AcDbPolyline
 90
       19
 70
     0
 43
0.0
 10
2.0685
 20
-1.04047619047619
 10
2.06891677116138
 20
-1.050021819443791
 10
2.07016391276533
 20
-1.05949480041114
 10
2.072231933311197
 20
-1.068823038273133
 10
2.075105093913924
 20
-1.077935539507097
 10
2.078761528086462
 20
-1.086762952476362
 10
2.083173408156942
 20
-1.095238095238095
 10
2.088307157054062
 20
-1.103296466838448
 10
2.094123703848873
 20
-1.110876738203763
 10
2.100578781108139
 20
-1.11792121889186
 10
2.107623261796236
 20
-1.124376296151126
 10
2.115203533161552
 20
-1.130192842945937
 10
2.123261904761904
 20
-1.135326591843058
 10
2.131737047523637
 20
-1.139738471913538
 10
2.140564460492902
 20
-1.143394906086076
 10
2.149676961726866
 20
-1.146268066688803
 10
2.159005199588859
 20
-1.148336087234671
 10
2.168478180556208
 20
-1.14958322883862
 10
2.178023809523809
 20
-1.15
  0
LWPOLYLINE
  5
1A3
330
138
100
AcDbEntity
  8
AM_4
100
AcDbPolyline
 90
       15
 70
     0
 43
0.0
 10
3.567690194698176
 20
-1.15
 10
3.552350783974588
 20
-1.149905613589923
 10
3.537128115428796
 20
-1.149623172697264
 10
3.522138042760133
 20
-1.149154826867758
 10
3.507494649472859
 20
-1.148504140495964
 10
3.493309380631813
 20
-1.147676065698066
 10
3.479690194698177
 20
-1.146676904623281
 10
3.466740741900393
 20
-1.145514261490698
 10
3.454559575393346
 20
-1.144196984716579
 10
3.443239401209345
 20
-1.142735099572568
 10
3.432866372709237
 20
-1.141139731887323
 10
3.423519434903315
 20
-1.139423023372237
 10
3.415269723632116
 20
-1.137598039215687
 10
3.408180024179728
 20
-1.135678668649059
 10
3.407841994192065
 20
-1.135575894355249
  0
LINE
  5
1A4
330
138
100
AcDbEntity
  8
AM_4
100
AcDbLine
 10
2.234241893437711
 20
-0.7766096584436742
 30
0.0
 11
3.407841994192065
 21
-1.135575894355249
 31
0.0
  0
LINE
  5
1A5
330
138
100
AcDbEntity
  8
AM_4
100
AcDbLine
 10
-3.407841994192064
 20
-1.135575894355249
 30
0.0
 11
-2.23424189343771
 21
-0.7766096584436742
 31
0.0
  0
LWPOLYLINE
  5
1A6
330
138
100
AcDbEntity
  8
AM_4
100
AcDbPolyline
 90
       15
 70
     0
 43
0.0
 10
-3.407841994192064
 20
-1.135575894355249
 10
-3.414869421569319
 20
-1.137499808024148
 10
-3.423059907305791
 20
-1.13933008288165
 10
-3.432351116859474
 20
-1.14105278943094
 10
-3.44267233851548
 20
-1.14265481683498
 10
-3.45394502154488
 20
-1.144123972697894
 10
-3.466083374023191
 20
-1.145449075856465
 10
-3.478995015758715
 20
-1.146620041475536
 10
-3.49258168136158
 20
-1.147627957799699
 10
-3.506739968102699
 20
-1.14846515397713
 10
-3.52136212287096
 20
-1.149125258439405
 10
-3.536336862239482
 20
-1.149603247392986
 10
-3.551550219399675
 20
-1.149895483053317
 10
-3.566886411517473
 20
-1.149999741330567
 10
-3.567690194698176
 20
-1.15
  0
LWPOLYLINE
  5
1A7
330
138
100
AcDbEntity
  8
AM_4
100
AcDbPolyline
 90
       19
 70
     0
 43
0.0
 10
-2.178023819973912
 20
-1.149999999999999
 10
-2.168478190966546
 20
-1.149583229749406
 10
-2.159005209880202
 20
-1.148336089049311
 10
-2.149676971820891
 20
-1.146268069393488
 10
-2.140564470312788
 20
-1.143394909660221
 10
-2.131737056994647
 20
-1.139738476329942
 10
-2.12326191381196
 20
-1.135326597068109
 10
-2.115203541721776
 20
-1.13019284893987
 10
-2.10762326980148
 20
-1.124376302868322
 10
-2.100578788497479
 20
-1.117921226281198
 10
-2.094123710566071
 20
-1.110876746209007
 10
-2.088307163047996
 20
-1.103296475398671
 10
-2.083173413381994
 20
-1.09523810428815
 10
-2.078761532502867
 20
-1.086762961947372
 10
-2.075105097488071
 20
-1.077935549326982
 10
-2.072231936015883
 20
-1.068823048367158
 10
-2.070163914579971
 20
-1.059494810702483
 10
-2.068916772072167
 20
-1.050021829854129
 10
-2.0685
 20
-1.040476200926294
  0
LINE
  5
1A8
330
138
100
AcDbEntity
  8
AM_4
100
AcDbLine
 10
-2.0685
 20
-1.040476190476191
 30
0.0
 11
-2.068499999999999
 21
-1.029523809523808
 31
0.0
  0
LWPOLYLINE
  5
1A9
330
138
100
AcDbEntity
  8
AM_4
100
AcDbPolyline
 90
       19
 70
     0
 43
0.0
 10
-1.968479108287092
 20
-0.9204130428429407
 10
-1.97795257672765
 20
-0.9216564761116816
 10
-1.987281623410579
 20
-0.9237208449197655
 10
-1.996395248657589
 20
-0.9265904381740628
 10
-2.005224092277594
 20
-0.9302434165372006
 10
-2.013700961439643
 20
-0.9346519786381069
 10
-2.021761342050941
 20
-0.9397825726572311
 10
-2.029343889748044
 20
-0.9455961516761502
 10
-2.036390896764509
 20
-0.9520484708481954
 10
-2.042848731121843
 20
-0.9590904241284506
 10
-2.048668244801238
 20
-0.9666684180004055
 10
-2.053805147789677
 20
-0.9747247793549764
 10
-2.05822034515367
 20
-0.9831981944176912
 10
-2.061880234575308
 20
-0.9920241753835346
 10
-2.064756962086192
 20
-1.001135551208084
 10
-2.066828634052948
 20
-1.010462978819715
 10
-2.068079483800997
 20
-1.019935470862248
 10
-2.068499991608476
 20
-1.029480935951593
 10
-2.0685
 20
-1.029523809523808
  0
LWPOLYLINE
  5
1AA
330
138
100
AcDbEntity
  8
AM_4
100
AcDbPolyline
 90
       37
 70
     0
 43
0.0
 10
1.968479108287089
 20
-0.9204130428427858
 10
1.960198018845182
 20
-0.8962391200588699
 10
1.936998638879938
 20
-0.8722589027926189
 10
1.899057529681062
 20
-0.8486548949770804
 10
1.846663445999026
 20
-0.8256067373642197
 10
1.780215138447061
 20
-0.8032898403503294
 10
1.700218318768224
 20
-0.7818740489969954
 10
1.607281811063672
 20
-0.7615223504076254
 10
1.502112918273633
 20
-0.7423896332971759
 10
1.385512039174954
 20
-0.7246215091955079
 10
1.258366576863111
 20
-0.7083532042557217
 10
1.121644185078826
 20
-0.6937085301014803
 10
0.9763854037788147
 20
-0.6807989415457935
 10
0.823695739998421
 20
-0.6697226883525926
 10
0.6647372542755533
 20
-0.6605640674967026
 10
0.5007197166683204
 20
-0.6533927816129631
 10
0.3328913996744102
 20
-0.6482634085170904
 10
0.162529578123655
 20
-0.6452149858355439
 10
-0.0090691916546637
 20
-0.6442707139056185
 10
-0.1805989394083627
 20
-0.6454377792068677
 10
-0.3507542201845431
 20
-0.6487072996676555
 10
-0.5182400495539302
 20
-0.6540543922630854
 10
-0.6817817592243145
 20
-0.661438362389843
 10
-0.84013469803592
 20
-0.6708030135767006
 10
-0.9920937045082718
 20
-0.6820770751735954
 10
-1.136502278846758
 20
-0.6951747447643104
 10
-1.272261384604383
 20
-0.7099963411746713
 10
-1.39833781301274
 20
-0.7264290631064704
 10
-1.513772046324614
 20
-0.7443478476234581
 10
-1.617685560323406
 20
-0.7636163219558022
 10
-1.709287510422888
 20
-0.7840878413792105
 10
-1.787880750472036
 20
-0.8056066052698297
 10
-1.852867138458178
 20
-0.8280088428410672
 10
-1.903752088728886
 20
-0.8511240595381651
 10
-1.940148336087427
 20
-0.8747763346047087
 10
-1.961778883114748
 20
-0.8987856599458077
 10
-1.968479108287094
 20
-0.9204130428429408
  0
LWPOLYLINE
  5
1AB
330
138
100
AcDbEntity
  8
AM_4
100
AcDbPolyline
 90
       19
 70
     0
 43
0.0
 10
2.0685
 20
-1.02952380952381
 10
2.06808322883862
 20
-1.019978180556209
 10
2.06683608723467
 20
-1.010505199588861
 10
2.064768066688803
 20
-1.001176961726867
 10
2.061894906086076
 20
-0.9920644604929033
 10
2.058238471913538
 20
-0.983237047523638
 10
2.053826591843058
 20
-0.974761904761905
 10
2.048692842945937
 20
-0.9667035331615524
 10
2.042876296151126
 20
-0.9591232617962364
 10
2.03642121889186
 20
-0.9520787811081404
 10
2.029376738203764
 20
-0.9456237038488741
 10
2.021796466838448
 20
-0.939807157054063
 10
2.013738095238095
 20
-0.9346734081569426
 10
2.005262952476362
 20
-0.9302615280864623
 10
1.996435539507097
 20
-0.9266050939139245
 10
1.987323038273133
 20
-0.9237319333111974
 10
1.97799480041114
 20
-0.9216639127653297
 10
1.968521819443791
 20
-0.9204167711613804
 10
1.968479108285306
 20
-0.9204130428427855
  0
LINE
  5
1AC
330
138
100
AcDbEntity
  8
AM_4
100
AcDbLine
 10
-2.23424189343771
 20
-0.7766096584436742
 30
0.0
 11
-2.23424189343771
 21
0.7766096584436742
 31
0.0
  0
LWPOLYLINE
  5
1AD
330
138
100
AcDbEntity
  8
AM_4
100
AcDbPolyline
 90
       28
 70
     0
 43
0.0
 10
-2.234241893437712
 20
-0.7766096584436741
 10
-2.136017624414709
 20
-0.7497185923897542
 10
-2.021536971507206
 20
-0.7241363415405747
 10
-1.891671201609136
 20
-0.7000576022720835
 10
-1.747408671644519
 20
-0.677665628329254
 10
-1.589847306574483
 20
-0.6571308361544346
 10
-1.420186243525366
 20
-0.6386095079153221
 10
-1.239716705631122
 20
-0.6222426021033
 10
-1.04981217504561
 20
-0.6081546807542059
 10
-0.8519179399140795
 20
-0.5964529614560256
 10
-0.6475400948576865
 20
-0.5872265013583097
 10
-0.4382340786840267
 20
-0.5805455193934907
 10
-0.2255928365586101
 20
-0.5764608618684082
 10
-0.0112346967303035
 20
-0.5750036154932116
 10
0.2032089459238161
 20
-0.5761848707927254
 10
0.4161060457985391
 20
-0.5799956377008592
 10
0.6258363274130353
 20
-0.586406913980438
 10
0.8308036166856119
 20
-0.5953699059477396
 10
1.029447988782272
 20
-0.6068163998218906
 10
1.220257640086608
 20
-0.6206592808729264
 10
1.401780393938176
 20
-0.6367931964174887
 10
1.572634752573732
 20
-0.6550953576163588
 10
1.731520411159374
 20
-0.6754264739716663
 10
1.877228153895486
 20
-0.6976318134116836
 10
2.008649056879102
 20
-0.7215423798953213
 10
2.124782927684405
 20
-0.7469761995740445
 10
2.224745917431022
 20
-0.7737397057227379
 10
2.234241893437711
 20
-0.7766096584436739
  0
LINE
  5
1AE
330
138
100
AcDbEntity
  8
AM_4
100
AcDbLine
 10
2.234241893437711
 20
-0.7766096584436742
 30
0.0
 11
2.234241893437711
 21
0.7766096584436745
 31
0.0
  0
LWPOLYLINE
  5
1AF
330
138
100
AcDbEntity
  8
AM_4
100
AcDbPolyline
 90
       28
 70
     0
 43
0.0
 10
2.234241893437712
 20
0.7766096584436741
 10
2.136017624414709
 20
0.7497185923897542
 10
2.021536971507206
 20
0.724136341540575
 10
1.891671201609135
 20
0.7000576022720838
 10
1.747408671644518
 20
0.6776656283292541
 10
1.589847306574483
 20
0.6571308361544347
 10
1.420186243525366
 20
0.6386095079153222
 10
1.239716705631121
 20
0.6222426021033003
 10
1.04981217504561
 20
0.6081546807542061
 10
0.8519179399140789
 20
0.5964529614560258
 10
0.6475400948576859
 20
0.58722650135831
 10
0.4382340786840261
 20
0.580545519393491
 10
0.2255928365586095
 20
0.5764608618684084
 10
0.0112346967303029
 20
0.5750036154932118
 10
-0.2032089459238166
 20
0.5761848707927257
 10
-0.4161060457985397
 20
0.5799956377008595
 10
-0.6258363274130359
 20
0.5864069139804382
 10
-0.8308036166856124
 20
0.59536990594774
 10
-1.029447988782272
 20
0.6068163998218907
 10
-1.220257640086608
 20
0.6206592808729267
 10
-1.401780393938177
 20
0.636793196417489
 10
-1.572634752573732
 20
0.6550953576163592
 10
-1.731520411159375
 20
0.6754264739716666
 10
-1.877228153895486
 20
0.6976318134116838
 10
-2.008649056879102
 20
0.7215423798953216
 10
-2.124782927684406
 20
0.7469761995740447
 10
-2.224745917431023
 20
0.773739705722738
 10
-2.234241893437712
 20
0.7766096584436741
  0
ENDBLK
  5
13B
330
138
100
AcDbEntity
  8
0
100
AcDbBlockEnd
  0
ENDSEC
  0
SECTION
  2
ENTITIES
  0
INSERT
  5
6F
330
1F
100
AcDbEntity
  8
0
100
AcDbBlockReference
  2
1_123593_4
 10
0.0
 20
0.0
 30
0.0
  0
POINT
  5
1B1
330
1F
100
AcDbEntity
  8
ConnectionPoints
100
AcDbPoint
 10
0.0
 20
-1.35
 30
0.0000000000000002
  0
POINT
  5
1B2
330
1F
100
AcDbEntity
  8
ConnectionPoints
100
AcDbPoint
 10
1.739482681718906
 20
0.0000000000000001
 30
1.739482681718907
  0
POINT
  5
1B3
330
1F
100
AcDbEntity
  8
ConnectionPoints
100
AcDbPoint
 10
0.0
 20
-1.35
 30
0.0000000000000001
  0
ENDSEC
  0
SECTION
  2
OBJECTS
  0
DICTIONARY
  5
C
330
0
100
AcDbDictionary
281
     1
  3
ACAD_DETAILVIEWSTYLE
350
1BB
  3
ACAD_GROUP
350
D
  3
ACAD_LAYOUT
350
1A
  3
ACAD_MATERIAL
350
43
  3
ACAD_MLEADERSTYLE
350
6B
  3
ACAD_MLINESTYLE
350
17
  3
ACAD_PLOTSETTINGS
350
19
  3
ACAD_PLOTSTYLENAME
350
E
  3
ACAD_SCALELIST
350
47
  3
ACAD_SECTIONVIEWSTYLE
350
1BC
  3
ACAD_TABLESTYLE
350
69
  3
ACAD_VISUALSTYLE
350
2A
  3
ACDB_RECOMPOSE_DATA
350
1B8
  3
AcDbVariableDictionary
350
1B4
  0
SUN
  5
6D
330
29
100
AcDbSun
 90
        1
290
     0
 63
     7
421
 16777215
 40
1.0
291
     1
 91
  2455826
 92
 54000000
292
     0
 70
     2
 71
   256
280
     1
  0
DICTIONARY
  5
1BB
102
{ACAD_REACTORS
330
C
102
}
330
C
100
AcDbDictionary
281
     1
  0
DICTIONARY
  5
D
102
{ACAD_REACTORS
330
C
102
}
330
C
100
AcDbDictionary
281
     1
  0
DICTIONARY
  5
1A
102
{ACAD_REACTORS
330
C
102
}
330
C
100
AcDbDictionary
281
     1
  3
Layout1
350
1E
  3
Layout2
350
26
  3
Model
350
22
  0
DICTIONARY
  5
43
102
{ACAD_REACTORS
330
C
102
}
330
C
100
AcDbDictionary
281
     1
  3
ByBlock
350
45
  3
ByLayer
350
44
  3
Global
350
46
  0
DICTIONARY
  5
6B
102
{ACAD_REACTORS
330
C
102
}
330
C
100
AcDbDictionary
281
     1
  3
Standard
350
6C
  0
DICTIONARY
  5
17
102
{ACAD_REACTORS
330
C
102
}
330
C
100
AcDbDictionary
281
     1
  3
Standard
350
18
  0
DICTIONARY
  5
19
102
{ACAD_REACTORS
330
C
102
}
330
C
100
AcDbDictionary
281
     1
  0
ACDBDICTIONARYWDFLT
  5
E
102
{ACAD_REACTORS
330
C
102
}
330
C
100
AcDbDictionary
281
     1
  3
Normal
350
F
100
AcDbDictionaryWithDefault
340
F
  0
DICTIONARY
  5
47
102
{ACAD_REACTORS
330
C
102
}
330
C
100
AcDbDictionary
281
     1
  3
A0
350
48
  3
A1
350
49
  3
A2
350
4A
  3
A3
350
4B
  3
A4
350
4C
  3
A5
350
4D
  3
A6
350
4E
  3
A7
350
4F
  3
A8
350
50
  3
A9
350
51
  3
B0
350
52
  3
B1
350
53
  3
B2
350
54
  3
B3
350
55
  3
B4
350
56
  3
B5
350
57
  3
B6
350
58
  3
B7
350
59
  3
B8
350
5A
  3
B9
350
5B
  3
C0
350
5C
  3
C1
350
5D
  3
C2
350
5E
  3
C3
350
5F
  3
C4
350
60
  3
C5
350
61
  3
C6
350
62
  3
C7
350
63
  3
C8
350
64
  3
C9
350
65
  3
D0
350
66
  3
D1
350
67
  3
D2
350
68
  0
DICTIONARY
  5
1BC
102
{ACAD_REACTORS
330
C
102
}
330
C
100
AcDbDictionary
281
     1
  0
DICTIONARY
  5
69
102
{ACAD_REACTORS
330
C
102
}
330
C
100
AcDbDictionary
281
     1
  3
Standard
350
6A
  0
DICTIONARY
  5
2A
102
{ACAD_REACTORS
330
C
102
}
330
C
100
AcDbDictionary
281
     1
  3
2dWireframe
350
2F
  3
Basic
350
32
  3
Brighten
350
36
  3
ColorChange
350
3A
  3
Conceptual
350
34
  3
Dim
350
35
  3
EdgeColorOff
350
3D
  3
Facepattern
350
39
  3
Flat
350
2B
  3
FlatWithEdges
350
2C
  3
Gouraud
350
2D
  3
GouraudWithEdges
350
2E
  3
Hidden
350
31
  3
JitterOff
350
3B
  3
Linepattern
350
38
  3
OverhangOff
350
3C
  3
Realistic
350
33
  3
Shaded
350
42
  3
Shaded with edges
350
41
  3
Shades of Gray
350
3E
  3
Sketchy
350
3F
  3
Thicken
350
37
  3
Wireframe
350
30
  3
X-Ray
350
40
  0
XRECORD
  5
1B8
102
{ACAD_REACTORS
330
C
102
}
330
C
100
AcDbXrecord
280
     1
 90
        1
330
6A
  0
DICTIONARY
  5
1B4
102
{ACAD_REACTORS
330
C
102
}
330
C
100
AcDbDictionary
281
     1
  3
CANNOSCALE
350
1B5
  3
CMLEADERSTYLE
350
1BA
  3
CTABLESTYLE
350
1B9
  0
LAYOUT
  5
1E
102
{ACAD_REACTORS
330
1A
102
}
330
1A
100
AcDbPlotSettings
  1

  2
none_device
  4

  6

 40
0.0
 41
0.0
 42
0.0
 43
0.0
 44
0.0
 45
0.0
 46
0.0
 47
0.0
 48
0.0
 49
0.0
140
0.0
141
0.0
142
1.0
143
1.0
 70
   688
 72
     0
 73
     0
 74
     5
  7

 75
    16
 76
     0
 77
     2
 78
   300
147
1.0
148
0.0
149
0.0
100
AcDbLayout
  1
Layout1
 70
     1
 71
     1
 10
0.0
 20
0.0
 11
12.0
 21
9.0
 12
0.0
 22
0.0
 32
0.0
 14
1.000000000000000E+20
 24
1.000000000000000E+20
 34
1.000000000000000E+20
 15
-1.000000000000000E+20
 25
-1.000000000000000E+20
 35
-1.000000000000000E+20
146
0.0
 13
0.0
 23
0.0
 33
0.0
 16
1.0
 26
0.0
 36
0.0
 17
0.0
 27
1.0
 37
0.0
 76
     0
330
1B
  0
LAYOUT
  5
26
102
{ACAD_REACTORS
330
1A
102
}
330
1A
100
AcDbPlotSettings
  1

  2
none_device
  4

  6

 40
0.0
 41
0.0
 42
0.0
 43
0.0
 44
0.0
 45
0.0
 46
0.0
 47
0.0
 48
0.0
 49
0.0
140
0.0
141
0.0
142
1.0
143
1.0
 70
   688
 72
     0
 73
     0
 74
     5
  7

 75
    16
 76
     0
 77
     2
 78
   300
147
1.0
148
0.0
149
0.0
100
AcDbLayout
  1
Layout2
 70
     1
 71
     2
 10
0.0
 20
0.0
 11
0.0
 21
0.0
 12
0.0
 22
0.0
 32
0.0
 14
0.0
 24
0.0
 34
0.0
 15
0.0
 25
0.0
 35
0.0
146
0.0
 13
0.0
 23
0.0
 33
0.0
 16
1.0
 26
0.0
 36
0.0
 17
0.0
 27
1.0
 37
0.0
 76
     0
330
23
  0
LAYOUT
  5
22
102
{ACAD_REACTORS
330
1A
102
}
330
1A
100
AcDbPlotSettings
  1

  2
none_device
  4
Letter_(8.50_x_11.00_Inches)
  6

 40
6.35
 41
6.35
 42
6.35000508
 43
6.35000508
 44
215.9
 45
279.4
 46
0.0
 47
0.0
 48
0.0
 49
0.0
140
0.0
141
0.0
142
1.0
143
1.0
 70
  1712
 72
     0
 73
     0
 74
     0
  7

 75
     0
 76
     0
 77
     2
 78
   300
147
1.0
148
0.0
149
0.0
100
AcDbLayout
  1
Model
 70
     1
 71
     0
 10
0.0
 20
0.0
 11
12.0
 21
9.0
 12
0.0
 22
0.0
 32
0.0
 14
1.000000000000000E+20
 24
1.000000000000000E+20
 34
1.000000000000000E+20
 15
-1.000000000000000E+20
 25
-1.000000000000000E+20
 35
-1.000000000000000E+20
146
0.0
 13
0.0
 23
0.0
 33
0.0
 16
1.0
 26
0.0
 36
0.0
 17
0.0
 27
1.0
 37
0.0
 76
     0
330
1F
331
29
  0
MATERIAL
  5
45
102
{ACAD_REACTORS
330
43
102
}
330
43
100
AcDbMaterial
  1
ByBlock
 72
     1
 94
      127
  0
MATERIAL
  5
44
102
{ACAD_REACTORS
330
43
102
}
330
43
100
AcDbMaterial
  1
ByLayer
 72
     1
 94
      127
  0
MATERIAL
  5
46
102
{ACAD_REACTORS
330
43
102
}
330
43
100
AcDbMaterial
  1
Global
 72
     1
 94
      127
  0
MLEADERSTYLE
  5
6C
102
{ACAD_REACTORS
330
6B
102
}
330
6B
100
AcDbMLeaderStyle
179
     2
170
     2
171
     1
172
     0
 90
        2
 40
0.0
 41
0.0
173
     1
 91
-1056964608
340
14
 92
       -2
290
     1
 42
0.09
291
     1
 43
0.36
  3
Standard
341
0
 44
0.18
300

342
11
174
     1
178
     6
175
     1
176
     0
 93
-1056964608
 45
0.18
292
     0
297
     0
 46
0.18
343
0
 94
-1056964608
 47
1.0
 49
1.0
140
1.0
293
     1
141
0.0
294
     1
177
     0
142
1.0
295
     0
296
     0
143
0.125
271
     0
272
     9
273
     9
298
     0
  0
MLINESTYLE
  5
18
102
{ACAD_REACTORS
330
17
102
}
330
17
100
AcDbMlineStyle
  2
Standard
 70
     0
  3

 62
   256
 51
90.0
 52
90.0
 71
     2
 49
0.5
 62
   256
  6
BYLAYER
 49
-0.5
 62
   256
  6
BYLAYER
  0
ACDBPLACEHOLDER
  5
F
102
{ACAD_REACTORS
330
E
102
}
330
E
  0
SCALE
  5
48
102
{ACAD_REACTORS
330
47
102
}
330
47
100
AcDbScale
 70
     0
300
1:1
140
1.0
141
1.0
290
     1
  0
SCALE
  5
49
102
{ACAD_REACTORS
330
47
102
}
330
47
100
AcDbScale
 70
     0
300
1:2
140
1.0
141
2.0
290
     0
  0
SCALE
  5
4A
102
{ACAD_REACTORS
330
47
102
}
330
47
100
AcDbScale
 70
     0
300
1:4
140
1.0
141
4.0
290
     0
  0
SCALE
  5
4B
102
{ACAD_REACTORS
330
47
102
}
330
47
100
AcDbScale
 70
     0
300
1:5
140
1.0
141
5.0
290
     0
  0
SCALE
  5
4C
102
{ACAD_REACTORS
330
47
102
}
330
47
100
AcDbScale
 70
     0
300
1:8
140
1.0
141
8.0
290
     0
  0
SCALE
  5
4D
102
{ACAD_REACTORS
330
47
102
}
330
47
100
AcDbScale
 70
     0
300
1:10
140
1.0
141
10.0
290
     0
  0
SCALE
  5
4E
102
{ACAD_REACTORS
330
47
102
}
330
47
100
AcDbScale
 70
     0
300
1:16
140
1.0
141
16.0
290
     0
  0
SCALE
  5
4F
102
{ACAD_REACTORS
330
47
102
}
330
47
100
AcDbScale
 70
     0
300
1:20
140
1.0
141
20.0
290
     0
  0
SCALE
  5
50
102
{ACAD_REACTORS
330
47
102
}
330
47
100
AcDbScale
 70
     0
300
1:30
140
1.0
141
30.0
290
     0
  0
SCALE
  5
51
102
{ACAD_REACTORS
330
47
102
}
330
47
100
AcDbScale
 70
     0
300
1:40
140
1.0
141
40.0
290
     0
  0
SCALE
  5
52
102
{ACAD_REACTORS
330
47
102
}
330
47
100
AcDbScale
 70
     0
300
1:50
140
1.0
141
50.0
290
     0
  0
SCALE
  5
53
102
{ACAD_REACTORS
330
47
102
}
330
47
100
AcDbScale
 70
     0
300
1:100
140
1.0
141
100.0
290
     0
  0
SCALE
  5
54
102
{ACAD_REACTORS
330
47
102
}
330
47
100
AcDbScale
 70
     0
300
2:1
140
2.0
141
1.0
290
     0
  0
SCALE
  5
55
102
{ACAD_REACTORS
330
47
102
}
330
47
100
AcDbScale
 70
     0
300
4:1
140
4.0
141
1.0
290
     0
  0
SCALE
  5
56
102
{ACAD_REACTORS
330
47
102
}
330
47
100
AcDbScale
 70
     0
300
8:1
140
8.0
141
1.0
290
     0
  0
SCALE
  5
57
102
{ACAD_REACTORS
330
47
102
}
330
47
100
AcDbScale
 70
     0
300
10:1
140
10.0
141
1.0
290
     0
  0
SCALE
  5
58
102
{ACAD_REACTORS
330
47
102
}
330
47
100
AcDbScale
 70
     0
300
100:1
140
100.0
141
1.0
290
     0
  0
SCALE
  5
59
102
{ACAD_REACTORS
330
47
102
}
330
47
100
AcDbScale
 70
     0
300
1/128" = 1'-0"
140
0.0078125
141
12.0
290
     0
  0
SCALE
  5
5A
102
{ACAD_REACTORS
330
47
102
}
330
47
100
AcDbScale
 70
     0
300
1/64" = 1'-0"
140
0.015625
141
12.0
290
     0
  0
SCALE
  5
5B
102
{ACAD_REACTORS
330
47
102
}
330
47
100
AcDbScale
 70
     0
300
1/32" = 1'-0"
140
0.03125
141
12.0
290
     0
  0
SCALE
  5
5C
102
{ACAD_REACTORS
330
47
102
}
330
47
100
AcDbScale
 70
     0
300
1/16" = 1'-0"
140
0.0625
141
12.0
290
     0
  0
SCALE
  5
5D
102
{ACAD_REACTORS
330
47
102
}
330
47
100
AcDbScale
 70
     0
300
3/32" = 1'-0"
140
0.09375
141
12.0
290
     0
  0
SCALE
  5
5E
102
{ACAD_REACTORS
330
47
102
}
330
47
100
AcDbScale
 70
     0
300
1/8" = 1'-0"
140
0.125
141
12.0
290
     0
  0
SCALE
  5
5F
102
{ACAD_REACTORS
330
47
102
}
330
47
100
AcDbScale
 70
     0
300
3/16" = 1'-0"
140
0.1875
141
12.0
290
     0
  0
SCALE
  5
60
102
{ACAD_REACTORS
330
47
102
}
330
47
100
AcDbScale
 70
     0
300
1/4" = 1'-0"
140
0.25
141
12.0
290
     0
  0
SCALE
  5
61
102
{ACAD_REACTORS
330
47
102
}
330
47
100
AcDbScale
 70
     0
300
3/8" = 1'-0"
140
0.375
141
12.0
290
     0
  0
SCALE
  5
62
102
{ACAD_REACTORS
330
47
102
}
330
47
100
AcDbScale
 70
     0
300
1/2" = 1'-0"
140
0.5
141
12.0
290
     0
  0
SCALE
  5
63
102
{ACAD_REACTORS
330
47
102
}
330
47
100
AcDbScale
 70
     0
300
3/4" = 1'-0"
140
0.75
141
12.0
290
     0
  0
SCALE
  5
64
102
{ACAD_REACTORS
330
47
102
}
330
47
100
AcDbScale
 70
     0
300
1" = 1'-0"
140
1.0
141
12.0
290
     0
  0
SCALE
  5
65
102
{ACAD_REACTORS
330
47
102
}
330
47
100
AcDbScale
 70
     0
300
1-1/2" = 1'-0"
140
1.5
141
12.0
290
     0
  0
SCALE
  5
66
102
{ACAD_REACTORS
330
47
102
}
330
47
100
AcDbScale
 70
     0
300
3" = 1'-0"
140
3.0
141
12.0
290
     0
  0
SCALE
  5
67
102
{ACAD_REACTORS
330
47
102
}
330
47
100
AcDbScale
 70
     0
300
6" = 1'-0"
140
6.0
141
12.0
290
     0
  0
SCALE
  5
68
102
{ACAD_REACTORS
330
47
102
}
330
47
100
AcDbScale
 70
     0
300
1'-0" = 1'-0"
140
12.0
141
12.0
290
     0
  0
TABLESTYLE
  5
6A
102
{ACAD_REACTORS
330
69
102
}
102
{ACAD_XDICTIONARY
360
1B6
102
}
330
69
100
AcDbTableStyle
  3
Standard
 70
     0
 71
     0
 40
0.06
 41
0.06
280
     0
281
     0
  7
Standard
140
0.18
170
     2
 62
     0
 63
   257
283
     0
 90
        4
 91
        0
  1

274
    -2
284
     1
 64
     0
275
    -2
285
     1
 65
     0
276
    -2
286
     1
 66
     0
277
    -2
287
     1
 67
     0
278
    -2
288
     1
 68
     0
279
    -2
289
     1
 69
     0
  7
Standard
140
0.25
170
     5
 62
     0
 63
   257
283
     0
 90
        4
 91
        0
  1

274
    -2
284
     1
 64
     0
275
    -2
285
     1
 65
     0
276
    -2
286
     1
 66
     0
277
    -2
287
     1
 67
     0
278
    -2
288
     1
 68
     0
279
    -2
289
     1
 69
     0
  7
Standard
140
0.18
170
     5
 62
     0
 63
   257
283
     0
 90
        4
 91
        0
  1

274
    -2
284
     1
 64
     0
275
    -2
285
     1
 65
     0
276
    -2
286
     1
 66
     0
277
    -2
287
     1
 67
     0
278
    -2
288
     1
 68
     0
279
    -2
289
     1
 69
     0
  0
VISUALSTYLE
  5
2F
102
{ACAD_REACTORS
330
2A
102
}
330
2A
100
AcDbVisualStyle
  2
2dWireframe
 70
     4
177
     3
291
     0
 70
    58
 90
        0
176
     1
 90
        2
176
     1
 90
        0
176
     1
 90
        0
176
     1
 40
0.6
176
     1
 40
30.0
176
     1
 62
     7
420
 16777215
176
     1
 90
        1
176
     1
 90
        4
176
     1
 62
     7
176
     1
 62
   257
176
     1
 90
        1
176
     1
 90
        1
176
     1
 40
1.0
176
     1
 90
        0
176
     1
 62
   257
176
     1
 40
1.0
176
     1
 90
        1
176
     1
 90
        6
176
     1
 90
        2
176
     1
 62
     7
176
     1
 90
        5
176
     1
 90
        0
176
     1
 90
        0
176
     1
290
     0
176
     1
 90
        1
176
     1
 40
0.0
176
     1
 90
        0
176
     1
290
     1
176
     1
290
     1
176
     1
290
     0
176
     1
290
     0
176
     1
290
     0
176
     1
290
     0
176
     1
290
     0
176
     1
290
     0
176
     1
290
     0
176
     1
 90
       50
176
     1
 40
0.0
176
     1
 40
1.0
176
     1
 90
        0
176
     1
 62
    18
420
        0
176
     1
 90
       50
176
     1
 90
        3
176
     1
 62
     5
420
      255
176
     1
290
     0
176
     1
 90
       50
176
     1
 90
       50
176
     1
 90
       50
176
     1
290
     0
176
     1
 90
       50
176
     1
 62
   256
176
     0
 40
1.0
176
     0
 90
        2
176
     1
  1
strokes_ogs.tif
176
     1
290
     0
176
     1
 40
1.0
176
     1
 40
1.0
176
     1
  0
VISUALSTYLE
  5
32
102
{ACAD_REACTORS
330
2A
102
}
330
2A
100
AcDbVisualStyle
  2
Basic
 70
     7
177
     3
291
     1
 70
    58
 90
        1
176
     1
 90
        0
176
     1
 90
        1
176
     1
 90
        0
176
     1
 40
0.6
176
     1
 40
30.0
176
     1
 62
     7
420
 16777215
176
     1
 90
        0
176
     1
 90
        4
176
     1
 62
     7
176
     1
 62
   257
176
     1
 90
        1
176
     1
 90
        1
176
     1
 40
1.0
176
     1
 90
        8
176
     1
 62
     7
176
     1
 40
1.0
176
     1
 90
        1
176
     1
 90
        6
176
     1
 90
        2
176
     1
 62
     7
176
     1
 90
        5
176
     1
 90
        0
176
     1
 90
        0
176
     1
290
     0
176
     1
 90
        1
176
     1
 40
0.0
176
     1
 90
        0
176
     1
290
     0
176
     1
290
     1
176
     1
290
     1
176
     1
290
     0
176
     1
290
     0
176
     1
290
     0
176
     1
290
     0
176
     1
290
     0
176
     1
290
     0
176
     1
 90
       50
176
     1
 40
0.0
176
     1
 40
1.0
176
     1
 90
        0
176
     1
 62
    18
420
        0
176
     1
 90
       50
176
     1
 90
        3
176
     1
 62
     5
420
      255
176
     1
290
     0
176
     1
 90
       50
176
     1
 90
       50
176
     1
 90
       50
176
     1
290
     0
176
     1
 90
       50
176
     1
 62
   256
176
     0
 40
1.0
176
     0
 90
        2
176
     1
  1
strokes_ogs.tif
176
     1
290
     0
176
     1
 40
1.0
176
     1
 40
1.0
176
     1
  0
VISUALSTYLE
  5
36
102
{ACAD_REACTORS
330
2A
102
}
330
2A
100
AcDbVisualStyle
  2
Brighten
 70
    12
177
     3
291
     1
 70
    58
 90
        2
176
     1
 90
        2
176
     1
 90
        0
176
     1
 90
        0
176
     1
 40
0.6
176
     1
 40
30.0
176
     1
 62
     7
420
 16777215
176
     1
 90
        1
176
     1
 90
        4
176
     1
 62
     7
176
     1
 62
   257
176
     1
 90
        1
176
     1
 90
        1
176
     1
 40
1.0
176
     1
 90
        8
176
     1
 62
     7
176
     1
 40
1.0
176
     1
 90
        1
176
     1
 90
        6
176
     1
 90
        2
176
     1
 62
     7
176
     1
 90
        5
176
     1
 90
        0
176
     1
 90
        0
176
     1
290
     0
176
     1
 90
        1
176
     1
 40
50.0
176
     1
 90
        0
176
     1
290
     0
176
     1
290
     1
176
     1
290
     1
176
     1
290
     0
176
     1
290
     0
176
     1
290
     0
176
     1
290
     0
176
     1
290
     0
176
     1
290
     0
176
     1
 90
       50
176
     1
 40
0.0
176
     1
 40
1.0
176
     1
 90
        0
176
     1
 62
    18
420
        0
176
     1
 90
       50
176
     1
 90
        3
176
     1
 62
     5
420
      255
176
     1
290
     0
176
     1
 90
       50
176
     1
 90
       50
176
     1
 90
       50
176
     1
290
     0
176
     1
 90
       50
176
     1
 62
   256
176
     0
 40
1.0
176
     0
 90
        2
176
     1
  1
strokes_ogs.tif
176
     1
290
     0
176
     1
 40
1.0
176
     1
 40
1.0
176
     1
  0
VISUALSTYLE
  5
3A
102
{ACAD_REACTORS
330
2A
102
}
330
2A
100
AcDbVisualStyle
  2
ColorChange
 70
    16
177
     3
291
     1
 70
    58
 90
        2
176
     1
 90
        2
176
     1
 90
        3
176
     1
 90
        0
176
     1
 40
0.6
176
     1
 40
30.0
176
     1
 62
     8
420
  8421504
176
     1
 90
        1
176
     1
 90
        4
176
     1
 62
     7
176
     1
 62
   257
176
     1
 90
        1
176
     1
 90
        1
176
     1
 40
1.0
176
     1
 90
        8
176
     1
 62
     8
420
  8421504
176
     1
 40
1.0
176
     1
 90
        1
176
     1
 90
        6
176
     1
 90
        2
176
     1
 62
     7
176
     1
 90
        5
176
     1
 90
        0
176
     1
 90
        0
176
     1
290
     0
176
     1
 90
        1
176
     1
 40
0.0
176
     1
 90
        0
176
     1
290
     0
176
     1
290
     1
176
     1
290
     1
176
     1
290
     0
176
     1
290
     0
176
     1
290
     0
176
     1
290
     0
176
     1
290
     0
176
     1
290
     0
176
     1
 90
       50
176
     1
 40
0.0
176
     1
 40
1.0
176
     1
 90
        0
176
     1
 62
    18
420
        0
176
     1
 90
       50
176
     1
 90
        3
176
     1
 62
     5
420
      255
176
     1
290
     0
176
     1
 90
       50
176
     1
 90
       50
176
     1
 90
       50
176
     1
290
     0
176
     1
 90
       50
176
     1
 62
   256
176
     0
 40
1.0
176
     0
 90
        2
176
     1
  1
strokes_ogs.tif
176
     1
290
     0
176
     1
 40
1.0
176
     1
 40
1.0
176
     1
  0
VISUALSTYLE
  5
34
102
{ACAD_REACTORS
330
2A
102
}
330
2A
100
AcDbVisualStyle
  2
Conceptual
 70
     9
177
     3
291
     0
 70
    58
 90
        3
176
     1
 90
        2
176
     1
 90
        0
176
     1
 90
        0
176
     1
 40
0.6
176
     1
 40
30.0
176
     1
 62
     7
420
 16777215
176
     1
 90
        2
176
     1
 90
        2
176
     1
 62
     7
176
     1
 62
   257
176
     1
 90
        1
176
     1
 90
        1
176
     1
 40
179.0
176
     1
 90
        8
176
     1
 62
     7
176
     1
 40
1.0
176
     1
 90
        1
176
     1
 90
        6
176
     1
 90
        2
176
     1
 62
     7
176
     1
 90
        3
176
     1
 90
        0
176
     1
 90
        0
176
     1
290
     0
176
     1
 90
        1
176
     1
 40
0.0
176
     1
 90
        0
176
     1
290
     0
176
     1
290
     1
176
     1
290
     1
176
     1
290
     0
176
     1
290
     0
176
     1
290
     0
176
     1
290
     0
176
     1
290
     0
176
     1
290
     0
176
     1
 90
       50
176
     1
 40
0.0
176
     1
 40
1.0
176
     1
 90
        0
176
     1
 62
    18
420
        0
176
     1
 90
       50
176
     1
 90
        3
176
     1
 62
     5
420
      255
176
     1
290
     0
176
     1
 90
       50
176
     1
 90
       50
176
     1
 90
       50
176
     1
290
     0
176
     1
 90
       50
176
     1
 62
   256
176
     0
 40
1.0
176
     0
 90
        2
176
     1
  1
strokes_ogs.tif
176
     1
290
     0
176
     1
 40
1.0
176
     1
 40
1.0
176
     1
  0
VISUALSTYLE
  5
35
102
{ACAD_REACTORS
330
2A
102
}
330
2A
100
AcDbVisualStyle
  2
Dim
 70
    11
177
     3
291
     1
 70
    58
 90
        2
176
     1
 90
        2
176
     1
 90
        0
176
     1
 90
        0
176
     1
 40
0.6
176
     1
 40
30.0
176
     1
 62
     7
420
 16777215
176
     1
 90
        1
176
     1
 90
        4
176
     1
 62
     7
176
     1
 62
   257
176
     1
 90
        1
176
     1
 90
        1
176
     1
 40
1.0
176
     1
 90
        8
176
     1
 62
     7
176
     1
 40
1.0
176
     1
 90
        1
176
     1
 90
        6
176
     1
 90
        2
176
     1
 62
     7
176
     1
 90
        5
176
     1
 90
        0
176
     1
 90
        0
176
     1
290
     0
176
     1
 90
        1
176
     1
 40
-50.0
176
     1
 90
        0
176
     1
290
     0
176
     1
290
     1
176
     1
290
     1
176
     1
290
     0
176
     1
290
     0
176
     1
290
     0
176
     1
290
     0
176
     1
290
     0
176
     1
290
     0
176
     1
 90
       50
176
     1
 40
0.0
176
     1
 40
1.0
176
     1
 90
        0
176
     1
 62
    18
420
        0
176
     1
 90
       50
176
     1
 90
        3
176
     1
 62
     5
420
      255
176
     1
290
     0
176
     1
 90
       50
176
     1
 90
       50
176
     1
 90
       50
176
     1
290
     0
176
     1
 90
       50
176
     1
 62
   256
176
     0
 40
1.0
176
     0
 90
        2
176
     1
  1
strokes_ogs.tif
176
     1
290
     0
176
     1
 40
1.0
176
     1
 40
1.0
176
     1
  0
VISUALSTYLE
  5
3D
102
{ACAD_REACTORS
330
2A
102
}
330
2A
100
AcDbVisualStyle
  2
EdgeColorOff
 70
    22
177
     3
291
     1
 70
    58
 90
        2
176
     0
 90
        2
176
     0
 90
        0
176
     0
 90
        0
176
     0
 40
0.6
176
     0
 40
30.0
176
     0
 62
     7
420
 16777215
176
     0
 90
        1
176
     0
 90
        4
176
     0
 62
     7
176
     0
 62
   257
176
     0
 90
        1
176
     0
 90
        1
176
     0
 40
1.0
176
     0
 90
        8
176
     2
 62
     7
176
     0
 40
1.0
176
     0
 90
        1
176
     0
 90
        6
176
     0
 90
        2
176
     0
 62
     7
176
     0
 90
        5
176
     0
 90
        0
176
     0
 90
        0
176
     0
290
     0
176
     0
 90
        1
176
     0
 40
0.0
176
     0
 90
        0
176
     0
290
     0
176
     0
290
     1
176
     0
290
     1
176
     0
290
     0
176
     0
290
     0
176
     0
290
     0
176
     0
290
     0
176
     0
290
     0
176
     0
290
     0
176
     0
 90
       50
176
     0
 40
0.0
176
     0
 40
1.0
176
     0
 90
        0
176
     0
 62
    18
420
        0
176
     0
 90
       50
176
     0
 90
        3
176
     0
 62
     5
420
      255
176
     0
290
     0
176
     0
 90
       50
176
     0
 90
       50
176
     0
 90
       50
176
     0
290
     0
176
     0
 90
       50
176
     0
 62
   256
176
     0
 40
1.0
176
     0
 90
        2
176
     0
  1
strokes_ogs.tif
176
     0
290
     0
176
     0
 40
1.0
176
     0
 40
1.0
176
     0
  0
VISUALSTYLE
  5
39
102
{ACAD_REACTORS
330
2A
102
}
330
2A
100
AcDbVisualStyle
  2
Facepattern
 70
    15
177
     3
291
     1
 70
    58
 90
        2
176
     1
 90
        2
176
     1
 90
        0
176
     1
 90
        0
176
     1
 40
0.6
176
     1
 40
30.0
176
     1
 62
     7
420
 16777215
176
     1
 90
        1
176
     1
 90
        4
176
     1
 62
     7
176
     1
 62
   257
176
     1
 90
        1
176
     1
 90
        1
176
     1
 40
1.0
176
     1
 90
        8
176
     1
 62
     7
176
     1
 40
1.0
176
     1
 90
        1
176
     1
 90
        6
176
     1
 90
        2
176
     1
 62
     7
176
     1
 90
        5
176
     1
 90
        0
176
     1
 90
        0
176
     1
290
     0
176
     1
 90
        1
176
     1
 40
0.0
176
     1
 90
        0
176
     1
290
     0
176
     1
290
     1
176
     1
290
     1
176
     1
290
     0
176
     1
290
     0
176
     1
290
     0
176
     1
290
     0
176
     1
290
     0
176
     1
290
     0
176
     1
 90
       50
176
     1
 40
0.0
176
     1
 40
1.0
176
     1
 90
        0
176
     1
 62
    18
420
        0
176
     1
 90
       50
176
     1
 90
        3
176
     1
 62
     5
420
      255
176
     1
290
     0
176
     1
 90
       50
176
     1
 90
       50
176
     1
 90
       50
176
     1
290
     0
176
     1
 90
       50
176
     1
 62
   256
176
     0
 40
1.0
176
     0
 90
        2
176
     1
  1
strokes_ogs.tif
176
     1
290
     0
176
     1
 40
1.0
176
     1
 40
1.0
176
     1
  0
VISUALSTYLE
  5
2B
102
{ACAD_REACTORS
330
2A
102
}
330
2A
100
AcDbVisualStyle
  2
Flat
 70
     0
177
     3
291
     1
 70
    58
 90
        2
176
     1
 90
        1
176
     1
 90
        1
176
     1
 90
        2
176
     1
 40
0.6
176
     1
 40
30.0
176
     1
 62
     7
420
 16777215
176
     1
 90
        0
176
     1
 90
        0
176
     1
 62
     7
176
     1
 62
   257
176
     1
 90
        1
176
     1
 90
        1
176
     1
 40
1.0
176
     1
 90
        8
176
     1
 62
     7
176
     1
 40
1.0
176
     1
 90
        1
176
     1
 90
        6
176
     1
 90
        2
176
     1
 62
     7
176
     1
 90
        5
176
     1
 90
        0
176
     1
 90
        0
176
     1
290
     0
176
     1
 90
       13
176
     1
 40
0.0
176
     1
 90
        0
176
     1
290
     0
176
     1
290
     1
176
     1
290
     1
176
     1
290
     0
176
     1
290
     0
176
     1
290
     0
176
     1
290
     0
176
     1
290
     0
176
     1
290
     0
176
     1
 90
       50
176
     1
 40
0.0
176
     1
 40
1.0
176
     1
 90
        0
176
     1
 62
    18
420
        0
176
     1
 90
       50
176
     1
 90
        3
176
     1
 62
     5
420
      255
176
     1
290
     0
176
     1
 90
       50
176
     1
 90
       50
176
     1
 90
       50
176
     1
290
     0
176
     1
 90
       50
176
     1
 62
   256
176
     0
 40
1.0
176
     0
 90
        2
176
     1
  1
strokes_ogs.tif
176
     1
290
     0
176
     1
 40
1.0
176
     1
 40
1.0
176
     1
  0
VISUALSTYLE
  5
2C
102
{ACAD_REACTORS
330
2A
102
}
330
2A
100
AcDbVisualStyle
  2
FlatWithEdges
 70
     1
177
     3
291
     1
 70
    58
 90
        2
176
     1
 90
        1
176
     1
 90
        1
176
     1
 90
        2
176
     1
 40
0.6
176
     1
 40
30.0
176
     1
 62
     7
420
 16777215
176
     1
 90
        1
176
     1
 90
        0
176
     1
 62
     7
176
     1
 62
   257
176
     1
 90
        1
176
     1
 90
        1
176
     1
 40
1.0
176
     1
 90
        0
176
     1
 62
   257
176
     1
 40
1.0
176
     1
 90
        1
176
     1
 90
        6
176
     1
 90
        2
176
     1
 62
     7
176
     1
 90
        5
176
     1
 90
        0
176
     1
 90
        0
176
     1
290
     0
176
     1
 90
       13
176
     1
 40
0.0
176
     1
 90
        0
176
     1
290
     0
176
     1
290
     1
176
     1
290
     1
176
     1
290
     0
176
     1
290
     0
176
     1
290
     0
176
     1
290
     0
176
     1
290
     0
176
     1
290
     0
176
     1
 90
       50
176
     1
 40
0.0
176
     1
 40
1.0
176
     1
 90
        0
176
     1
 62
    18
420
        0
176
     1
 90
       50
176
     1
 90
        3
176
     1
 62
     5
420
      255
176
     1
290
     0
176
     1
 90
       50
176
     1
 90
       50
176
     1
 90
       50
176
     1
290
     0
176
     1
 90
       50
176
     1
 62
   256
176
     0
 40
1.0
176
     0
 90
        2
176
     1
  1
strokes_ogs.tif
176
     1
290
     0
176
     1
 40
1.0
176
     1
 40
1.0
176
     1
  0
VISUALSTYLE
  5
2D
102
{ACAD_REACTORS
330
2A
102
}
330
2A
100
AcDbVisualStyle
  2
Gouraud
 70
     2
177
     3
291
     1
 70
    58
 90
        2
176
     1
 90
        2
176
     1
 90
        1
176
     1
 90
        2
176
     1
 40
0.6
176
     1
 40
30.0
176
     1
 62
     7
420
 16777215
176
     1
 90
        0
176
     1
 90
        0
176
     1
 62
     7
176
     1
 62
   257
176
     1
 90
        1
176
     1
 90
        1
176
     1
 40
1.0
176
     1
 90
        0
176
     1
 62
     7
176
     1
 40
1.0
176
     1
 90
        1
176
     1
 90
        6
176
     1
 90
        2
176
     1
 62
     7
176
     1
 90
        5
176
     1
 90
        0
176
     1
 90
        0
176
     1
290
     0
176
     1
 90
       13
176
     1
 40
0.0
176
     1
 90
        0
176
     1
290
     0
176
     1
290
     1
176
     1
290
     1
176
     1
290
     0
176
     1
290
     0
176
     1
290
     0
176
     1
290
     0
176
     1
290
     0
176
     1
290
     0
176
     1
 90
       50
176
     1
 40
0.0
176
     1
 40
1.0
176
     1
 90
        0
176
     1
 62
    18
420
        0
176
     1
 90
       50
176
     1
 90
        3
176
     1
 62
     5
420
      255
176
     1
290
     0
176
     1
 90
       50
176
     1
 90
       50
176
     1
 90
       50
176
     1
290
     0
176
     1
 90
       50
176
     1
 62
   256
176
     0
 40
1.0
176
     0
 90
        2
176
     1
  1
strokes_ogs.tif
176
     1
290
     0
176
     1
 40
1.0
176
     1
 40
1.0
176
     1
  0
VISUALSTYLE
  5
2E
102
{ACAD_REACTORS
330
2A
102
}
330
2A
100
AcDbVisualStyle
  2
GouraudWithEdges
 70
     3
177
     3
291
     1
 70
    58
 90
        2
176
     1
 90
        2
176
     1
 90
        1
176
     1
 90
        2
176
     1
 40
0.6
176
     1
 40
30.0
176
     1
 62
     7
420
 16777215
176
     1
 90
        1
176
     1
 90
        0
176
     1
 62
     7
176
     1
 62
   257
176
     1
 90
        1
176
     1
 90
        1
176
     1
 40
1.0
176
     1
 90
        0
176
     1
 62
   257
176
     1
 40
1.0
176
     1
 90
        1
176
     1
 90
        6
176
     1
 90
        2
176
     1
 62
     7
176
     1
 90
        5
176
     1
 90
        0
176
     1
 90
        0
176
     1
290
     0
176
     1
 90
       13
176
     1
 40
0.0
176
     1
 90
        0
176
     1
290
     0
176
     1
290
     1
176
     1
290
     1
176
     1
290
     0
176
     1
290
     0
176
     1
290
     0
176
     1
290
     0
176
     1
290
     0
176
     1
290
     0
176
     1
 90
       50
176
     1
 40
0.0
176
     1
 40
1.0
176
     1
 90
        0
176
     1
 62
    18
420
        0
176
     1
 90
       50
176
     1
 90
        3
176
     1
 62
     5
420
      255
176
     1
290
     0
176
     1
 90
       50
176
     1
 90
       50
176
     1
 90
       50
176
     1
290
     0
176
     1
 90
       50
176
     1
 62
   256
176
     0
 40
1.0
176
     0
 90
        2
176
     1
  1
strokes_ogs.tif
176
     1
290
     0
176
     1
 40
1.0
176
     1
 40
1.0
176
     1
  0
VISUALSTYLE
  5
31
102
{ACAD_REACTORS
330
2A
102
}
330
2A
100
AcDbVisualStyle
  2
Hidden
 70
     6
177
     3
291
     0
 70
    58
 90
        1
176
     1
 90
        2
176
     1
 90
        2
176
     1
 90
        0
176
     1
 40
0.6
176
     1
 40
30.0
176
     1
 62
     7
420
 16777215
176
     1
 90
        2
176
     1
 90
        2
176
     1
 62
     7
176
     1
 62
   257
176
     1
 90
        2
176
     1
 90
        1
176
     1
 40
40.0
176
     1
 90
        0
176
     1
 62
   257
176
     1
 40
1.0
176
     1
 90
        1
176
     1
 90
        6
176
     1
 90
        2
176
     1
 62
     7
176
     1
 90
        3
176
     1
 90
        0
176
     1
 90
        0
176
     1
290
     0
176
     1
 90
        1
176
     1
 40
0.0
176
     1
 90
        0
176
     1
290
     0
176
     1
290
     1
176
     1
290
     1
176
     1
290
     0
176
     1
290
     0
176
     1
290
     0
176
     1
290
     0
176
     1
290
     0
176
     1
290
     0
176
     1
 90
       50
176
     1
 40
0.0
176
     1
 40
1.0
176
     1
 90
        0
176
     1
 62
    18
420
        0
176
     1
 90
       50
176
     1
 90
        3
176
     1
 62
     5
420
      255
176
     1
290
     0
176
     1
 90
       50
176
     1
 90
       50
176
     1
 90
       50
176
     1
290
     0
176
     1
 90
       50
176
     1
 62
   256
176
     0
 40
1.0
176
     0
 90
        2
176
     1
  1
strokes_ogs.tif
176
     1
290
     0
176
     1
 40
1.0
176
     1
 40
1.0
176
     1
  0
VISUALSTYLE
  5
3B
102
{ACAD_REACTORS
330
2A
102
}
330
2A
100
AcDbVisualStyle
  2
JitterOff
 70
    20
177
     3
291
     1
 70
    58
 90
        2
176
     0
 90
        2
176
     0
 90
        0
176
     0
 90
        0
176
     0
 40
0.6
176
     0
 40
30.0
176
     0
 62
     7
420
 16777215
176
     0
 90
        1
176
     0
 90
        4
176
     0
 62
     7
176
     0
 62
   257
176
     0
 90
        1
176
     0
 90
        1
176
     0
 40
1.0
176
     0
 90
       10
176
     2
 62
     7
176
     0
 40
1.0
176
     0
 90
        1
176
     0
 90
        6
176
     0
 90
        2
176
     0
 62
     7
176
     0
 90
        5
176
     0
 90
        0
176
     0
 90
        0
176
     0
290
     0
176
     0
 90
        1
176
     0
 40
0.0
176
     0
 90
        0
176
     0
290
     0
176
     0
290
     1
176
     0
290
     1
176
     0
290
     0
176
     0
290
     0
176
     0
290
     0
176
     0
290
     0
176
     0
290
     0
176
     0
290
     0
176
     0
 90
       50
176
     0
 40
0.0
176
     0
 40
1.0
176
     0
 90
        0
176
     0
 62
    18
420
        0
176
     0
 90
       50
176
     0
 90
        3
176
     0
 62
     5
420
      255
176
     0
290
     0
176
     0
 90
       50
176
     0
 90
       50
176
     0
 90
       50
176
     0
290
     0
176
     0
 90
       50
176
     0
 62
   256
176
     0
 40
1.0
176
     0
 90
        2
176
     0
  1
strokes_ogs.tif
176
     0
290
     0
176
     0
 40
1.0
176
     0
 40
1.0
176
     0
  0
VISUALSTYLE
  5
38
102
{ACAD_REACTORS
330
2A
102
}
330
2A
100
AcDbVisualStyle
  2
Linepattern
 70
    14
177
     3
291
     1
 70
    58
 90
        2
176
     1
 90
        2
176
     1
 90
        0
176
     1
 90
        0
176
     1
 40
0.6
176
     1
 40
30.0
176
     1
 62
     7
420
 16777215
176
     1
 90
        1
176
     1
 90
        4
176
     1
 62
     7
176
     1
 62
   257
176
     1
 90
        7
176
     1
 90
        7
176
     1
 40
1.0
176
     1
 90
        8
176
     1
 62
     7
176
     1
 40
1.0
176
     1
 90
        1
176
     1
 90
        6
176
     1
 90
        2
176
     1
 62
     7
176
     1
 90
        5
176
     1
 90
        0
176
     1
 90
        0
176
     1
290
     0
176
     1
 90
        1
176
     1
 40
0.0
176
     1
 90
        0
176
     1
290
     0
176
     1
290
     1
176
     1
290
     1
176
     1
290
     0
176
     1
290
     0
176
     1
290
     0
176
     1
290
     0
176
     1
290
     0
176
     1
290
     0
176
     1
 90
       50
176
     1
 40
0.0
176
     1
 40
1.0
176
     1
 90
        0
176
     1
 62
    18
420
        0
176
     1
 90
       50
176
     1
 90
        3
176
     1
 62
     5
420
      255
176
     1
290
     0
176
     1
 90
       50
176
     1
 90
       50
176
     1
 90
       50
176
     1
290
     0
176
     1
 90
       50
176
     1
 62
   256
176
     0
 40
1.0
176
     0
 90
        2
176
     1
  1
strokes_ogs.tif
176
     1
290
     0
176
     1
 40
1.0
176
     1
 40
1.0
176
     1
  0
VISUALSTYLE
  5
3C
102
{ACAD_REACTORS
330
2A
102
}
330
2A
100
AcDbVisualStyle
  2
OverhangOff
 70
    21
177
     3
291
     1
 70
    58
 90
        2
176
     0
 90
        2
176
     0
 90
        0
176
     0
 90
        0
176
     0
 40
0.6
176
     0
 40
30.0
176
     0
 62
     7
420
 16777215
176
     0
 90
        1
176
     0
 90
        4
176
     0
 62
     7
176
     0
 62
   257
176
     0
 90
        1
176
     0
 90
        1
176
     0
 40
1.0
176
     0
 90
        9
176
     2
 62
     7
176
     0
 40
1.0
176
     0
 90
        1
176
     0
 90
        6
176
     0
 90
        2
176
     0
 62
     7
176
     0
 90
        5
176
     0
 90
        0
176
     0
 90
        0
176
     0
290
     0
176
     0
 90
        1
176
     0
 40
0.0
176
     0
 90
        0
176
     0
290
     0
176
     0
290
     1
176
     0
290
     1
176
     0
290
     0
176
     0
290
     0
176
     0
290
     0
176
     0
290
     0
176
     0
290
     0
176
     0
290
     0
176
     0
 90
       50
176
     0
 40
0.0
176
     0
 40
1.0
176
     0
 90
        0
176
     0
 62
    18
420
        0
176
     0
 90
       50
176
     0
 90
        3
176
     0
 62
     5
420
      255
176
     0
290
     0
176
     0
 90
       50
176
     0
 90
       50
176
     0
 90
       50
176
     0
290
     0
176
     0
 90
       50
176
     0
 62
   256
176
     0
 40
1.0
176
     0
 90
        2
176
     0
  1
strokes_ogs.tif
176
     0
290
     0
176
     0
 40
1.0
176
     0
 40
1.0
176
     0
  0
VISUALSTYLE
  5
33
102
{ACAD_REACTORS
330
2A
102
}
330
2A
100
AcDbVisualStyle
  2
Realistic
 70
     8
177
     3
291
     0
 70
    58
 90
        2
176
     1
 90
        3
176
     1
 90
        0
176
     1
 90
        2
176
     1
 40
0.6
176
     1
 40
30.0
176
     1
 62
     7
420
 16777215
176
     1
 90
        0
176
     1
 90
        0
176
     1
 62
     7
176
     1
 62
   257
176
     1
 90
        1
176
     1
 90
        1
176
     1
 40
1.0
176
     1
 90
        8
176
     1
 62
   257
176
     1
 40
1.0
176
     1
 90
        1
176
     1
 90
        6
176
     1
 90
        2
176
     1
 62
     7
176
     1
 90
        3
176
     1
 90
        0
176
     1
 90
        0
176
     1
290
     0
176
     1
 90
       13
176
     1
 40
0.0
176
     1
 90
        0
176
     1
290
     0
176
     1
290
     1
176
     1
290
     1
176
     1
290
     0
176
     1
290
     0
176
     1
290
     0
176
     1
290
     0
176
     1
290
     0
176
     1
290
     0
176
     1
 90
       50
176
     1
 40
0.0
176
     1
 40
1.0
176
     1
 90
        0
176
     1
 62
    18
420
        0
176
     1
 90
       50
176
     1
 90
        3
176
     1
 62
     5
420
      255
176
     1
290
     0
176
     1
 90
       50
176
     1
 90
       50
176
     1
 90
       50
176
     1
290
     0
176
     1
 90
       50
176
     1
 62
   256
176
     0
 40
1.0
176
     0
 90
        2
176
     1
  1
strokes_ogs.tif
176
     1
290
     0
176
     1
 40
1.0
176
     1
 40
1.0
176
     1
  0
VISUALSTYLE
  5
42
102
{ACAD_REACTORS
330
2A
102
}
330
2A
100
AcDbVisualStyle
  2
Shaded
 70
    27
177
     3
291
     0
 70
    58
 90
        2
176
     1
 90
        2
176
     1
 90
        1
176
     1
 90
        2
176
     1
 40
0.6
176
     1
 40
30.0
176
     1
 62
     7
420
 16777215
176
     1
 90
        0
176
     1
 90
        4
176
     1
 62
     7
176
     1
 62
   257
176
     1
 90
        1
176
     1
 90
        1
176
     1
 40
1.0
176
     1
 90
        8
176
     1
 62
   257
176
     1
 40
1.0
176
     1
 90
        1
176
     1
 90
        6
176
     1
 90
        2
176
     1
 62
     8
420
  7895160
176
     1
 90
        3
176
     1
 90
        0
176
     1
 90
        0
176
     1
290
     0
176
     1
 90
        5
176
     1
 40
0.0
176
     1
 90
        0
176
     1
290
     0
176
     1
290
     1
176
     1
290
     1
176
     1
290
     0
176
     1
290
     0
176
     1
290
     0
176
     1
290
     0
176
     1
290
     0
176
     1
290
     0
176
     1
 90
       50
176
     1
 40
0.0
176
     1
 40
1.0
176
     1
 90
        0
176
     1
 62
    18
420
        0
176
     1
 90
       50
176
     1
 90
        3
176
     1
 62
     5
420
      255
176
     1
290
     0
176
     1
 90
       50
176
     1
 90
       50
176
     1
 90
       50
176
     1
290
     0
176
     1
 90
       50
176
     1
 62
   256
176
     0
 40
1.0
176
     0
 90
        2
176
     1
  1
strokes_ogs.tif
176
     1
290
     0
176
     1
 40
1.0
176
     1
 40
1.0
176
     1
  0
VISUALSTYLE
  5
41
102
{ACAD_REACTORS
330
2A
102
}
330
2A
100
AcDbVisualStyle
  2
Shaded with edges
 70
    26
177
     3
291
     0
 70
    58
 90
        2
176
     1
 90
        2
176
     1
 90
        1
176
     1
 90
        2
176
     1
 40
0.6
176
     1
 40
30.0
176
     1
 62
     7
420
 16777215
176
     1
 90
        1
176
     1
 90
       10
176
     1
 62
     7
176
     1
 62
   257
176
     1
 90
        2
176
     1
 90
        1
176
     1
 40
1.0
176
     1
 90
        8
176
     1
 62
   257
176
     1
 40
1.0
176
     1
 90
        1
176
     1
 90
        6
176
     1
 90
        2
176
     1
 62
     7
176
     1
 90
        3
176
     1
 90
        0
176
     1
 90
        0
176
     1
290
     0
176
     1
 90
        5
176
     1
 40
0.0
176
     1
 90
        0
176
     1
290
     0
176
     1
290
     1
176
     1
290
     1
176
     1
290
     0
176
     1
290
     0
176
     1
290
     0
176
     1
290
     0
176
     1
290
     0
176
     1
290
     0
176
     1
 90
       50
176
     1
 40
0.0
176
     1
 40
1.0
176
     1
 90
        0
176
     1
 62
    18
420
        0
176
     1
 90
       50
176
     1
 90
        3
176
     1
 62
     5
420
      255
176
     1
290
     0
176
     1
 90
       50
176
     1
 90
       50
176
     1
 90
       50
176
     1
290
     0
176
     1
 90
       50
176
     1
 62
   256
176
     0
 40
1.0
176
     0
 90
        2
176
     1
  1
strokes_ogs.tif
176
     1
290
     0
176
     1
 40
1.0
176
     1
 40
1.0
176
     1
  0
VISUALSTYLE
  5
3E
102
{ACAD_REACTORS
330
2A
102
}
330
2A
100
AcDbVisualStyle
  2
Shades of Gray
 70
    23
177
     3
291
     0
 70
    58
 90
        2
176
     1
 90
        2
176
     1
 90
        3
176
     1
 90
        0
176
     1
 40
0.6
176
     1
 40
30.0
176
     1
 62
     7
420
 16777215
176
     1
 90
        2
176
     1
 90
        2
176
     1
 62
     7
176
     1
 62
     7
176
     1
 90
        1
176
     1
 90
        1
176
     1
 40
40.0
176
     1
 90
        8
176
     1
 62
     7
176
     1
 40
1.0
176
     1
 90
        1
176
     1
 90
        6
176
     1
 90
        2
176
     1
 62
     7
176
     1
 90
        3
176
     1
 90
        0
176
     1
 90
        0
176
     1
290
     0
176
     1
 90
        1
176
     1
 40
0.0
176
     1
 90
        0
176
     1
290
     0
176
     1
290
     1
176
     1
290
     1
176
     1
290
     0
176
     1
290
     0
176
     1
290
     0
176
     1
290
     0
176
     1
290
     0
176
     1
290
     0
176
     1
 90
       50
176
     1
 40
0.0
176
     1
 40
1.0
176
     1
 90
        0
176
     1
 62
    18
420
        0
176
     1
 90
       50
176
     1
 90
        3
176
     1
 62
     5
420
      255
176
     1
290
     0
176
     1
 90
       50
176
     1
 90
       50
176
     1
 90
       50
176
     1
290
     0
176
     1
 90
       50
176
     1
 62
   256
176
     0
 40
1.0
176
     0
 90
        2
176
     1
  1
strokes_ogs.tif
176
     1
290
     0
176
     1
 40
1.0
176
     1
 40
1.0
176
     1
  0
VISUALSTYLE
  5
3F
102
{ACAD_REACTORS
330
2A
102
}
330
2A
100
AcDbVisualStyle
  2
Sketchy
 70
    24
177
     3
291
     0
 70
    58
 90
        1
176
     1
 90
        2
176
     1
 90
        2
176
     1
 90
        0
176
     1
 40
0.6
176
     1
 40
30.0
176
     1
 62
     7
420
 16777215
176
     1
 90
        2
176
     1
 90
        2
176
     1
 62
     7
176
     1
 62
     7
176
     1
 90
        1
176
     1
 90
        1
176
     1
 40
40.0
176
     1
 90
       11
176
     1
 62
     7
176
     1
 40
1.0
176
     1
 90
        1
176
     1
 90
        6
176
     1
 90
        2
176
     1
 62
     7
176
     1
 90
        6
176
     1
 90
        0
176
     1
 90
        0
176
     1
290
     0
176
     1
 90
        1
176
     1
 40
0.0
176
     1
 90
        0
176
     1
290
     0
176
     1
290
     1
176
     1
290
     1
176
     1
290
     0
176
     1
290
     0
176
     1
290
     0
176
     1
290
     0
176
     1
290
     0
176
     1
290
     0
176
     1
 90
       50
176
     1
 40
0.0
176
     1
 40
1.0
176
     1
 90
        0
176
     1
 62
    18
420
        0
176
     1
 90
       50
176
     1
 90
        3
176
     1
 62
     5
420
      255
176
     1
290
     0
176
     1
 90
       50
176
     1
 90
       50
176
     1
 90
       50
176
     1
290
     0
176
     1
 90
       50
176
     1
 62
   256
176
     0
 40
1.0
176
     0
 90
        2
176
     1
  1
strokes_ogs.tif
176
     1
290
     0
176
     1
 40
1.0
176
     1
 40
1.0
176
     1
  0
VISUALSTYLE
  5
37
102
{ACAD_REACTORS
330
2A
102
}
330
2A
100
AcDbVisualStyle
  2
Thicken
 70
    13
177
     3
291
     1
 70
    58
 90
        2
176
     1
 90
        2
176
     1
 90
        0
176
     1
 90
        0
176
     1
 40
0.6
176
     1
 40
30.0
176
     1
 62
     7
420
 16777215
176
     1
 90
        1
176
     1
 90
        4
176
     1
 62
     7
176
     1
 62
   257
176
     1
 90
        1
176
     1
 90
        1
176
     1
 40
1.0
176
     1
 90
       12
176
     1
 62
     7
176
     1
 40
1.0
176
     1
 90
        1
176
     1
 90
        6
176
     1
 90
        2
176
     1
 62
     7
176
     1
 90
        5
176
     1
 90
        0
176
     1
 90
        0
176
     1
290
     0
176
     1
 90
        1
176
     1
 40
0.0
176
     1
 90
        0
176
     1
290
     0
176
     1
290
     1
176
     1
290
     1
176
     1
290
     0
176
     1
290
     0
176
     1
290
     0
176
     1
290
     0
176
     1
290
     0
176
     1
290
     0
176
     1
 90
       50
176
     1
 40
0.0
176
     1
 40
1.0
176
     1
 90
        0
176
     1
 62
    18
420
        0
176
     1
 90
       50
176
     1
 90
        3
176
     1
 62
     5
420
      255
176
     1
290
     0
176
     1
 90
       50
176
     1
 90
       50
176
     1
 90
       50
176
     1
290
     0
176
     1
 90
       50
176
     1
 62
   256
176
     0
 40
1.0
176
     0
 90
        2
176
     1
  1
strokes_ogs.tif
176
     1
290
     0
176
     1
 40
1.0
176
     1
 40
1.0
176
     1
  0
VISUALSTYLE
  5
30
102
{ACAD_REACTORS
330
2A
102
}
330
2A
100
AcDbVisualStyle
  2
Wireframe
 70
     5
177
     3
291
     0
 70
    58
 90
        0
176
     1
 90
        2
176
     1
 90
        0
176
     1
 90
        0
176
     1
 40
0.6
176
     1
 40
30.0
176
     1
 62
     7
420
 16777215
176
     1
 90
        1
176
     1
 90
        4
176
     1
 62
     7
176
     1
 62
   257
176
     1
 90
        1
176
     1
 90
        1
176
     1
 40
1.0
176
     1
 90
        0
176
     1
 62
   257
176
     1
 40
1.0
176
     1
 90
        1
176
     1
 90
        6
176
     1
 90
        2
176
     1
 62
     7
176
     1
 90
        3
176
     1
 90
        0
176
     1
 90
        0
176
     1
290
     0
176
     1
 90
        1
176
     1
 40
0.0
176
     1
 90
        0
176
     1
290
     0
176
     1
290
     1
176
     1
290
     1
176
     1
290
     0
176
     1
290
     0
176
     1
290
     0
176
     1
290
     0
176
     1
290
     0
176
     1
290
     0
176
     1
 90
       50
176
     1
 40
0.0
176
     1
 40
1.0
176
     1
 90
        0
176
     1
 62
    18
420
        0
176
     1
 90
       50
176
     1
 90
        3
176
     1
 62
     5
420
      255
176
     1
290
     0
176
     1
 90
       50
176
     1
 90
       50
176
     1
 90
       50
176
     1
290
     0
176
     1
 90
       50
176
     1
 62
   256
176
     0
 40
1.0
176
     0
 90
        2
176
     1
  1
strokes_ogs.tif
176
     1
290
     0
176
     1
 40
1.0
176
     1
 40
1.0
176
     1
  0
VISUALSTYLE
  5
40
102
{ACAD_REACTORS
330
2A
102
}
330
2A
100
AcDbVisualStyle
  2
X-Ray
 70
    25
177
     3
291
     0
 70
    58
 90
        2
176
     1
 90
        2
176
     1
 90
        1
176
     1
 90
        1
176
     1
 40
0.5
176
     1
 40
30.0
176
     1
 62
     7
420
 16777215
176
     1
 90
        1
176
     1
 90
        0
176
     1
 62
     7
176
     1
 62
   257
176
     1
 90
        1
176
     1
 90
        1
176
     1
 40
1.0
176
     1
 90
        8
176
     1
 62
     7
176
     1
 40
1.0
176
     1
 90
        1
176
     1
 90
        6
176
     1
 90
        2
176
     1
 62
     7
176
     1
 90
        3
176
     1
 90
        0
176
     1
 90
        0
176
     1
290
     0
176
     1
 90
       13
176
     1
 40
0.0
176
     1
 90
        0
176
     1
290
     0
176
     1
290
     1
176
     1
290
     1
176
     1
290
     0
176
     1
290
     0
176
     1
290
     0
176
     1
290
     0
176
     1
290
     0
176
     1
290
     0
176
     1
 90
       50
176
     1
 40
0.0
176
     1
 40
1.0
176
     1
 90
        0
176
     1
 62
    18
420
        0
176
     1
 90
       50
176
     1
 90
        3
176
     1
 62
     5
420
      255
176
     1
290
     0
176
     1
 90
       50
176
     1
 90
       50
176
     1
 90
       50
176
     1
290
     0
176
     1
 90
       50
176
     1
 62
   256
176
     0
 40
1.0
176
     0
 90
        2
176
     1
  1
strokes_ogs.tif
176
     1
290
     0
176
     1
 40
1.0
176
     1
 40
1.0
176
     1
  0
DICTIONARYVAR
  5
1B5
102
{ACAD_REACTORS
330
1B4
102
}
330
1B4
100
DictionaryVariables
280
     0
  1
1:1
  0
DICTIONARYVAR
  5
1BA
102
{ACAD_REACTORS
330
1B4
102
}
330
1B4
100
DictionaryVariables
280
     0
  1
Standard
  0
DICTIONARYVAR
  5
1B9
102
{ACAD_REACTORS
330
1B4
102
}
330
1B4
100
DictionaryVariables
280
     0
  1
Standard
  0
DICTIONARY
  5
1B6
330
6A
100
AcDbDictionary
280
     1
281
     1
  3
ACAD_ROUNDTRIP_2008_TABLESTYLE_CELLSTYLEMAP
360
1B7
  0
CELLSTYLEMAP
  5
1B7
102
{ACAD_REACTORS
330
1B6
102
}
330
1B6
100
AcDbCellStyleMap
 90
        3
300
CELLSTYLE
  1
TABLEFORMAT_BEGIN
 90
        5
170
     1
 91
        0
 92
    32768
 62
   257
 93
        1
300
CONTENTFORMAT
  1
CONTENTFORMAT_BEGIN
 90
        0
 91
        0
 92
        4
 93
        0
300

 40
0.0
140
1.0
 94
        5
 62
     0
340
11
144
0.25
309
CONTENTFORMAT_END
171
     1
301
MARGIN
  1
CELLMARGIN_BEGIN
 40
0.06
 40
0.06
 40
0.06
 40
0.06
 40
0.06
 40
0.06
309
CELLMARGIN_END
 94
        6
 95
        1
302
GRIDFORMAT
  1
GRIDFORMAT_BEGIN
 90
        0
 91
        1
 62
     0
 92
       -2
340
14
 93
        0
 40
0.045
309
GRIDFORMAT_END
 95
        2
302
GRIDFORMAT
  1
GRIDFORMAT_BEGIN
 90
        0
 91
        1
 62
     0
 92
       -2
340
14
 93
        0
 40
0.045
309
GRIDFORMAT_END
 95
        4
302
GRIDFORMAT
  1
GRIDFORMAT_BEGIN
 90
        0
 91
        1
 62
     0
 92
       -2
340
14
 93
        0
 40
0.045
309
GRIDFORMAT_END
 95
        8
302
GRIDFORMAT
  1
GRIDFORMAT_BEGIN
 90
        0
 91
        1
 62
     0
 92
       -2
340
14
 93
        0
 40
0.045
309
GRIDFORMAT_END
 95
       16
302
GRIDFORMAT
  1
GRIDFORMAT_BEGIN
 90
        0
 91
        1
 62
     0
 92
       -2
340
14
 93
        0
 40
0.045
309
GRIDFORMAT_END
 95
       32
302
GRIDFORMAT
  1
GRIDFORMAT_BEGIN
 90
        0
 91
        1
 62
     0
 92
       -2
340
14
 93
        0
 40
0.045
309
GRIDFORMAT_END
309
TABLEFORMAT_END
  1
CELLSTYLE_BEGIN
 90
        1
 91
        1
300
_TITLE
309
CELLSTYLE_END
300
CELLSTYLE
  1
TABLEFORMAT_BEGIN
 90
        5
170
     1
 91
        0
 92
        0
 62
   257
 93
        1
300
CONTENTFORMAT
  1
CONTENTFORMAT_BEGIN
 90
        0
 91
        0
 92
        4
 93
        0
300

 40
0.0
140
1.0
 94
        5
 62
     0
340
11
144
0.18
309
CONTENTFORMAT_END
171
     1
301
MARGIN
  1
CELLMARGIN_BEGIN
 40
0.06
 40
0.06
 40
0.06
 40
0.06
 40
0.06
 40
0.06
309
CELLMARGIN_END
 94
        6
 95
        1
302
GRIDFORMAT
  1
GRIDFORMAT_BEGIN
 90
        0
 91
        1
 62
     0
 92
       -2
340
14
 93
        0
 40
0.045
309
GRIDFORMAT_END
 95
        2
302
GRIDFORMAT
  1
GRIDFORMAT_BEGIN
 90
        0
 91
        1
 62
     0
 92
       -2
340
14
 93
        0
 40
0.045
309
GRIDFORMAT_END
 95
        4
302
GRIDFORMAT
  1
GRIDFORMAT_BEGIN
 90
        0
 91
        1
 62
     0
 92
       -2
340
14
 93
        0
 40
0.045
309
GRIDFORMAT_END
 95
        8
302
GRIDFORMAT
  1
GRIDFORMAT_BEGIN
 90
        0
 91
        1
 62
     0
 92
       -2
340
14
 93
        0
 40
0.045
309
GRIDFORMAT_END
 95
       16
302
GRIDFORMAT
  1
GRIDFORMAT_BEGIN
 90
        0
 91
        1
 62
     0
 92
       -2
340
14
 93
        0
 40
0.045
309
GRIDFORMAT_END
 95
       32
302
GRIDFORMAT
  1
GRIDFORMAT_BEGIN
 90
        0
 91
        1
 62
     0
 92
       -2
340
14
 93
        0
 40
0.045
309
GRIDFORMAT_END
309
TABLEFORMAT_END
  1
CELLSTYLE_BEGIN
 90
        2
 91
        1
300
_HEADER
309
CELLSTYLE_END
300
CELLSTYLE
  1
TABLEFORMAT_BEGIN
 90
        5
170
     1
 91
        0
 92
        0
 62
   257
 93
        1
300
CONTENTFORMAT
  1
CONTENTFORMAT_BEGIN
 90
        0
 91
        0
 92
        4
 93
        0
300

 40
0.0
140
1.0
 94
        2
 62
     0
340
11
144
0.18
309
CONTENTFORMAT_END
171
     1
301
MARGIN
  1
CELLMARGIN_BEGIN
 40
0.06
 40
0.06
 40
0.06
 40
0.06
 40
0.06
 40
0.06
309
CELLMARGIN_END
 94
        6
 95
        1
302
GRIDFORMAT
  1
GRIDFORMAT_BEGIN
 90
        0
 91
        1
 62
     0
 92
       -2
340
14
 93
        0
 40
0.045
309
GRIDFORMAT_END
 95
        2
302
GRIDFORMAT
  1
GRIDFORMAT_BEGIN
 90
        0
 91
        1
 62
     0
 92
       -2
340
14
 93
        0
 40
0.045
309
GRIDFORMAT_END
 95
        4
302
GRIDFORMAT
  1
GRIDFORMAT_BEGIN
 90
        0
 91
        1
 62
     0
 92
       -2
340
14
 93
        0
 40
0.045
309
GRIDFORMAT_END
 95
        8
302
GRIDFORMAT
  1
GRIDFORMAT_BEGIN
 90
        0
 91
        1
 62
     0
 92
       -2
340
14
 93
        0
 40
0.045
309
GRIDFORMAT_END
 95
       16
302
GRIDFORMAT
  1
GRIDFORMAT_BEGIN
 90
        0
 91
        1
 62
     0
 92
       -2
340
14
 93
        0
 40
0.045
309
GRIDFORMAT_END
 95
       32
302
GRIDFORMAT
  1
GRIDFORMAT_BEGIN
 90
        0
 91
        1
 62
     0
 92
       -2
340
14
 93
        0
 40
0.045
309
GRIDFORMAT_END
309
TABLEFORMAT_END
  1
CELLSTYLE_BEGIN
 90
        3
 91
        2
300
_DATA
309
CELLSTYLE_END
  0
ENDSEC
  0
EOF