0
SECTION
  2
HEADER
  9
$ACADVER
  1
AC1027
  9
$ACADMAINTVER
 70
     8
  9
$DWGCODEPAGE
  3
ANSI_1252
  9
$REQUIREDVERSIONS
160
                 0
  9
$COMMENTS
  1
File was created by Cadenas
  9
$CUSTOMPROPERTYTAG
  1
NN
  9
$CUSTOMPROPERTY
  1
Set Screw Intermediate Duty Two-Bolt Pillow Block Inch Bore
  9
$CUSTOMPROPERTYTAG
  1
NT
  9
$CUSTOMPROPERTY
  1
VSC Intermediate Duty Pillow Blocks
  9
$CUSTOMPROPERTYTAG
  1
NB
  9
$CUSTOMPROPERTY
  1
123586
  9
$CUSTOMPROPERTYTAG
  1
NBSYN
  9
$CUSTOMPROPERTY
  1
$PN.
  9
$CUSTOMPROPERTYTAG
  1
LINA
  9
$CUSTOMPROPERTY
  1
123586
  9
$CUSTOMPROPERTYTAG
  1
RS
  9
$CUSTOMPROPERTY
  1
210
  9
$CUSTOMPROPERTYTAG
  1
SS
  9
$CUSTOMPROPERTY
  1
1-15/16
  9
$CUSTOMPROPERTYTAG
  1
PN
  9
$CUSTOMPROPERTY
  1
123586
  9
$CUSTOMPROPERTYTAG
  1
DESCRIPTION
  9
$CUSTOMPROPERTY
  1
P2B-VSC-115
  9
$CUSTOMPROPERTYTAG
  1
LF
  9
$CUSTOMPROPERTY
  1
RE-LUBE
  9
$CUSTOMPROPERTYTAG
  1
WEIGHT
  9
$CUSTOMPROPERTY
  1
7.2
  9
$CUSTOMPROPERTYTAG
  1
A
  9
$CUSTOMPROPERTY
  1
1.94
  9
$CUSTOMPROPERTYTAG
  1
B
  9
$CUSTOMPROPERTY
  1
8.12
  9
$CUSTOMPROPERTYTAG
  1
C
  9
$CUSTOMPROPERTY
  1
2.25
  9
$CUSTOMPROPERTYTAG
  1
DMIN
  9
$CUSTOMPROPERTY
  1
6.00
  9
$CUSTOMPROPERTYTAG
  1
DMAX
  9
$CUSTOMPROPERTY
  1
6.68
  9
$CUSTOMPROPERTYTAG
  1
F
  9
$CUSTOMPROPERTY
  1
5/8
  9
$CUSTOMPROPERTYTAG
  1
G
  9
$CUSTOMPROPERTY
  1
1.02
  9
$CUSTOMPROPERTYTAG
  1
H
  9
$CUSTOMPROPERTY
  1
0.75
  9
$CUSTOMPROPERTYTAG
  1
J
  9
$CUSTOMPROPERTY
  1
4.53
  9
$CUSTOMPROPERTYTAG
  1
L
  9
$CUSTOMPROPERTY
  1
2.43
  9
$CUSTOMPROPERTYTAG
  1
M
  9
$CUSTOMPROPERTY
  1
2.25
  9
$CUSTOMPROPERTYTAG
  1
R
  9
$CUSTOMPROPERTY
  1
0.75
  9
$CUSTOMPROPERTYTAG
  1
S
  9
$CUSTOMPROPERTY
  1
1.19
  9
$CUSTOMPROPERTYTAG
  1
U
  9
$CUSTOMPROPERTY
  1
3.69
  9
$CUSTOMPROPERTYTAG
  1
V
  9
$CUSTOMPROPERTY
  1
7.38
  9
$CUSTOMPROPERTYTAG
  1
W
  9
$CUSTOMPROPERTY
  1
0.81
  9
$CUSTOMPROPERTYTAG
  1
X
  9
$CUSTOMPROPERTY
  1
0.12
  9
$CUSTOMPROPERTYTAG
  1
COMPANY
  9
$CUSTOMPROPERTY
  1
baldor
  9
$INSBASE
 10
0.0
 20
0.0
 30
0.0
  9
$EXTMIN
 10
1.000000000000000E+20
 20
1.000000000000000E+20
 30
1.000000000000000E+20
  9
$EXTMAX
 10
-1.000000000000000E+20
 20
-1.000000000000000E+20
 30
-1.000000000000000E+20
  9
$LIMMIN
 10
0.0
 20
0.0
  9
$LIMMAX
 10
12.0
 20
9.0
  9
$ORTHOMODE
 70
     0
  9
$REGENMODE
 70
     1
  9
$FILLMODE
 70
     1
  9
$QTEXTMODE
 70
     0
  9
$MIRRTEXT
 70
     1
  9
$LTSCALE
 40
1.0
  9
$ATTMODE
 70
     1
  9
$TEXTSIZE
 40
0.2
  9
$TRACEWID
 40
0.05
  9
$TEXTSTYLE
  7
Standard
  9
$CLAYER
  8
0
  9
$CELTYPE
  6
ByLayer
  9
$CECOLOR
 62
   256
  9
$CELTSCALE
 40
1.0
  9
$DISPSILH
 70
     0
  9
$DIMSCALE
 40
1.0
  9
$DIMASZ
 40
0.18
  9
$DIMEXO
 40
0.0625
  9
$DIMDLI
 40
0.38
  9
$DIMRND
 40
0.0
  9
$DIMDLE
 40
0.0
  9
$DIMEXE
 40
0.18
  9
$DIMTP
 40
0.0
  9
$DIMTM
 40
0.0
  9
$DIMTXT
 40
0.18
  9
$DIMCEN
 40
0.09
  9
$DIMTSZ
 40
0.0
  9
$DIMTOL
 70
     0
  9
$DIMLIM
 70
     0
  9
$DIMTIH
 70
     1
  9
$DIMTOH
 70
     1
  9
$DIMSE1
 70
     0
  9
$DIMSE2
 70
     0
  9
$DIMTAD
 70
     0
  9
$DIMZIN
 70
     0
  9
$DIMBLK
  1

  9
$DIMASO
 70
     1
  9
$DIMSHO
 70
     1
  9
$DIMPOST
  1

  9
$DIMAPOST
  1

  9
$DIMALT
 70
     0
  9
$DIMALTD
 70
     2
  9
$DIMALTF
 40
25.4
  9
$DIMLFAC
 40
1.0
  9
$DIMTOFL
 70
     0
  9
$DIMTVP
 40
0.0
  9
$DIMTIX
 70
     0
  9
$DIMSOXD
 70
     0
  9
$DIMSAH
 70
     0
  9
$DIMBLK1
  1

  9
$DIMBLK2
  1

  9
$DIMSTYLE
  2
Standard
  9
$DIMCLRD
 70
     0
  9
$DIMCLRE
 70
     0
  9
$DIMCLRT
 70
     0
  9
$DIMTFAC
 40
1.0
  9
$DIMGAP
 40
0.09
  9
$DIMJUST
 70
     0
  9
$DIMSD1
 70
     0
  9
$DIMSD2
 70
     0
  9
$DIMTOLJ
 70
     1
  9
$DIMTZIN
 70
     0
  9
$DIMALTZ
 70
     0
  9
$DIMALTTZ
 70
     0
  9
$DIMUPT
 70
     0
  9
$DIMDEC
 70
     4
  9
$DIMTDEC
 70
     4
  9
$DIMALTU
 70
     2
  9
$DIMALTTD
 70
     2
  9
$DIMTXSTY
  7
Standard
  9
$DIMAUNIT
 70
     0
  9
$DIMADEC
 70
     0
  9
$DIMALTRND
 40
0.0
  9
$DIMAZIN
 70
     0
  9
$DIMDSEP
 70
    46
  9
$DIMATFIT
 70
     3
  9
$DIMFRAC
 70
     0
  9
$DIMLDRBLK
  1

  9
$DIMLUNIT
 70
     2
  9
$DIMLWD
 70
    -2
  9
$DIMLWE
 70
    -2
  9
$DIMTMOVE
 70
     0
  9
$DIMFXL
 40
1.0
  9
$DIMFXLON
 70
     0
  9
$DIMJOGANG
 40
0.7853981633974483
  9
$DIMTFILL
 70
     0
  9
$DIMTFILLCLR
 70
     0
  9
$DIMARCSYM
 70
     0
  9
$DIMLTYPE
  6

  9
$DIMLTEX1
  6

  9
$DIMLTEX2
  6

  9
$DIMTXTDIRECTION
 70
     0
  9
$LUNITS
 70
     2
  9
$LUPREC
 70
     4
  9
$SKETCHINC
 40
0.1
  9
$FILLETRAD
 40
0.5
  9
$AUNITS
 70
     0
  9
$AUPREC
 70
     0
  9
$MENU
  1
.
  9
$ELEVATION
 40
0.0
  9
$PELEVATION
 40
0.0
  9
$THICKNESS
 40
0.0
  9
$LIMCHECK
 70
     0
  9
$CHAMFERA
 40
0.0
  9
$CHAMFERB
 40
0.0
  9
$CHAMFERC
 40
0.0
  9
$CHAMFERD
 40
0.0
  9
$SKPOLY
 70
     0
  9
$TDCREATE
 40
2458168.998210741
  9
$TDUCREATE
 40
2458168.956544074
  9
$TDUPDATE
 40
2458168.998210926
  9
$TDUUPDATE
 40
2458168.956544259
  9
$TDINDWG
 40
0.0000000116
  9
$TDUSRTIMER
 40
0.0000000116
  9
$USRTIMER
 70
     1
  9
$ANGBASE
 50
0.0
  9
$ANGDIR
 70
     0
  9
$PDMODE
 70
     0
  9
$PDSIZE
 40
0.0
  9
$PLINEWID
 40
0.0
  9
$SPLFRAME
 70
     0
  9
$SPLINETYPE
 70
     6
  9
$SPLINESEGS
 70
     8
  9
$HANDSEED
  5
1BF
  9
$SURFTAB1
 70
     6
  9
$SURFTAB2
 70
     6
  9
$SURFTYPE
 70
     6
  9
$SURFU
 70
     6
  9
$SURFV
 70
     6
  9
$UCSBASE
  2

  9
$UCSNAME
  2

  9
$UCSORG
 10
0.0
 20
0.0
 30
0.0
  9
$UCSXDIR
 10
1.0
 20
0.0
 30
0.0
  9
$UCSYDIR
 10
0.0
 20
1.0
 30
0.0
  9
$UCSORTHOREF
  2

  9
$UCSORTHOVIEW
 70
     0
  9
$UCSORGTOP
 10
0.0
 20
0.0
 30
0.0
  9
$UCSORGBOTTOM
 10
0.0
 20
0.0
 30
0.0
  9
$UCSORGLEFT
 10
0.0
 20
0.0
 30
0.0
  9
$UCSORGRIGHT
 10
0.0
 20
0.0
 30
0.0
  9
$UCSORGFRONT
 10
0.0
 20
0.0
 30
0.0
  9
$UCSORGBACK
 10
0.0
 20
0.0
 30
0.0
  9
$PUCSBASE
  2

  9
$PUCSNAME
  2

  9
$PUCSORG
 10
0.0
 20
0.0
 30
0.0
  9
$PUCSXDIR
 10
1.0
 20
0.0
 30
0.0
  9
$PUCSYDIR
 10
0.0
 20
1.0
 30
0.0
  9
$PUCSORTHOREF
  2

  9
$PUCSORTHOVIEW
 70
     0
  9
$PUCSORGTOP
 10
0.0
 20
0.0
 30
0.0
  9
$PUCSORGBOTTOM
 10
0.0
 20
0.0
 30
0.0
  9
$PUCSORGLEFT
 10
0.0
 20
0.0
 30
0.0
  9
$PUCSORGRIGHT
 10
0.0
 20
0.0
 30
0.0
  9
$PUCSORGFRONT
 10
0.0
 20
0.0
 30
0.0
  9
$PUCSORGBACK
 10
0.0
 20
0.0
 30
0.0
  9
$USERI1
 70
     0
  9
$USERI2
 70
     0
  9
$USERI3
 70
     0
  9
$USERI4
 70
     0
  9
$USERI5
 70
     0
  9
$USERR1
 40
0.0
  9
$USERR2
 40
0.0
  9
$USERR3
 40
0.0
  9
$USERR4
 40
0.0
  9
$USERR5
 40
0.0
  9
$WORLDVIEW
 70
     1
  9
$SHADEDGE
 70
     3
  9
$SHADEDIF
 70
    70
  9
$TILEMODE
 70
     1
  9
$MAXACTVP
 70
    64
  9
$PINSBASE
 10
0.0
 20
0.0
 30
0.0
  9
$PLIMCHECK
 70
     0
  9
$PEXTMIN
 10
1.000000000000000E+20
 20
1.000000000000000E+20
 30
1.000000000000000E+20
  9
$PEXTMAX
 10
-1.000000000000000E+20
 20
-1.000000000000000E+20
 30
-1.000000000000000E+20
  9
$PLIMMIN
 10
0.0
 20
0.0
  9
$PLIMMAX
 10
12.0
 20
9.0
  9
$UNITMODE
 70
     0
  9
$VISRETAIN
 70
     1
  9
$PLINEGEN
 70
     0
  9
$PSLTSCALE
 70
     1
  9
$TREEDEPTH
 70
  3020
  9
$CMLSTYLE
  2
Standard
  9
$CMLJUST
 70
     0
  9
$CMLSCALE
 40
1.0
  9
$PROXYGRAPHICS
 70
     1
  9
$MEASUREMENT
 70
     0
  9
$CELWEIGHT
370
    -1
  9
$ENDCAPS
280
     0
  9
$JOINSTYLE
280
     0
  9
$LWDISPLAY
290
     0
  9
$INSUNITS
 70
     1
  9
$HYPERLINKBASE
  1

  9
$STYLESHEET
  1

  9
$XEDIT
290
     1
  9
$CEPSNTYPE
380
     0
  9
$PSTYLEMODE
290
     1
  9
$FINGERPRINTGUID
  2
{538932BF-01D7-48A5-A59C-20BE448841F1}
  9
$VERSIONGUID
  2
{FAEB1C32-E019-11D5-929B-00C0DF256EC4}
  9
$EXTNAMES
290
     1
  9
$PSVPSCALE
 40
0.0
  9
$OLESTARTUP
290
     0
  9
$SORTENTS
280
   127
  9
$INDEXCTL
280
     0
  9
$HIDETEXT
280
     1
  9
$XCLIPFRAME
280
     2
  9
$HALOGAP
280
     0
  9
$OBSCOLOR
 70
   257
  9
$OBSLTYPE
280
     0
  9
$INTERSECTIONDISPLAY
280
     0
  9
$INTERSECTIONCOLOR
 70
   257
  9
$DIMASSOC
280
     2
  9
$PROJECTNAME
  1

  9
$CAMERADISPLAY
290
     0
  9
$LENSLENGTH
 40
50.0
  9
$CAMERAHEIGHT
 40
0.0
  9
$STEPSPERSEC
 40
2.0
  9
$STEPSIZE
 40
6.0
  9
$3DDWFPREC
 40
2.0
  9
$PSOLWIDTH
 40
0.25
  9
$PSOLHEIGHT
 40
4.0
  9
$LOFTANG1
 40
1.570796326794897
  9
$LOFTANG2
 40
1.570796326794897
  9
$LOFTMAG1
 40
0.0
  9
$LOFTMAG2
 40
0.0
  9
$LOFTPARAM
 70
     7
  9
$LOFTNORMALS
280
     1
  9
$LATITUDE
 40
37.795
  9
$LONGITUDE
 40
-122.394
  9
$NORTHDIRECTION
 40
0.0
  9
$TIMEZONE
 70
 -8000
  9
$LIGHTGLYPHDISPLAY
280
     1
  9
$TILEMODELIGHTSYNCH
280
     1
  9
$CMATERIAL
347
44
  9
$SOLIDHIST
280
     0
  9
$SHOWHIST
280
     1
  9
$DWFFRAME
280
     2
  9
$DGNFRAME
280
     2
  9
$REALWORLDSCALE
290
     1
  9
$INTERFERECOLOR
 62
   256
  9
$CSHADOW
280
     0
  9
$SHADOWPLANELOCATION
 40
0.0
  0
ENDSEC
  0
SECTION
  2
CLASSES
  0
CLASS
  1
ACDBDICTIONARYWDFLT
  2
AcDbDictionaryWithDefault
  3
ObjectDBX Classes
 90
        0
 91
        4
280
     0
281
     0
  0
CLASS
  1
VISUALSTYLE
  2
AcDbVisualStyle
  3
ObjectDBX Classes
 90
     4095
 91
        4
280
     0
281
     0
  0
CLASS
  1
MATERIAL
  2
AcDbMaterial
  3
ObjectDBX Classes
 90
     1153
 91
        4
280
     0
281
     0
  0
CLASS
  1
SCALE
  2
AcDbScale
  3
ObjectDBX Classes
 90
     1153
 91
        4
280
     0
281
     0
  0
CLASS
  1
TABLESTYLE
  2
AcDbTableStyle
  3
ObjectDBX Classes
 90
     4095
 91
        4
280
     0
281
     0
  0
CLASS
  1
MLEADERSTYLE
  2
AcDbMLeaderStyle
  3
ACDB_MLEADERSTYLE_CLASS
 90
     4095
 91
        4
280
     0
281
     0
  0
CLASS
  1
SUN
  2
AcDbSun
  3
SCENEOE
 90
     1153
 91
        4
280
     0
281
     0
  0
CLASS
  1
DICTIONARYVAR
  2
AcDbDictionaryVar
  3
ObjectDBX Classes
 90
        0
 91
        4
280
     0
281
     0
  0
CLASS
  1
CELLSTYLEMAP
  2
AcDbCellStyleMap
  3
ObjectDBX Classes
 90
     1152
 91
        4
280
     0
281
     0
  0
ENDSEC
  0
SECTION
  2
TABLES
  0
TABLE
  2
VPORT
  5
8
330
0
100
AcDbSymbolTable
 70
     1
  0
VPORT
  5
29
330
8
100
AcDbSymbolTableRecord
100
AcDbViewportTableRecord
  2
*Active
 70
     0
 10
0.0
 20
0.0
 11
1.0
 21
1.0
 12
0.0
 22
-0.02475
 13
0.0
 23
0.0
 14
0.5
 24
0.5
 15
0.5
 25
0.5
 16
0.0
 26
0.0
 36
1.0
 17
0.0
 27
0.0
 37
0.0
 40
2.57499
 41
3.216478510596157
 42
50.0
 43
0.0
 44
0.0
 50
0.0
 51
0.0
 71
     0
 72
   100
 73
     1
 74
     3
 75
     0
 76
     0
 77
     0
 78
     0
281
     0
 65
     1
110
0.0
120
0.0
130
0.0
111
1.0
121
0.0
131
0.0
112
0.0
122
1.0
132
0.0
 79
     0
146
0.0
348
2F
 60
     3
 61
     5
292
     1
282
     1
141
0.0
142
0.0
 63
   250
361
6D
  0
ENDTAB
  0
TABLE
  2
LTYPE
  5
5
330
0
100
AcDbSymbolTable
 70
     3
  0
LTYPE
  5
14
330
5
100
AcDbSymbolTableRecord
100
AcDbLinetypeTableRecord
  2
ByBlock
 70
     0
  3

 72
    65
 73
     0
 40
0.0
  0
LTYPE
  5
15
330
5
100
AcDbSymbolTableRecord
100
AcDbLinetypeTableRecord
  2
ByLayer
 70
     0
  3

 72
    65
 73
     0
 40
0.0
  0
LTYPE
  5
16
330
5
100
AcDbSymbolTableRecord
100
AcDbLinetypeTableRecord
  2
Continuous
 70
     0
  3
Solid line
 72
    65
 73
     0
 40
0.0
  0
LTYPE
  5
A2
330
5
100
AcDbSymbolTableRecord
100
AcDbLinetypeTableRecord
  2
Dashed
 70
     0
  3

 72
    65
 73
     2
 40
2.0
 49
1.0
 74
     0
 49
-1.0
 74
     0
  0
LTYPE
  5
122
330
5
100
AcDbSymbolTableRecord
100
AcDbLinetypeTableRecord
  2
Center
 70
     0
  3

 72
    65
 73
     4
 40
1.5
 49
0.45
 74
     0
 49
-0.5
 74
     0
 49
0.05
 74
     0
 49
-0.5
 74
     0
  0
ENDTAB
  0
TABLE
  2
LAYER
  5
2
330
0
100
AcDbSymbolTable
 70
     7
  0
LAYER
  5
10
330
2
100
AcDbSymbolTableRecord
100
AcDbLayerTableRecord
  2
0
 70
     0
 62
     7
  6
Continuous
370
    -3
390
F
347
46
348
0
  0
LAYER
  5
72
330
2
100
AcDbSymbolTableRecord
100
AcDbLayerTableRecord
  2
AM_6
 70
     0
 62
    -2
  6
Continuous
370
    35
390
F
347
46
348
0
  0
LAYER
  5
A3
330
2
100
AcDbSymbolTableRecord
100
AcDbLayerTableRecord
  2
AM_9
 70
     0
 62
     6
  6
Dashed
370
    25
390
F
347
46
348
0
  0
LAYER
  5
BE
330
2
100
AcDbSymbolTableRecord
100
AcDbLayerTableRecord
  2
AM_4
 70
     0
 62
     7
  6
Continuous
370
    50
390
F
347
46
348
0
  0
LAYER
  5
123
330
2
100
AcDbSymbolTableRecord
100
AcDbLayerTableRecord
  2
AM_7
 70
     0
 62
     7
  6
Center
370
    25
390
F
347
46
348
0
  0
LAYER
  5
138
330
2
100
AcDbSymbolTableRecord
100
AcDbLayerTableRecord
  2
AM_5
 70
     0
 62
     3
  6
Continuous
370
    25
390
F
347
46
348
0
  0
LAYER
  5
1B2
330
2
100
AcDbSymbolTableRecord
100
AcDbLayerTableRecord
  2
ConnectionPoints
 70
     0
 62
     7
  6
Continuous
370
    50
390
F
347
46
348
0
  0
ENDTAB
  0
TABLE
  2
STYLE
  5
3
330
0
100
AcDbSymbolTable
 70
     1
  0
STYLE
  5
11
330
3
100
AcDbSymbolTableRecord
100
AcDbTextStyleTableRecord
  2
Standard
 70
     0
 40
0.0
 41
1.0
 50
0.0
 71
     0
 42
0.2
  3
txt
  4

  0
ENDTAB
  0
TABLE
  2
VIEW
  5
6
330
0
100
AcDbSymbolTable
 70
     0
  0
ENDTAB
  0
TABLE
  2
UCS
  5
7
330
0
100
AcDbSymbolTable
 70
     0
  0
ENDTAB
  0
TABLE
  2
APPID
  5
9
330
0
100
AcDbSymbolTable
 70
     1
  0
APPID
  5
12
330
9
100
AcDbSymbolTableRecord
100
AcDbRegAppTableRecord
  2
ACAD
 70
     0
  0
ENDTAB
  0
TABLE
  2
DIMSTYLE
  5
A
330
0
100
AcDbSymbolTable
 70
     1
100
AcDbDimStyleTable
  0
DIMSTYLE
105
27
330
A
100
AcDbSymbolTableRecord
100
AcDbDimStyleTableRecord
  2
Standard
 70
     0
178
     0
340
11
  0
ENDTAB
  0
TABLE
  2
BLOCK_RECORD
  5
1
330
0
100
AcDbSymbolTable
 70
     5
  0
BLOCK_RECORD
  5
1F
330
1
100
AcDbSymbolTableRecord
100
AcDbBlockTableRecord
  2
*Model_Space
340
22
 70
     0
280
     1
281
     0
  0
BLOCK_RECORD
  5
1B
330
1
100
AcDbSymbolTableRecord
100
AcDbBlockTableRecord
  2
*Paper_Space
340
1E
 70
     0
280
     1
281
     0
  0
BLOCK_RECORD
  5
23
330
1
100
AcDbSymbolTableRecord
100
AcDbBlockTableRecord
  2
*Paper_Space0
340
26
 70
     0
280
     1
281
     0
  0
BLOCK_RECORD
  5
6E
330
1
100
AcDbSymbolTableRecord
100
AcDbBlockTableRecord
  2
1_123586_4
340
0
102
{BLKREFS
331
6F
102
}
 70
     0
280
     1
281
     0
  0
BLOCK_RECORD
  5
90
330
1
100
AcDbSymbolTableRecord
100
AcDbBlockTableRecord
  2
2_405020c_Inch_0_in_123586_4
340
0
102
{BLKREFS
331
91
102
}
 70
     0
280
     1
281
     0
  0
BLOCK_RECORD
  5
DC
330
1
100
AcDbSymbolTableRecord
100
AcDbBlockTableRecord
  2
3_389931_0_in_123586_4
340
0
102
{BLKREFS
331
DD
102
}
 70
     0
280
     1
281
     0
  0
BLOCK_RECORD
  5
13A
330
1
100
AcDbSymbolTableRecord
100
AcDbBlockTableRecord
  2
4_123586vsc_0_in_123586_4
340
0
102
{BLKREFS
331
13B
102
}
 70
     0
280
     1
281
     0
  0
ENDTAB
  0
ENDSEC
  0
SECTION
  2
BLOCKS
  0
BLOCK
  5
20
330
1F
100
AcDbEntity
  8
0
100
AcDbBlockBegin
  2
*Model_Space
 70
     0
 10
0.0
 20
0.0
 30
0.0
  3
*Model_Space
  1

  0
ENDBLK
  5
21
330
1F
100
AcDbEntity
  8
0
100
AcDbBlockEnd
  0
BLOCK
  5
1C
330
1B
100
AcDbEntity
 67
     1
  8
0
100
AcDbBlockBegin
  2
*Paper_Space
 70
     0
 10
0.0
 20
0.0
 30
0.0
  3
*Paper_Space
  1

  0
ENDBLK
  5
1D
330
1B
100
AcDbEntity
 67
     1
  8
0
100
AcDbBlockEnd
  0
BLOCK
  5
24
330
23
100
AcDbEntity
  8
0
100
AcDbBlockBegin
  2
*Paper_Space0
 70
     0
 10
0.0
 20
0.0
 30
0.0
  3
*Paper_Space0
  1

  0
ENDBLK
  5
25
330
23
100
AcDbEntity
  8
0
100
AcDbBlockEnd
  0
BLOCK
  5
70
330
6E
100
AcDbEntity
  8
0
100
AcDbBlockBegin
  2
1_123586_4
 70
     2
 10
0.0
 20
0.0
 30
0.0
  3
1_123586_4
  1

  0
ATTDEF
  5
73
330
6E
100
AcDbEntity
  8
AM_6
100
AcDbText
 10
9.059999999999999
 20
1.2375
 30
0.0
 40
0.5
  1
Set Screw Intermediate Duty Two-Bolt Pillow Block Inch Bore
100
AcDbAttributeDefinition
  3

  2
NN
 70
     8
280
     0
  0
ATTDEF
  5
74
330
6E
100
AcDbEntity
  8
AM_6
100
AcDbText
 10
9.059999999999999
 20
0.7375
 30
0.0
 40
0.5
  1
VSC Intermediate Duty Pillow Blocks
100
AcDbAttributeDefinition
  3

  2
NT
 70
     8
280
     0
  0
ATTDEF
  5
75
330
6E
100
AcDbEntity
  8
AM_6
100
AcDbText
 10
9.059999999999999
 20
0.2375
 30
0.0
 40
0.5
  1
123586
100
AcDbAttributeDefinition
  3

  2
NB
 70
     8
280
     0
  0
ATTDEF
  5
76
330
6E
100
AcDbEntity
  8
AM_6
100
AcDbText
 10
9.059999999999999
 20
-0.2625
 30
0.0
 40
0.5
  1
$PN.
100
AcDbAttributeDefinition
  3

  2
NBSYN
 70
     8
280
     0
  0
ATTDEF
  5
77
330
6E
100
AcDbEntity
  8
AM_6
100
AcDbText
 10
9.059999999999999
 20
-0.7625
 30
0.0
 40
0.5
  1
123586
100
AcDbAttributeDefinition
  3

  2
LINA
 70
     8
280
     0
  0
ATTDEF
  5
78
330
6E
100
AcDbEntity
  8
AM_6
100
AcDbText
 10
9.059999999999999
 20
-1.2625
 30
0.0
 40
0.5
  1
210
100
AcDbAttributeDefinition
  3

  2
RS
 70
     8
280
     0
  0
ATTDEF
  5
79
330
6E
100
AcDbEntity
  8
AM_6
100
AcDbText
 10
9.059999999999999
 20
-1.7625
 30
0.0
 40
0.5
  1
1-15/16
100
AcDbAttributeDefinition
  3

  2
SS
 70
     8
280
     0
  0
ATTDEF
  5
7A
330
6E
100
AcDbEntity
  8
AM_6
100
AcDbText
 10
9.059999999999999
 20
-2.2625
 30
0.0
 40
0.5
  1
123586
100
AcDbAttributeDefinition
  3

  2
PN
 70
     8
280
     0
  0
ATTDEF
  5
7B
330
6E
100
AcDbEntity
  8
AM_6
100
AcDbText
 10
9.059999999999999
 20
-2.7625
 30
0.0
 40
0.5
  1
P2B-VSC-115
100
AcDbAttributeDefinition
  3

  2
DESCRIPTION
 70
     8
280
     0
  0
ATTDEF
  5
7C
330
6E
100
AcDbEntity
  8
AM_6
100
AcDbText
 10
9.059999999999999
 20
-3.2625
 30
0.0
 40
0.5
  1
RE-LUBE
100
AcDbAttributeDefinition
  3

  2
LF
 70
     8
280
     0
  0
ATTDEF
  5
7D
330
6E
100
AcDbEntity
  8
AM_6
100
AcDbText
 10
9.059999999999999
 20
-3.7625
 30
0.0
 40
0.5
  1
7.2
100
AcDbAttributeDefinition
  3

  2
WEIGHT
 70
     8
280
     0
  0
ATTDEF
  5
7E
330
6E
100
AcDbEntity
  8
AM_6
100
AcDbText
 10
9.059999999999999
 20
-4.2625
 30
0.0
 40
0.5
  1
1.94
100
AcDbAttributeDefinition
  3

  2
A
 70
     8
280
     0
  0
ATTDEF
  5
7F
330
6E
100
AcDbEntity
  8
AM_6
100
AcDbText
 10
9.059999999999999
 20
-4.7625
 30
0.0
 40
0.5
  1
8.12
100
AcDbAttributeDefinition
  3

  2
B
 70
     8
280
     0
  0
ATTDEF
  5
80
330
6E
100
AcDbEntity
  8
AM_6
100
AcDbText
 10
9.059999999999999
 20
-5.2625
 30
0.0
 40
0.5
  1
2.25
100
AcDbAttributeDefinition
  3

  2
C
 70
     8
280
     0
  0
ATTDEF
  5
81
330
6E
100
AcDbEntity
  8
AM_6
100
AcDbText
 10
9.059999999999999
 20
-5.7625
 30
0.0
 40
0.5
  1
6.00
100
AcDbAttributeDefinition
  3

  2
DMIN
 70
     8
280
     0
  0
ATTDEF
  5
82
330
6E
100
AcDbEntity
  8
AM_6
100
AcDbText
 10
9.059999999999999
 20
-6.2625
 30
0.0
 40
0.5
  1
6.68
100
AcDbAttributeDefinition
  3

  2
DMAX
 70
     8
280
     0
  0
ATTDEF
  5
83
330
6E
100
AcDbEntity
  8
AM_6
100
AcDbText
 10
9.059999999999999
 20
-6.7625
 30
0.0
 40
0.5
  1
5/8
100
AcDbAttributeDefinition
  3

  2
F
 70
     8
280
     0
  0
ATTDEF
  5
84
330
6E
100
AcDbEntity
  8
AM_6
100
AcDbText
 10
9.059999999999999
 20
-7.2625
 30
0.0
 40
0.5
  1
1.02
100
AcDbAttributeDefinition
  3

  2
G
 70
     8
280
     0
  0
ATTDEF
  5
85
330
6E
100
AcDbEntity
  8
AM_6
100
AcDbText
 10
9.059999999999999
 20
-7.7625
 30
0.0
 40
0.5
  1
0.75
100
AcDbAttributeDefinition
  3

  2
H
 70
     8
280
     0
  0
ATTDEF
  5
86
330
6E
100
AcDbEntity
  8
AM_6
100
AcDbText
 10
9.059999999999999
 20
-8.2625
 30
0.0
 40
0.5
  1
4.53
100
AcDbAttributeDefinition
  3

  2
J
 70
     8
280
     0
  0
ATTDEF
  5
87
330
6E
100
AcDbEntity
  8
AM_6
100
AcDbText
 10
9.059999999999999
 20
-8.7625
 30
0.0
 40
0.5
  1
2.43
100
AcDbAttributeDefinition
  3

  2
L
 70
     8
280
     0
  0
ATTDEF
  5
88
330
6E
100
AcDbEntity
  8
AM_6
100
AcDbText
 10
9.059999999999999
 20
-9.2625
 30
0.0
 40
0.5
  1
2.25
100
AcDbAttributeDefinition
  3

  2
M
 70
     8
280
     0
  0
ATTDEF
  5
89
330
6E
100
AcDbEntity
  8
AM_6
100
AcDbText
 10
9.059999999999999
 20
-9.7625
 30
0.0
 40
0.5
  1
0.75
100
AcDbAttributeDefinition
  3

  2
R
 70
     8
280
     0
  0
ATTDEF
  5
8A
330
6E
100
AcDbEntity
  8
AM_6
100
AcDbText
 10
9.059999999999999
 20
-10.2625
 30
0.0
 40
0.5
  1
1.19
100
AcDbAttributeDefinition
  3

  2
S
 70
     8
280
     0
  0
ATTDEF
  5
8B
330
6E
100
AcDbEntity
  8
AM_6
100
AcDbText
 10
9.059999999999999
 20
-10.7625
 30
0.0
 40
0.5
  1
3.69
100
AcDbAttributeDefinition
  3

  2
U
 70
     8
280
     0
  0
ATTDEF
  5
8C
330
6E
100
AcDbEntity
  8
AM_6
100
AcDbText
 10
9.059999999999999
 20
-11.2625
 30
0.0
 40
0.5
  1
7.38
100
AcDbAttributeDefinition
  3

  2
V
 70
     8
280
     0
  0
ATTDEF
  5
8D
330
6E
100
AcDbEntity
  8
AM_6
100
AcDbText
 10
9.059999999999999
 20
-11.7625
 30
0.0
 40
0.5
  1
0.81
100
AcDbAttributeDefinition
  3

  2
W
 70
     8
280
     0
  0
ATTDEF
  5
8E
330
6E
100
AcDbEntity
  8
AM_6
100
AcDbText
 10
9.059999999999999
 20
-12.2625
 30
0.0
 40
0.5
  1
0.12
100
AcDbAttributeDefinition
  3

  2
X
 70
     8
280
     0
  0
ATTDEF
  5
8F
330
6E
100
AcDbEntity
  8
AM_6
100
AcDbText
 10
9.059999999999999
 20
-12.7625
 30
0.0
 40
0.5
  1
baldor
100
AcDbAttributeDefinition
  3

  2
COMPANY
 70
     8
280
     0
  0
INSERT
  5
91
330
6E
100
AcDbEntity
  8
0
100
AcDbBlockReference
  2
2_405020c_Inch_0_in_123586_4
 10
0.0
 20
0.0
 30
0.0
  0
INSERT
  5
DD
330
6E
100
AcDbEntity
  8
0
100
AcDbBlockReference
  2
3_389931_0_in_123586_4
 10
0.0
 20
0.0
 30
0.0
  0
INSERT
  5
13B
330
6E
100
AcDbEntity
  8
0
100
AcDbBlockReference
  2
4_123586vsc_0_in_123586_4
 10
0.0
 20
0.0
 30
0.0
  0
ENDBLK
  5
71
330
6E
100
AcDbEntity
  8
0
100
AcDbBlockEnd
  0
BLOCK
  5
92
330
90
100
AcDbEntity
  8
0
100
AcDbBlockBegin
  2
2_405020c_Inch_0_in_123586_4
 70
     2
 10
0.0
 20
0.0
 30
0.0
  3
2_405020c_Inch_0_in_123586_4
  1

  0
ATTDEF
  5
94
330
90
100
AcDbEntity
  8
AM_6
100
AcDbText
 10
6.920609072840821
 20
0.1406500000000016
 30
0.0
 40
0.5
  1
405020C -Inch
100
AcDbAttributeDefinition
  3

  2
NN
 70
     8
280
     0
  0
ATTDEF
  5
95
330
90
100
AcDbEntity
  8
AM_6
100
AcDbText
 10
6.920609072840821
 20
-0.3593499999999984
 30
0.0
 40
0.5
  1
Grease fitting
100
AcDbAttributeDefinition
  3

  2
NT
 70
     8
280
     0
  0
ATTDEF
  5
96
330
90
100
AcDbEntity
  8
AM_6
100
AcDbText
 10
6.920609072840821
 20
-0.8593499999999984
 30
0.0
 40
0.5
  1
405020c-Inch
100
AcDbAttributeDefinition
  3

  2
NB
 70
     8
280
     0
  0
ATTDEF
  5
97
330
90
100
AcDbEntity
  8
AM_6
100
AcDbText
 10
6.920609072840821
 20
-1.359349999999998
 30
0.0
 40
0.5
  1
$MN.-Inch
100
AcDbAttributeDefinition
  3

  2
NBSYN
 70
     8
280
     0
  0
ATTDEF
  5
98
330
90
100
AcDbEntity
  8
AM_6
100
AcDbText
 10
6.920609072840821
 20
-1.859349999999998
 30
0.0
 40
0.5
  1
405020c
100
AcDbAttributeDefinition
  3

  2
LINA
 70
     8
280
     0
  0
ATTDEF
  5
99
330
90
100
AcDbEntity
  8
AM_6
100
AcDbText
 10
6.920609072840821
 20
-2.359349999999998
 30
0.0
 40
0.5
  1
405020c
100
AcDbAttributeDefinition
  3

  2
MN
 70
     8
280
     0
  0
ATTDEF
  5
9A
330
90
100
AcDbEntity
  8
AM_6
100
AcDbText
 10
6.920609072840821
 20
-2.859349999999998
 30
0.0
 40
0.5
  1
0.230
100
AcDbAttributeDefinition
  3

  2
NDR
 70
     8
280
     0
  0
ATTDEF
  5
9B
330
90
100
AcDbEntity
  8
AM_6
100
AcDbText
 10
6.920609072840821
 20
-3.359349999999998
 30
0.0
 40
0.5
  1
0.210
100
AcDbAttributeDefinition
  3

  2
KDR
 70
     8
280
     0
  0
ATTDEF
  5
9C
330
90
100
AcDbEntity
  8
AM_6
100
AcDbText
 10
6.920609072840821
 20
-3.859349999999998
 30
0.0
 40
0.5
  1
0.157
100
AcDbAttributeDefinition
  3

  2
BZE
 70
     8
280
     0
  0
ATTDEF
  5
9D
330
90
100
AcDbEntity
  8
AM_6
100
AcDbText
 10
6.920609072840821
 20
-4.359349999999998
 30
0.0
 40
0.5
  1
9/32
100
AcDbAttributeDefinition
  3

  2
WAF
 70
     8
280
     0
  0
ATTDEF
  5
9E
330
90
100
AcDbEntity
  8
AM_6
100
AcDbText
 10
6.920609072840821
 20
-4.859349999999998
 30
0.0
 40
0.5
  1
0.2813
100
AcDbAttributeDefinition
  3

  2
WAF1
 70
     8
280
     0
  0
ATTDEF
  5
9F
330
90
100
AcDbEntity
  8
AM_6
100
AcDbText
 10
6.920609072840821
 20
-5.359349999999998
 30
0.0
 40
0.5
  1
0.545
100
AcDbAttributeDefinition
  3

  2
BL
 70
     8
280
     0
  0
ATTDEF
  5
A0
330
90
100
AcDbEntity
  8
AM_6
100
AcDbText
 10
6.920609072840821
 20
-5.859349999999998
 30
0.0
 40
0.5
  1
0.200
100
AcDbAttributeDefinition
  3

  2
TL
 70
     8
280
     0
  0
ATTDEF
  5
A1
330
90
100
AcDbEntity
  8
AM_6
100
AcDbText
 10
6.920609072840821
 20
-6.359349999999998
 30
0.0
 40
0.5
  1
baldor
100
AcDbAttributeDefinition
  3

  2
COMPANY
 70
     8
280
     0
  0
LWPOLYLINE
  5
A4
330
90
100
AcDbEntity
  8
AM_9
100
AcDbPolyline
 90
        3
 70
     0
 43
0.0
 10
1.731166284493458
 20
0.0000000000000001
 10
1.71385098123985
 20
-0.0350043999316989
 10
1.698333644185942
 20
-0.070325
  0
LWPOLYLINE
  5
A5
330
90
100
AcDbEntity
  8
AM_9
100
AcDbPolyline
 90
        3
 70
     0
 43
0.0
 10
1.698333644185942
 20
0.070325
 10
1.713776823974291
 20
0.0351625000000001
 10
1.731166284493458
 20
0.0000000000000001
  0
ELLIPSE
  5
A6
330
90
100
AcDbEntity
  8
AM_9
100
AcDbEllipse
 10
1.470782104868019
 20
0.0000000000000001
 30
0.0
 11
-1.838598171376523E-17
 21
-0.1000886227036577
 31
0.0
210
0.0
220
0.0
230
1.0
 40
0.7071067811865474
 41
0.0
 42
6.283185307179586
  0
LWPOLYLINE
  5
A7
330
90
100
AcDbEntity
  8
AM_9
100
AcDbPolyline
 90
        3
 70
     0
 43
0.0
 10
1.745474096265045
 20
-0.0703249999999999
 10
1.758740977503567
 20
-0.0351624999999999
 10
1.770061578011271
 20
0.0000000000000001
  0
LWPOLYLINE
  5
A8
330
90
100
AcDbEntity
  8
AM_9
100
AcDbPolyline
 90
        3
 70
     0
 43
0.0
 10
1.770061578011271
 20
0.0000000000000001
 10
1.75879590840322
 20
0.035004399931699
 10
1.745474096265045
 20
0.0703250000000001
  0
LWPOLYLINE
  5
A9
330
90
100
AcDbEntity
  8
AM_9
100
AcDbPolyline
 90
        3
 70
     0
 43
0.0
 10
1.673746162439715
 20
0.1406500000000001
 10
1.685011832047766
 20
0.1056456000683011
 10
1.698333644185942
 20
0.070325
  0
LINE
  5
AA
330
90
100
AcDbEntity
  8
AM_9
100
AcDbLine
 10
1.770061578011271
 20
0.0000000000000001
 30
0.0
 11
1.731166284493458
 21
0.0000000000000001
 31
0.0
  0
LWPOLYLINE
  5
AB
330
90
100
AcDbEntity
  8
AM_9
100
AcDbPolyline
 90
        3
 70
     0
 43
0.0
 10
1.698333644185942
 20
-0.070325
 10
1.68506676294742
 20
-0.1054874999999999
 10
1.673746162439715
 20
-0.1406499999999999
  0
LWPOLYLINE
  5
AC
330
90
100
AcDbEntity
  8
AM_9
100
AcDbPolyline
 90
        3
 70
     0
 43
0.0
 10
1.745474096265045
 20
0.0703250000000001
 10
1.730030916476696
 20
0.1054875000000001
 10
1.725408060210909
 20
0.1151895236091906
  0
LWPOLYLINE
  5
AD
330
90
100
AcDbEntity
  8
AM_9
100
AcDbPolyline
 90
        3
 70
     0
 43
0.0
 10
1.725407445542028
 20
-0.1151907939395562
 10
1.729956759211137
 20
-0.105645600068301
 10
1.745474096265045
 20
-0.0703249999999999
  0
LINE
  5
AE
330
90
100
AcDbEntity
  8
AM_9
100
AcDbLine
 10
1.475644847330304
 20
-0.1103623268442186
 30
0.0
 11
1.609630425209695
 21
-0.1162868985344065
 31
0.0
  0
LINE
  5
AF
330
90
100
AcDbEntity
  8
AM_9
100
AcDbLine
 10
1.609630425209695
 20
0.1162868985344067
 30
0.0
 11
1.475644847330304
 21
0.1103623268442188
 31
0.0
  0
ELLIPSE
  5
B0
330
90
100
AcDbEntity
  8
AM_9
100
AcDbEllipse
 10
1.659343913184425
 20
-0.0000000000000011
 30
0.0
 11
8.612328615003880E-18
 21
0.1406500000000019
 31
0.0
210
0.0
220
0.0
230
1.0
 40
0.7071067811865789
 41
3.798906696793658
 42
5.625871263975734
  0
ELLIPSE
  5
B1
330
90
100
AcDbEntity
  8
AM_9
100
AcDbEllipse
 10
1.681490886069963
 20
-0.0000000000000004
 30
0.0
 11
6.694498085252829E-18
 21
0.1093294505797721
 31
0.0
210
0.0
220
0.0
230
1.0
 40
0.7071067811865485
 41
5.44001174186356
 42
5.928986666165874
  0
ELLIPSE
  5
B2
330
90
100
AcDbEntity
  8
AM_9
100
AcDbEllipse
 10
1.681490886069966
 20
-0.0000000000000014
 30
0.0
 11
6.694498085252680E-18
 21
0.1093294505797696
 31
0.0
210
0.0
220
0.0
230
1.0
 40
0.7071067811865379
 41
3.495791294603485
 42
4.011127674374278
  0
ELLIPSE
  5
B3
330
90
100
AcDbEntity
  8
AM_9
100
AcDbEllipse
 10
1.681490886070109
 20
-0.0000000000000454
 30
0.0
 11
6.694498085246122E-18
 21
0.1093294505796625
 31
0.0
210
0.0
220
0.0
230
1.0
 40
0.7071067811859288
 41
4.221544891608497
 42
5.235673398380227
  0
LWPOLYLINE
  5
B4
330
90
100
AcDbEntity
  8
AM_9
100
AcDbPolyline
 90
       12
 70
     0
 43
0.0
 10
1.699862772246732
 20
0.0937132489038243
 10
1.703190750469521
 20
0.0944418548646975
 10
1.708156088585873
 20
0.0946227877988214
 10
1.713159261276043
 20
0.0937015343602592
 10
1.717970154188721
 20
0.0918186724699416
 10
1.722911432795917
 20
0.0889097852389361
 10
1.727982212130431
 20
0.0848884653401235
 10
1.733539719827899
 20
0.0791771927456346
 10
1.738887153235516
 20
0.0721728258825846
 10
1.743875871991756
 20
0.0639248368728655
 10
1.748353404990214
 20
0.0545247323594704
 10
1.75203895227548
 20
0.0445329015130755
  0
LINE
  5
B5
330
90
100
AcDbEntity
  8
AM_9
100
AcDbLine
 10
1.689556806161102
 20
-0.0885510187475318
 30
0.0
 11
1.688555621460833
 21
-0.0878206131891211
 31
0.0
  0
LWPOLYLINE
  5
B6
330
90
100
AcDbEntity
  8
AM_9
100
AcDbPolyline
 90
       13
 70
     0
 43
0.0
 10
1.752376852657121
 20
-0.0434646009318729
 10
1.749947805974946
 20
-0.0505252285519111
 10
1.745729160651211
 20
-0.060311731429205
 10
1.740967811660224
 20
-0.0689645412436124
 10
1.735840117021368
 20
-0.076364507076585
 10
1.730540688464748
 20
-0.0824388358535714
 10
1.725263488795231
 20
-0.0871780538177038
 10
1.720167341240802
 20
-0.0906463008897635
 10
1.71533458724258
 20
-0.0929679026115201
 10
1.710693377757853
 20
-0.0942915929838294
 10
1.70585718821746
 20
-0.0946758039628798
 10
1.700681173096052
 20
-0.093936505660631
 10
1.699948975849881
 20
-0.0937381009838655
  0
ELLIPSE
  5
B7
330
90
100
AcDbEntity
  8
AM_9
100
AcDbEllipse
 10
1.72143269800647
 20
0.0000000000000002
 30
0.0
 11
6.084620899749643E-18
 21
0.09936940028726639
 31
0.0
210
0.0
220
0.0
230
1.0
 40
0.7071067811865487
 41
2.656480407116015
 42
6.768297553653367
  0
ELLIPSE
  5
B8
330
90
100
AcDbEntity
  8
AM_9
100
AcDbEllipse
 10
1.798520270176222
 20
0.0000000000000001
 30
0.0
 11
8.079715312105980E-18
 21
0.1319517646676804
 31
0.0
210
0.0
220
0.0
230
1.0
 40
0.7071067811865468
 41
3.579974428543807
 42
5.835729747255636
  0
ELLIPSE
  5
B9
330
90
100
AcDbEntity
  8
AM_9
100
AcDbEllipse
 10
1.769764026710945
 20
0.0000000000000002
 30
0.0
 11
8.036249332247508E-18
 21
0.1312419113468905
 31
0.0
210
0.0
220
0.0
230
1.0
 40
0.7071067811865474
 41
2.651902597837331
 42
6.773536145580731
  0
ELLIPSE
  5
BA
330
90
100
AcDbEntity
  8
AM_9
100
AcDbEllipse
 10
1.845384846849395
 20
-0.0000000000000354
 30
0.0
 11
6.357083428133487E-18
 21
0.1038190510530797
 31
0.0
210
0.0
220
0.0
230
1.0
 40
0.7071067811865475
 41
-0.5603918084125983
 42
-0.4568580189487372
  0
ELLIPSE
  5
BB
330
90
100
AcDbEntity
  8
AM_9
100
AcDbEllipse
 10
1.612203461105328
 20
0.0000000000000002
 30
0.0
 11
7.124004163867276E-18
 21
0.1163438171532769
 31
0.0
210
0.0
220
0.0
230
1.0
 40
0.7071067811865483
 41
0.0
 42
6.283185307179586
  0
ELLIPSE
  5
BC
330
90
100
AcDbEntity
  8
AM_9
100
AcDbEllipse
 10
1.478084846946804
 20
0.0000000000000001
 30
0.0
 11
6.761045944280098E-18
 21
0.1104162595939891
 31
0.0
210
0.0
220
0.0
230
1.0
 40
0.7071067811865475
 41
0.0
 42
6.283185307179586
  0
ELLIPSE
  5
BD
330
90
100
AcDbEntity
  8
AM_9
100
AcDbEllipse
 10
1.612203461105329
 20
0.0000000000000009
 30
0.0
 11
8.612328615003809E-18
 21
0.1406500000000008
 31
0.0
210
0.0
220
0.0
230
1.0
 40
0.7071067811865468
 41
0.0
 42
6.283185307179586
  0
LINE
  5
BF
330
90
100
AcDbEntity
  8
AM_4
100
AcDbLine
 10
1.725408060210909
 20
0.1151895236091906
 30
0.0
 11
1.712641455957529
 21
0.1406500000000001
 31
0.0
  0
LINE
  5
C0
330
90
100
AcDbEntity
  8
AM_4
100
AcDbLine
 10
1.712641455957529
 20
-0.1406499999999999
 30
0.0
 11
1.725407445542028
 21
-0.1151907939395562
 31
0.0
  0
LINE
  5
C1
330
90
100
AcDbEntity
  8
AM_4
100
AcDbLine
 10
1.712641455957529
 20
0.1406500000000001
 30
0.0
 11
1.55890591833223
 21
0.1406500000000001
 31
0.0
  0
LWPOLYLINE
  5
C2
330
90
100
AcDbEntity
  8
AM_4
100
AcDbPolyline
 90
        3
 70
     0
 43
0.0
 10
1.526073278024715
 20
0.0703250000000001
 10
1.541516457813064
 20
0.1054875000000001
 10
1.55890591833223
 20
0.1406500000000001
  0
LWPOLYLINE
  5
C3
330
90
100
AcDbEntity
  8
AM_4
100
AcDbPolyline
 90
        3
 70
     0
 43
0.0
 10
1.501485796278488
 20
0.0000000000000001
 10
1.512751465886539
 20
0.035004399931699
 10
1.526073278024715
 20
0.0703250000000001
  0
LWPOLYLINE
  5
C4
330
90
100
AcDbEntity
  8
AM_4
100
AcDbPolyline
 90
        3
 70
     0
 43
0.0
 10
1.597801211850044
 20
0.1406500000000001
 10
1.586535542241993
 20
0.1056456000683012
 10
1.573213730103818
 20
0.0703250000000001
  0
LWPOLYLINE
  5
C5
330
90
100
AcDbEntity
  8
AM_4
100
AcDbPolyline
 90
        3
 70
     0
 43
0.0
 10
1.573213730103818
 20
0.0703250000000001
 10
1.557770550315469
 20
0.0351625000000001
 10
1.540381089796302
 20
0.0000000000000001
  0
LINE
  5
C6
330
90
100
AcDbEntity
  8
AM_4
100
AcDbLine
 10
1.540381089796302
 20
0.0000000000000001
 30
0.0
 11
1.501485796278488
 21
0.0000000000000001
 31
0.0
  0
LWPOLYLINE
  5
C7
330
90
100
AcDbEntity
  8
AM_4
100
AcDbPolyline
 90
        3
 70
     0
 43
0.0
 10
1.526073278024715
 20
-0.0703249999999999
 10
1.512806396786193
 20
-0.0351624999999999
 10
1.501485796278488
 20
0.0000000000000001
  0
LWPOLYLINE
  5
C8
330
90
100
AcDbEntity
  8
AM_4
100
AcDbPolyline
 90
        3
 70
     0
 43
0.0
 10
1.55890591833223
 20
-0.1406499999999999
 10
1.541590615078623
 20
-0.105645600068301
 10
1.526073278024715
 20
-0.0703249999999999
  0
LINE
  5
C9
330
90
100
AcDbEntity
  8
AM_4
100
AcDbLine
 10
1.712641455957529
 20
-0.1406499999999999
 30
0.0
 11
1.55890591833223
 21
-0.1406499999999999
 31
0.0
  0
LWPOLYLINE
  5
CA
330
90
100
AcDbEntity
  8
AM_4
100
AcDbPolyline
 90
        3
 70
     0
 43
0.0
 10
1.573213730103818
 20
-0.0703249999999999
 10
1.58648061134234
 20
-0.1054874999999999
 10
1.597801211850044
 20
-0.1406499999999999
  0
LWPOLYLINE
  5
CB
330
90
100
AcDbEntity
  8
AM_4
100
AcDbPolyline
 90
        3
 70
     0
 43
0.0
 10
1.540381089796302
 20
0.0000000000000001
 10
1.55769639304991
 20
-0.0350043999316988
 10
1.573213730103818
 20
-0.0703249999999999
  0
ELLIPSE
  5
CC
330
90
100
AcDbEntity
  8
AM_4
100
AcDbEllipse
 10
1.65934391318443
 20
0.0000000000000001
 30
0.0
 11
8.612328615003744E-18
 21
0.1406499999999997
 31
0.0
210
0.0
220
0.0
230
1.0
 40
0.7071067811865411
 41
5.625871263975747
 42
10.08209200397322
  0
ELLIPSE
  5
CD
330
90
100
AcDbEntity
  8
AM_4
100
AcDbEllipse
 10
1.681490886069964
 20
-0.0000000000000001
 30
0.0
 11
6.694498085252792E-18
 21
0.1093294505797714
 31
0.0
210
0.0
220
0.0
230
1.0
 40
0.7071067811865485
 41
5.928986666165877
 42
9.778976601783087
  0
ELLIPSE
  5
CE
330
90
100
AcDbEntity
  8
AM_4
100
AcDbEllipse
 10
1.72143269800647
 20
-0.0000000000000002
 30
0.0
 11
6.084620899749673E-18
 21
0.09936940028726687
 31
0.0
210
0.0
220
0.0
230
1.0
 40
0.7071067811865541
 41
0.485112246473788
 42
2.656480407116006
  0
LINE
  5
CF
330
90
100
AcDbEntity
  8
AM_4
100
AcDbLine
 10
1.688667694492808
 20
-0.0879044185632922
 30
0.0
 11
1.72648972220685
 21
-0.1160995625890069
 31
0.0
  0
LINE
  5
D0
330
90
100
AcDbEntity
  8
AM_4
100
AcDbLine
 10
1.72648972220685
 20
0.1160995625890072
 30
0.0
 11
1.688667694492808
 21
0.0879044185632924
 31
0.0
  0
ELLIPSE
  5
D1
330
90
100
AcDbEntity
  8
AM_4
100
AcDbEllipse
 10
1.769764026710945
 20
0.0000000000000006
 30
0.0
 11
8.036249332247456E-18
 21
0.1312419113468897
 31
0.0
210
0.0
220
0.0
230
1.0
 40
0.7071067811865536
 41
0.4903508384011435
 42
2.651902597837337
  0
LWPOLYLINE
  5
D2
330
90
100
AcDbEntity
  8
AM_4
100
AcDbPolyline
 90
       11
 70
     0
 43
0.0
 10
1.72599954653234
 20
-0.1157319803608535
 10
1.734504979142919
 20
-0.1215248081278911
 10
1.746413789179979
 20
-0.1277667436461552
 10
1.75874216455258
 20
-0.1322449538631058
 10
1.771288693908871
 20
-0.1349543861889775
 10
1.783871103043676
 20
-0.1359227743084968
 10
1.796328195561339
 20
-0.135197808107693
 10
1.808510122784113
 20
-0.1328395401462743
 10
1.820285815266344
 20
-0.1289156822159442
 10
1.831554606702891
 20
-0.1234888262700442
 10
1.838138628580525
 20
-0.1194656420737007
  0
LWPOLYLINE
  5
D3
330
90
100
AcDbEntity
  8
AM_4
100
AcDbPolyline
 90
       10
 70
     0
 43
0.0
 10
1.828849940031738
 20
0.1249520655328733
 10
1.821288006186081
 20
0.1285022579729266
 10
1.808917259529604
 20
0.132731603954309
 10
1.796355172433126
 20
0.1351944110150823
 10
1.783781116763656
 20
0.1359219227220851
 10
1.771353304445142
 20
0.1349637637512975
 10
1.759221752326478
 20
0.1323817291744293
 10
1.747511440856181
 20
0.1282432992162331
 10
1.736321200405138
 20
0.1226100678112688
 10
1.725961741650354
 20
0.1157034494672348
  0
LWPOLYLINE
  5
D4
330
90
100
AcDbEntity
  8
AM_4
100
AcDbPolyline
 90
        3
 70
     0
 43
0.0
 10
1.839109348039545
 20
0.1188140630416682
 10
1.833268446281014
 20
0.1225059515490251
 10
1.828849940031738
 20
0.1249520655328733
  0
ELLIPSE
  5
D5
330
90
100
AcDbEntity
  8
AM_4
100
AcDbEllipse
 10
1.856155300614687
 20
0.0000000000000001
 30
0.0
 11
-1.484390032546748E-17
 21
-0.08080642971672804
 31
0.0
210
0.0
220
0.0
230
1.0
 40
0.7071067811865489
 41
0.0
 42
6.283185307179586
  0
LWPOLYLINE
  5
D6
330
90
100
AcDbEntity
  8
AM_4
100
AcDbPolyline
 90
       19
 70
     0
 43
0.0
 10
1.876892620068104
 20
-0.0937707570520818
 10
1.881663017532908
 20
-0.09030270968492
 10
1.890019272246012
 20
-0.0827684086628955
 10
1.897601823207653
 20
-0.0738920996518127
 10
1.904280685146277
 20
-0.063791522471816
 10
1.909931703326875
 20
-0.0526285640957151
 10
1.914451885674295
 20
-0.0405983779976817
 10
1.917766167740568
 20
-0.0279138570505788
 10
1.919827087348178
 20
-0.0147896890149642
 10
1.920609072840821
 20
-0.0014291438145702
 10
1.920100409103384
 20
0.0119686615608397
 10
1.918300563875109
 20
0.0252059342525682
 10
1.915219238932309
 20
0.0380860406979532
 10
1.910875212816318
 20
0.0504153668873962
 10
1.905298509845055
 20
0.061997147193267
 10
1.898540419252717
 20
0.0726225888043242
 10
1.890688068070018
 20
0.0820727569870148
 10
1.881874826316073
 20
0.0901357700706243
 10
1.877973859419763
 20
0.0930320846604591
  0
ELLIPSE
  5
D7
330
90
100
AcDbEntity
  8
AM_4
100
AcDbEllipse
 10
1.798520270176223
 20
0.0000000000000001
 30
0.0
 11
8.079715312105955E-18
 21
0.13195176466768
 31
0.0
210
0.0
220
0.0
230
1.0
 40
0.7071067811865471
 41
5.844803532225578
 42
9.863159735723388
  0
ELLIPSE
  5
D8
330
90
100
AcDbEntity
  8
AM_4
100
AcDbEllipse
 10
1.845384846849409
 20
0.0
 30
0.0
 11
6.357083428131008E-18
 21
0.1038190510530392
 31
0.0
210
0.0
220
0.0
230
1.0
 40
0.7071067811865495
 41
5.844803532225582
 42
9.863159735723384
  0
LINE
  5
D9
330
90
100
AcDbEntity
  8
AM_4
100
AcDbLine
 10
1.876546033382542
 20
0.0940018950300905
 30
0.0
 11
1.838125463158434
 21
0.1194743720494001
 31
0.0
  0
LINE
  5
DA
330
90
100
AcDbEntity
  8
AM_4
100
AcDbLine
 10
1.838125463158434
 20
-0.1194743720493999
 30
0.0
 11
1.876546033382542
 21
-0.0940018950300903
 31
0.0
  0
ELLIPSE
  5
DB
330
90
100
AcDbEntity
  8
AM_4
100
AcDbEllipse
 10
1.84538484684702
 20
-0.0000000000032012
 30
0.0
 11
6.357083428348511E-18
 21
0.1038190510565913
 31
0.0
210
0.0
220
0.0
230
1.0
 40
0.7071067811919162
 41
-0.4568580189613192
 42
-0.438381774967473
  0
ENDBLK
  5
93
330
90
100
AcDbEntity
  8
0
100
AcDbBlockEnd
  0
BLOCK
  5
DE
330
DC
100
AcDbEntity
  8
0
100
AcDbBlockBegin
  2
3_389931_0_in_123586_4
 70
     2
 10
0.0
 20
0.0
 30
0.0
  3
3_389931_0_in_123586_4
  1

  0
ATTDEF
  5
E0
330
DC
100
AcDbEntity
  8
AM_6
100
AcDbText
 10
6.770932289135598
 20
0.7499999999999999
 30
0.0
 40
0.5
  1
Set Screw Intermediate Duty Insert Inch Bore
100
AcDbAttributeDefinition
  3

  2
NN
 70
     8
280
     0
  0
ATTDEF
  5
E1
330
DC
100
AcDbEntity
  8
AM_6
100
AcDbText
 10
6.770932289135598
 20
0.2499999999999999
 30
0.0
 40
0.5
  1
VSC Intermediate Duty Bearing Inserts
100
AcDbAttributeDefinition
  3

  2
NT
 70
     8
280
     0
  0
ATTDEF
  5
E2
330
DC
100
AcDbEntity
  8
AM_6
100
AcDbText
 10
6.770932289135598
 20
-0.2500000000000001
 30
0.0
 40
0.5
  1
389931
100
AcDbAttributeDefinition
  3

  2
NB
 70
     8
280
     0
  0
ATTDEF
  5
E3
330
DC
100
AcDbEntity
  8
AM_6
100
AcDbText
 10
6.770932289135598
 20
-0.7500000000000001
 30
0.0
 40
0.5
  1
$PN.
100
AcDbAttributeDefinition
  3

  2
NBSYN
 70
     8
280
     0
  0
ATTDEF
  5
E4
330
DC
100
AcDbEntity
  8
AM_6
100
AcDbText
 10
6.770932289135598
 20
-1.25
 30
0.0
 40
0.5
  1
389931
100
AcDbAttributeDefinition
  3

  2
LINA
 70
     8
280
     0
  0
ATTDEF
  5
E5
330
DC
100
AcDbEntity
  8
AM_6
100
AcDbText
 10
6.770932289135598
 20
-1.75
 30
0.0
 40
0.5
  1
210
100
AcDbAttributeDefinition
  3

  2
SERIES
 70
     8
280
     0
  0
ATTDEF
  5
E6
330
DC
100
AcDbEntity
  8
AM_6
100
AcDbText
 10
6.770932289135598
 20
-2.25
 30
0.0
 40
0.5
  1
1-15/16
100
AcDbAttributeDefinition
  3

  2
SS
 70
     8
280
     0
  0
ATTDEF
  5
E7
330
DC
100
AcDbEntity
  8
AM_6
100
AcDbText
 10
6.770932289135598
 20
-2.75
 30
0.0
 40
0.5
  1
389931
100
AcDbAttributeDefinition
  3

  2
PN
 70
     8
280
     0
  0
ATTDEF
  5
E8
330
DC
100
AcDbEntity
  8
AM_6
100
AcDbText
 10
6.770932289135598
 20
-3.25
 30
0.0
 40
0.5
  1
INS-VSC-115
100
AcDbAttributeDefinition
  3

  2
DESCRIPTION
 70
     8
280
     0
  0
ATTDEF
  5
E9
330
DC
100
AcDbEntity
  8
AM_6
100
AcDbText
 10
6.770932289135598
 20
-3.75
 30
0.0
 40
0.5
  1
1.46
100
AcDbAttributeDefinition
  3

  2
WEIGHT
 70
     8
280
     0
  0
ATTDEF
  5
EA
330
DC
100
AcDbEntity
  8
AM_6
100
AcDbText
 10
6.770932289135598
 20
-4.25
 30
0.0
 40
0.5
  1
1.94
100
AcDbAttributeDefinition
  3

  2
A
 70
     8
280
     0
  0
ATTDEF
  5
EB
330
DC
100
AcDbEntity
  8
AM_6
100
AcDbText
 10
6.770932289135598
 20
-4.75
 30
0.0
 40
0.5
  1
0.87
100
AcDbAttributeDefinition
  3

  2
C
 70
     8
280
     0
  0
ATTDEF
  5
EC
330
DC
100
AcDbEntity
  8
AM_6
100
AcDbText
 10
6.770932289135598
 20
-5.25
 30
0.0
 40
0.5
  1
3.5433
100
AcDbAttributeDefinition
  3

  2
D
 70
     8
280
     0
  0
ATTDEF
  5
ED
330
DC
100
AcDbEntity
  8
AM_6
100
AcDbText
 10
6.770932289135598
 20
-5.75
 30
0.0
 40
0.5
  1
0.250
100
AcDbAttributeDefinition
  3

  2
J
 70
     8
280
     0
  0
ATTDEF
  5
EE
330
DC
100
AcDbEntity
  8
AM_6
100
AcDbText
 10
6.770932289135598
 20
-6.25
 30
0.0
 40
0.5
  1
2.43
100
AcDbAttributeDefinition
  3

  2
L
 70
     8
280
     0
  0
ATTDEF
  5
EF
330
DC
100
AcDbEntity
  8
AM_6
100
AcDbText
 10
6.770932289135598
 20
-6.75
 30
0.0
 40
0.5
  1
3/8-24
100
AcDbAttributeDefinition
  3

  2
N
 70
     8
280
     0
  0
ATTDEF
  5
F0
330
DC
100
AcDbEntity
  8
AM_6
100
AcDbText
 10
6.770932289135598
 20
-7.25
 30
0.0
 40
0.5
  1
0.75
100
AcDbAttributeDefinition
  3

  2
W
 70
     8
280
     0
  0
ATTDEF
  5
F1
330
DC
100
AcDbEntity
  8
AM_6
100
AcDbText
 10
6.770932289135598
 20
-7.75
 30
0.0
 40
0.5
  1
1.19
100
AcDbAttributeDefinition
  3

  2
Y
 70
     8
280
     0
  0
ATTDEF
  5
F2
330
DC
100
AcDbEntity
  8
AM_6
100
AcDbText
 10
6.770932289135598
 20
-8.25
 30
0.0
 40
0.5
  1
baldor
100
AcDbAttributeDefinition
  3

  2
COMPANY
 70
     8
280
     0
  0
LINE
  5
F3
330
DC
100
AcDbEntity
  8
AM_9
100
AcDbLine
 10
-1.868525
 20
0.2959090909090927
 30
0.0
 11
-1.868525
 21
0.2040909090909074
 31
0.0
  0
ARC
  5
F4
330
DC
100
AcDbEntity
  8
AM_9
100
AcDbCircle
 10
-1.789434090909091
 20
0.2040909090909088
 30
0.0
 40
0.0790909090909091
100
AcDbArc
 50
180.0
 51
270.0
  0
ARC
  5
F5
330
DC
100
AcDbEntity
  8
AM_9
100
AcDbCircle
 10
-1.789434090909091
 20
0.2959090909090911
 30
0.0
 40
0.079090909090909
100
AcDbArc
 50
90.0
 51
180.0
  0
LINE
  5
F6
330
DC
100
AcDbEntity
  8
AM_9
100
AcDbLine
 10
-1.789434090909091
 20
0.3750000000000001
 30
0.0
 11
-1.789434090909091
 21
0.1249999999999999
 31
0.0
  0
LINE
  5
F7
330
DC
100
AcDbEntity
  8
AM_9
100
AcDbLine
 10
-1.789434090909091
 20
0.1249999999999999
 30
0.0
 11
-1.767179812784655
 21
0.1249999999999999
 31
0.0
  0
LINE
  5
F8
330
DC
100
AcDbEntity
  8
AM_9
100
AcDbLine
 10
-1.731560342632366
 20
0.3750000000000001
 30
0.0
 11
-1.789434090909091
 21
0.3750000000000001
 31
0.0
  0
LINE
  5
F9
330
DC
100
AcDbEntity
  8
AM_9
100
AcDbLine
 10
0.8779004602477788
 20
-0.9799499999999999
 30
0.0
 11
1.080726720651853
 21
-0.9799499999999999
 31
0.0
  0
LINE
  5
FA
330
DC
100
AcDbEntity
  8
AM_9
100
AcDbLine
 10
1.080726720651853
 20
-0.6500499999999999
 30
0.0
 11
0.8779626416891995
 21
-0.6500499999999999
 31
0.0
  0
LWPOLYLINE
  5
FB
330
DC
100
AcDbEntity
  8
AM_9
100
AcDbPolyline
 90
        6
 70
     0
 43
0.0
 10
0.9114928788948087
 20
-0.6753860665379011
 10
0.9095575675096967
 20
-0.6719891039172282
 10
0.9003793862631716
 20
-0.6600383839092604
 10
0.8902773109362847
 20
-0.6528170940967923
 10
0.8788182439420634
 20
-0.6500618163656434
 10
0.8779901335823929
 20
-0.6500500003383397
  0
LWPOLYLINE
  5
FC
330
DC
100
AcDbEntity
  8
AM_9
100
AcDbPolyline
 90
       17
 70
     0
 43
0.0
 10
0.8779800931361484
 20
-0.9799499994724241
 10
0.885423624611356
 20
-0.97896969885255
 10
0.895859904440674
 20
-0.9738380722666585
 10
0.9054522435992527
 20
-0.9641249341103579
 10
0.9135565454664024
 20
-0.9505705773017826
 10
0.920512364350909
 20
-0.932835963680391
 10
0.9259826904574237
 20
-0.9120951502274621
 10
0.9302111026286395
 20
-0.8879434055435298
 10
0.9330038552247686
 20
-0.8623680810148783
 10
0.9345629818149997
 20
-0.8346329673721739
 10
0.9348297374722638
 20
-0.8074638423678852
 10
0.9338531575460719
 20
-0.7797215923828503
 10
0.9316890961432166
 20
-0.7539177499251231
 10
0.9281758005467162
 20
-0.7291180784523015
 10
0.9234140363258607
 20
-0.7071477471048746
 10
0.9171234133159473
 20
-0.6876208601412974
 10
0.9114928788948087
 20
-0.6753860665379011
  0
LWPOLYLINE
  5
FD
330
DC
100
AcDbEntity
  8
AM_9
100
AcDbPolyline
 90
       11
 70
     0
 43
0.0
 10
0.8779901335823929
 20
-0.6500500003383397
 10
0.8671042925035928
 20
-0.6519636117324562
 10
0.8546792231055392
 20
-0.6585063978814939
 10
0.8426719248489289
 20
-0.6691189920734247
 10
0.8308473374468531
 20
-0.6840943195554496
 10
0.8202005726633177
 20
-0.7024396096499572
 10
0.8107528953479787
 20
-0.7245252400408471
 10
0.8034162134055756
 20
-0.7487029396549082
 10
0.7982156260695753
 20
-0.7755479081500574
 10
0.7961596349741338
 20
-0.7949766378029194
 10
0.7954538066929753
 20
-0.815
  0
ELLIPSE
  5
FE
330
DC
100
AcDbEntity
  8
AM_9
100
AcDbEllipse
 10
1.080726720651853
 20
-0.8150000000000002
 30
0.0
 11
-3.030082342790335E-17
 21
-0.1649499999999998
 31
0.0
210
0.0
220
0.0
230
1.0
 40
0.4226182617406985
 41
2.352802594311559
 42
5.885259830912753
  0
LINE
  5
FF
330
DC
100
AcDbEntity
  8
AM_9
100
AcDbLine
 10
1.048220002390685
 20
-0.9609185000623691
 30
0.0
 11
1.06204388242051
 21
-0.978160840185858
 31
0.0
  0
LINE
  5
100
330
DC
100
AcDbEntity
  8
AM_9
100
AcDbLine
 10
1.061815018866525
 20
-0.6521246182549818
 30
0.0
 11
1.048220002390685
 21
-0.6690814999376308
 31
0.0
  0
LWPOLYLINE
  5
101
330
DC
100
AcDbEntity
  8
AM_9
100
AcDbPolyline
 90
        4
 70
     0
 43
0.0
 10
1.040606443712376
 20
-0.6881448355246227
 10
1.045310892205217
 20
-0.6782970481820709
 10
1.05783749712135
 20
-0.6574062226668166
 10
1.062031191918569
 20
-0.651854995693277
  0
LWPOLYLINE
  5
102
330
DC
100
AcDbEntity
  8
AM_9
100
AcDbPolyline
 90
        9
 70
     0
 43
0.0
 10
1.062031191918569
 20
-0.651854995693277
 10
1.070738594626023
 20
-0.6422966042436904
 10
1.084150689797245
 20
-0.6322212305383345
 10
1.09654934694449
 20
-0.6278820809474156
 10
1.108502897584539
 20
-0.6284602640977683
 10
1.11916800744151
 20
-0.6336704708712575
 10
1.128856456999033
 20
-0.6431559116936552
 10
1.135147176187393
 20
-0.6525126402541614
 10
1.140808219706023
 20
-0.6637641795438516
  0
LWPOLYLINE
  5
103
330
DC
100
AcDbEntity
  8
AM_9
100
AcDbPolyline
 90
       11
 70
     0
 43
0.0
 10
0.7954538066929753
 20
-0.815
 10
0.7967471748726471
 20
-0.8420745980014335
 10
0.8007078429636953
 20
-0.869149196002867
 10
0.8069085572631727
 20
-0.893941335345276
 10
0.8153847921688173
 20
-0.9171868387133522
 10
0.8253742174238481
 20
-0.9371550723038296
 10
0.8369134717273969
 20
-0.9541997403384612
 10
0.848954387129121
 20
-0.9669706603487409
 10
0.8616336667400731
 20
-0.9757091137047929
 10
0.8736481592157895
 20
-0.9796374566444822
 10
0.8779800931361484
 20
-0.9799499994724241
  0
LINE
  5
104
330
DC
100
AcDbEntity
  8
AM_9
100
AcDbLine
 10
0.9687500000000001
 20
-1.1414
 30
0.0
 11
0.9687500000000001
 21
0.7378499999999999
 31
0.0
  0
LINE
  5
105
330
DC
100
AcDbEntity
  8
AM_9
100
AcDbLine
 10
-0.9687500000000001
 20
0.7378499999999999
 30
0.0
 11
-0.9687500000000001
 21
-1.1414
 31
0.0
  0
LINE
  5
106
330
DC
100
AcDbEntity
  8
AM_9
100
AcDbLine
 10
0.96875
 20
0.7378499999999999
 30
0.0
 11
0.9809
 21
0.7499999999999999
 31
0.0
  0
LINE
  5
107
330
DC
100
AcDbEntity
  8
AM_9
100
AcDbLine
 10
-0.9809
 20
0.7499999999999999
 30
0.0
 11
-0.96875
 21
0.7378499999999999
 31
0.0
  0
LINE
  5
108
330
DC
100
AcDbEntity
  8
AM_9
100
AcDbLine
 10
-0.9687500000000001
 20
-1.1414
 30
0.0
 11
-1.01735
 21
-1.19
 31
0.0
  0
LINE
  5
109
330
DC
100
AcDbEntity
  8
AM_9
100
AcDbLine
 10
1.01735
 20
-1.19
 30
0.0
 11
0.9687500000000001
 21
-1.1414
 31
0.0
  0
LWPOLYLINE
  5
10A
330
DC
100
AcDbEntity
  8
AM_9
100
AcDbPolyline
 90
        6
 70
     0
 43
0.0
 10
-0.0581708884726562
 20
-0.6382181002284083
 10
-0.0303164080988677
 20
-0.6303504606781494
 10
-0.0027301682234157
 20
-0.6275229456472287
 10
0.0257937514618919
 20
-0.6295591109737009
 10
0.0518165311767118
 20
-0.6359525596480355
 10
0.0575739118971807
 20
-0.6379928427227838
  0
LWPOLYLINE
  5
10B
330
DC
100
AcDbEntity
  8
AM_9
100
AcDbPolyline
 90
        3
 70
     0
 43
0.0
 10
1.140808219706023
 20
-0.6637641795438516
 10
1.147559304535744
 20
-0.682106449250516
 10
1.152740332679711
 20
-0.7016646115929416
  0
LINE
  5
10C
330
DC
100
AcDbEntity
  8
AM_9
100
AcDbLine
 10
1.215
 20
-0.7099126553457717
 30
0.0
 11
1.215
 21
-0.435
 31
0.0
  0
LINE
  5
10D
330
DC
100
AcDbEntity
  8
AM_9
100
AcDbLine
 10
-1.215
 20
-0.435
 30
0.0
 11
-1.215
 21
-0.7099126553457717
 31
0.0
  0
LINE
  5
10E
330
DC
100
AcDbEntity
  8
AM_9
100
AcDbLine
 10
1.215000000000001
 20
0.435
 30
0.0
 11
1.215000000000001
 21
0.7099126553457719
 31
0.0
  0
LINE
  5
10F
330
DC
100
AcDbEntity
  8
AM_9
100
AcDbLine
 10
-1.215000000000001
 20
0.7099126553457719
 30
0.0
 11
-1.215000000000001
 21
0.435
 31
0.0
  0
LINE
  5
110
330
DC
100
AcDbEntity
  8
AM_9
100
AcDbLine
 10
1.688316666666667
 20
-0.3000000000000001
 30
0.0
 11
1.688316666666667
 21
-0.2
 31
0.0
  0
LINE
  5
111
330
DC
100
AcDbEntity
  8
AM_9
100
AcDbLine
 10
-1.688316666666667
 20
-0.2
 30
0.0
 11
-1.688316666666667
 21
-0.3000000000000001
 31
0.0
  0
LINE
  5
112
330
DC
100
AcDbEntity
  8
AM_9
100
AcDbLine
 10
-1.67805057209251
 20
0.435
 30
0.0
 11
1.678050572088573
 21
0.435
 31
0.0
  0
ARC
  5
113
330
DC
100
AcDbEntity
  8
AM_9
100
AcDbCircle
 10
1.67805057209251
 20
0.3849999999999998
 30
0.0
 40
0.0500000000000001
100
AcDbArc
 50
12.92190045228232
 51
90.0
  0
ARC
  5
114
330
DC
100
AcDbEntity
  8
AM_9
100
AcDbCircle
 10
-1.67805057209251
 20
0.3849999999999998
 30
0.0
 40
0.0500000000000002
100
AcDbArc
 50
90.0
 51
167.0780995477176
  0
LINE
  5
115
330
DC
100
AcDbEntity
  8
AM_9
100
AcDbLine
 10
-1.678050572092514
 20
-0.435
 30
0.0
 11
1.678050572088577
 21
-0.435
 31
0.0
  0
ARC
  5
116
330
DC
100
AcDbEntity
  8
AM_9
100
AcDbCircle
 10
1.678050572092514
 20
-0.3849999999999992
 30
0.0
 40
0.0500000000000008
100
AcDbArc
 50
270.0
 51
347.0781236960815
  0
ARC
  5
117
330
DC
100
AcDbEntity
  8
AM_9
100
AcDbCircle
 10
-1.678050572092514
 20
-0.3849999999999991
 30
0.0
 40
0.0500000000000009
100
AcDbArc
 50
192.9218763039185
 51
270.0
  0
LINE
  5
118
330
DC
100
AcDbEntity
  8
AM_9
100
AcDbLine
 10
-1.726784366253863
 20
-0.3961811138371493
 30
0.0
 11
1.726784366253893
 21
-0.3961811138371493
 31
0.0
  0
LINE
  5
119
330
DC
100
AcDbEntity
  8
AM_9
100
AcDbLine
 10
-1.746065211411074
 20
-0.2999999999999999
 30
0.0
 11
1.746065211411104
 21
-0.2999999999999999
 31
0.0
  0
ARC
  5
11A
330
DC
100
AcDbEntity
  8
AM_9
100
AcDbCircle
 10
0.000000000073846
 20
-0.0000000000147983
 30
0.0
 40
1.771649999924743
100
AcDbArc
 50
347.0781002291724
 51
350.2509203909797
  0
ARC
  5
11B
330
DC
100
AcDbEntity
  8
AM_9
100
AcDbCircle
 10
-0.0000000000739049
 20
-0.0000000000148093
 30
0.0
 40
1.771649999924684
100
AcDbArc
 50
189.7490796090202
 51
192.9218997708277
  0
LINE
  5
11C
330
DC
100
AcDbEntity
  8
AM_9
100
AcDbLine
 10
-1.760324891177762
 20
-0.2
 30
0.0
 11
1.76032489117777
 21
-0.2
 31
0.0
  0
LINE
  5
11D
330
DC
100
AcDbEntity
  8
AM_9
100
AcDbLine
 10
-1.726784361541367
 20
0.3961811343769059
 30
0.0
 11
1.726784361541375
 21
0.3961811343769059
 31
0.0
  0
ARC
  5
11E
330
DC
100
AcDbEntity
  8
AM_9
100
AcDbCircle
 10
0.0000000000005358
 20
0.0000000000000297
 30
0.0
 40
1.771649999999479
100
AcDbArc
 50
353.5181126598187
 51
12.92190045228499
  0
ARC
  5
11F
330
DC
100
AcDbEntity
  8
AM_9
100
AcDbCircle
 10
-0.000000000204156
 20
0.0000000000448841
 30
0.0
 40
1.771649999790984
100
AcDbArc
 50
167.0780995476563
 51
167.7918896820935
  0
ARC
  5
120
330
DC
100
AcDbEntity
  8
AM_9
100
AcDbCircle
 10
-0.0000000000009635
 20
0.0000000000000216
 30
0.0
 40
1.771649999999053
100
AcDbArc
 50
175.9415316732312
 51
186.4818873401826
  0
LINE
  5
121
330
DC
100
AcDbEntity
  8
AM_9
100
AcDbLine
 10
-1.73150764436907
 20
0.3749999999830573
 30
0.0
 11
-1.767234767227582
 21
0.125000000004258
 31
0.0
  0
LINE
  5
124
330
DC
100
AcDbEntity
  8
AM_7
100
AcDbLine
 10
-0.1731975
 20
-0.8149999999999997
 30
0.0
 11
0.1731975
 21
-0.8149999999999997
 31
0.0
  0
LINE
  5
125
330
DC
100
AcDbEntity
  8
AM_7
100
AcDbLine
 10
-1.90120125
 20
0.25
 30
0.0
 11
-1.18232375
 21
0.25
 31
0.0
  0
ELLIPSE
  5
126
330
DC
100
AcDbEntity
  8
AM_4
100
AcDbEllipse
 10
1.080726720651853
 20
-0.815
 30
0.0
 11
-3.030082342790337E-17
 21
-0.1649499999999999
 31
0.0
210
0.0
220
0.0
230
1.0
 40
0.4226182617406994
 41
5.885259830912751
 42
8.635987901491148
  0
LWPOLYLINE
  5
127
330
DC
100
AcDbEntity
  8
AM_4
100
AcDbPolyline
 90
       12
 70
     0
 43
0.0
 10
1.062051144515214
 20
-0.9781698980981646
 10
1.050888314972122
 20
-0.9618731311741914
 10
1.040714048724412
 20
-0.9420964206863723
 10
1.031441800074014
 20
-0.9178835775405229
 10
1.024109117308137
 20
-0.8911851072410427
 10
1.018753643656545
 20
-0.8608058623160875
 10
1.016086072833427
 20
-0.8292278254206036
 10
1.016312446592518
 20
-0.796116207849358
 10
1.019525596681896
 20
-0.7635312957045249
 10
1.02569048982175
 20
-0.7322020057038676
 10
1.034487034551665
 20
-0.7032874034489935
 10
1.040606443712376
 20
-0.6881448355246227
  0
LINE
  5
128
330
DC
100
AcDbEntity
  8
AM_4
100
AcDbLine
 10
-1.20285
 20
0.7499999999999999
 30
0.0
 11
1.20285
 21
0.7499999999999999
 31
0.0
  0
LINE
  5
129
330
DC
100
AcDbEntity
  8
AM_4
100
AcDbLine
 10
-1.20285
 20
0.7499999999999999
 30
0.0
 11
-1.215
 21
0.73785
 31
0.0
  0
LINE
  5
12A
330
DC
100
AcDbEntity
  8
AM_4
100
AcDbLine
 10
1.215
 20
0.73785
 30
0.0
 11
1.20285
 21
0.7499999999999999
 31
0.0
  0
LINE
  5
12B
330
DC
100
AcDbEntity
  8
AM_4
100
AcDbLine
 10
-1.1664
 20
-1.19
 30
0.0
 11
1.1664
 21
-1.19
 31
0.0
  0
LINE
  5
12C
330
DC
100
AcDbEntity
  8
AM_4
100
AcDbLine
 10
1.1664
 20
-1.19
 30
0.0
 11
1.215
 21
-1.1414
 31
0.0
  0
LINE
  5
12D
330
DC
100
AcDbEntity
  8
AM_4
100
AcDbLine
 10
-1.215
 20
-1.1414
 30
0.0
 11
-1.1664
 21
-1.19
 31
0.0
  0
CIRCLE
  5
12E
330
DC
100
AcDbEntity
  8
AM_4
100
AcDbCircle
 10
0.0
 20
-0.8149999999999997
 30
0.0
 40
0.16495
  0
LINE
  5
12F
330
DC
100
AcDbEntity
  8
AM_4
100
AcDbLine
 10
-1.215
 20
-1.1414
 30
0.0
 11
1.215
 21
-1.1414
 31
0.0
  0
LWPOLYLINE
  5
130
330
DC
100
AcDbEntity
  8
AM_4
100
AcDbPolyline
 90
       32
 70
     0
 43
0.0
 10
0.0575739118971807
 20
-0.6379928427227838
 10
0.077116024389549
 20
-0.6467837245250933
 10
0.1002804667895125
 20
-0.6614984295893208
 10
0.1213556869755669
 20
-0.6801387788366933
 10
0.1399163475902549
 20
-0.7026886404143444
 10
0.1550847769171313
 20
-0.728531098537752
 10
0.1664228491552569
 20
-0.7575854703158296
 10
0.1731460060407027
 20
-0.7889177953948687
 10
0.1747505142020273
 20
-0.8213913877071399
 10
0.1708938990988119
 20
-0.8545979588124041
 10
0.1617307754667456
 20
-0.8861457662639809
 10
0.1469143621901947
 20
-0.9165322292423954
 10
0.1279892195080633
 20
-0.9426153856703464
 10
0.1039898003226388
 20
-0.9656332379074356
 10
0.0784926927378675
 20
-0.9824807674664983
 10
0.0493922736375868
 20
-0.9948361070816832
 10
0.0217185542055071
 20
-1.001042451454359
 10
-0.0075413037398301
 20
-1.002324858926378
 10
-0.0342480318173298
 20
-0.9988545949053922
 10
-0.0607373840538505
 20
-0.9907836082132742
 10
-0.0849990253436556
 20
-0.9787802372722483
 10
-0.1076100448677207
 20
-0.9626772952445249
 10
-0.1279562937885189
 20
-0.9426533371245327
 10
-0.145342011083096
 20
-0.9190980148224421
 10
-0.1593952512752718
 20
-0.8919535304426339
 10
-0.1692162736373952
 20
-0.8621363017552186
 10
-0.1742629774016211
 20
-0.8303544116770663
 10
-0.1740662147594504
 20
-0.7972723893265867
 10
-0.1684732233176659
 20
-0.7649061444527376
 10
-0.1572105270337417
 20
-0.7330533338436103
 10
-0.1440562647073875
 20
-0.7088696293006878
 10
-0.1271388178313676
 20
-0.6864110815781329
  0
LWPOLYLINE
  5
131
330
DC
100
AcDbEntity
  8
AM_4
100
AcDbPolyline
 90
        5
 70
     0
 43
0.0
 10
-0.1271388178313676
 20
-0.6864110815781329
 10
-0.1082386650753027
 20
-0.6678524117466599
 10
-0.0862693591253482
 20
-0.6519868670114107
 10
-0.0597411062180153
 20
-0.6388230857242575
 10
-0.0581708884726562
 20
-0.6382181002284083
  0
LWPOLYLINE
  5
132
330
DC
100
AcDbEntity
  8
AM_4
100
AcDbPolyline
 90
       19
 70
     0
 43
0.0
 10
1.152740332679711
 20
-0.7016646115929416
 10
1.153083741598688
 20
-0.7032060026010495
 10
1.157878271251238
 20
-0.7297765691401571
 10
1.161196857877716
 20
-0.7584689465482962
 10
1.163146330752799
 20
-0.7902150318578384
 10
1.163555084812216
 20
-0.8226254110301899
 10
1.162373100900077
 20
-0.8556635280729947
 10
1.159551176430911
 20
-0.887548910812944
 10
1.155029331049741
 20
-0.9172583336130189
 10
1.1487458782004
 20
-0.9439488773763968
 10
1.140919317436994
 20
-0.9659474527643725
 10
1.131391686800492
 20
-0.9834221250170408
 10
1.121011871546854
 20
-0.9949014471851819
 10
1.109412455081839
 20
-1.001281277829207
 10
1.097761437345326
 20
-1.00228303023135
 10
1.085645702940779
 20
-0.9985578697391673
 10
1.073747551924832
 20
-0.9904509634135029
 10
1.062154321603639
 20
-0.9782984028306226
 10
1.062051144515214
 20
-0.9781698980981646
  0
LINE
  5
133
330
DC
100
AcDbEntity
  8
AM_4
100
AcDbLine
 10
1.215
 20
-1.1414
 30
0.0
 11
1.215
 21
-0.7099126553457717
 31
0.0
  0
LINE
  5
134
330
DC
100
AcDbEntity
  8
AM_4
100
AcDbLine
 10
-1.215
 20
-0.7099126553457717
 30
0.0
 11
-1.215
 21
-1.1414
 31
0.0
  0
LINE
  5
135
330
DC
100
AcDbEntity
  8
AM_4
100
AcDbLine
 10
-1.215
 20
0.73785
 30
0.0
 11
1.215000000000001
 21
0.73785
 31
0.0
  0
LINE
  5
136
330
DC
100
AcDbEntity
  8
AM_4
100
AcDbLine
 10
1.215000000000001
 20
0.7099126553457719
 30
0.0
 11
1.215000000000001
 21
0.73785
 31
0.0
  0
LINE
  5
137
330
DC
100
AcDbEntity
  8
AM_4
100
AcDbLine
 10
-1.215000000000001
 20
0.73785
 30
0.0
 11
-1.215000000000001
 21
0.7099126553457719
 31
0.0
  0
CIRCLE
  5
139
330
DC
100
AcDbEntity
  8
AM_5
100
AcDbCircle
 10
0.0
 20
-0.8149999999999997
 30
0.0
 40
0.1875
  0
ENDBLK
  5
DF
330
DC
100
AcDbEntity
  8
0
100
AcDbBlockEnd
  0
BLOCK
  5
13C
330
13A
100
AcDbEntity
  8
0
100
AcDbBlockBegin
  2
4_123586vsc_0_in_123586_4
 70
     2
 10
0.0
 20
0.0
 30
0.0
  3
4_123586vsc_0_in_123586_4
  1

  0
ATTDEF
  5
13E
330
13A
100
AcDbEntity
  8
AM_6
100
AcDbText
 10
9.059999999999999
 20
1.2375
 30
0.0
 40
0.5
  1
P2B-VSC -Inch - Body
100
AcDbAttributeDefinition
  3

  2
NN
 70
     8
280
     0
  0
ATTDEF
  5
13F
330
13A
100
AcDbEntity
  8
AM_6
100
AcDbText
 10
9.059999999999999
 20
0.7375
 30
0.0
 40
0.5
  1
VSC Intermediate Duty Pillow Blocks
100
AcDbAttributeDefinition
  3

  2
NT
 70
     8
280
     0
  0
ATTDEF
  5
140
330
13A
100
AcDbEntity
  8
AM_6
100
AcDbText
 10
9.059999999999999
 20
0.2375
 30
0.0
 40
0.5
  1
123586vsc
100
AcDbAttributeDefinition
  3

  2
NB
 70
     8
280
     0
  0
ATTDEF
  5
141
330
13A
100
AcDbEntity
  8
AM_6
100
AcDbText
 10
9.059999999999999
 20
-0.2625
 30
0.0
 40
0.5
  1
$PN.
100
AcDbAttributeDefinition
  3

  2
NBSYN
 70
     8
280
     0
  0
ATTDEF
  5
142
330
13A
100
AcDbEntity
  8
AM_6
100
AcDbText
 10
9.059999999999999
 20
-0.7625
 30
0.0
 40
0.5
  1
123586vsc
100
AcDbAttributeDefinition
  3

  2
LINA
 70
     8
280
     0
  0
ATTDEF
  5
143
330
13A
100
AcDbEntity
  8
AM_6
100
AcDbText
 10
9.059999999999999
 20
-1.2625
 30
0.0
 40
0.5
  1
210
100
AcDbAttributeDefinition
  3

  2
RS
 70
     8
280
     0
  0
ATTDEF
  5
144
330
13A
100
AcDbEntity
  8
AM_6
100
AcDbText
 10
9.059999999999999
 20
-1.7625
 30
0.0
 40
0.5
  1
1-15/16
100
AcDbAttributeDefinition
  3

  2
SS
 70
     8
280
     0
  0
ATTDEF
  5
145
330
13A
100
AcDbEntity
  8
AM_6
100
AcDbText
 10
9.059999999999999
 20
-2.2625
 30
0.0
 40
0.5
  1
123586vsc
100
AcDbAttributeDefinition
  3

  2
PN
 70
     8
280
     0
  0
ATTDEF
  5
146
330
13A
100
AcDbEntity
  8
AM_6
100
AcDbText
 10
9.059999999999999
 20
-2.7625
 30
0.0
 40
0.5
  1
P2B-VSC-115
100
AcDbAttributeDefinition
  3

  2
DESCRIPTION
 70
     8
280
     0
  0
ATTDEF
  5
147
330
13A
100
AcDbEntity
  8
AM_6
100
AcDbText
 10
9.059999999999999
 20
-3.2625
 30
0.0
 40
0.5
  1
RE-LUBE
100
AcDbAttributeDefinition
  3

  2
LF
 70
     8
280
     0
  0
ATTDEF
  5
148
330
13A
100
AcDbEntity
  8
AM_6
100
AcDbText
 10
9.059999999999999
 20
-3.7625
 30
0.0
 40
0.5
  1
1.94
100
AcDbAttributeDefinition
  3

  2
A
 70
     8
280
     0
  0
ATTDEF
  5
149
330
13A
100
AcDbEntity
  8
AM_6
100
AcDbText
 10
9.059999999999999
 20
-4.2625
 30
0.0
 40
0.5
  1
8.12
100
AcDbAttributeDefinition
  3

  2
B
 70
     8
280
     0
  0
ATTDEF
  5
14A
330
13A
100
AcDbEntity
  8
AM_6
100
AcDbText
 10
9.059999999999999
 20
-4.7625
 30
0.0
 40
0.5
  1
2.25
100
AcDbAttributeDefinition
  3

  2
C
 70
     8
280
     0
  0
ATTDEF
  5
14B
330
13A
100
AcDbEntity
  8
AM_6
100
AcDbText
 10
9.059999999999999
 20
-5.2625
 30
0.0
 40
0.5
  1
6.00
100
AcDbAttributeDefinition
  3

  2
DMIN
 70
     8
280
     0
  0
ATTDEF
  5
14C
330
13A
100
AcDbEntity
  8
AM_6
100
AcDbText
 10
9.059999999999999
 20
-5.7625
 30
0.0
 40
0.5
  1
6.68
100
AcDbAttributeDefinition
  3

  2
DMAX
 70
     8
280
     0
  0
ATTDEF
  5
14D
330
13A
100
AcDbEntity
  8
AM_6
100
AcDbText
 10
9.059999999999999
 20
-6.2625
 30
0.0
 40
0.5
  1
5/8
100
AcDbAttributeDefinition
  3

  2
F
 70
     8
280
     0
  0
ATTDEF
  5
14E
330
13A
100
AcDbEntity
  8
AM_6
100
AcDbText
 10
9.059999999999999
 20
-6.7625
 30
0.0
 40
0.5
  1
1.02
100
AcDbAttributeDefinition
  3

  2
G
 70
     8
280
     0
  0
ATTDEF
  5
14F
330
13A
100
AcDbEntity
  8
AM_6
100
AcDbText
 10
9.059999999999999
 20
-7.2625
 30
0.0
 40
0.5
  1
0.75
100
AcDbAttributeDefinition
  3

  2
H
 70
     8
280
     0
  0
ATTDEF
  5
150
330
13A
100
AcDbEntity
  8
AM_6
100
AcDbText
 10
9.059999999999999
 20
-7.7625
 30
0.0
 40
0.5
  1
4.53
100
AcDbAttributeDefinition
  3

  2
J
 70
     8
280
     0
  0
ATTDEF
  5
151
330
13A
100
AcDbEntity
  8
AM_6
100
AcDbText
 10
9.059999999999999
 20
-8.2625
 30
0.0
 40
0.5
  1
2.43
100
AcDbAttributeDefinition
  3

  2
L
 70
     8
280
     0
  0
ATTDEF
  5
152
330
13A
100
AcDbEntity
  8
AM_6
100
AcDbText
 10
9.059999999999999
 20
-8.7625
 30
0.0
 40
0.5
  1
2.25
100
AcDbAttributeDefinition
  3

  2
M
 70
     8
280
     0
  0
ATTDEF
  5
153
330
13A
100
AcDbEntity
  8
AM_6
100
AcDbText
 10
9.059999999999999
 20
-9.2625
 30
0.0
 40
0.5
  1
0.75
100
AcDbAttributeDefinition
  3

  2
R
 70
     8
280
     0
  0
ATTDEF
  5
154
330
13A
100
AcDbEntity
  8
AM_6
100
AcDbText
 10
9.059999999999999
 20
-9.7625
 30
0.0
 40
0.5
  1
1.19
100
AcDbAttributeDefinition
  3

  2
S
 70
     8
280
     0
  0
ATTDEF
  5
155
330
13A
100
AcDbEntity
  8
AM_6
100
AcDbText
 10
9.059999999999999
 20
-10.2625
 30
0.0
 40
0.5
  1
3.69
100
AcDbAttributeDefinition
  3

  2
U
 70
     8
280
     0
  0
ATTDEF
  5
156
330
13A
100
AcDbEntity
  8
AM_6
100
AcDbText
 10
9.059999999999999
 20
-10.7625
 30
0.0
 40
0.5
  1
7.38
100
AcDbAttributeDefinition
  3

  2
V
 70
     8
280
     0
  0
ATTDEF
  5
157
330
13A
100
AcDbEntity
  8
AM_6
100
AcDbText
 10
9.059999999999999
 20
-11.2625
 30
0.0
 40
0.5
  1
0.81
100
AcDbAttributeDefinition
  3

  2
W
 70
     8
280
     0
  0
ATTDEF
  5
158
330
13A
100
AcDbEntity
  8
AM_6
100
AcDbText
 10
9.059999999999999
 20
-11.7625
 30
0.0
 40
0.5
  1
0.12
100
AcDbAttributeDefinition
  3

  2
X
 70
     8
280
     0
  0
ATTDEF
  5
159
330
13A
100
AcDbEntity
  8
AM_6
100
AcDbText
 10
9.059999999999999
 20
-12.2625
 30
0.0
 40
0.5
  1
baldor
100
AcDbAttributeDefinition
  3

  2
COMPANY
 70
     8
280
     0
  0
LINE
  5
15A
330
13A
100
AcDbEntity
  8
AM_9
100
AcDbLine
 10
1.868525
 20
-1.007142857142857
 30
0.0
 11
1.868525
 21
1.007142857142854
 31
0.0
  0
LINE
  5
15B
330
13A
100
AcDbEntity
  8
AM_9
100
AcDbLine
 10
1.793525
 20
-0.9049350855624704
 30
0.0
 11
1.793525
 21
0.9049350855624699
 31
0.0
  0
LINE
  5
15C
330
13A
100
AcDbEntity
  8
AM_9
100
AcDbLine
 10
-1.868525
 20
0.2959090909090926
 30
0.0
 11
-1.868525
 21
1.00714285873941
 31
0.0
  0
LINE
  5
15D
330
13A
100
AcDbEntity
  8
AM_9
100
AcDbLine
 10
-1.868525
 20
-1.007142857142857
 30
0.0
 11
-1.868525
 21
0.2040909090909073
 31
0.0
  0
LINE
  5
15E
330
13A
100
AcDbEntity
  8
AM_9
100
AcDbLine
 10
-1.793525
 20
-0.9049350855624703
 30
0.0
 11
-1.793525
 21
0.9049350855624699
 31
0.0
  0
LINE
  5
15F
330
13A
100
AcDbEntity
  8
AM_9
100
AcDbLine
 10
1.215
 20
-0.9000000000000002
 30
0.0
 11
-1.215
 21
-0.8999999999999999
 31
0.0
  0
LINE
  5
160
330
13A
100
AcDbEntity
  8
AM_9
100
AcDbLine
 10
1.77165
 20
-0.9004738483724407
 30
0.0
 11
1.77165
 21
0.9004875029077654
 31
0.0
  0
LINE
  5
161
330
13A
100
AcDbEntity
  8
AM_9
100
AcDbLine
 10
-1.77165
 20
0.9004738483724368
 30
0.0
 11
-1.77165
 21
-0.9004875029077657
 31
0.0
  0
LINE
  5
162
330
13A
100
AcDbEntity
  8
AM_7
100
AcDbLine
 10
3.626999999999999
 20
-0.8100000000000003
 30
0.0
 11
3.753
 21
-0.8100000000000003
 31
0.0
  0
LINE
  5
163
330
13A
100
AcDbEntity
  8
AM_7
100
AcDbLine
 10
3.69
 20
-0.8730000000000002
 30
0.0
 11
3.69
 21
-0.7470000000000003
 31
0.0
  0
LINE
  5
164
330
13A
100
AcDbEntity
  8
AM_7
100
AcDbLine
 10
-3.753
 20
-0.8100000000000003
 30
0.0
 11
-3.626999999999999
 21
-0.8100000000000003
 31
0.0
  0
LINE
  5
165
330
13A
100
AcDbEntity
  8
AM_7
100
AcDbLine
 10
-3.69
 20
-0.8730000000000002
 30
0.0
 11
-3.69
 21
-0.7470000000000003
 31
0.0
  0
LINE
  5
166
330
13A
100
AcDbEntity
  8
AM_7
100
AcDbLine
 10
0.0
 20
1.2375
 30
0.0
 11
0.0
 21
-1.287
 31
0.0
  0
LINE
  5
167
330
13A
100
AcDbEntity
  8
AM_7
100
AcDbLine
 10
2.643
 20
0.0
 30
0.0
 11
3.697
 21
-0.0000000000000001
 31
0.0
  0
LINE
  5
168
330
13A
100
AcDbEntity
  8
AM_7
100
AcDbLine
 10
3.34
 20
-0.357
 30
0.0
 11
3.34
 21
0.3569999999999998
 31
0.0
  0
LINE
  5
169
330
13A
100
AcDbEntity
  8
AM_7
100
AcDbLine
 10
-3.697
 20
0.0000000000000003
 30
0.0
 11
-2.643
 21
0.0000000000000001
 31
0.0
  0
LINE
  5
16A
330
13A
100
AcDbEntity
  8
AM_7
100
AcDbLine
 10
-3.34
 20
-0.3569999999999995
 30
0.0
 11
-3.34
 21
0.3570000000000002
 31
0.0
  0
LINE
  5
16B
330
13A
100
AcDbEntity
  8
AM_7
100
AcDbLine
 10
-3.0
 20
-0.3570000000000002
 30
0.0
 11
-3.0
 21
0.3570000000000004
 31
0.0
  0
LINE
  5
16C
330
13A
100
AcDbEntity
  8
AM_7
100
AcDbLine
 10
3.0
 20
-0.3569999999999999
 30
0.0
 11
3.0
 21
0.3569999999999999
 31
0.0
  0
LINE
  5
16D
330
13A
100
AcDbEntity
  8
AM_4
100
AcDbLine
 10
-3.835
 20
1.125
 30
0.0
 11
-4.059999999999999
 21
0.9000000000000001
 31
0.0
  0
LINE
  5
16E
330
13A
100
AcDbEntity
  8
AM_4
100
AcDbLine
 10
-4.06
 20
-0.8999999999999999
 30
0.0
 11
-3.835
 21
-1.125
 31
0.0
  0
LINE
  5
16F
330
13A
100
AcDbEntity
  8
AM_4
100
AcDbLine
 10
-4.06
 20
-0.8999999999999997
 30
0.0
 11
-4.06
 21
0.8999999999999998
 31
0.0
  0
LINE
  5
170
330
13A
100
AcDbEntity
  8
AM_4
100
AcDbLine
 10
3.834999999999999
 20
-1.125
 30
0.0
 11
4.06
 21
-0.9000000000000007
 31
0.0
  0
LINE
  5
171
330
13A
100
AcDbEntity
  8
AM_4
100
AcDbLine
 10
4.06
 20
0.8999999999999996
 30
0.0
 11
3.835
 21
1.125
 31
0.0
  0
LINE
  5
172
330
13A
100
AcDbEntity
  8
AM_4
100
AcDbLine
 10
3.835
 20
1.125
 30
0.0
 11
1.975667857142857
 21
1.125
 31
0.0
  0
LINE
  5
173
330
13A
100
AcDbEntity
  8
AM_4
100
AcDbLine
 10
3.339999999999999
 20
0.34
 30
0.0
 11
3.0
 21
0.34
 31
0.0
  0
ARC
  5
174
330
13A
100
AcDbEntity
  8
AM_4
100
AcDbCircle
 10
3.34
 20
-0.0000000000000002
 30
0.0
 40
0.3399999999999999
100
AcDbArc
 50
270.0
 51
90.0
  0
LINE
  5
175
330
13A
100
AcDbEntity
  8
AM_4
100
AcDbLine
 10
3.0
 20
-0.3400000000000001
 30
0.0
 11
3.34
 21
-0.3400000000000001
 31
0.0
  0
ARC
  5
176
330
13A
100
AcDbEntity
  8
AM_4
100
AcDbCircle
 10
3.0
 20
-0.0000000000000002
 30
0.0
 40
0.3400000000000002
100
AcDbArc
 50
90.0
 51
270.0
  0
LINE
  5
177
330
13A
100
AcDbEntity
  8
AM_4
100
AcDbLine
 10
3.834999999999999
 20
-1.125
 30
0.0
 11
1.975667857142857
 21
-1.125
 31
0.0
  0
CIRCLE
  5
178
330
13A
100
AcDbEntity
  8
AM_4
100
AcDbCircle
 10
3.69
 20
-0.8100000000000003
 30
0.0
 40
0.06
  0
LINE
  5
179
330
13A
100
AcDbEntity
  8
AM_4
100
AcDbLine
 10
4.06
 20
-0.9000000000000007
 30
0.0
 11
4.06
 21
0.8999999999999996
 31
0.0
  0
LINE
  5
17A
330
13A
100
AcDbEntity
  8
AM_4
100
AcDbLine
 10
3.909999999999998
 20
-1.050000000000002
 30
0.0
 11
3.909999999999998
 21
1.050000000000001
 31
0.0
  0
LINE
  5
17B
330
13A
100
AcDbEntity
  8
AM_4
100
AcDbLine
 10
-1.975667857142857
 20
-1.125
 30
0.0
 11
-3.835
 21
-1.125
 31
0.0
  0
LINE
  5
17C
330
13A
100
AcDbEntity
  8
AM_4
100
AcDbLine
 10
-1.975667857142857
 20
1.125
 30
0.0
 11
-3.835
 21
1.125
 31
0.0
  0
LINE
  5
17D
330
13A
100
AcDbEntity
  8
AM_4
100
AcDbLine
 10
-3.0
 20
0.3400000000000004
 30
0.0
 11
-3.339999999999999
 21
0.3400000000000004
 31
0.0
  0
ARC
  5
17E
330
13A
100
AcDbEntity
  8
AM_4
100
AcDbCircle
 10
-3.0
 20
0.0000000000000001
 30
0.0
 40
0.3399999999999999
100
AcDbArc
 50
270.0
 51
90.0
  0
LINE
  5
17F
330
13A
100
AcDbEntity
  8
AM_4
100
AcDbLine
 10
-3.339999999999999
 20
-0.3399999999999997
 30
0.0
 11
-3.0
 21
-0.3399999999999998
 31
0.0
  0
ARC
  5
180
330
13A
100
AcDbEntity
  8
AM_4
100
AcDbCircle
 10
-3.34
 20
0.0000000000000003
 30
0.0
 40
0.3400000000000001
100
AcDbArc
 50
90.0
 51
270.0
  0
LINE
  5
181
330
13A
100
AcDbEntity
  8
AM_4
100
AcDbLine
 10
-3.91
 20
-1.05
 30
0.0
 11
-3.91
 21
1.05
 31
0.0
  0
CIRCLE
  5
182
330
13A
100
AcDbEntity
  8
AM_4
100
AcDbCircle
 10
-3.69
 20
-0.8100000000000003
 30
0.0
 40
0.06
  0
LINE
  5
183
330
13A
100
AcDbEntity
  8
AM_4
100
AcDbLine
 10
3.267177626813227
 20
-0.6250000000000001
 30
0.0
 11
3.0
 21
-0.6250000000000001
 31
0.0
  0
LINE
  5
184
330
13A
100
AcDbEntity
  8
AM_4
100
AcDbLine
 10
3.267177626813228
 20
-1.125
 30
0.0
 11
3.267177626813227
 21
-0.6250000000000001
 31
0.0
  0
LINE
  5
185
330
13A
100
AcDbEntity
  8
AM_4
100
AcDbLine
 10
3.0
 20
0.6249999999999999
 30
0.0
 11
3.267177626813227
 21
0.6249999999999999
 31
0.0
  0
LINE
  5
186
330
13A
100
AcDbEntity
  8
AM_4
100
AcDbLine
 10
3.267177626813227
 20
0.6249999999999999
 30
0.0
 11
3.267177626813228
 21
1.125
 31
0.0
  0
LINE
  5
187
330
13A
100
AcDbEntity
  8
AM_4
100
AcDbLine
 10
-3.267177626813228
 20
0.625
 30
0.0
 11
-3.0
 21
0.6250000000000001
 31
0.0
  0
LINE
  5
188
330
13A
100
AcDbEntity
  8
AM_4
100
AcDbLine
 10
-3.267177626813228
 20
0.625
 30
0.0
 11
-3.267177626813228
 21
1.125
 31
0.0
  0
LINE
  5
189
330
13A
100
AcDbEntity
  8
AM_4
100
AcDbLine
 10
-3.0
 20
-0.6249999999999999
 30
0.0
 11
-3.267177626813228
 21
-0.6249999999999998
 31
0.0
  0
LINE
  5
18A
330
13A
100
AcDbEntity
  8
AM_4
100
AcDbLine
 10
-3.267177626813228
 20
-1.125
 30
0.0
 11
-3.267177626813228
 21
-0.6249999999999998
 31
0.0
  0
LINE
  5
18B
330
13A
100
AcDbEntity
  8
AM_4
100
AcDbLine
 10
3.130279841106496
 20
-1.111802180624041
 30
0.0
 11
3.130279841106496
 21
-0.6250000000000001
 31
0.0
  0
LWPOLYLINE
  5
18C
330
13A
100
AcDbEntity
  8
AM_4
100
AcDbPolyline
 90
       37
 70
     0
 43
0.0
 10
3.0
 20
0.6250000000000001
 10
2.945527660782714
 20
0.622621686307341
 10
2.891469888958169
 20
0.6155048456326303
 10
2.838238096810925
 20
0.6037036414306679
 10
2.786237410421457
 20
0.5873078879911929
 10
2.735863586412063
 20
0.5664423668979066
 10
2.6875
 20
0.5412658773652747
 10
2.641514727280596
 20
0.5119700276806204
 10
2.598257743945913
 20
0.4787777769493619
 10
2.558058261758408
 20
0.4419417382415928
 10
2.521222223050639
 20
0.4017422560540878
 10
2.48802997231938
 20
0.3584852727194046
 10
2.458734122634726
 20
0.3125000000000008
 10
2.433557633102094
 20
0.2641364135879381
 10
2.412692112008807
 20
0.2137625895785439
 10
2.396296358569332
 20
0.1617619031890765
 10
2.38449515436737
 20
0.1085301110418326
 10
2.377378313692659
 20
0.0544723392172876
 10
2.375
 20
0.0000000000000013
 10
2.377378313692659
 20
-0.054472339217285
 10
2.384495154367369
 20
-0.1085301110418301
 10
2.396296358569332
 20
-0.1617619031890741
 10
2.412692112008807
 20
-0.2137625895785416
 10
2.433557633102093
 20
-0.2641364135879358
 10
2.458734122634725
 20
-0.3124999999999987
 10
2.488029972319379
 20
-0.3584852727194025
 10
2.521222223050637
 20
-0.4017422560540858
 10
2.558058261758406
 20
-0.441941738241591
 10
2.598257743945911
 20
-0.4787777769493602
 10
2.641514727280594
 20
-0.5119700276806188
 10
2.687499999999998
 20
-0.5412658773652732
 10
2.735863586412061
 20
-0.5664423668979054
 10
2.786237410421454
 20
-0.5873078879911922
 10
2.838238096810922
 20
-0.6037036414306673
 10
2.891469888958166
 20
-0.6155048456326299
 10
2.945527660782711
 20
-0.6226216863073409
 10
2.999999999999997
 20
-0.6250000000000001
  0
LINE
  5
18D
330
13A
100
AcDbEntity
  8
AM_4
100
AcDbLine
 10
3.130279841106496
 20
0.625
 30
0.0
 11
3.130279841106496
 21
1.111802180624041
 31
0.0
  0
LINE
  5
18E
330
13A
100
AcDbEntity
  8
AM_4
100
AcDbLine
 10
-3.130279841106497
 20
-1.111802180624042
 30
0.0
 11
-3.130279841106497
 21
-0.6249999999999998
 31
0.0
  0
LINE
  5
18F
330
13A
100
AcDbEntity
  8
AM_4
100
AcDbLine
 10
-3.130279841106497
 20
0.625
 30
0.0
 11
-3.130279841106497
 21
1.111802180624041
 31
0.0
  0
LWPOLYLINE
  5
190
330
13A
100
AcDbEntity
  8
AM_4
100
AcDbPolyline
 90
       37
 70
     0
 43
0.0
 10
-3.0
 20
-0.6249999999999998
 10
-2.945527660782714
 20
-0.6226216863073407
 10
-2.891469888958169
 20
-0.6155048456326299
 10
-2.838238096810925
 20
-0.6037036414306676
 10
-2.786237410421457
 20
-0.5873078879911926
 10
-2.735863586412063
 20
-0.5664423668979061
 10
-2.6875
 20
-0.5412658773652741
 10
-2.641514727280596
 20
-0.5119700276806198
 10
-2.598257743945913
 20
-0.4787777769493613
 10
-2.558058261758408
 20
-0.4419417382415923
 10
-2.521222223050639
 20
-0.4017422560540873
 10
-2.48802997231938
 20
-0.3584852727194041
 10
-2.458734122634726
 20
-0.3125000000000003
 10
-2.433557633102094
 20
-0.2641364135879376
 10
-2.412692112008807
 20
-0.2137625895785435
 10
-2.396296358569332
 20
-0.1617619031890761
 10
-2.38449515436737
 20
-0.1085301110418322
 10
-2.377378313692659
 20
-0.0544723392172871
 10
-2.375
 20
-0.0000000000000008
 10
-2.377378313692659
 20
0.0544723392172855
 10
-2.384495154367369
 20
0.1085301110418305
 10
-2.396296358569332
 20
0.1617619031890745
 10
-2.412692112008807
 20
0.2137625895785419
 10
-2.433557633102093
 20
0.2641364135879362
 10
-2.458734122634724
 20
0.312499999999999
 10
-2.488029972319378
 20
0.3584852727194028
 10
-2.521222223050637
 20
0.4017422560540861
 10
-2.558058261758406
 20
0.4419417382415913
 10
-2.598257743945911
 20
0.4787777769493605
 10
-2.641514727280594
 20
0.5119700276806192
 10
-2.687499999999998
 20
0.5412658773652735
 10
-2.735863586412061
 20
0.5664423668979057
 10
-2.786237410421454
 20
0.5873078879911923
 10
-2.838238096810922
 20
0.6037036414306675
 10
-2.891469888958166
 20
0.61550484563263
 10
-2.945527660782711
 20
0.622621686307341
 10
-2.999999999999997
 20
0.6250000000000003
  0
LINE
  5
191
330
13A
100
AcDbEntity
  8
AM_4
100
AcDbLine
 10
-1.215
 20
-0.8999999999999999
 30
0.0
 11
-1.761382142857143
 21
-0.9000000000000001
 31
0.0
  0
LINE
  5
192
330
13A
100
AcDbEntity
  8
AM_4
100
AcDbLine
 10
1.761382142857142
 20
-0.9000000000000001
 30
0.0
 11
1.215
 21
-0.9000000000000002
 31
0.0
  0
LWPOLYLINE
  5
193
330
13A
100
AcDbEntity
  8
AM_4
100
AcDbPolyline
 90
        3
 70
     0
 43
0.0
 10
1.761382142857143
 20
-0.9000000000000002
 10
1.769301865301059
 20
-0.9002931035954297
 10
1.77164999999232
 20
-0.9004931363434746
  0
LINE
  5
194
330
13A
100
AcDbEntity
  8
AM_4
100
AcDbLine
 10
-1.761382142857143
 20
0.8999999999999998
 30
0.0
 11
1.761382142857142
 21
0.8999999999999999
 31
0.0
  0
LWPOLYLINE
  5
195
330
13A
100
AcDbEntity
  8
AM_4
100
AcDbPolyline
 90
        3
 70
     0
 43
0.0
 10
-1.761382142857143
 20
0.8999999999999999
 10
-1.769301865301103
 20
0.9002931035954327
 10
-1.77164999999232
 20
0.9004931363434744
  0
LWPOLYLINE
  5
196
330
13A
100
AcDbEntity
  8
AM_4
100
AcDbPolyline
 90
        4
 70
     0
 43
0.0
 10
-1.771649999999982
 20
-0.9004931363442121
 10
-1.771487733194283
 20
-0.900477638441199
 10
-1.768400876951563
 20
-0.9002301394314152
 10
-1.761382142857143
 20
-0.9000000000000001
  0
LWPOLYLINE
  5
197
330
13A
100
AcDbEntity
  8
AM_4
100
AcDbPolyline
 90
        4
 70
     0
 43
0.0
 10
1.771649999999982
 20
0.9004931363442121
 10
1.771487733194283
 20
0.9004776384411988
 10
1.768400876951563
 20
0.9002301394314149
 10
1.761382142857142
 20
0.8999999999999999
  0
LINE
  5
198
330
13A
100
AcDbEntity
  8
AM_4
100
AcDbLine
 10
1.868525
 20
-1.007142857142857
 30
0.0
 11
1.868524999999999
 21
-1.017857142857143
 31
0.0
  0
LWPOLYLINE
  5
199
330
13A
100
AcDbEntity
  8
AM_4
100
AcDbPolyline
 90
       19
 70
     0
 43
0.0
 10
1.868525
 20
-1.017857142857142
 10
1.868932710918741
 20
-1.027195258151534
 10
1.870152740748692
 20
-1.036462304750027
 10
1.872175804326171
 20
-1.045587754832412
 10
1.874986504915795
 20
-1.054502158213464
 10
1.87856345138893
 20
-1.063137670900788
 10
1.882879421023095
 20
-1.071428571428571
 10
1.887901566683322
 20
-1.079311761037612
 10
1.89359166680868
 20
-1.086727243894986
 10
1.899906416301441
 20
-1.093618583698558
 10
1.906797756105013
 20
-1.099933333191319
 10
1.914213238962387
 20
-1.105623433316677
 10
1.922096428571428
 20
-1.110645578976904
 10
1.93038732909921
 20
-1.114961548611069
 10
1.939022841786535
 20
-1.118538495084204
 10
1.947937245167586
 20
-1.121349195673829
 10
1.957062695249971
 20
-1.123372259251308
 10
1.966329741848464
 20
-1.124592289081259
 10
1.975667857142856
 20
-1.125
  0
LWPOLYLINE
  5
19A
330
13A
100
AcDbEntity
  8
AM_4
100
AcDbPolyline
 90
       15
 70
     0
 43
0.0
 10
3.267177626813227
 20
-1.125
 10
3.254104265401079
 20
-1.124915060225262
 10
3.241130400163188
 20
-1.124660887344022
 10
3.228354770047849
 20
-1.124239415765381
 10
3.215874605314377
 20
-1.123653853142542
 10
3.203784887552123
 20
-1.122908655960639
 10
3.192177626813228
 20
-1.122009495620188
 10
3.18114116136057
 20
-1.120963215274308
 10
3.170759485360247
 20
-1.119777777748191
 10
3.161111609635245
 20
-1.1184622049372
 10
3.152270960345381
 20
-1.117026509144789
 10
3.144304820169879
 20
-1.115481616882836
 10
3.137273816245562
 20
-1.113839285714286
 10
3.131231458757731
 20
-1.112112014770998
 10
3.130279841106496
 20
-1.111802180624041
  0
LINE
  5
19B
330
13A
100
AcDbEntity
  8
AM_4
100
AcDbLine
 10
2.080846342742324
 20
-0.7631068545145671
 30
0.0
 11
3.130279841106496
 21
-1.111802180624041
 31
0.0
  0
LINE
  5
19C
330
13A
100
AcDbEntity
  8
AM_4
100
AcDbLine
 10
-3.130279841106497
 20
-1.111802180624042
 30
0.0
 11
-2.080846342742322
 21
-0.763106854514567
 31
0.0
  0
LWPOLYLINE
  5
19D
330
13A
100
AcDbEntity
  8
AM_4
100
AcDbPolyline
 90
       15
 70
     0
 43
0.0
 10
-3.130279841106497
 20
-1.111802180624042
 10
-3.136144354081405
 20
-1.113542972684444
 10
-3.143006109381855
 20
-1.115201080091184
 10
-3.15081288490677
 20
-1.116763883645704
 10
-3.159505266380546
 20
-1.118219489469308
 10
-3.169017099531563
 20
-1.119556819522759
 10
-3.179275993566141
 20
-1.120765695916848
 10
-3.190203872106185
 20
-1.121836918372277
 10
-3.201717567397575
 20
-1.122762334239339
 10
-3.213729453266982
 20
-1.123534900544503
 10
-3.226148112009966
 20
-1.124148737591699
 10
-3.238879030134901
 20
-1.124599173710352
 10
-3.251825317667717
 20
-1.12488278080962
 10
-3.264888445543109
 20
-1.12499740046823
 10
-3.267177626813228
 20
-1.125
  0
LWPOLYLINE
  5
19E
330
13A
100
AcDbEntity
  8
AM_4
100
AcDbPolyline
 90
       19
 70
     0
 43
0.0
 10
-1.97566784965436
 20
-1.125
 10
-1.966329734388464
 20
-1.124592288428593
 10
-1.957062687875242
 20
-1.123372257950944
 10
-1.947937237934255
 20
-1.121349193735663
 10
-1.93902283474965
 20
-1.118538492522987
 10
-1.930387322312328
 20
-1.114961545446294
 10
-1.9220964220862
 20
-1.110645575232655
 10
-1.914213232828171
 20
-1.105623429021452
 10
-1.906797750368493
 20
-1.099933328377805
 10
-1.899906411006275
 20
-1.093618578403391
 10
-1.893591661995168
 20
-1.086727238158464
 10
-1.887901562388097
 20
-1.079311754903394
 10
-1.882879417278848
 20
-1.071428564943342
 10
-1.878563448224155
 20
-1.063137664113905
 10
-1.874986502354579
 20
-1.054502151176578
 10
-1.872175802388006
 20
-1.04558774759908
 10
-1.870152739448329
 20
-1.036462297375298
 10
-1.868932710266077
 20
-1.027195250691533
 10
-1.868525
 20
-1.017857142857143
  0
LINE
  5
19F
330
13A
100
AcDbEntity
  8
AM_4
100
AcDbLine
 10
-1.868525
 20
-1.017857142857143
 30
0.0
 11
-1.868525
 21
-1.007142857142856
 31
0.0
  0
LWPOLYLINE
  5
1A0
330
13A
100
AcDbEntity
  8
AM_4
100
AcDbPolyline
 90
       18
 70
     0
 43
0.0
 10
-1.771628638774717
 20
-0.9004910819201923
 10
-1.780884962449136
 20
-0.9017899650862228
 10
-1.789992857890336
 20
-0.9038906473746197
 10
-1.798883008514512
 20
-0.9067771413247419
 10
-1.807487754907393
 20
-0.910427478974716
 10
-1.815741609753242
 20
-0.9148138790508917
 10
-1.823581756232868
 20
-0.9199029584001084
 10
-1.830948526097551
 20
-0.9256559860556486
 10
-1.837785853780444
 20
-0.9320291780032803
 10
-1.84404170308939
 20
-0.9389740304040439
 10
-1.84966846323376
 20
-0.9464376887377528
 10
-1.854623311171327
 20
-0.9543633500578074
 10
-1.858868537517465
 20
-0.9626906952959169
 10
-1.862371833536345
 20
-0.9713563483266309
 10
-1.865106537029913
 20
-0.9802943582979211
 10
-1.867051835253325
 20
-0.989436701556988
 10
-1.868192923312497
 20
-0.9987137993513326
 10
-1.868525
 20
-1.007142857142856
  0
LWPOLYLINE
  5
1A1
330
13A
100
AcDbEntity
  8
AM_4
100
AcDbPolyline
 90
       37
 70
     0
 43
0.0
 10
1.771628638774718
 20
-0.9004910819201927
 10
1.764128808117767
 20
-0.8775186854875857
 10
1.743202892020943
 20
-0.8547309757969651
 10
1.709010149341154
 20
-0.8323013810786717
 10
1.661810807496337
 20
-0.8104006040918715
 10
1.601964081977672
 20
-0.7891953229734847
 10
1.529925442502799
 20
-0.768846922716921
 10
1.446243146616239
 20
-0.7495102669348327
 10
1.351554067118442
 20
-0.7313325192535137
 10
1.246578845079215
 20
-0.7144520233088428
 10
1.132116405324049
 20
-0.6989972498676812
 10
1.009037876133791
 20
-0.6850858190877637
 10
0.8782799594324273
 20
-0.6728236053572765
 10
0.740837801919844
 20
-0.6623039315268362
 10
0.5977574214045557
 20
-0.6536068586662448
 10
0.4501277459765791
 20
-0.6467985767514078
 10
0.2990723266071566
 20
-0.6419309009186502
 10
0.1457407862474455
 20
-0.6390408771202422
 10
-0.0086999294963014
 20
-0.6381505001823337
 10
-0.1630744335234204
 20
-0.6392665464110465
 10
-0.3162078426443909
 20
-0.642380522020693
 10
-0.4669347191513221
 20
-0.6474687277766139
 10
-0.6141079405026197
 20
-0.6544924393606639
 10
-0.7566074296181796
 20
-0.6633982020866556
 10
-0.8933486793422885
 20
-0.6741182377227976
 10
-1.023291006197922
 20
-0.6865709603249641
 10
-1.145445470616385
 20
-0.7006615971549934
 10
-1.258882403364574
 20
-0.7162829099584498
 10
-1.362738480889179
 20
-0.7333160111124923
 10
-1.456223295730227
 20
-0.7516312684324712
 10
-1.5386253719991
 20
-0.7710892917511265
 10
-1.60931758013966
 20
-0.7915419937619275
 10
-1.667761909762833
 20
-0.812833717052893
 10
-1.713513564230538
 20
-0.8348024187534847
 10
-1.74622434582667
 20
-0.8572809037786965
 10
-1.765645305751972
 20
-0.8800980972846058
 10
-1.771628638774718
 20
-0.9004910819201923
  0
LWPOLYLINE
  5
1A2
330
13A
100
AcDbEntity
  8
AM_4
100
AcDbPolyline
 90
       18
 70
     0
 43
0.0
 10
1.868525
 20
-1.007142857142857
 10
1.868117289081258
 20
-0.9978047418484652
 10
1.866897259251308
 20
-0.9885376952499718
 10
1.864874195673829
 20
-0.9794122451675871
 10
1.862063495084204
 20
-0.9704978417865356
 10
1.858486548611069
 20
-0.9618623290992109
 10
1.854170578976904
 20
-0.9535714285714287
 10
1.849148433316677
 20
-0.9456882389623881
 10
1.843458333191319
 20
-0.9382727561050138
 10
1.837143583698559
 20
-0.9313814163014414
 10
1.830252243894986
 20
-0.9250666668086811
 10
1.822836761037612
 20
-0.9193765666833226
 10
1.814953571428571
 20
-0.9143544210230962
 10
1.806662670900789
 20
-0.9100384513889305
 10
1.798027158213465
 20
-0.9064615049157957
 10
1.789112754832413
 20
-0.9036508043261714
 10
1.779987304750029
 20
-0.9016277407486922
 10
1.771628638774717
 20
-0.9004910819201924
  0
LINE
  5
1A3
330
13A
100
AcDbEntity
  8
AM_4
100
AcDbLine
 10
-1.868525
 20
1.00714285873941
 30
0.0
 11
-1.868525
 21
1.017857142857136
 31
0.0
  0
LWPOLYLINE
  5
1A4
330
13A
100
AcDbEntity
  8
AM_4
100
AcDbPolyline
 90
       19
 70
     0
 43
0.0
 10
-1.868525
 20
1.017857142857129
 10
-1.86893271091874
 20
1.02719525815152
 10
-1.87015274074869
 20
1.036462304750014
 10
-1.872175804326168
 20
1.045587754832399
 10
-1.874986504915791
 20
1.054502158213451
 10
-1.878563451388924
 20
1.063137670900776
 10
-1.882879421023089
 20
1.071428571428559
 10
-1.887901566683314
 20
1.0793117610376
 10
-1.893591666808672
 20
1.086727243894975
 10
-1.899906416301431
 20
1.093618583698548
 10
-1.906797756105003
 20
1.09993333319131
 10
-1.914213238962376
 20
1.105623433316669
 10
-1.922096428571416
 20
1.110645578976897
 10
-1.930387329099198
 20
1.114961548611064
 10
-1.939022841786522
 20
1.118538495084199
 10
-1.947937245167573
 20
1.121349195673825
 10
-1.957062695249957
 20
1.123372259251305
 10
-1.966329741848451
 20
1.124592289081257
 10
-1.975667857142843
 20
1.125
  0
LWPOLYLINE
  5
1A5
330
13A
100
AcDbEntity
  8
AM_4
100
AcDbPolyline
 90
       15
 70
     0
 43
0.0
 10
-3.267177626813228
 20
1.125
 10
-3.254104265401079
 20
1.124915060225262
 10
-3.241130400163188
 20
1.124660887344022
 10
-3.22835477004785
 20
1.124239415765381
 10
-3.215874605314378
 20
1.123653853142542
 10
-3.203784887552124
 20
1.122908655960639
 10
-3.192177626813229
 20
1.122009495620188
 10
-3.181141161360572
 20
1.120963215274307
 10
-3.170759485360248
 20
1.119777777748191
 10
-3.161111609635247
 20
1.118462204937199
 10
-3.152270960345382
 20
1.117026509144788
 10
-3.14430482016988
 20
1.115481616882836
 10
-3.137273816245563
 20
1.113839285714285
 10
-3.131231458757731
 20
1.112112014770998
 10
-3.130279841106497
 20
1.111802180624041
  0
LINE
  5
1A6
330
13A
100
AcDbEntity
  8
AM_4
100
AcDbLine
 10
-2.080846342742322
 20
0.7631068545145668
 30
0.0
 11
-3.130279841106497
 21
1.111802180624041
 31
0.0
  0
LINE
  5
1A7
330
13A
100
AcDbEntity
  8
AM_4
100
AcDbLine
 10
3.130279841106496
 20
1.111802180624041
 30
0.0
 11
2.080846342742323
 21
0.7631068545145671
 31
0.0
  0
LWPOLYLINE
  5
1A8
330
13A
100
AcDbEntity
  8
AM_4
100
AcDbPolyline
 90
       15
 70
     0
 43
0.0
 10
3.130279841106496
 20
1.111802180624041
 10
3.136144354081404
 20
1.113542972684444
 10
3.143006109381854
 20
1.115201080091184
 10
3.150812884906769
 20
1.116763883645704
 10
3.159505266380545
 20
1.118219489469308
 10
3.169017099531562
 20
1.119556819522759
 10
3.17927599356614
 20
1.120765695916848
 10
3.190203872106185
 20
1.121836918372277
 10
3.201717567397574
 20
1.122762334239339
 10
3.213729453266981
 20
1.123534900544503
 10
3.226148112009965
 20
1.124148737591698
 10
3.2388790301349
 20
1.124599173710352
 10
3.251825317667717
 20
1.12488278080962
 10
3.264888445543109
 20
1.12499740046823
 10
3.267177626813227
 20
1.125
  0
LWPOLYLINE
  5
1A9
330
13A
100
AcDbEntity
  8
AM_4
100
AcDbPolyline
 90
       19
 70
     0
 43
0.0
 10
1.975667849321377
 20
1.125
 10
1.966329734056748
 20
1.124592288399571
 10
1.957062687547318
 20
1.123372257893122
 10
1.947937237612617
 20
1.12134919364948
 10
1.939022834436748
 20
1.1185384924091
 10
1.930387322010543
 20
1.114961545305569
 10
1.922096421797828
 20
1.110645575066164
 10
1.914213232555407
 20
1.10562342883046
 10
1.906797750113413
 20
1.099933328163768
 10
1.89990641077082
 20
1.093618578167937
 10
1.893591661781131
 20
1.086727237903385
 10
1.887901562197106
 20
1.07931175463063
 10
1.882879417112356
 20
1.07142856465497
 10
1.87856344808343
 20
1.06313766381212
 10
1.874986502240692
 20
1.054502150863677
 10
1.872175802301823
 20
1.045587747277443
 10
1.870152739390507
 20
1.036462297047373
 10
1.868932710237055
 20
1.027195250359817
 10
1.868525
 20
1.017857144453695
  0
LINE
  5
1AA
330
13A
100
AcDbEntity
  8
AM_4
100
AcDbLine
 10
1.868525
 20
1.017857144453695
 30
0.0
 11
1.868525
 21
1.00714285714285
 31
0.0
  0
LWPOLYLINE
  5
1AB
330
13A
100
AcDbEntity
  8
AM_4
100
AcDbPolyline
 90
       18
 70
     0
 43
0.0
 10
1.771628638774721
 20
0.9004910819201927
 10
1.78088496244914
 20
0.9017899650862236
 10
1.78999285789034
 20
0.9038906473746211
 10
1.798883008514516
 20
0.9067771413247435
 10
1.807487754907397
 20
0.910427478974718
 10
1.815741609753246
 20
0.9148138790508942
 10
1.823581756232871
 20
0.9199029584001113
 10
1.830948526097554
 20
0.9256559860556517
 10
1.837785853780447
 20
0.9320291780032839
 10
1.844041703089392
 20
0.9389740304040478
 10
1.849668463233762
 20
0.9464376887377569
 10
1.854623311171328
 20
0.9543633500578118
 10
1.858868537517467
 20
0.9626906952959216
 10
1.862371833536346
 20
0.9713563483266356
 10
1.865106537029914
 20
0.980294358297926
 10
1.867051835253326
 20
0.9894367015569933
 10
1.868192923312497
 20
0.9987137993513379
 10
1.868525
 20
1.007142857142843
  0
LWPOLYLINE
  5
1AC
330
13A
100
AcDbEntity
  8
AM_4
100
AcDbPolyline
 90
       37
 70
     0
 43
0.0
 10
-1.771628638774709
 20
0.9004910819199392
 10
-1.764128808117611
 20
0.8775186854873334
 10
-1.743202892020639
 20
0.8547309757967158
 10
-1.709010149340705
 20
0.8323013810784273
 10
-1.661810807495747
 20
0.810400604091634
 10
-1.601964081976945
 20
0.7891953229732556
 10
-1.52992544250194
 20
0.768846922716702
 10
-1.446243146615255
 20
0.7495102669346259
 10
-1.35155406711734
 20
0.7313325192533204
 10
-1.246578845078004
 20
0.7144520233086645
 10
-1.132116405322738
 20
0.6989972498675194
 10
-1.009037876132391
 20
0.6850858190876193
 10
-0.8782799594309479
 20
0.672823605357151
 10
-0.7408378019182966
 20
0.6623039315267303
 10
-0.597757421402952
 20
0.6536068586661594
 10
-0.4501277459749314
 20
0.6467985767513437
 10
-0.2990723266054775
 20
0.6419309009186076
 10
-0.1457407862457477
 20
0.6390408771202216
 10
0.0086999294980049
 20
0.6381505001823351
 10
0.1630744335251167
 20
0.63926654641107
 10
0.3162078426460671
 20
0.6423805220207384
 10
0.4669347191529655
 20
0.647468727776681
 10
0.6141079405042177
 20
0.6544924393607521
 10
0.7566074296197199
 20
0.663398202086764
 10
0.8933486793437594
 20
0.6741182377229256
 10
1.023291006199312
 20
0.6865709603251108
 10
1.145445470617685
 20
0.7006615971551575
 10
1.258882403365772
 20
0.7162829099586301
 10
1.362738480890269
 20
0.7333160111126875
 10
1.456223295731197
 20
0.7516312684326797
 10
1.538625371999945
 20
0.7710892917513468
 10
1.609317580140372
 20
0.791541993762158
 10
1.667761909763408
 20
0.8128337170531318
 10
1.713513564230971
 20
0.8348024187537302
 10
1.746224345826958
 20
0.8572809037789464
 10
1.765645305752112
 20
0.8800980972848584
 10
1.771628638774718
 20
0.9004910819201923
  0
LWPOLYLINE
  5
1AD
330
13A
100
AcDbEntity
  8
AM_4
100
AcDbPolyline
 90
       18
 70
     0
 43
0.0
 10
-1.868525
 20
1.00714285873941
 10
-1.868117289220407
 20
0.9978047434389427
 10
-1.866897259528546
 20
0.9885376968222694
 10
-1.864874196087047
 20
0.9794122467097388
 10
-1.862063495630258
 20
0.9704978432868044
 10
-1.858486549285802
 20
0.9618623305461791
 10
-1.854170579775181
 20
0.953571429954084
 10
-1.849148434232423
 20
0.9456882402702075
 10
-1.843458334217564
 20
0.9382727573280442
 10
-1.837143584827492
 20
0.9313814174303748
 10
-1.830252245118017
 20
0.9250666678349254
 10
-1.822836762345432
 20
0.9193765675990675
 10
-1.814953572811227
 20
0.9143544218213724
 10
-1.806662672347758
 20
0.9100384520636629
 10
-1.798027159713734
 20
0.9064615054618488
 10
-1.789112756374565
 20
0.9036508047393895
 10
-1.779987306322326
 20
0.9016277410259305
 10
-1.771628638772087
 20
0.9004910819199397
  0
LINE
  5
1AE
330
13A
100
AcDbEntity
  8
AM_4
100
AcDbLine
 10
-2.080846342742322
 20
-0.763106854514567
 30
0.0
 11
-2.080846342742322
 21
0.7631068545145668
 31
0.0
  0
LWPOLYLINE
  5
1AF
330
13A
100
AcDbEntity
  8
AM_4
100
AcDbPolyline
 90
       28
 70
     0
 43
0.0
 10
-2.080846342742323
 20
-0.763106854514567
 10
-1.991705745523723
 20
-0.7366468151964531
 10
-1.887407064956878
 20
-0.711443582614002
 10
-1.768744076978167
 20
-0.687688968585294
 10
-1.636619878576778
 20
-0.665563760066516
 10
-1.492040014681318
 20
-0.6452363432540617
 10
-1.33610482535574
 20
-0.6268614220639037
 10
-1.170001071547054
 20
-0.6105788407413802
 10
-0.9949929031179323
 20
-0.5965125195620468
 10
-0.8124122379029423
 20
-0.5847695117235552
 10
-0.6236486250095894
 20
-0.5754391886061784
 10
-0.430138669510578
 20
-0.5685925596026427
 10
-0.2333550990117613
 20
-0.5642817316937725
 10
-0.0347955553058039
 20
-0.5625395128829036
 10
0.1640288035861614
 20
-0.5633791625071669
 10
0.3616048042395364
 20
-0.5667942903259278
 10
0.5564287739896981
 20
-0.5727589051543748
 10
0.7470179847889186
 20
-0.5812276126721304
 10
0.9319219376621035
 20
-0.5921359609014393
 10
1.109733401879829
 20
-0.6054009307256356
 10
1.2790991248339
 20
-0.6209215677147494
 10
1.438730131106817
 20
-0.6385797504496766
 10
1.587411532353007
 20
-0.6582410894975025
 10
1.7240117733327
 20
-0.6797559501962315
 10
1.847491243730562
 20
-0.7029605914649186
 10
1.95691019021792
 20
-0.7276784119721634
 10
2.05143586854304
 20
-0.753721294178878
 10
2.080846342742324
 20
-0.7631068545145671
  0
LINE
  5
1B0
330
13A
100
AcDbEntity
  8
AM_4
100
AcDbLine
 10
2.080846342742324
 20
-0.7631068545145671
 30
0.0
 11
2.080846342742323
 21
0.7631068545145671
 31
0.0
  0
LWPOLYLINE
  5
1B1
330
13A
100
AcDbEntity
  8
AM_4
100
AcDbPolyline
 90
       28
 70
     0
 43
0.0
 10
2.080846342742324
 20
0.7631068545145674
 10
1.991705745523724
 20
0.7366468151964535
 10
1.887407064956879
 20
0.7114435826140024
 10
1.768744076978168
 20
0.6876889685852944
 10
1.636619878576779
 20
0.6655637600665163
 10
1.492040014681319
 20
0.6452363432540621
 10
1.336104825355741
 20
0.6268614220639042
 10
1.170001071547055
 20
0.6105788407413807
 10
0.9949929031179338
 20
0.5965125195620472
 10
0.8124122379029435
 20
0.5847695117235556
 10
0.6236486250095906
 20
0.5754391886061788
 10
0.4301386695105793
 20
0.568592559602643
 10
0.2333550990117626
 20
0.5642817316937728
 10
0.0347955553058052
 20
0.5625395128829039
 10
-0.1640288035861601
 20
0.5633791625071674
 10
-0.3616048042395352
 20
0.5667942903259282
 10
-0.5564287739896969
 20
0.5727589051543751
 10
-0.7470179847889173
 20
0.5812276126721307
 10
-0.9319219376621023
 20
0.5921359609014396
 10
-1.109733401879828
 20
0.6054009307256359
 10
-1.279099124833899
 20
0.6209215677147496
 10
-1.438730131106816
 20
0.6385797504496769
 10
-1.587411532353006
 20
0.6582410894975026
 10
-1.724011773332699
 20
0.6797559501962317
 10
-1.847491243730561
 20
0.702960591464919
 10
-1.956910190217919
 20
0.7276784119721639
 10
-2.05143586854304
 20
0.7537212941788783
 10
-2.080846342742322
 20
0.7631068545145671
  0
ENDBLK
  5
13D
330
13A
100
AcDbEntity
  8
0
100
AcDbBlockEnd
  0
ENDSEC
  0
SECTION
  2
ENTITIES
  0
INSERT
  5
6F
330
1F
100
AcDbEntity
  8
0
100
AcDbBlockReference
  2
1_123586_4
 10
0.0
 20
0.0
 30
0.0
  0
POINT
  5
1B3
330
1F
100
AcDbEntity
  8
ConnectionPoints
100
AcDbPoint
 10
0.0
 20
-1.19
 30
0.0000000000000002
  0
POINT
  5
1B4
330
1F
100
AcDbEntity
  8
ConnectionPoints
100
AcDbPoint
 10
1.612203461105328
 20
0.0000000000000001
 30
1.612203461105329
  0
POINT
  5
1B5
330
1F
100
AcDbEntity
  8
ConnectionPoints
100
AcDbPoint
 10
0.0
 20
-1.19
 30
0.0000000000000001
  0
ENDSEC
  0
SECTION
  2
OBJECTS
  0
DICTIONARY
  5
C
330
0
100
AcDbDictionary
281
     1
  3
ACAD_DETAILVIEWSTYLE
350
1BD
  3
ACAD_GROUP
350
D
  3
ACAD_LAYOUT
350
1A
  3
ACAD_MATERIAL
350
43
  3
ACAD_MLEADERSTYLE
350
6B
  3
ACAD_MLINESTYLE
350
17
  3
ACAD_PLOTSETTINGS
350
19
  3
ACAD_PLOTSTYLENAME
350
E
  3
ACAD_SCALELIST
350
47
  3
ACAD_SECTIONVIEWSTYLE
350
1BE
  3
ACAD_TABLESTYLE
350
69
  3
ACAD_VISUALSTYLE
350
2A
  3
ACDB_RECOMPOSE_DATA
350
1BA
  3
AcDbVariableDictionary
350
1B6
  0
SUN
  5
6D
330
29
100
AcDbSun
 90
        1
290
     0
 63
     7
421
 16777215
 40
1.0
291
     1
 91
  2455826
 92
 54000000
292
     0
 70
     2
 71
   256
280
     1
  0
DICTIONARY
  5
1BD
102
{ACAD_REACTORS
330
C
102
}
330
C
100
AcDbDictionary
281
     1
  0
DICTIONARY
  5
D
102
{ACAD_REACTORS
330
C
102
}
330
C
100
AcDbDictionary
281
     1
  0
DICTIONARY
  5
1A
102
{ACAD_REACTORS
330
C
102
}
330
C
100
AcDbDictionary
281
     1
  3
Layout1
350
1E
  3
Layout2
350
26
  3
Model
350
22
  0
DICTIONARY
  5
43
102
{ACAD_REACTORS
330
C
102
}
330
C
100
AcDbDictionary
281
     1
  3
ByBlock
350
45
  3
ByLayer
350
44
  3
Global
350
46
  0
DICTIONARY
  5
6B
102
{ACAD_REACTORS
330
C
102
}
330
C
100
AcDbDictionary
281
     1
  3
Standard
350
6C
  0
DICTIONARY
  5
17
102
{ACAD_REACTORS
330
C
102
}
330
C
100
AcDbDictionary
281
     1
  3
Standard
350
18
  0
DICTIONARY
  5
19
102
{ACAD_REACTORS
330
C
102
}
330
C
100
AcDbDictionary
281
     1
  0
ACDBDICTIONARYWDFLT
  5
E
102
{ACAD_REACTORS
330
C
102
}
330
C
100
AcDbDictionary
281
     1
  3
Normal
350
F
100
AcDbDictionaryWithDefault
340
F
  0
DICTIONARY
  5
47
102
{ACAD_REACTORS
330
C
102
}
330
C
100
AcDbDictionary
281
     1
  3
A0
350
48
  3
A1
350
49
  3
A2
350
4A
  3
A3
350
4B
  3
A4
350
4C
  3
A5
350
4D
  3
A6
350
4E
  3
A7
350
4F
  3
A8
350
50
  3
A9
350
51
  3
B0
350
52
  3
B1
350
53
  3
B2
350
54
  3
B3
350
55
  3
B4
350
56
  3
B5
350
57
  3
B6
350
58
  3
B7
350
59
  3
B8
350
5A
  3
B9
350
5B
  3
C0
350
5C
  3
C1
350
5D
  3
C2
350
5E
  3
C3
350
5F
  3
C4
350
60
  3
C5
350
61
  3
C6
350
62
  3
C7
350
63
  3
C8
350
64
  3
C9
350
65
  3
D0
350
66
  3
D1
350
67
  3
D2
350
68
  0
DICTIONARY
  5
1BE
102
{ACAD_REACTORS
330
C
102
}
330
C
100
AcDbDictionary
281
     1
  0
DICTIONARY
  5
69
102
{ACAD_REACTORS
330
C
102
}
330
C
100
AcDbDictionary
281
     1
  3
Standard
350
6A
  0
DICTIONARY
  5
2A
102
{ACAD_REACTORS
330
C
102
}
330
C
100
AcDbDictionary
281
     1
  3
2dWireframe
350
2F
  3
Basic
350
32
  3
Brighten
350
36
  3
ColorChange
350
3A
  3
Conceptual
350
34
  3
Dim
350
35
  3
EdgeColorOff
350
3D
  3
Facepattern
350
39
  3
Flat
350
2B
  3
FlatWithEdges
350
2C
  3
Gouraud
350
2D
  3
GouraudWithEdges
350
2E
  3
Hidden
350
31
  3
JitterOff
350
3B
  3
Linepattern
350
38
  3
OverhangOff
350
3C
  3
Realistic
350
33
  3
Shaded
350
42
  3
Shaded with edges
350
41
  3
Shades of Gray
350
3E
  3
Sketchy
350
3F
  3
Thicken
350
37
  3
Wireframe
350
30
  3
X-Ray
350
40
  0
XRECORD
  5
1BA
102
{ACAD_REACTORS
330
C
102
}
330
C
100
AcDbXrecord
280
     1
 90
        1
330
6A
  0
DICTIONARY
  5
1B6
102
{ACAD_REACTORS
330
C
102
}
330
C
100
AcDbDictionary
281
     1
  3
CANNOSCALE
350
1B7
  3
CMLEADERSTYLE
350
1BC
  3
CTABLESTYLE
350
1BB
  0
LAYOUT
  5
1E
102
{ACAD_REACTORS
330
1A
102
}
330
1A
100
AcDbPlotSettings
  1

  2
none_device
  4

  6

 40
0.0
 41
0.0
 42
0.0
 43
0.0
 44
0.0
 45
0.0
 46
0.0
 47
0.0
 48
0.0
 49
0.0
140
0.0
141
0.0
142
1.0
143
1.0
 70
   688
 72
     0
 73
     0
 74
     5
  7

 75
    16
 76
     0
 77
     2
 78
   300
147
1.0
148
0.0
149
0.0
100
AcDbLayout
  1
Layout1
 70
     1
 71
     1
 10
0.0
 20
0.0
 11
12.0
 21
9.0
 12
0.0
 22
0.0
 32
0.0
 14
1.000000000000000E+20
 24
1.000000000000000E+20
 34
1.000000000000000E+20
 15
-1.000000000000000E+20
 25
-1.000000000000000E+20
 35
-1.000000000000000E+20
146
0.0
 13
0.0
 23
0.0
 33
0.0
 16
1.0
 26
0.0
 36
0.0
 17
0.0
 27
1.0
 37
0.0
 76
     0
330
1B
  0
LAYOUT
  5
26
102
{ACAD_REACTORS
330
1A
102
}
330
1A
100
AcDbPlotSettings
  1

  2
none_device
  4

  6

 40
0.0
 41
0.0
 42
0.0
 43
0.0
 44
0.0
 45
0.0
 46
0.0
 47
0.0
 48
0.0
 49
0.0
140
0.0
141
0.0
142
1.0
143
1.0
 70
   688
 72
     0
 73
     0
 74
     5
  7

 75
    16
 76
     0
 77
     2
 78
   300
147
1.0
148
0.0
149
0.0
100
AcDbLayout
  1
Layout2
 70
     1
 71
     2
 10
0.0
 20
0.0
 11
0.0
 21
0.0
 12
0.0
 22
0.0
 32
0.0
 14
0.0
 24
0.0
 34
0.0
 15
0.0
 25
0.0
 35
0.0
146
0.0
 13
0.0
 23
0.0
 33
0.0
 16
1.0
 26
0.0
 36
0.0
 17
0.0
 27
1.0
 37
0.0
 76
     0
330
23
  0
LAYOUT
  5
22
102
{ACAD_REACTORS
330
1A
102
}
330
1A
100
AcDbPlotSettings
  1

  2
none_device
  4
Letter_(8.50_x_11.00_Inches)
  6

 40
6.35
 41
6.35
 42
6.35000508
 43
6.35000508
 44
215.9
 45
279.4
 46
0.0
 47
0.0
 48
0.0
 49
0.0
140
0.0
141
0.0
142
1.0
143
1.0
 70
  1712
 72
     0
 73
     0
 74
     0
  7

 75
     0
 76
     0
 77
     2
 78
   300
147
1.0
148
0.0
149
0.0
100
AcDbLayout
  1
Model
 70
     1
 71
     0
 10
0.0
 20
0.0
 11
12.0
 21
9.0
 12
0.0
 22
0.0
 32
0.0
 14
1.000000000000000E+20
 24
1.000000000000000E+20
 34
1.000000000000000E+20
 15
-1.000000000000000E+20
 25
-1.000000000000000E+20
 35
-1.000000000000000E+20
146
0.0
 13
0.0
 23
0.0
 33
0.0
 16
1.0
 26
0.0
 36
0.0
 17
0.0
 27
1.0
 37
0.0
 76
     0
330
1F
331
29
  0
MATERIAL
  5
45
102
{ACAD_REACTORS
330
43
102
}
330
43
100
AcDbMaterial
  1
ByBlock
 72
     1
 94
      127
  0
MATERIAL
  5
44
102
{ACAD_REACTORS
330
43
102
}
330
43
100
AcDbMaterial
  1
ByLayer
 72
     1
 94
      127
  0
MATERIAL
  5
46
102
{ACAD_REACTORS
330
43
102
}
330
43
100
AcDbMaterial
  1
Global
 72
     1
 94
      127
  0
MLEADERSTYLE
  5
6C
102
{ACAD_REACTORS
330
6B
102
}
330
6B
100
AcDbMLeaderStyle
179
     2
170
     2
171
     1
172
     0
 90
        2
 40
0.0
 41
0.0
173
     1
 91
-1056964608
340
14
 92
       -2
290
     1
 42
0.09
291
     1
 43
0.36
  3
Standard
341
0
 44
0.18
300

342
11
174
     1
178
     6
175
     1
176
     0
 93
-1056964608
 45
0.18
292
     0
297
     0
 46
0.18
343
0
 94
-1056964608
 47
1.0
 49
1.0
140
1.0
293
     1
141
0.0
294
     1
177
     0
142
1.0
295
     0
296
     0
143
0.125
271
     0
272
     9
273
     9
298
     0
  0
MLINESTYLE
  5
18
102
{ACAD_REACTORS
330
17
102
}
330
17
100
AcDbMlineStyle
  2
Standard
 70
     0
  3

 62
   256
 51
90.0
 52
90.0
 71
     2
 49
0.5
 62
   256
  6
BYLAYER
 49
-0.5
 62
   256
  6
BYLAYER
  0
ACDBPLACEHOLDER
  5
F
102
{ACAD_REACTORS
330
E
102
}
330
E
  0
SCALE
  5
48
102
{ACAD_REACTORS
330
47
102
}
330
47
100
AcDbScale
 70
     0
300
1:1
140
1.0
141
1.0
290
     1
  0
SCALE
  5
49
102
{ACAD_REACTORS
330
47
102
}
330
47
100
AcDbScale
 70
     0
300
1:2
140
1.0
141
2.0
290
     0
  0
SCALE
  5
4A
102
{ACAD_REACTORS
330
47
102
}
330
47
100
AcDbScale
 70
     0
300
1:4
140
1.0
141
4.0
290
     0
  0
SCALE
  5
4B
102
{ACAD_REACTORS
330
47
102
}
330
47
100
AcDbScale
 70
     0
300
1:5
140
1.0
141
5.0
290
     0
  0
SCALE
  5
4C
102
{ACAD_REACTORS
330
47
102
}
330
47
100
AcDbScale
 70
     0
300
1:8
140
1.0
141
8.0
290
     0
  0
SCALE
  5
4D
102
{ACAD_REACTORS
330
47
102
}
330
47
100
AcDbScale
 70
     0
300
1:10
140
1.0
141
10.0
290
     0
  0
SCALE
  5
4E
102
{ACAD_REACTORS
330
47
102
}
330
47
100
AcDbScale
 70
     0
300
1:16
140
1.0
141
16.0
290
     0
  0
SCALE
  5
4F
102
{ACAD_REACTORS
330
47
102
}
330
47
100
AcDbScale
 70
     0
300
1:20
140
1.0
141
20.0
290
     0
  0
SCALE
  5
50
102
{ACAD_REACTORS
330
47
102
}
330
47
100
AcDbScale
 70
     0
300
1:30
140
1.0
141
30.0
290
     0
  0
SCALE
  5
51
102
{ACAD_REACTORS
330
47
102
}
330
47
100
AcDbScale
 70
     0
300
1:40
140
1.0
141
40.0
290
     0
  0
SCALE
  5
52
102
{ACAD_REACTORS
330
47
102
}
330
47
100
AcDbScale
 70
     0
300
1:50
140
1.0
141
50.0
290
     0
  0
SCALE
  5
53
102
{ACAD_REACTORS
330
47
102
}
330
47
100
AcDbScale
 70
     0
300
1:100
140
1.0
141
100.0
290
     0
  0
SCALE
  5
54
102
{ACAD_REACTORS
330
47
102
}
330
47
100
AcDbScale
 70
     0
300
2:1
140
2.0
141
1.0
290
     0
  0
SCALE
  5
55
102
{ACAD_REACTORS
330
47
102
}
330
47
100
AcDbScale
 70
     0
300
4:1
140
4.0
141
1.0
290
     0
  0
SCALE
  5
56
102
{ACAD_REACTORS
330
47
102
}
330
47
100
AcDbScale
 70
     0
300
8:1
140
8.0
141
1.0
290
     0
  0
SCALE
  5
57
102
{ACAD_REACTORS
330
47
102
}
330
47
100
AcDbScale
 70
     0
300
10:1
140
10.0
141
1.0
290
     0
  0
SCALE
  5
58
102
{ACAD_REACTORS
330
47
102
}
330
47
100
AcDbScale
 70
     0
300
100:1
140
100.0
141
1.0
290
     0
  0
SCALE
  5
59
102
{ACAD_REACTORS
330
47
102
}
330
47
100
AcDbScale
 70
     0
300
1/128" = 1'-0"
140
0.0078125
141
12.0
290
     0
  0
SCALE
  5
5A
102
{ACAD_REACTORS
330
47
102
}
330
47
100
AcDbScale
 70
     0
300
1/64" = 1'-0"
140
0.015625
141
12.0
290
     0
  0
SCALE
  5
5B
102
{ACAD_REACTORS
330
47
102
}
330
47
100
AcDbScale
 70
     0
300
1/32" = 1'-0"
140
0.03125
141
12.0
290
     0
  0
SCALE
  5
5C
102
{ACAD_REACTORS
330
47
102
}
330
47
100
AcDbScale
 70
     0
300
1/16" = 1'-0"
140
0.0625
141
12.0
290
     0
  0
SCALE
  5
5D
102
{ACAD_REACTORS
330
47
102
}
330
47
100
AcDbScale
 70
     0
300
3/32" = 1'-0"
140
0.09375
141
12.0
290
     0
  0
SCALE
  5
5E
102
{ACAD_REACTORS
330
47
102
}
330
47
100
AcDbScale
 70
     0
300
1/8" = 1'-0"
140
0.125
141
12.0
290
     0
  0
SCALE
  5
5F
102
{ACAD_REACTORS
330
47
102
}
330
47
100
AcDbScale
 70
     0
300
3/16" = 1'-0"
140
0.1875
141
12.0
290
     0
  0
SCALE
  5
60
102
{ACAD_REACTORS
330
47
102
}
330
47
100
AcDbScale
 70
     0
300
1/4" = 1'-0"
140
0.25
141
12.0
290
     0
  0
SCALE
  5
61
102
{ACAD_REACTORS
330
47
102
}
330
47
100
AcDbScale
 70
     0
300
3/8" = 1'-0"
140
0.375
141
12.0
290
     0
  0
SCALE
  5
62
102
{ACAD_REACTORS
330
47
102
}
330
47
100
AcDbScale
 70
     0
300
1/2" = 1'-0"
140
0.5
141
12.0
290
     0
  0
SCALE
  5
63
102
{ACAD_REACTORS
330
47
102
}
330
47
100
AcDbScale
 70
     0
300
3/4" = 1'-0"
140
0.75
141
12.0
290
     0
  0
SCALE
  5
64
102
{ACAD_REACTORS
330
47
102
}
330
47
100
AcDbScale
 70
     0
300
1" = 1'-0"
140
1.0
141
12.0
290
     0
  0
SCALE
  5
65
102
{ACAD_REACTORS
330
47
102
}
330
47
100
AcDbScale
 70
     0
300
1-1/2" = 1'-0"
140
1.5
141
12.0
290
     0
  0
SCALE
  5
66
102
{ACAD_REACTORS
330
47
102
}
330
47
100
AcDbScale
 70
     0
300
3" = 1'-0"
140
3.0
141
12.0
290
     0
  0
SCALE
  5
67
102
{ACAD_REACTORS
330
47
102
}
330
47
100
AcDbScale
 70
     0
300
6" = 1'-0"
140
6.0
141
12.0
290
     0
  0
SCALE
  5
68
102
{ACAD_REACTORS
330
47
102
}
330
47
100
AcDbScale
 70
     0
300
1'-0" = 1'-0"
140
12.0
141
12.0
290
     0
  0
TABLESTYLE
  5
6A
102
{ACAD_REACTORS
330
69
102
}
102
{ACAD_XDICTIONARY
360
1B8
102
}
330
69
100
AcDbTableStyle
  3
Standard
 70
     0
 71
     0
 40
0.06
 41
0.06
280
     0
281
     0
  7
Standard
140
0.18
170
     2
 62
     0
 63
   257
283
     0
 90
        4
 91
        0
  1

274
    -2
284
     1
 64
     0
275
    -2
285
     1
 65
     0
276
    -2
286
     1
 66
     0
277
    -2
287
     1
 67
     0
278
    -2
288
     1
 68
     0
279
    -2
289
     1
 69
     0
  7
Standard
140
0.25
170
     5
 62
     0
 63
   257
283
     0
 90
        4
 91
        0
  1

274
    -2
284
     1
 64
     0
275
    -2
285
     1
 65
     0
276
    -2
286
     1
 66
     0
277
    -2
287
     1
 67
     0
278
    -2
288
     1
 68
     0
279
    -2
289
     1
 69
     0
  7
Standard
140
0.18
170
     5
 62
     0
 63
   257
283
     0
 90
        4
 91
        0
  1

274
    -2
284
     1
 64
     0
275
    -2
285
     1
 65
     0
276
    -2
286
     1
 66
     0
277
    -2
287
     1
 67
     0
278
    -2
288
     1
 68
     0
279
    -2
289
     1
 69
     0
  0
VISUALSTYLE
  5
2F
102
{ACAD_REACTORS
330
2A
102
}
330
2A
100
AcDbVisualStyle
  2
2dWireframe
 70
     4
177
     3
291
     0
 70
    58
 90
        0
176
     1
 90
        2
176
     1
 90
        0
176
     1
 90
        0
176
     1
 40
0.6
176
     1
 40
30.0
176
     1
 62
     7
420
 16777215
176
     1
 90
        1
176
     1
 90
        4
176
     1
 62
     7
176
     1
 62
   257
176
     1
 90
        1
176
     1
 90
        1
176
     1
 40
1.0
176
     1
 90
        0
176
     1
 62
   257
176
     1
 40
1.0
176
     1
 90
        1
176
     1
 90
        6
176
     1
 90
        2
176
     1
 62
     7
176
     1
 90
        5
176
     1
 90
        0
176
     1
 90
        0
176
     1
290
     0
176
     1
 90
        1
176
     1
 40
0.0
176
     1
 90
        0
176
     1
290
     1
176
     1
290
     1
176
     1
290
     0
176
     1
290
     0
176
     1
290
     0
176
     1
290
     0
176
     1
290
     0
176
     1
290
     0
176
     1
290
     0
176
     1
 90
       50
176
     1
 40
0.0
176
     1
 40
1.0
176
     1
 90
        0
176
     1
 62
    18
420
        0
176
     1
 90
       50
176
     1
 90
        3
176
     1
 62
     5
420
      255
176
     1
290
     0
176
     1
 90
       50
176
     1
 90
       50
176
     1
 90
       50
176
     1
290
     0
176
     1
 90
       50
176
     1
 62
   256
176
     0
 40
1.0
176
     0
 90
        2
176
     1
  1
strokes_ogs.tif
176
     1
290
     0
176
     1
 40
1.0
176
     1
 40
1.0
176
     1
  0
VISUALSTYLE
  5
32
102
{ACAD_REACTORS
330
2A
102
}
330
2A
100
AcDbVisualStyle
  2
Basic
 70
     7
177
     3
291
     1
 70
    58
 90
        1
176
     1
 90
        0
176
     1
 90
        1
176
     1
 90
        0
176
     1
 40
0.6
176
     1
 40
30.0
176
     1
 62
     7
420
 16777215
176
     1
 90
        0
176
     1
 90
        4
176
     1
 62
     7
176
     1
 62
   257
176
     1
 90
        1
176
     1
 90
        1
176
     1
 40
1.0
176
     1
 90
        8
176
     1
 62
     7
176
     1
 40
1.0
176
     1
 90
        1
176
     1
 90
        6
176
     1
 90
        2
176
     1
 62
     7
176
     1
 90
        5
176
     1
 90
        0
176
     1
 90
        0
176
     1
290
     0
176
     1
 90
        1
176
     1
 40
0.0
176
     1
 90
        0
176
     1
290
     0
176
     1
290
     1
176
     1
290
     1
176
     1
290
     0
176
     1
290
     0
176
     1
290
     0
176
     1
290
     0
176
     1
290
     0
176
     1
290
     0
176
     1
 90
       50
176
     1
 40
0.0
176
     1
 40
1.0
176
     1
 90
        0
176
     1
 62
    18
420
        0
176
     1
 90
       50
176
     1
 90
        3
176
     1
 62
     5
420
      255
176
     1
290
     0
176
     1
 90
       50
176
     1
 90
       50
176
     1
 90
       50
176
     1
290
     0
176
     1
 90
       50
176
     1
 62
   256
176
     0
 40
1.0
176
     0
 90
        2
176
     1
  1
strokes_ogs.tif
176
     1
290
     0
176
     1
 40
1.0
176
     1
 40
1.0
176
     1
  0
VISUALSTYLE
  5
36
102
{ACAD_REACTORS
330
2A
102
}
330
2A
100
AcDbVisualStyle
  2
Brighten
 70
    12
177
     3
291
     1
 70
    58
 90
        2
176
     1
 90
        2
176
     1
 90
        0
176
     1
 90
        0
176
     1
 40
0.6
176
     1
 40
30.0
176
     1
 62
     7
420
 16777215
176
     1
 90
        1
176
     1
 90
        4
176
     1
 62
     7
176
     1
 62
   257
176
     1
 90
        1
176
     1
 90
        1
176
     1
 40
1.0
176
     1
 90
        8
176
     1
 62
     7
176
     1
 40
1.0
176
     1
 90
        1
176
     1
 90
        6
176
     1
 90
        2
176
     1
 62
     7
176
     1
 90
        5
176
     1
 90
        0
176
     1
 90
        0
176
     1
290
     0
176
     1
 90
        1
176
     1
 40
50.0
176
     1
 90
        0
176
     1
290
     0
176
     1
290
     1
176
     1
290
     1
176
     1
290
     0
176
     1
290
     0
176
     1
290
     0
176
     1
290
     0
176
     1
290
     0
176
     1
290
     0
176
     1
 90
       50
176
     1
 40
0.0
176
     1
 40
1.0
176
     1
 90
        0
176
     1
 62
    18
420
        0
176
     1
 90
       50
176
     1
 90
        3
176
     1
 62
     5
420
      255
176
     1
290
     0
176
     1
 90
       50
176
     1
 90
       50
176
     1
 90
       50
176
     1
290
     0
176
     1
 90
       50
176
     1
 62
   256
176
     0
 40
1.0
176
     0
 90
        2
176
     1
  1
strokes_ogs.tif
176
     1
290
     0
176
     1
 40
1.0
176
     1
 40
1.0
176
     1
  0
VISUALSTYLE
  5
3A
102
{ACAD_REACTORS
330
2A
102
}
330
2A
100
AcDbVisualStyle
  2
ColorChange
 70
    16
177
     3
291
     1
 70
    58
 90
        2
176
     1
 90
        2
176
     1
 90
        3
176
     1
 90
        0
176
     1
 40
0.6
176
     1
 40
30.0
176
     1
 62
     8
420
  8421504
176
     1
 90
        1
176
     1
 90
        4
176
     1
 62
     7
176
     1
 62
   257
176
     1
 90
        1
176
     1
 90
        1
176
     1
 40
1.0
176
     1
 90
        8
176
     1
 62
     8
420
  8421504
176
     1
 40
1.0
176
     1
 90
        1
176
     1
 90
        6
176
     1
 90
        2
176
     1
 62
     7
176
     1
 90
        5
176
     1
 90
        0
176
     1
 90
        0
176
     1
290
     0
176
     1
 90
        1
176
     1
 40
0.0
176
     1
 90
        0
176
     1
290
     0
176
     1
290
     1
176
     1
290
     1
176
     1
290
     0
176
     1
290
     0
176
     1
290
     0
176
     1
290
     0
176
     1
290
     0
176
     1
290
     0
176
     1
 90
       50
176
     1
 40
0.0
176
     1
 40
1.0
176
     1
 90
        0
176
     1
 62
    18
420
        0
176
     1
 90
       50
176
     1
 90
        3
176
     1
 62
     5
420
      255
176
     1
290
     0
176
     1
 90
       50
176
     1
 90
       50
176
     1
 90
       50
176
     1
290
     0
176
     1
 90
       50
176
     1
 62
   256
176
     0
 40
1.0
176
     0
 90
        2
176
     1
  1
strokes_ogs.tif
176
     1
290
     0
176
     1
 40
1.0
176
     1
 40
1.0
176
     1
  0
VISUALSTYLE
  5
34
102
{ACAD_REACTORS
330
2A
102
}
330
2A
100
AcDbVisualStyle
  2
Conceptual
 70
     9
177
     3
291
     0
 70
    58
 90
        3
176
     1
 90
        2
176
     1
 90
        0
176
     1
 90
        0
176
     1
 40
0.6
176
     1
 40
30.0
176
     1
 62
     7
420
 16777215
176
     1
 90
        2
176
     1
 90
        2
176
     1
 62
     7
176
     1
 62
   257
176
     1
 90
        1
176
     1
 90
        1
176
     1
 40
179.0
176
     1
 90
        8
176
     1
 62
     7
176
     1
 40
1.0
176
     1
 90
        1
176
     1
 90
        6
176
     1
 90
        2
176
     1
 62
     7
176
     1
 90
        3
176
     1
 90
        0
176
     1
 90
        0
176
     1
290
     0
176
     1
 90
        1
176
     1
 40
0.0
176
     1
 90
        0
176
     1
290
     0
176
     1
290
     1
176
     1
290
     1
176
     1
290
     0
176
     1
290
     0
176
     1
290
     0
176
     1
290
     0
176
     1
290
     0
176
     1
290
     0
176
     1
 90
       50
176
     1
 40
0.0
176
     1
 40
1.0
176
     1
 90
        0
176
     1
 62
    18
420
        0
176
     1
 90
       50
176
     1
 90
        3
176
     1
 62
     5
420
      255
176
     1
290
     0
176
     1
 90
       50
176
     1
 90
       50
176
     1
 90
       50
176
     1
290
     0
176
     1
 90
       50
176
     1
 62
   256
176
     0
 40
1.0
176
     0
 90
        2
176
     1
  1
strokes_ogs.tif
176
     1
290
     0
176
     1
 40
1.0
176
     1
 40
1.0
176
     1
  0
VISUALSTYLE
  5
35
102
{ACAD_REACTORS
330
2A
102
}
330
2A
100
AcDbVisualStyle
  2
Dim
 70
    11
177
     3
291
     1
 70
    58
 90
        2
176
     1
 90
        2
176
     1
 90
        0
176
     1
 90
        0
176
     1
 40
0.6
176
     1
 40
30.0
176
     1
 62
     7
420
 16777215
176
     1
 90
        1
176
     1
 90
        4
176
     1
 62
     7
176
     1
 62
   257
176
     1
 90
        1
176
     1
 90
        1
176
     1
 40
1.0
176
     1
 90
        8
176
     1
 62
     7
176
     1
 40
1.0
176
     1
 90
        1
176
     1
 90
        6
176
     1
 90
        2
176
     1
 62
     7
176
     1
 90
        5
176
     1
 90
        0
176
     1
 90
        0
176
     1
290
     0
176
     1
 90
        1
176
     1
 40
-50.0
176
     1
 90
        0
176
     1
290
     0
176
     1
290
     1
176
     1
290
     1
176
     1
290
     0
176
     1
290
     0
176
     1
290
     0
176
     1
290
     0
176
     1
290
     0
176
     1
290
     0
176
     1
 90
       50
176
     1
 40
0.0
176
     1
 40
1.0
176
     1
 90
        0
176
     1
 62
    18
420
        0
176
     1
 90
       50
176
     1
 90
        3
176
     1
 62
     5
420
      255
176
     1
290
     0
176
     1
 90
       50
176
     1
 90
       50
176
     1
 90
       50
176
     1
290
     0
176
     1
 90
       50
176
     1
 62
   256
176
     0
 40
1.0
176
     0
 90
        2
176
     1
  1
strokes_ogs.tif
176
     1
290
     0
176
     1
 40
1.0
176
     1
 40
1.0
176
     1
  0
VISUALSTYLE
  5
3D
102
{ACAD_REACTORS
330
2A
102
}
330
2A
100
AcDbVisualStyle
  2
EdgeColorOff
 70
    22
177
     3
291
     1
 70
    58
 90
        2
176
     0
 90
        2
176
     0
 90
        0
176
     0
 90
        0
176
     0
 40
0.6
176
     0
 40
30.0
176
     0
 62
     7
420
 16777215
176
     0
 90
        1
176
     0
 90
        4
176
     0
 62
     7
176
     0
 62
   257
176
     0
 90
        1
176
     0
 90
        1
176
     0
 40
1.0
176
     0
 90
        8
176
     2
 62
     7
176
     0
 40
1.0
176
     0
 90
        1
176
     0
 90
        6
176
     0
 90
        2
176
     0
 62
     7
176
     0
 90
        5
176
     0
 90
        0
176
     0
 90
        0
176
     0
290
     0
176
     0
 90
        1
176
     0
 40
0.0
176
     0
 90
        0
176
     0
290
     0
176
     0
290
     1
176
     0
290
     1
176
     0
290
     0
176
     0
290
     0
176
     0
290
     0
176
     0
290
     0
176
     0
290
     0
176
     0
290
     0
176
     0
 90
       50
176
     0
 40
0.0
176
     0
 40
1.0
176
     0
 90
        0
176
     0
 62
    18
420
        0
176
     0
 90
       50
176
     0
 90
        3
176
     0
 62
     5
420
      255
176
     0
290
     0
176
     0
 90
       50
176
     0
 90
       50
176
     0
 90
       50
176
     0
290
     0
176
     0
 90
       50
176
     0
 62
   256
176
     0
 40
1.0
176
     0
 90
        2
176
     0
  1
strokes_ogs.tif
176
     0
290
     0
176
     0
 40
1.0
176
     0
 40
1.0
176
     0
  0
VISUALSTYLE
  5
39
102
{ACAD_REACTORS
330
2A
102
}
330
2A
100
AcDbVisualStyle
  2
Facepattern
 70
    15
177
     3
291
     1
 70
    58
 90
        2
176
     1
 90
        2
176
     1
 90
        0
176
     1
 90
        0
176
     1
 40
0.6
176
     1
 40
30.0
176
     1
 62
     7
420
 16777215
176
     1
 90
        1
176
     1
 90
        4
176
     1
 62
     7
176
     1
 62
   257
176
     1
 90
        1
176
     1
 90
        1
176
     1
 40
1.0
176
     1
 90
        8
176
     1
 62
     7
176
     1
 40
1.0
176
     1
 90
        1
176
     1
 90
        6
176
     1
 90
        2
176
     1
 62
     7
176
     1
 90
        5
176
     1
 90
        0
176
     1
 90
        0
176
     1
290
     0
176
     1
 90
        1
176
     1
 40
0.0
176
     1
 90
        0
176
     1
290
     0
176
     1
290
     1
176
     1
290
     1
176
     1
290
     0
176
     1
290
     0
176
     1
290
     0
176
     1
290
     0
176
     1
290
     0
176
     1
290
     0
176
     1
 90
       50
176
     1
 40
0.0
176
     1
 40
1.0
176
     1
 90
        0
176
     1
 62
    18
420
        0
176
     1
 90
       50
176
     1
 90
        3
176
     1
 62
     5
420
      255
176
     1
290
     0
176
     1
 90
       50
176
     1
 90
       50
176
     1
 90
       50
176
     1
290
     0
176
     1
 90
       50
176
     1
 62
   256
176
     0
 40
1.0
176
     0
 90
        2
176
     1
  1
strokes_ogs.tif
176
     1
290
     0
176
     1
 40
1.0
176
     1
 40
1.0
176
     1
  0
VISUALSTYLE
  5
2B
102
{ACAD_REACTORS
330
2A
102
}
330
2A
100
AcDbVisualStyle
  2
Flat
 70
     0
177
     3
291
     1
 70
    58
 90
        2
176
     1
 90
        1
176
     1
 90
        1
176
     1
 90
        2
176
     1
 40
0.6
176
     1
 40
30.0
176
     1
 62
     7
420
 16777215
176
     1
 90
        0
176
     1
 90
        0
176
     1
 62
     7
176
     1
 62
   257
176
     1
 90
        1
176
     1
 90
        1
176
     1
 40
1.0
176
     1
 90
        8
176
     1
 62
     7
176
     1
 40
1.0
176
     1
 90
        1
176
     1
 90
        6
176
     1
 90
        2
176
     1
 62
     7
176
     1
 90
        5
176
     1
 90
        0
176
     1
 90
        0
176
     1
290
     0
176
     1
 90
       13
176
     1
 40
0.0
176
     1
 90
        0
176
     1
290
     0
176
     1
290
     1
176
     1
290
     1
176
     1
290
     0
176
     1
290
     0
176
     1
290
     0
176
     1
290
     0
176
     1
290
     0
176
     1
290
     0
176
     1
 90
       50
176
     1
 40
0.0
176
     1
 40
1.0
176
     1
 90
        0
176
     1
 62
    18
420
        0
176
     1
 90
       50
176
     1
 90
        3
176
     1
 62
     5
420
      255
176
     1
290
     0
176
     1
 90
       50
176
     1
 90
       50
176
     1
 90
       50
176
     1
290
     0
176
     1
 90
       50
176
     1
 62
   256
176
     0
 40
1.0
176
     0
 90
        2
176
     1
  1
strokes_ogs.tif
176
     1
290
     0
176
     1
 40
1.0
176
     1
 40
1.0
176
     1
  0
VISUALSTYLE
  5
2C
102
{ACAD_REACTORS
330
2A
102
}
330
2A
100
AcDbVisualStyle
  2
FlatWithEdges
 70
     1
177
     3
291
     1
 70
    58
 90
        2
176
     1
 90
        1
176
     1
 90
        1
176
     1
 90
        2
176
     1
 40
0.6
176
     1
 40
30.0
176
     1
 62
     7
420
 16777215
176
     1
 90
        1
176
     1
 90
        0
176
     1
 62
     7
176
     1
 62
   257
176
     1
 90
        1
176
     1
 90
        1
176
     1
 40
1.0
176
     1
 90
        0
176
     1
 62
   257
176
     1
 40
1.0
176
     1
 90
        1
176
     1
 90
        6
176
     1
 90
        2
176
     1
 62
     7
176
     1
 90
        5
176
     1
 90
        0
176
     1
 90
        0
176
     1
290
     0
176
     1
 90
       13
176
     1
 40
0.0
176
     1
 90
        0
176
     1
290
     0
176
     1
290
     1
176
     1
290
     1
176
     1
290
     0
176
     1
290
     0
176
     1
290
     0
176
     1
290
     0
176
     1
290
     0
176
     1
290
     0
176
     1
 90
       50
176
     1
 40
0.0
176
     1
 40
1.0
176
     1
 90
        0
176
     1
 62
    18
420
        0
176
     1
 90
       50
176
     1
 90
        3
176
     1
 62
     5
420
      255
176
     1
290
     0
176
     1
 90
       50
176
     1
 90
       50
176
     1
 90
       50
176
     1
290
     0
176
     1
 90
       50
176
     1
 62
   256
176
     0
 40
1.0
176
     0
 90
        2
176
     1
  1
strokes_ogs.tif
176
     1
290
     0
176
     1
 40
1.0
176
     1
 40
1.0
176
     1
  0
VISUALSTYLE
  5
2D
102
{ACAD_REACTORS
330
2A
102
}
330
2A
100
AcDbVisualStyle
  2
Gouraud
 70
     2
177
     3
291
     1
 70
    58
 90
        2
176
     1
 90
        2
176
     1
 90
        1
176
     1
 90
        2
176
     1
 40
0.6
176
     1
 40
30.0
176
     1
 62
     7
420
 16777215
176
     1
 90
        0
176
     1
 90
        0
176
     1
 62
     7
176
     1
 62
   257
176
     1
 90
        1
176
     1
 90
        1
176
     1
 40
1.0
176
     1
 90
        0
176
     1
 62
     7
176
     1
 40
1.0
176
     1
 90
        1
176
     1
 90
        6
176
     1
 90
        2
176
     1
 62
     7
176
     1
 90
        5
176
     1
 90
        0
176
     1
 90
        0
176
     1
290
     0
176
     1
 90
       13
176
     1
 40
0.0
176
     1
 90
        0
176
     1
290
     0
176
     1
290
     1
176
     1
290
     1
176
     1
290
     0
176
     1
290
     0
176
     1
290
     0
176
     1
290
     0
176
     1
290
     0
176
     1
290
     0
176
     1
 90
       50
176
     1
 40
0.0
176
     1
 40
1.0
176
     1
 90
        0
176
     1
 62
    18
420
        0
176
     1
 90
       50
176
     1
 90
        3
176
     1
 62
     5
420
      255
176
     1
290
     0
176
     1
 90
       50
176
     1
 90
       50
176
     1
 90
       50
176
     1
290
     0
176
     1
 90
       50
176
     1
 62
   256
176
     0
 40
1.0
176
     0
 90
        2
176
     1
  1
strokes_ogs.tif
176
     1
290
     0
176
     1
 40
1.0
176
     1
 40
1.0
176
     1
  0
VISUALSTYLE
  5
2E
102
{ACAD_REACTORS
330
2A
102
}
330
2A
100
AcDbVisualStyle
  2
GouraudWithEdges
 70
     3
177
     3
291
     1
 70
    58
 90
        2
176
     1
 90
        2
176
     1
 90
        1
176
     1
 90
        2
176
     1
 40
0.6
176
     1
 40
30.0
176
     1
 62
     7
420
 16777215
176
     1
 90
        1
176
     1
 90
        0
176
     1
 62
     7
176
     1
 62
   257
176
     1
 90
        1
176
     1
 90
        1
176
     1
 40
1.0
176
     1
 90
        0
176
     1
 62
   257
176
     1
 40
1.0
176
     1
 90
        1
176
     1
 90
        6
176
     1
 90
        2
176
     1
 62
     7
176
     1
 90
        5
176
     1
 90
        0
176
     1
 90
        0
176
     1
290
     0
176
     1
 90
       13
176
     1
 40
0.0
176
     1
 90
        0
176
     1
290
     0
176
     1
290
     1
176
     1
290
     1
176
     1
290
     0
176
     1
290
     0
176
     1
290
     0
176
     1
290
     0
176
     1
290
     0
176
     1
290
     0
176
     1
 90
       50
176
     1
 40
0.0
176
     1
 40
1.0
176
     1
 90
        0
176
     1
 62
    18
420
        0
176
     1
 90
       50
176
     1
 90
        3
176
     1
 62
     5
420
      255
176
     1
290
     0
176
     1
 90
       50
176
     1
 90
       50
176
     1
 90
       50
176
     1
290
     0
176
     1
 90
       50
176
     1
 62
   256
176
     0
 40
1.0
176
     0
 90
        2
176
     1
  1
strokes_ogs.tif
176
     1
290
     0
176
     1
 40
1.0
176
     1
 40
1.0
176
     1
  0
VISUALSTYLE
  5
31
102
{ACAD_REACTORS
330
2A
102
}
330
2A
100
AcDbVisualStyle
  2
Hidden
 70
     6
177
     3
291
     0
 70
    58
 90
        1
176
     1
 90
        2
176
     1
 90
        2
176
     1
 90
        0
176
     1
 40
0.6
176
     1
 40
30.0
176
     1
 62
     7
420
 16777215
176
     1
 90
        2
176
     1
 90
        2
176
     1
 62
     7
176
     1
 62
   257
176
     1
 90
        2
176
     1
 90
        1
176
     1
 40
40.0
176
     1
 90
        0
176
     1
 62
   257
176
     1
 40
1.0
176
     1
 90
        1
176
     1
 90
        6
176
     1
 90
        2
176
     1
 62
     7
176
     1
 90
        3
176
     1
 90
        0
176
     1
 90
        0
176
     1
290
     0
176
     1
 90
        1
176
     1
 40
0.0
176
     1
 90
        0
176
     1
290
     0
176
     1
290
     1
176
     1
290
     1
176
     1
290
     0
176
     1
290
     0
176
     1
290
     0
176
     1
290
     0
176
     1
290
     0
176
     1
290
     0
176
     1
 90
       50
176
     1
 40
0.0
176
     1
 40
1.0
176
     1
 90
        0
176
     1
 62
    18
420
        0
176
     1
 90
       50
176
     1
 90
        3
176
     1
 62
     5
420
      255
176
     1
290
     0
176
     1
 90
       50
176
     1
 90
       50
176
     1
 90
       50
176
     1
290
     0
176
     1
 90
       50
176
     1
 62
   256
176
     0
 40
1.0
176
     0
 90
        2
176
     1
  1
strokes_ogs.tif
176
     1
290
     0
176
     1
 40
1.0
176
     1
 40
1.0
176
     1
  0
VISUALSTYLE
  5
3B
102
{ACAD_REACTORS
330
2A
102
}
330
2A
100
AcDbVisualStyle
  2
JitterOff
 70
    20
177
     3
291
     1
 70
    58
 90
        2
176
     0
 90
        2
176
     0
 90
        0
176
     0
 90
        0
176
     0
 40
0.6
176
     0
 40
30.0
176
     0
 62
     7
420
 16777215
176
     0
 90
        1
176
     0
 90
        4
176
     0
 62
     7
176
     0
 62
   257
176
     0
 90
        1
176
     0
 90
        1
176
     0
 40
1.0
176
     0
 90
       10
176
     2
 62
     7
176
     0
 40
1.0
176
     0
 90
        1
176
     0
 90
        6
176
     0
 90
        2
176
     0
 62
     7
176
     0
 90
        5
176
     0
 90
        0
176
     0
 90
        0
176
     0
290
     0
176
     0
 90
        1
176
     0
 40
0.0
176
     0
 90
        0
176
     0
290
     0
176
     0
290
     1
176
     0
290
     1
176
     0
290
     0
176
     0
290
     0
176
     0
290
     0
176
     0
290
     0
176
     0
290
     0
176
     0
290
     0
176
     0
 90
       50
176
     0
 40
0.0
176
     0
 40
1.0
176
     0
 90
        0
176
     0
 62
    18
420
        0
176
     0
 90
       50
176
     0
 90
        3
176
     0
 62
     5
420
      255
176
     0
290
     0
176
     0
 90
       50
176
     0
 90
       50
176
     0
 90
       50
176
     0
290
     0
176
     0
 90
       50
176
     0
 62
   256
176
     0
 40
1.0
176
     0
 90
        2
176
     0
  1
strokes_ogs.tif
176
     0
290
     0
176
     0
 40
1.0
176
     0
 40
1.0
176
     0
  0
VISUALSTYLE
  5
38
102
{ACAD_REACTORS
330
2A
102
}
330
2A
100
AcDbVisualStyle
  2
Linepattern
 70
    14
177
     3
291
     1
 70
    58
 90
        2
176
     1
 90
        2
176
     1
 90
        0
176
     1
 90
        0
176
     1
 40
0.6
176
     1
 40
30.0
176
     1
 62
     7
420
 16777215
176
     1
 90
        1
176
     1
 90
        4
176
     1
 62
     7
176
     1
 62
   257
176
     1
 90
        7
176
     1
 90
        7
176
     1
 40
1.0
176
     1
 90
        8
176
     1
 62
     7
176
     1
 40
1.0
176
     1
 90
        1
176
     1
 90
        6
176
     1
 90
        2
176
     1
 62
     7
176
     1
 90
        5
176
     1
 90
        0
176
     1
 90
        0
176
     1
290
     0
176
     1
 90
        1
176
     1
 40
0.0
176
     1
 90
        0
176
     1
290
     0
176
     1
290
     1
176
     1
290
     1
176
     1
290
     0
176
     1
290
     0
176
     1
290
     0
176
     1
290
     0
176
     1
290
     0
176
     1
290
     0
176
     1
 90
       50
176
     1
 40
0.0
176
     1
 40
1.0
176
     1
 90
        0
176
     1
 62
    18
420
        0
176
     1
 90
       50
176
     1
 90
        3
176
     1
 62
     5
420
      255
176
     1
290
     0
176
     1
 90
       50
176
     1
 90
       50
176
     1
 90
       50
176
     1
290
     0
176
     1
 90
       50
176
     1
 62
   256
176
     0
 40
1.0
176
     0
 90
        2
176
     1
  1
strokes_ogs.tif
176
     1
290
     0
176
     1
 40
1.0
176
     1
 40
1.0
176
     1
  0
VISUALSTYLE
  5
3C
102
{ACAD_REACTORS
330
2A
102
}
330
2A
100
AcDbVisualStyle
  2
OverhangOff
 70
    21
177
     3
291
     1
 70
    58
 90
        2
176
     0
 90
        2
176
     0
 90
        0
176
     0
 90
        0
176
     0
 40
0.6
176
     0
 40
30.0
176
     0
 62
     7
420
 16777215
176
     0
 90
        1
176
     0
 90
        4
176
     0
 62
     7
176
     0
 62
   257
176
     0
 90
        1
176
     0
 90
        1
176
     0
 40
1.0
176
     0
 90
        9
176
     2
 62
     7
176
     0
 40
1.0
176
     0
 90
        1
176
     0
 90
        6
176
     0
 90
        2
176
     0
 62
     7
176
     0
 90
        5
176
     0
 90
        0
176
     0
 90
        0
176
     0
290
     0
176
     0
 90
        1
176
     0
 40
0.0
176
     0
 90
        0
176
     0
290
     0
176
     0
290
     1
176
     0
290
     1
176
     0
290
     0
176
     0
290
     0
176
     0
290
     0
176
     0
290
     0
176
     0
290
     0
176
     0
290
     0
176
     0
 90
       50
176
     0
 40
0.0
176
     0
 40
1.0
176
     0
 90
        0
176
     0
 62
    18
420
        0
176
     0
 90
       50
176
     0
 90
        3
176
     0
 62
     5
420
      255
176
     0
290
     0
176
     0
 90
       50
176
     0
 90
       50
176
     0
 90
       50
176
     0
290
     0
176
     0
 90
       50
176
     0
 62
   256
176
     0
 40
1.0
176
     0
 90
        2
176
     0
  1
strokes_ogs.tif
176
     0
290
     0
176
     0
 40
1.0
176
     0
 40
1.0
176
     0
  0
VISUALSTYLE
  5
33
102
{ACAD_REACTORS
330
2A
102
}
330
2A
100
AcDbVisualStyle
  2
Realistic
 70
     8
177
     3
291
     0
 70
    58
 90
        2
176
     1
 90
        3
176
     1
 90
        0
176
     1
 90
        2
176
     1
 40
0.6
176
     1
 40
30.0
176
     1
 62
     7
420
 16777215
176
     1
 90
        0
176
     1
 90
        0
176
     1
 62
     7
176
     1
 62
   257
176
     1
 90
        1
176
     1
 90
        1
176
     1
 40
1.0
176
     1
 90
        8
176
     1
 62
   257
176
     1
 40
1.0
176
     1
 90
        1
176
     1
 90
        6
176
     1
 90
        2
176
     1
 62
     7
176
     1
 90
        3
176
     1
 90
        0
176
     1
 90
        0
176
     1
290
     0
176
     1
 90
       13
176
     1
 40
0.0
176
     1
 90
        0
176
     1
290
     0
176
     1
290
     1
176
     1
290
     1
176
     1
290
     0
176
     1
290
     0
176
     1
290
     0
176
     1
290
     0
176
     1
290
     0
176
     1
290
     0
176
     1
 90
       50
176
     1
 40
0.0
176
     1
 40
1.0
176
     1
 90
        0
176
     1
 62
    18
420
        0
176
     1
 90
       50
176
     1
 90
        3
176
     1
 62
     5
420
      255
176
     1
290
     0
176
     1
 90
       50
176
     1
 90
       50
176
     1
 90
       50
176
     1
290
     0
176
     1
 90
       50
176
     1
 62
   256
176
     0
 40
1.0
176
     0
 90
        2
176
     1
  1
strokes_ogs.tif
176
     1
290
     0
176
     1
 40
1.0
176
     1
 40
1.0
176
     1
  0
VISUALSTYLE
  5
42
102
{ACAD_REACTORS
330
2A
102
}
330
2A
100
AcDbVisualStyle
  2
Shaded
 70
    27
177
     3
291
     0
 70
    58
 90
        2
176
     1
 90
        2
176
     1
 90
        1
176
     1
 90
        2
176
     1
 40
0.6
176
     1
 40
30.0
176
     1
 62
     7
420
 16777215
176
     1
 90
        0
176
     1
 90
        4
176
     1
 62
     7
176
     1
 62
   257
176
     1
 90
        1
176
     1
 90
        1
176
     1
 40
1.0
176
     1
 90
        8
176
     1
 62
   257
176
     1
 40
1.0
176
     1
 90
        1
176
     1
 90
        6
176
     1
 90
        2
176
     1
 62
     8
420
  7895160
176
     1
 90
        3
176
     1
 90
        0
176
     1
 90
        0
176
     1
290
     0
176
     1
 90
        5
176
     1
 40
0.0
176
     1
 90
        0
176
     1
290
     0
176
     1
290
     1
176
     1
290
     1
176
     1
290
     0
176
     1
290
     0
176
     1
290
     0
176
     1
290
     0
176
     1
290
     0
176
     1
290
     0
176
     1
 90
       50
176
     1
 40
0.0
176
     1
 40
1.0
176
     1
 90
        0
176
     1
 62
    18
420
        0
176
     1
 90
       50
176
     1
 90
        3
176
     1
 62
     5
420
      255
176
     1
290
     0
176
     1
 90
       50
176
     1
 90
       50
176
     1
 90
       50
176
     1
290
     0
176
     1
 90
       50
176
     1
 62
   256
176
     0
 40
1.0
176
     0
 90
        2
176
     1
  1
strokes_ogs.tif
176
     1
290
     0
176
     1
 40
1.0
176
     1
 40
1.0
176
     1
  0
VISUALSTYLE
  5
41
102
{ACAD_REACTORS
330
2A
102
}
330
2A
100
AcDbVisualStyle
  2
Shaded with edges
 70
    26
177
     3
291
     0
 70
    58
 90
        2
176
     1
 90
        2
176
     1
 90
        1
176
     1
 90
        2
176
     1
 40
0.6
176
     1
 40
30.0
176
     1
 62
     7
420
 16777215
176
     1
 90
        1
176
     1
 90
       10
176
     1
 62
     7
176
     1
 62
   257
176
     1
 90
        2
176
     1
 90
        1
176
     1
 40
1.0
176
     1
 90
        8
176
     1
 62
   257
176
     1
 40
1.0
176
     1
 90
        1
176
     1
 90
        6
176
     1
 90
        2
176
     1
 62
     7
176
     1
 90
        3
176
     1
 90
        0
176
     1
 90
        0
176
     1
290
     0
176
     1
 90
        5
176
     1
 40
0.0
176
     1
 90
        0
176
     1
290
     0
176
     1
290
     1
176
     1
290
     1
176
     1
290
     0
176
     1
290
     0
176
     1
290
     0
176
     1
290
     0
176
     1
290
     0
176
     1
290
     0
176
     1
 90
       50
176
     1
 40
0.0
176
     1
 40
1.0
176
     1
 90
        0
176
     1
 62
    18
420
        0
176
     1
 90
       50
176
     1
 90
        3
176
     1
 62
     5
420
      255
176
     1
290
     0
176
     1
 90
       50
176
     1
 90
       50
176
     1
 90
       50
176
     1
290
     0
176
     1
 90
       50
176
     1
 62
   256
176
     0
 40
1.0
176
     0
 90
        2
176
     1
  1
strokes_ogs.tif
176
     1
290
     0
176
     1
 40
1.0
176
     1
 40
1.0
176
     1
  0
VISUALSTYLE
  5
3E
102
{ACAD_REACTORS
330
2A
102
}
330
2A
100
AcDbVisualStyle
  2
Shades of Gray
 70
    23
177
     3
291
     0
 70
    58
 90
        2
176
     1
 90
        2
176
     1
 90
        3
176
     1
 90
        0
176
     1
 40
0.6
176
     1
 40
30.0
176
     1
 62
     7
420
 16777215
176
     1
 90
        2
176
     1
 90
        2
176
     1
 62
     7
176
     1
 62
     7
176
     1
 90
        1
176
     1
 90
        1
176
     1
 40
40.0
176
     1
 90
        8
176
     1
 62
     7
176
     1
 40
1.0
176
     1
 90
        1
176
     1
 90
        6
176
     1
 90
        2
176
     1
 62
     7
176
     1
 90
        3
176
     1
 90
        0
176
     1
 90
        0
176
     1
290
     0
176
     1
 90
        1
176
     1
 40
0.0
176
     1
 90
        0
176
     1
290
     0
176
     1
290
     1
176
     1
290
     1
176
     1
290
     0
176
     1
290
     0
176
     1
290
     0
176
     1
290
     0
176
     1
290
     0
176
     1
290
     0
176
     1
 90
       50
176
     1
 40
0.0
176
     1
 40
1.0
176
     1
 90
        0
176
     1
 62
    18
420
        0
176
     1
 90
       50
176
     1
 90
        3
176
     1
 62
     5
420
      255
176
     1
290
     0
176
     1
 90
       50
176
     1
 90
       50
176
     1
 90
       50
176
     1
290
     0
176
     1
 90
       50
176
     1
 62
   256
176
     0
 40
1.0
176
     0
 90
        2
176
     1
  1
strokes_ogs.tif
176
     1
290
     0
176
     1
 40
1.0
176
     1
 40
1.0
176
     1
  0
VISUALSTYLE
  5
3F
102
{ACAD_REACTORS
330
2A
102
}
330
2A
100
AcDbVisualStyle
  2
Sketchy
 70
    24
177
     3
291
     0
 70
    58
 90
        1
176
     1
 90
        2
176
     1
 90
        2
176
     1
 90
        0
176
     1
 40
0.6
176
     1
 40
30.0
176
     1
 62
     7
420
 16777215
176
     1
 90
        2
176
     1
 90
        2
176
     1
 62
     7
176
     1
 62
     7
176
     1
 90
        1
176
     1
 90
        1
176
     1
 40
40.0
176
     1
 90
       11
176
     1
 62
     7
176
     1
 40
1.0
176
     1
 90
        1
176
     1
 90
        6
176
     1
 90
        2
176
     1
 62
     7
176
     1
 90
        6
176
     1
 90
        0
176
     1
 90
        0
176
     1
290
     0
176
     1
 90
        1
176
     1
 40
0.0
176
     1
 90
        0
176
     1
290
     0
176
     1
290
     1
176
     1
290
     1
176
     1
290
     0
176
     1
290
     0
176
     1
290
     0
176
     1
290
     0
176
     1
290
     0
176
     1
290
     0
176
     1
 90
       50
176
     1
 40
0.0
176
     1
 40
1.0
176
     1
 90
        0
176
     1
 62
    18
420
        0
176
     1
 90
       50
176
     1
 90
        3
176
     1
 62
     5
420
      255
176
     1
290
     0
176
     1
 90
       50
176
     1
 90
       50
176
     1
 90
       50
176
     1
290
     0
176
     1
 90
       50
176
     1
 62
   256
176
     0
 40
1.0
176
     0
 90
        2
176
     1
  1
strokes_ogs.tif
176
     1
290
     0
176
     1
 40
1.0
176
     1
 40
1.0
176
     1
  0
VISUALSTYLE
  5
37
102
{ACAD_REACTORS
330
2A
102
}
330
2A
100
AcDbVisualStyle
  2
Thicken
 70
    13
177
     3
291
     1
 70
    58
 90
        2
176
     1
 90
        2
176
     1
 90
        0
176
     1
 90
        0
176
     1
 40
0.6
176
     1
 40
30.0
176
     1
 62
     7
420
 16777215
176
     1
 90
        1
176
     1
 90
        4
176
     1
 62
     7
176
     1
 62
   257
176
     1
 90
        1
176
     1
 90
        1
176
     1
 40
1.0
176
     1
 90
       12
176
     1
 62
     7
176
     1
 40
1.0
176
     1
 90
        1
176
     1
 90
        6
176
     1
 90
        2
176
     1
 62
     7
176
     1
 90
        5
176
     1
 90
        0
176
     1
 90
        0
176
     1
290
     0
176
     1
 90
        1
176
     1
 40
0.0
176
     1
 90
        0
176
     1
290
     0
176
     1
290
     1
176
     1
290
     1
176
     1
290
     0
176
     1
290
     0
176
     1
290
     0
176
     1
290
     0
176
     1
290
     0
176
     1
290
     0
176
     1
 90
       50
176
     1
 40
0.0
176
     1
 40
1.0
176
     1
 90
        0
176
     1
 62
    18
420
        0
176
     1
 90
       50
176
     1
 90
        3
176
     1
 62
     5
420
      255
176
     1
290
     0
176
     1
 90
       50
176
     1
 90
       50
176
     1
 90
       50
176
     1
290
     0
176
     1
 90
       50
176
     1
 62
   256
176
     0
 40
1.0
176
     0
 90
        2
176
     1
  1
strokes_ogs.tif
176
     1
290
     0
176
     1
 40
1.0
176
     1
 40
1.0
176
     1
  0
VISUALSTYLE
  5
30
102
{ACAD_REACTORS
330
2A
102
}
330
2A
100
AcDbVisualStyle
  2
Wireframe
 70
     5
177
     3
291
     0
 70
    58
 90
        0
176
     1
 90
        2
176
     1
 90
        0
176
     1
 90
        0
176
     1
 40
0.6
176
     1
 40
30.0
176
     1
 62
     7
420
 16777215
176
     1
 90
        1
176
     1
 90
        4
176
     1
 62
     7
176
     1
 62
   257
176
     1
 90
        1
176
     1
 90
        1
176
     1
 40
1.0
176
     1
 90
        0
176
     1
 62
   257
176
     1
 40
1.0
176
     1
 90
        1
176
     1
 90
        6
176
     1
 90
        2
176
     1
 62
     7
176
     1
 90
        3
176
     1
 90
        0
176
     1
 90
        0
176
     1
290
     0
176
     1
 90
        1
176
     1
 40
0.0
176
     1
 90
        0
176
     1
290
     0
176
     1
290
     1
176
     1
290
     1
176
     1
290
     0
176
     1
290
     0
176
     1
290
     0
176
     1
290
     0
176
     1
290
     0
176
     1
290
     0
176
     1
 90
       50
176
     1
 40
0.0
176
     1
 40
1.0
176
     1
 90
        0
176
     1
 62
    18
420
        0
176
     1
 90
       50
176
     1
 90
        3
176
     1
 62
     5
420
      255
176
     1
290
     0
176
     1
 90
       50
176
     1
 90
       50
176
     1
 90
       50
176
     1
290
     0
176
     1
 90
       50
176
     1
 62
   256
176
     0
 40
1.0
176
     0
 90
        2
176
     1
  1
strokes_ogs.tif
176
     1
290
     0
176
     1
 40
1.0
176
     1
 40
1.0
176
     1
  0
VISUALSTYLE
  5
40
102
{ACAD_REACTORS
330
2A
102
}
330
2A
100
AcDbVisualStyle
  2
X-Ray
 70
    25
177
     3
291
     0
 70
    58
 90
        2
176
     1
 90
        2
176
     1
 90
        1
176
     1
 90
        1
176
     1
 40
0.5
176
     1
 40
30.0
176
     1
 62
     7
420
 16777215
176
     1
 90
        1
176
     1
 90
        0
176
     1
 62
     7
176
     1
 62
   257
176
     1
 90
        1
176
     1
 90
        1
176
     1
 40
1.0
176
     1
 90
        8
176
     1
 62
     7
176
     1
 40
1.0
176
     1
 90
        1
176
     1
 90
        6
176
     1
 90
        2
176
     1
 62
     7
176
     1
 90
        3
176
     1
 90
        0
176
     1
 90
        0
176
     1
290
     0
176
     1
 90
       13
176
     1
 40
0.0
176
     1
 90
        0
176
     1
290
     0
176
     1
290
     1
176
     1
290
     1
176
     1
290
     0
176
     1
290
     0
176
     1
290
     0
176
     1
290
     0
176
     1
290
     0
176
     1
290
     0
176
     1
 90
       50
176
     1
 40
0.0
176
     1
 40
1.0
176
     1
 90
        0
176
     1
 62
    18
420
        0
176
     1
 90
       50
176
     1
 90
        3
176
     1
 62
     5
420
      255
176
     1
290
     0
176
     1
 90
       50
176
     1
 90
       50
176
     1
 90
       50
176
     1
290
     0
176
     1
 90
       50
176
     1
 62
   256
176
     0
 40
1.0
176
     0
 90
        2
176
     1
  1
strokes_ogs.tif
176
     1
290
     0
176
     1
 40
1.0
176
     1
 40
1.0
176
     1
  0
DICTIONARYVAR
  5
1B7
102
{ACAD_REACTORS
330
1B6
102
}
330
1B6
100
DictionaryVariables
280
     0
  1
1:1
  0
DICTIONARYVAR
  5
1BC
102
{ACAD_REACTORS
330
1B6
102
}
330
1B6
100
DictionaryVariables
280
     0
  1
Standard
  0
DICTIONARYVAR
  5
1BB
102
{ACAD_REACTORS
330
1B6
102
}
330
1B6
100
DictionaryVariables
280
     0
  1
Standard
  0
DICTIONARY
  5
1B8
330
6A
100
AcDbDictionary
280
     1
281
     1
  3
ACAD_ROUNDTRIP_2008_TABLESTYLE_CELLSTYLEMAP
360
1B9
  0
CELLSTYLEMAP
  5
1B9
102
{ACAD_REACTORS
330
1B8
102
}
330
1B8
100
AcDbCellStyleMap
 90
        3
300
CELLSTYLE
  1
TABLEFORMAT_BEGIN
 90
        5
170
     1
 91
        0
 92
    32768
 62
   257
 93
        1
300
CONTENTFORMAT
  1
CONTENTFORMAT_BEGIN
 90
        0
 91
        0
 92
        4
 93
        0
300

 40
0.0
140
1.0
 94
        5
 62
     0
340
11
144
0.25
309
CONTENTFORMAT_END
171
     1
301
MARGIN
  1
CELLMARGIN_BEGIN
 40
0.06
 40
0.06
 40
0.06
 40
0.06
 40
0.06
 40
0.06
309
CELLMARGIN_END
 94
        6
 95
        1
302
GRIDFORMAT
  1
GRIDFORMAT_BEGIN
 90
        0
 91
        1
 62
     0
 92
       -2
340
14
 93
        0
 40
0.045
309
GRIDFORMAT_END
 95
        2
302
GRIDFORMAT
  1
GRIDFORMAT_BEGIN
 90
        0
 91
        1
 62
     0
 92
       -2
340
14
 93
        0
 40
0.045
309
GRIDFORMAT_END
 95
        4
302
GRIDFORMAT
  1
GRIDFORMAT_BEGIN
 90
        0
 91
        1
 62
     0
 92
       -2
340
14
 93
        0
 40
0.045
309
GRIDFORMAT_END
 95
        8
302
GRIDFORMAT
  1
GRIDFORMAT_BEGIN
 90
        0
 91
        1
 62
     0
 92
       -2
340
14
 93
        0
 40
0.045
309
GRIDFORMAT_END
 95
       16
302
GRIDFORMAT
  1
GRIDFORMAT_BEGIN
 90
        0
 91
        1
 62
     0
 92
       -2
340
14
 93
        0
 40
0.045
309
GRIDFORMAT_END
 95
       32
302
GRIDFORMAT
  1
GRIDFORMAT_BEGIN
 90
        0
 91
        1
 62
     0
 92
       -2
340
14
 93
        0
 40
0.045
309
GRIDFORMAT_END
309
TABLEFORMAT_END
  1
CELLSTYLE_BEGIN
 90
        1
 91
        1
300
_TITLE
309
CELLSTYLE_END
300
CELLSTYLE
  1
TABLEFORMAT_BEGIN
 90
        5
170
     1
 91
        0
 92
        0
 62
   257
 93
        1
300
CONTENTFORMAT
  1
CONTENTFORMAT_BEGIN
 90
        0
 91
        0
 92
        4
 93
        0
300

 40
0.0
140
1.0
 94
        5
 62
     0
340
11
144
0.18
309
CONTENTFORMAT_END
171
     1
301
MARGIN
  1
CELLMARGIN_BEGIN
 40
0.06
 40
0.06
 40
0.06
 40
0.06
 40
0.06
 40
0.06
309
CELLMARGIN_END
 94
        6
 95
        1
302
GRIDFORMAT
  1
GRIDFORMAT_BEGIN
 90
        0
 91
        1
 62
     0
 92
       -2
340
14
 93
        0
 40
0.045
309
GRIDFORMAT_END
 95
        2
302
GRIDFORMAT
  1
GRIDFORMAT_BEGIN
 90
        0
 91
        1
 62
     0
 92
       -2
340
14
 93
        0
 40
0.045
309
GRIDFORMAT_END
 95
        4
302
GRIDFORMAT
  1
GRIDFORMAT_BEGIN
 90
        0
 91
        1
 62
     0
 92
       -2
340
14
 93
        0
 40
0.045
309
GRIDFORMAT_END
 95
        8
302
GRIDFORMAT
  1
GRIDFORMAT_BEGIN
 90
        0
 91
        1
 62
     0
 92
       -2
340
14
 93
        0
 40
0.045
309
GRIDFORMAT_END
 95
       16
302
GRIDFORMAT
  1
GRIDFORMAT_BEGIN
 90
        0
 91
        1
 62
     0
 92
       -2
340
14
 93
        0
 40
0.045
309
GRIDFORMAT_END
 95
       32
302
GRIDFORMAT
  1
GRIDFORMAT_BEGIN
 90
        0
 91
        1
 62
     0
 92
       -2
340
14
 93
        0
 40
0.045
309
GRIDFORMAT_END
309
TABLEFORMAT_END
  1
CELLSTYLE_BEGIN
 90
        2
 91
        1
300
_HEADER
309
CELLSTYLE_END
300
CELLSTYLE
  1
TABLEFORMAT_BEGIN
 90
        5
170
     1
 91
        0
 92
        0
 62
   257
 93
        1
300
CONTENTFORMAT
  1
CONTENTFORMAT_BEGIN
 90
        0
 91
        0
 92
        4
 93
        0
300

 40
0.0
140
1.0
 94
        2
 62
     0
340
11
144
0.18
309
CONTENTFORMAT_END
171
     1
301
MARGIN
  1
CELLMARGIN_BEGIN
 40
0.06
 40
0.06
 40
0.06
 40
0.06
 40
0.06
 40
0.06
309
CELLMARGIN_END
 94
        6
 95
        1
302
GRIDFORMAT
  1
GRIDFORMAT_BEGIN
 90
        0
 91
        1
 62
     0
 92
       -2
340
14
 93
        0
 40
0.045
309
GRIDFORMAT_END
 95
        2
302
GRIDFORMAT
  1
GRIDFORMAT_BEGIN
 90
        0
 91
        1
 62
     0
 92
       -2
340
14
 93
        0
 40
0.045
309
GRIDFORMAT_END
 95
        4
302
GRIDFORMAT
  1
GRIDFORMAT_BEGIN
 90
        0
 91
        1
 62
     0
 92
       -2
340
14
 93
        0
 40
0.045
309
GRIDFORMAT_END
 95
        8
302
GRIDFORMAT
  1
GRIDFORMAT_BEGIN
 90
        0
 91
        1
 62
     0
 92
       -2
340
14
 93
        0
 40
0.045
309
GRIDFORMAT_END
 95
       16
302
GRIDFORMAT
  1
GRIDFORMAT_BEGIN
 90
        0
 91
        1
 62
     0
 92
       -2
340
14
 93
        0
 40
0.045
309
GRIDFORMAT_END
 95
       32
302
GRIDFORMAT
  1
GRIDFORMAT_BEGIN
 90
        0
 91
        1
 62
     0
 92
       -2
340
14
 93
        0
 40
0.045
309
GRIDFORMAT_END
309
TABLEFORMAT_END
  1
CELLSTYLE_BEGIN
 90
        3
 91
        2
300
_DATA
309
CELLSTYLE_END
  0
ENDSEC
  0
EOF