0
SECTION
  2
HEADER
  9
$ACADVER
  1
AC1027
  9
$ACADMAINTVER
 70
     8
  9
$DWGCODEPAGE
  3
ANSI_1252
  9
$REQUIREDVERSIONS
160
                 0
  9
$COMMENTS
  1
File was created by Cadenas
  9
$CUSTOMPROPERTYTAG
  1
NN
  9
$CUSTOMPROPERTY
  1
Set Screw Intermediate Duty Two-Bolt Pillow Block Inch Bore
  9
$CUSTOMPROPERTYTAG
  1
NT
  9
$CUSTOMPROPERTY
  1
VSC Intermediate Duty Pillow Blocks
  9
$CUSTOMPROPERTYTAG
  1
NB
  9
$CUSTOMPROPERTY
  1
123585
  9
$CUSTOMPROPERTYTAG
  1
NBSYN
  9
$CUSTOMPROPERTY
  1
$PN.
  9
$CUSTOMPROPERTYTAG
  1
LINA
  9
$CUSTOMPROPERTY
  1
123585
  9
$CUSTOMPROPERTYTAG
  1
RS
  9
$CUSTOMPROPERTY
  1
208
  9
$CUSTOMPROPERTYTAG
  1
SS
  9
$CUSTOMPROPERTY
  1
1-1/2
  9
$CUSTOMPROPERTYTAG
  1
PN
  9
$CUSTOMPROPERTY
  1
123585
  9
$CUSTOMPROPERTYTAG
  1
DESCRIPTION
  9
$CUSTOMPROPERTY
  1
P2B-VSC-108
  9
$CUSTOMPROPERTYTAG
  1
LF
  9
$CUSTOMPROPERTY
  1
RE-LUBE
  9
$CUSTOMPROPERTYTAG
  1
WEIGHT
  9
$CUSTOMPROPERTY
  1
5.4
  9
$CUSTOMPROPERTYTAG
  1
A
  9
$CUSTOMPROPERTY
  1
1.94
  9
$CUSTOMPROPERTYTAG
  1
B
  9
$CUSTOMPROPERTY
  1
7.25
  9
$CUSTOMPROPERTYTAG
  1
C
  9
$CUSTOMPROPERTY
  1
1.93
  9
$CUSTOMPROPERTYTAG
  1
DMIN
  9
$CUSTOMPROPERTY
  1
5.18
  9
$CUSTOMPROPERTYTAG
  1
DMAX
  9
$CUSTOMPROPERTY
  1
5.88
  9
$CUSTOMPROPERTYTAG
  1
F
  9
$CUSTOMPROPERTY
  1
1/2
  9
$CUSTOMPROPERTYTAG
  1
G
  9
$CUSTOMPROPERTY
  1
0.91
  9
$CUSTOMPROPERTYTAG
  1
H
  9
$CUSTOMPROPERTY
  1
0.93
  9
$CUSTOMPROPERTYTAG
  1
J
  9
$CUSTOMPROPERTY
  1
4.19
  9
$CUSTOMPROPERTYTAG
  1
L
  9
$CUSTOMPROPERTY
  1
2.05
  9
$CUSTOMPROPERTYTAG
  1
M
  9
$CUSTOMPROPERTY
  1
2.13
  9
$CUSTOMPROPERTYTAG
  1
R
  9
$CUSTOMPROPERTY
  1
0.75
  9
$CUSTOMPROPERTYTAG
  1
S
  9
$CUSTOMPROPERTY
  1
1.19
  9
$CUSTOMPROPERTYTAG
  1
U
  9
$CUSTOMPROPERTY
  1
3.26
  9
$CUSTOMPROPERTYTAG
  1
V
  9
$CUSTOMPROPERTY
  1
6.52
  9
$CUSTOMPROPERTYTAG
  1
W
  9
$CUSTOMPROPERTY
  1
0.69
  9
$CUSTOMPROPERTYTAG
  1
X
  9
$CUSTOMPROPERTY
  1
0.12
  9
$CUSTOMPROPERTYTAG
  1
COMPANY
  9
$CUSTOMPROPERTY
  1
baldor
  9
$INSBASE
 10
0.0
 20
0.0
 30
0.0
  9
$EXTMIN
 10
1.000000000000000E+20
 20
1.000000000000000E+20
 30
1.000000000000000E+20
  9
$EXTMAX
 10
-1.000000000000000E+20
 20
-1.000000000000000E+20
 30
-1.000000000000000E+20
  9
$LIMMIN
 10
0.0
 20
0.0
  9
$LIMMAX
 10
12.0
 20
9.0
  9
$ORTHOMODE
 70
     0
  9
$REGENMODE
 70
     1
  9
$FILLMODE
 70
     1
  9
$QTEXTMODE
 70
     0
  9
$MIRRTEXT
 70
     1
  9
$LTSCALE
 40
1.0
  9
$ATTMODE
 70
     1
  9
$TEXTSIZE
 40
0.2
  9
$TRACEWID
 40
0.05
  9
$TEXTSTYLE
  7
Standard
  9
$CLAYER
  8
0
  9
$CELTYPE
  6
ByLayer
  9
$CECOLOR
 62
   256
  9
$CELTSCALE
 40
1.0
  9
$DISPSILH
 70
     0
  9
$DIMSCALE
 40
1.0
  9
$DIMASZ
 40
0.18
  9
$DIMEXO
 40
0.0625
  9
$DIMDLI
 40
0.38
  9
$DIMRND
 40
0.0
  9
$DIMDLE
 40
0.0
  9
$DIMEXE
 40
0.18
  9
$DIMTP
 40
0.0
  9
$DIMTM
 40
0.0
  9
$DIMTXT
 40
0.18
  9
$DIMCEN
 40
0.09
  9
$DIMTSZ
 40
0.0
  9
$DIMTOL
 70
     0
  9
$DIMLIM
 70
     0
  9
$DIMTIH
 70
     1
  9
$DIMTOH
 70
     1
  9
$DIMSE1
 70
     0
  9
$DIMSE2
 70
     0
  9
$DIMTAD
 70
     0
  9
$DIMZIN
 70
     0
  9
$DIMBLK
  1

  9
$DIMASO
 70
     1
  9
$DIMSHO
 70
     1
  9
$DIMPOST
  1

  9
$DIMAPOST
  1

  9
$DIMALT
 70
     0
  9
$DIMALTD
 70
     2
  9
$DIMALTF
 40
25.4
  9
$DIMLFAC
 40
1.0
  9
$DIMTOFL
 70
     0
  9
$DIMTVP
 40
0.0
  9
$DIMTIX
 70
     0
  9
$DIMSOXD
 70
     0
  9
$DIMSAH
 70
     0
  9
$DIMBLK1
  1

  9
$DIMBLK2
  1

  9
$DIMSTYLE
  2
Standard
  9
$DIMCLRD
 70
     0
  9
$DIMCLRE
 70
     0
  9
$DIMCLRT
 70
     0
  9
$DIMTFAC
 40
1.0
  9
$DIMGAP
 40
0.09
  9
$DIMJUST
 70
     0
  9
$DIMSD1
 70
     0
  9
$DIMSD2
 70
     0
  9
$DIMTOLJ
 70
     1
  9
$DIMTZIN
 70
     0
  9
$DIMALTZ
 70
     0
  9
$DIMALTTZ
 70
     0
  9
$DIMUPT
 70
     0
  9
$DIMDEC
 70
     4
  9
$DIMTDEC
 70
     4
  9
$DIMALTU
 70
     2
  9
$DIMALTTD
 70
     2
  9
$DIMTXSTY
  7
Standard
  9
$DIMAUNIT
 70
     0
  9
$DIMADEC
 70
     0
  9
$DIMALTRND
 40
0.0
  9
$DIMAZIN
 70
     0
  9
$DIMDSEP
 70
    46
  9
$DIMATFIT
 70
     3
  9
$DIMFRAC
 70
     0
  9
$DIMLDRBLK
  1

  9
$DIMLUNIT
 70
     2
  9
$DIMLWD
 70
    -2
  9
$DIMLWE
 70
    -2
  9
$DIMTMOVE
 70
     0
  9
$DIMFXL
 40
1.0
  9
$DIMFXLON
 70
     0
  9
$DIMJOGANG
 40
0.7853981633974483
  9
$DIMTFILL
 70
     0
  9
$DIMTFILLCLR
 70
     0
  9
$DIMARCSYM
 70
     0
  9
$DIMLTYPE
  6

  9
$DIMLTEX1
  6

  9
$DIMLTEX2
  6

  9
$DIMTXTDIRECTION
 70
     0
  9
$LUNITS
 70
     2
  9
$LUPREC
 70
     4
  9
$SKETCHINC
 40
0.1
  9
$FILLETRAD
 40
0.5
  9
$AUNITS
 70
     0
  9
$AUPREC
 70
     0
  9
$MENU
  1
.
  9
$ELEVATION
 40
0.0
  9
$PELEVATION
 40
0.0
  9
$THICKNESS
 40
0.0
  9
$LIMCHECK
 70
     0
  9
$CHAMFERA
 40
0.0
  9
$CHAMFERB
 40
0.0
  9
$CHAMFERC
 40
0.0
  9
$CHAMFERD
 40
0.0
  9
$SKPOLY
 70
     0
  9
$TDCREATE
 40
2458168.998239317
  9
$TDUCREATE
 40
2458168.95657265
  9
$TDUPDATE
 40
2458168.998239317
  9
$TDUUPDATE
 40
2458168.95657265
  9
$TDINDWG
 40
0.0000000116
  9
$TDUSRTIMER
 40
0.0000000116
  9
$USRTIMER
 70
     1
  9
$ANGBASE
 50
0.0
  9
$ANGDIR
 70
     0
  9
$PDMODE
 70
     0
  9
$PDSIZE
 40
0.0
  9
$PLINEWID
 40
0.0
  9
$SPLFRAME
 70
     0
  9
$SPLINETYPE
 70
     6
  9
$SPLINESEGS
 70
     8
  9
$HANDSEED
  5
1C1
  9
$SURFTAB1
 70
     6
  9
$SURFTAB2
 70
     6
  9
$SURFTYPE
 70
     6
  9
$SURFU
 70
     6
  9
$SURFV
 70
     6
  9
$UCSBASE
  2

  9
$UCSNAME
  2

  9
$UCSORG
 10
0.0
 20
0.0
 30
0.0
  9
$UCSXDIR
 10
1.0
 20
0.0
 30
0.0
  9
$UCSYDIR
 10
0.0
 20
1.0
 30
0.0
  9
$UCSORTHOREF
  2

  9
$UCSORTHOVIEW
 70
     0
  9
$UCSORGTOP
 10
0.0
 20
0.0
 30
0.0
  9
$UCSORGBOTTOM
 10
0.0
 20
0.0
 30
0.0
  9
$UCSORGLEFT
 10
0.0
 20
0.0
 30
0.0
  9
$UCSORGRIGHT
 10
0.0
 20
0.0
 30
0.0
  9
$UCSORGFRONT
 10
0.0
 20
0.0
 30
0.0
  9
$UCSORGBACK
 10
0.0
 20
0.0
 30
0.0
  9
$PUCSBASE
  2

  9
$PUCSNAME
  2

  9
$PUCSORG
 10
0.0
 20
0.0
 30
0.0
  9
$PUCSXDIR
 10
1.0
 20
0.0
 30
0.0
  9
$PUCSYDIR
 10
0.0
 20
1.0
 30
0.0
  9
$PUCSORTHOREF
  2

  9
$PUCSORTHOVIEW
 70
     0
  9
$PUCSORGTOP
 10
0.0
 20
0.0
 30
0.0
  9
$PUCSORGBOTTOM
 10
0.0
 20
0.0
 30
0.0
  9
$PUCSORGLEFT
 10
0.0
 20
0.0
 30
0.0
  9
$PUCSORGRIGHT
 10
0.0
 20
0.0
 30
0.0
  9
$PUCSORGFRONT
 10
0.0
 20
0.0
 30
0.0
  9
$PUCSORGBACK
 10
0.0
 20
0.0
 30
0.0
  9
$USERI1
 70
     0
  9
$USERI2
 70
     0
  9
$USERI3
 70
     0
  9
$USERI4
 70
     0
  9
$USERI5
 70
     0
  9
$USERR1
 40
0.0
  9
$USERR2
 40
0.0
  9
$USERR3
 40
0.0
  9
$USERR4
 40
0.0
  9
$USERR5
 40
0.0
  9
$WORLDVIEW
 70
     1
  9
$SHADEDGE
 70
     3
  9
$SHADEDIF
 70
    70
  9
$TILEMODE
 70
     1
  9
$MAXACTVP
 70
    64
  9
$PINSBASE
 10
0.0
 20
0.0
 30
0.0
  9
$PLIMCHECK
 70
     0
  9
$PEXTMIN
 10
1.000000000000000E+20
 20
1.000000000000000E+20
 30
1.000000000000000E+20
  9
$PEXTMAX
 10
-1.000000000000000E+20
 20
-1.000000000000000E+20
 30
-1.000000000000000E+20
  9
$PLIMMIN
 10
0.0
 20
0.0
  9
$PLIMMAX
 10
12.0
 20
9.0
  9
$UNITMODE
 70
     0
  9
$VISRETAIN
 70
     1
  9
$PLINEGEN
 70
     0
  9
$PSLTSCALE
 70
     1
  9
$TREEDEPTH
 70
  3020
  9
$CMLSTYLE
  2
Standard
  9
$CMLJUST
 70
     0
  9
$CMLSCALE
 40
1.0
  9
$PROXYGRAPHICS
 70
     1
  9
$MEASUREMENT
 70
     0
  9
$CELWEIGHT
370
    -1
  9
$ENDCAPS
280
     0
  9
$JOINSTYLE
280
     0
  9
$LWDISPLAY
290
     0
  9
$INSUNITS
 70
     1
  9
$HYPERLINKBASE
  1

  9
$STYLESHEET
  1

  9
$XEDIT
290
     1
  9
$CEPSNTYPE
380
     0
  9
$PSTYLEMODE
290
     1
  9
$FINGERPRINTGUID
  2
{5C9534EE-B918-40F9-9295-5E9E7E08E635}
  9
$VERSIONGUID
  2
{FAEB1C32-E019-11D5-929B-00C0DF256EC4}
  9
$EXTNAMES
290
     1
  9
$PSVPSCALE
 40
0.0
  9
$OLESTARTUP
290
     0
  9
$SORTENTS
280
   127
  9
$INDEXCTL
280
     0
  9
$HIDETEXT
280
     1
  9
$XCLIPFRAME
280
     2
  9
$HALOGAP
280
     0
  9
$OBSCOLOR
 70
   257
  9
$OBSLTYPE
280
     0
  9
$INTERSECTIONDISPLAY
280
     0
  9
$INTERSECTIONCOLOR
 70
   257
  9
$DIMASSOC
280
     2
  9
$PROJECTNAME
  1

  9
$CAMERADISPLAY
290
     0
  9
$LENSLENGTH
 40
50.0
  9
$CAMERAHEIGHT
 40
0.0
  9
$STEPSPERSEC
 40
2.0
  9
$STEPSIZE
 40
6.0
  9
$3DDWFPREC
 40
2.0
  9
$PSOLWIDTH
 40
0.25
  9
$PSOLHEIGHT
 40
4.0
  9
$LOFTANG1
 40
1.570796326794897
  9
$LOFTANG2
 40
1.570796326794897
  9
$LOFTMAG1
 40
0.0
  9
$LOFTMAG2
 40
0.0
  9
$LOFTPARAM
 70
     7
  9
$LOFTNORMALS
280
     1
  9
$LATITUDE
 40
37.795
  9
$LONGITUDE
 40
-122.394
  9
$NORTHDIRECTION
 40
0.0
  9
$TIMEZONE
 70
 -8000
  9
$LIGHTGLYPHDISPLAY
280
     1
  9
$TILEMODELIGHTSYNCH
280
     1
  9
$CMATERIAL
347
44
  9
$SOLIDHIST
280
     0
  9
$SHOWHIST
280
     1
  9
$DWFFRAME
280
     2
  9
$DGNFRAME
280
     2
  9
$REALWORLDSCALE
290
     1
  9
$INTERFERECOLOR
 62
   256
  9
$CSHADOW
280
     0
  9
$SHADOWPLANELOCATION
 40
0.0
  0
ENDSEC
  0
SECTION
  2
CLASSES
  0
CLASS
  1
ACDBDICTIONARYWDFLT
  2
AcDbDictionaryWithDefault
  3
ObjectDBX Classes
 90
        0
 91
        4
280
     0
281
     0
  0
CLASS
  1
VISUALSTYLE
  2
AcDbVisualStyle
  3
ObjectDBX Classes
 90
     4095
 91
        4
280
     0
281
     0
  0
CLASS
  1
MATERIAL
  2
AcDbMaterial
  3
ObjectDBX Classes
 90
     1153
 91
        4
280
     0
281
     0
  0
CLASS
  1
SCALE
  2
AcDbScale
  3
ObjectDBX Classes
 90
     1153
 91
        4
280
     0
281
     0
  0
CLASS
  1
TABLESTYLE
  2
AcDbTableStyle
  3
ObjectDBX Classes
 90
     4095
 91
        4
280
     0
281
     0
  0
CLASS
  1
MLEADERSTYLE
  2
AcDbMLeaderStyle
  3
ACDB_MLEADERSTYLE_CLASS
 90
     4095
 91
        4
280
     0
281
     0
  0
CLASS
  1
SUN
  2
AcDbSun
  3
SCENEOE
 90
     1153
 91
        4
280
     0
281
     0
  0
CLASS
  1
DICTIONARYVAR
  2
AcDbDictionaryVar
  3
ObjectDBX Classes
 90
        0
 91
        4
280
     0
281
     0
  0
CLASS
  1
CELLSTYLEMAP
  2
AcDbCellStyleMap
  3
ObjectDBX Classes
 90
     1152
 91
        4
280
     0
281
     0
  0
ENDSEC
  0
SECTION
  2
TABLES
  0
TABLE
  2
VPORT
  5
8
330
0
100
AcDbSymbolTable
 70
     1
  0
VPORT
  5
29
330
8
100
AcDbSymbolTableRecord
100
AcDbViewportTableRecord
  2
*Active
 70
     0
 10
0.0
 20
0.0
 11
1.0
 21
1.0
 12
0.0
 22
-0.1127500000000001
 13
0.0
 23
0.0
 14
0.5
 24
0.5
 15
0.5
 25
0.5
 16
0.0
 26
0.0
 36
1.0
 17
0.0
 27
0.0
 37
0.0
 40
2.39547
 41
3.087076857568662
 42
50.0
 43
0.0
 44
0.0
 50
0.0
 51
0.0
 71
     0
 72
   100
 73
     1
 74
     3
 75
     0
 76
     0
 77
     0
 78
     0
281
     0
 65
     1
110
0.0
120
0.0
130
0.0
111
1.0
121
0.0
131
0.0
112
0.0
122
1.0
132
0.0
 79
     0
146
0.0
348
2F
 60
     3
 61
     5
292
     1
282
     1
141
0.0
142
0.0
 63
   250
361
6D
  0
ENDTAB
  0
TABLE
  2
LTYPE
  5
5
330
0
100
AcDbSymbolTable
 70
     3
  0
LTYPE
  5
14
330
5
100
AcDbSymbolTableRecord
100
AcDbLinetypeTableRecord
  2
ByBlock
 70
     0
  3

 72
    65
 73
     0
 40
0.0
  0
LTYPE
  5
15
330
5
100
AcDbSymbolTableRecord
100
AcDbLinetypeTableRecord
  2
ByLayer
 70
     0
  3

 72
    65
 73
     0
 40
0.0
  0
LTYPE
  5
16
330
5
100
AcDbSymbolTableRecord
100
AcDbLinetypeTableRecord
  2
Continuous
 70
     0
  3
Solid line
 72
    65
 73
     0
 40
0.0
  0
LTYPE
  5
A2
330
5
100
AcDbSymbolTableRecord
100
AcDbLinetypeTableRecord
  2
Dashed
 70
     0
  3

 72
    65
 73
     2
 40
2.0
 49
1.0
 74
     0
 49
-1.0
 74
     0
  0
LTYPE
  5
11F
330
5
100
AcDbSymbolTableRecord
100
AcDbLinetypeTableRecord
  2
Center
 70
     0
  3

 72
    65
 73
     4
 40
1.5
 49
0.45
 74
     0
 49
-0.5
 74
     0
 49
0.05
 74
     0
 49
-0.5
 74
     0
  0
ENDTAB
  0
TABLE
  2
LAYER
  5
2
330
0
100
AcDbSymbolTable
 70
     7
  0
LAYER
  5
10
330
2
100
AcDbSymbolTableRecord
100
AcDbLayerTableRecord
  2
0
 70
     0
 62
     7
  6
Continuous
370
    -3
390
F
347
46
348
0
  0
LAYER
  5
72
330
2
100
AcDbSymbolTableRecord
100
AcDbLayerTableRecord
  2
AM_6
 70
     0
 62
    -2
  6
Continuous
370
    35
390
F
347
46
348
0
  0
LAYER
  5
A3
330
2
100
AcDbSymbolTableRecord
100
AcDbLayerTableRecord
  2
AM_9
 70
     0
 62
     6
  6
Dashed
370
    25
390
F
347
46
348
0
  0
LAYER
  5
C0
330
2
100
AcDbSymbolTableRecord
100
AcDbLayerTableRecord
  2
AM_4
 70
     0
 62
     7
  6
Continuous
370
    50
390
F
347
46
348
0
  0
LAYER
  5
120
330
2
100
AcDbSymbolTableRecord
100
AcDbLayerTableRecord
  2
AM_7
 70
     0
 62
     7
  6
Center
370
    25
390
F
347
46
348
0
  0
LAYER
  5
135
330
2
100
AcDbSymbolTableRecord
100
AcDbLayerTableRecord
  2
AM_5
 70
     0
 62
     3
  6
Continuous
370
    25
390
F
347
46
348
0
  0
LAYER
  5
1B4
330
2
100
AcDbSymbolTableRecord
100
AcDbLayerTableRecord
  2
ConnectionPoints
 70
     0
 62
     7
  6
Continuous
370
    50
390
F
347
46
348
0
  0
ENDTAB
  0
TABLE
  2
STYLE
  5
3
330
0
100
AcDbSymbolTable
 70
     1
  0
STYLE
  5
11
330
3
100
AcDbSymbolTableRecord
100
AcDbTextStyleTableRecord
  2
Standard
 70
     0
 40
0.0
 41
1.0
 50
0.0
 71
     0
 42
0.2
  3
txt
  4

  0
ENDTAB
  0
TABLE
  2
VIEW
  5
6
330
0
100
AcDbSymbolTable
 70
     0
  0
ENDTAB
  0
TABLE
  2
UCS
  5
7
330
0
100
AcDbSymbolTable
 70
     0
  0
ENDTAB
  0
TABLE
  2
APPID
  5
9
330
0
100
AcDbSymbolTable
 70
     1
  0
APPID
  5
12
330
9
100
AcDbSymbolTableRecord
100
AcDbRegAppTableRecord
  2
ACAD
 70
     0
  0
ENDTAB
  0
TABLE
  2
DIMSTYLE
  5
A
330
0
100
AcDbSymbolTable
 70
     1
100
AcDbDimStyleTable
  0
DIMSTYLE
105
27
330
A
100
AcDbSymbolTableRecord
100
AcDbDimStyleTableRecord
  2
Standard
 70
     0
178
     0
340
11
  0
ENDTAB
  0
TABLE
  2
BLOCK_RECORD
  5
1
330
0
100
AcDbSymbolTable
 70
     5
  0
BLOCK_RECORD
  5
1F
330
1
100
AcDbSymbolTableRecord
100
AcDbBlockTableRecord
  2
*Model_Space
340
22
 70
     0
280
     1
281
     0
  0
BLOCK_RECORD
  5
1B
330
1
100
AcDbSymbolTableRecord
100
AcDbBlockTableRecord
  2
*Paper_Space
340
1E
 70
     0
280
     1
281
     0
  0
BLOCK_RECORD
  5
23
330
1
100
AcDbSymbolTableRecord
100
AcDbBlockTableRecord
  2
*Paper_Space0
340
26
 70
     0
280
     1
281
     0
  0
BLOCK_RECORD
  5
6E
330
1
100
AcDbSymbolTableRecord
100
AcDbBlockTableRecord
  2
1_123585_4
340
0
102
{BLKREFS
331
6F
102
}
 70
     0
280
     1
281
     0
  0
BLOCK_RECORD
  5
90
330
1
100
AcDbSymbolTableRecord
100
AcDbBlockTableRecord
  2
2_405020c_Inch_0_in_123585_4
340
0
102
{BLKREFS
331
91
102
}
 70
     0
280
     1
281
     0
  0
BLOCK_RECORD
  5
DD
330
1
100
AcDbSymbolTableRecord
100
AcDbBlockTableRecord
  2
3_389930_0_in_123585_4
340
0
102
{BLKREFS
331
DE
102
}
 70
     0
280
     1
281
     0
  0
BLOCK_RECORD
  5
137
330
1
100
AcDbSymbolTableRecord
100
AcDbBlockTableRecord
  2
4_123585vsc_0_in_123585_4
340
0
102
{BLKREFS
331
138
102
}
 70
     0
280
     1
281
     0
  0
ENDTAB
  0
ENDSEC
  0
SECTION
  2
BLOCKS
  0
BLOCK
  5
20
330
1F
100
AcDbEntity
  8
0
100
AcDbBlockBegin
  2
*Model_Space
 70
     0
 10
0.0
 20
0.0
 30
0.0
  3
*Model_Space
  1

  0
ENDBLK
  5
21
330
1F
100
AcDbEntity
  8
0
100
AcDbBlockEnd
  0
BLOCK
  5
1C
330
1B
100
AcDbEntity
 67
     1
  8
0
100
AcDbBlockBegin
  2
*Paper_Space
 70
     0
 10
0.0
 20
0.0
 30
0.0
  3
*Paper_Space
  1

  0
ENDBLK
  5
1D
330
1B
100
AcDbEntity
 67
     1
  8
0
100
AcDbBlockEnd
  0
BLOCK
  5
24
330
23
100
AcDbEntity
  8
0
100
AcDbBlockBegin
  2
*Paper_Space0
 70
     0
 10
0.0
 20
0.0
 30
0.0
  3
*Paper_Space0
  1

  0
ENDBLK
  5
25
330
23
100
AcDbEntity
  8
0
100
AcDbBlockEnd
  0
BLOCK
  5
70
330
6E
100
AcDbEntity
  8
0
100
AcDbBlockBegin
  2
1_123585_4
 70
     2
 10
0.0
 20
0.0
 30
0.0
  3
1_123585_4
  1

  0
ATTDEF
  5
73
330
6E
100
AcDbEntity
  8
AM_6
100
AcDbText
 10
8.625
 20
1.0615
 30
0.0
 40
0.5
  1
Set Screw Intermediate Duty Two-Bolt Pillow Block Inch Bore
100
AcDbAttributeDefinition
  3

  2
NN
 70
     8
280
     0
  0
ATTDEF
  5
74
330
6E
100
AcDbEntity
  8
AM_6
100
AcDbText
 10
8.625
 20
0.5614999999999999
 30
0.0
 40
0.5
  1
VSC Intermediate Duty Pillow Blocks
100
AcDbAttributeDefinition
  3

  2
NT
 70
     8
280
     0
  0
ATTDEF
  5
75
330
6E
100
AcDbEntity
  8
AM_6
100
AcDbText
 10
8.625
 20
0.0614999999999999
 30
0.0
 40
0.5
  1
123585
100
AcDbAttributeDefinition
  3

  2
NB
 70
     8
280
     0
  0
ATTDEF
  5
76
330
6E
100
AcDbEntity
  8
AM_6
100
AcDbText
 10
8.625
 20
-0.4385000000000001
 30
0.0
 40
0.5
  1
$PN.
100
AcDbAttributeDefinition
  3

  2
NBSYN
 70
     8
280
     0
  0
ATTDEF
  5
77
330
6E
100
AcDbEntity
  8
AM_6
100
AcDbText
 10
8.625
 20
-0.9385000000000001
 30
0.0
 40
0.5
  1
123585
100
AcDbAttributeDefinition
  3

  2
LINA
 70
     8
280
     0
  0
ATTDEF
  5
78
330
6E
100
AcDbEntity
  8
AM_6
100
AcDbText
 10
8.625
 20
-1.4385
 30
0.0
 40
0.5
  1
208
100
AcDbAttributeDefinition
  3

  2
RS
 70
     8
280
     0
  0
ATTDEF
  5
79
330
6E
100
AcDbEntity
  8
AM_6
100
AcDbText
 10
8.625
 20
-1.9385
 30
0.0
 40
0.5
  1
1-1/2
100
AcDbAttributeDefinition
  3

  2
SS
 70
     8
280
     0
  0
ATTDEF
  5
7A
330
6E
100
AcDbEntity
  8
AM_6
100
AcDbText
 10
8.625
 20
-2.4385
 30
0.0
 40
0.5
  1
123585
100
AcDbAttributeDefinition
  3

  2
PN
 70
     8
280
     0
  0
ATTDEF
  5
7B
330
6E
100
AcDbEntity
  8
AM_6
100
AcDbText
 10
8.625
 20
-2.9385
 30
0.0
 40
0.5
  1
P2B-VSC-108
100
AcDbAttributeDefinition
  3

  2
DESCRIPTION
 70
     8
280
     0
  0
ATTDEF
  5
7C
330
6E
100
AcDbEntity
  8
AM_6
100
AcDbText
 10
8.625
 20
-3.4385
 30
0.0
 40
0.5
  1
RE-LUBE
100
AcDbAttributeDefinition
  3

  2
LF
 70
     8
280
     0
  0
ATTDEF
  5
7D
330
6E
100
AcDbEntity
  8
AM_6
100
AcDbText
 10
8.625
 20
-3.9385
 30
0.0
 40
0.5
  1
5.4
100
AcDbAttributeDefinition
  3

  2
WEIGHT
 70
     8
280
     0
  0
ATTDEF
  5
7E
330
6E
100
AcDbEntity
  8
AM_6
100
AcDbText
 10
8.625
 20
-4.4385
 30
0.0
 40
0.5
  1
1.94
100
AcDbAttributeDefinition
  3

  2
A
 70
     8
280
     0
  0
ATTDEF
  5
7F
330
6E
100
AcDbEntity
  8
AM_6
100
AcDbText
 10
8.625
 20
-4.9385
 30
0.0
 40
0.5
  1
7.25
100
AcDbAttributeDefinition
  3

  2
B
 70
     8
280
     0
  0
ATTDEF
  5
80
330
6E
100
AcDbEntity
  8
AM_6
100
AcDbText
 10
8.625
 20
-5.4385
 30
0.0
 40
0.5
  1
1.93
100
AcDbAttributeDefinition
  3

  2
C
 70
     8
280
     0
  0
ATTDEF
  5
81
330
6E
100
AcDbEntity
  8
AM_6
100
AcDbText
 10
8.625
 20
-5.9385
 30
0.0
 40
0.5
  1
5.18
100
AcDbAttributeDefinition
  3

  2
DMIN
 70
     8
280
     0
  0
ATTDEF
  5
82
330
6E
100
AcDbEntity
  8
AM_6
100
AcDbText
 10
8.625
 20
-6.4385
 30
0.0
 40
0.5
  1
5.88
100
AcDbAttributeDefinition
  3

  2
DMAX
 70
     8
280
     0
  0
ATTDEF
  5
83
330
6E
100
AcDbEntity
  8
AM_6
100
AcDbText
 10
8.625
 20
-6.9385
 30
0.0
 40
0.5
  1
1/2
100
AcDbAttributeDefinition
  3

  2
F
 70
     8
280
     0
  0
ATTDEF
  5
84
330
6E
100
AcDbEntity
  8
AM_6
100
AcDbText
 10
8.625
 20
-7.4385
 30
0.0
 40
0.5
  1
0.91
100
AcDbAttributeDefinition
  3

  2
G
 70
     8
280
     0
  0
ATTDEF
  5
85
330
6E
100
AcDbEntity
  8
AM_6
100
AcDbText
 10
8.625
 20
-7.9385
 30
0.0
 40
0.5
  1
0.93
100
AcDbAttributeDefinition
  3

  2
H
 70
     8
280
     0
  0
ATTDEF
  5
86
330
6E
100
AcDbEntity
  8
AM_6
100
AcDbText
 10
8.625
 20
-8.438500000000001
 30
0.0
 40
0.5
  1
4.19
100
AcDbAttributeDefinition
  3

  2
J
 70
     8
280
     0
  0
ATTDEF
  5
87
330
6E
100
AcDbEntity
  8
AM_6
100
AcDbText
 10
8.625
 20
-8.938500000000001
 30
0.0
 40
0.5
  1
2.05
100
AcDbAttributeDefinition
  3

  2
L
 70
     8
280
     0
  0
ATTDEF
  5
88
330
6E
100
AcDbEntity
  8
AM_6
100
AcDbText
 10
8.625
 20
-9.438500000000001
 30
0.0
 40
0.5
  1
2.13
100
AcDbAttributeDefinition
  3

  2
M
 70
     8
280
     0
  0
ATTDEF
  5
89
330
6E
100
AcDbEntity
  8
AM_6
100
AcDbText
 10
8.625
 20
-9.938500000000001
 30
0.0
 40
0.5
  1
0.75
100
AcDbAttributeDefinition
  3

  2
R
 70
     8
280
     0
  0
ATTDEF
  5
8A
330
6E
100
AcDbEntity
  8
AM_6
100
AcDbText
 10
8.625
 20
-10.4385
 30
0.0
 40
0.5
  1
1.19
100
AcDbAttributeDefinition
  3

  2
S
 70
     8
280
     0
  0
ATTDEF
  5
8B
330
6E
100
AcDbEntity
  8
AM_6
100
AcDbText
 10
8.625
 20
-10.9385
 30
0.0
 40
0.5
  1
3.26
100
AcDbAttributeDefinition
  3

  2
U
 70
     8
280
     0
  0
ATTDEF
  5
8C
330
6E
100
AcDbEntity
  8
AM_6
100
AcDbText
 10
8.625
 20
-11.4385
 30
0.0
 40
0.5
  1
6.52
100
AcDbAttributeDefinition
  3

  2
V
 70
     8
280
     0
  0
ATTDEF
  5
8D
330
6E
100
AcDbEntity
  8
AM_6
100
AcDbText
 10
8.625
 20
-11.9385
 30
0.0
 40
0.5
  1
0.69
100
AcDbAttributeDefinition
  3

  2
W
 70
     8
280
     0
  0
ATTDEF
  5
8E
330
6E
100
AcDbEntity
  8
AM_6
100
AcDbText
 10
8.625
 20
-12.4385
 30
0.0
 40
0.5
  1
0.12
100
AcDbAttributeDefinition
  3

  2
X
 70
     8
280
     0
  0
ATTDEF
  5
8F
330
6E
100
AcDbEntity
  8
AM_6
100
AcDbText
 10
8.625
 20
-12.9385
 30
0.0
 40
0.5
  1
baldor
100
AcDbAttributeDefinition
  3

  2
COMPANY
 70
     8
280
     0
  0
INSERT
  5
91
330
6E
100
AcDbEntity
  8
0
100
AcDbBlockReference
  2
2_405020c_Inch_0_in_123585_4
 10
0.0
 20
0.0
 30
0.0
  0
INSERT
  5
DE
330
6E
100
AcDbEntity
  8
0
100
AcDbBlockReference
  2
3_389930_0_in_123585_4
 10
0.0
 20
0.0
 30
0.0
  0
INSERT
  5
138
330
6E
100
AcDbEntity
  8
0
100
AcDbBlockReference
  2
4_123585vsc_0_in_123585_4
 10
0.0
 20
0.0
 30
0.0
  0
ENDBLK
  5
71
330
6E
100
AcDbEntity
  8
0
100
AcDbBlockEnd
  0
BLOCK
  5
92
330
90
100
AcDbEntity
  8
0
100
AcDbBlockBegin
  2
2_405020c_Inch_0_in_123585_4
 70
     2
 10
0.0
 20
0.0
 30
0.0
  3
2_405020c_Inch_0_in_123585_4
  1

  0
ATTDEF
  5
94
330
90
100
AcDbEntity
  8
AM_6
100
AcDbText
 10
6.765052891700941
 20
0.1406500000000029
 30
0.0
 40
0.5
  1
405020C -Inch
100
AcDbAttributeDefinition
  3

  2
NN
 70
     8
280
     0
  0
ATTDEF
  5
95
330
90
100
AcDbEntity
  8
AM_6
100
AcDbText
 10
6.765052891700941
 20
-0.3593499999999972
 30
0.0
 40
0.5
  1
Grease fitting
100
AcDbAttributeDefinition
  3

  2
NT
 70
     8
280
     0
  0
ATTDEF
  5
96
330
90
100
AcDbEntity
  8
AM_6
100
AcDbText
 10
6.765052891700941
 20
-0.8593499999999972
 30
0.0
 40
0.5
  1
405020c-Inch
100
AcDbAttributeDefinition
  3

  2
NB
 70
     8
280
     0
  0
ATTDEF
  5
97
330
90
100
AcDbEntity
  8
AM_6
100
AcDbText
 10
6.765052891700941
 20
-1.359349999999997
 30
0.0
 40
0.5
  1
$MN.-Inch
100
AcDbAttributeDefinition
  3

  2
NBSYN
 70
     8
280
     0
  0
ATTDEF
  5
98
330
90
100
AcDbEntity
  8
AM_6
100
AcDbText
 10
6.765052891700941
 20
-1.859349999999997
 30
0.0
 40
0.5
  1
405020c
100
AcDbAttributeDefinition
  3

  2
LINA
 70
     8
280
     0
  0
ATTDEF
  5
99
330
90
100
AcDbEntity
  8
AM_6
100
AcDbText
 10
6.765052891700941
 20
-2.359349999999997
 30
0.0
 40
0.5
  1
405020c
100
AcDbAttributeDefinition
  3

  2
MN
 70
     8
280
     0
  0
ATTDEF
  5
9A
330
90
100
AcDbEntity
  8
AM_6
100
AcDbText
 10
6.765052891700941
 20
-2.859349999999997
 30
0.0
 40
0.5
  1
0.230
100
AcDbAttributeDefinition
  3

  2
NDR
 70
     8
280
     0
  0
ATTDEF
  5
9B
330
90
100
AcDbEntity
  8
AM_6
100
AcDbText
 10
6.765052891700941
 20
-3.359349999999997
 30
0.0
 40
0.5
  1
0.210
100
AcDbAttributeDefinition
  3

  2
KDR
 70
     8
280
     0
  0
ATTDEF
  5
9C
330
90
100
AcDbEntity
  8
AM_6
100
AcDbText
 10
6.765052891700941
 20
-3.859349999999997
 30
0.0
 40
0.5
  1
0.157
100
AcDbAttributeDefinition
  3

  2
BZE
 70
     8
280
     0
  0
ATTDEF
  5
9D
330
90
100
AcDbEntity
  8
AM_6
100
AcDbText
 10
6.765052891700941
 20
-4.359349999999997
 30
0.0
 40
0.5
  1
9/32
100
AcDbAttributeDefinition
  3

  2
WAF
 70
     8
280
     0
  0
ATTDEF
  5
9E
330
90
100
AcDbEntity
  8
AM_6
100
AcDbText
 10
6.765052891700941
 20
-4.859349999999997
 30
0.0
 40
0.5
  1
0.2813
100
AcDbAttributeDefinition
  3

  2
WAF1
 70
     8
280
     0
  0
ATTDEF
  5
9F
330
90
100
AcDbEntity
  8
AM_6
100
AcDbText
 10
6.765052891700941
 20
-5.359349999999997
 30
0.0
 40
0.5
  1
0.545
100
AcDbAttributeDefinition
  3

  2
BL
 70
     8
280
     0
  0
ATTDEF
  5
A0
330
90
100
AcDbEntity
  8
AM_6
100
AcDbText
 10
6.765052891700941
 20
-5.859349999999997
 30
0.0
 40
0.5
  1
0.200
100
AcDbAttributeDefinition
  3

  2
TL
 70
     8
280
     0
  0
ATTDEF
  5
A1
330
90
100
AcDbEntity
  8
AM_6
100
AcDbText
 10
6.765052891700941
 20
-6.359349999999997
 30
0.0
 40
0.5
  1
baldor
100
AcDbAttributeDefinition
  3

  2
COMPANY
 70
     8
280
     0
  0
LWPOLYLINE
  5
A4
330
90
100
AcDbEntity
  8
AM_9
100
AcDbPolyline
 90
        3
 70
     0
 43
0.0
 10
1.575602792632417
 20
0.0000000000000001
 10
1.558287489378809
 20
-0.0350043999316989
 10
1.542770152324901
 20
-0.070325
  0
LWPOLYLINE
  5
A5
330
90
100
AcDbEntity
  8
AM_9
100
AcDbPolyline
 90
        3
 70
     0
 43
0.0
 10
1.542770152324901
 20
0.070325
 10
1.558213332113251
 20
0.0351625000000001
 10
1.575602792632417
 20
0.0000000000000001
  0
ELLIPSE
  5
A6
330
90
100
AcDbEntity
  8
AM_9
100
AcDbEllipse
 10
1.315218613006978
 20
0.0000000000000001
 30
0.0
 11
-1.838598171376523E-17
 21
-0.1000886227036577
 31
0.0
210
0.0
220
0.0
230
1.0
 40
0.7071067811865474
 41
0.0
 42
6.283185307179586
  0
LWPOLYLINE
  5
A7
330
90
100
AcDbEntity
  8
AM_9
100
AcDbPolyline
 90
        3
 70
     0
 43
0.0
 10
1.589910604404005
 20
-0.0703249999999999
 10
1.603177485642526
 20
-0.0351624999999999
 10
1.614498086150231
 20
0.0000000000000001
  0
LWPOLYLINE
  5
A8
330
90
100
AcDbEntity
  8
AM_9
100
AcDbPolyline
 90
        3
 70
     0
 43
0.0
 10
1.614498086150231
 20
0.0000000000000001
 10
1.60323241654218
 20
0.035004399931699
 10
1.589910604404005
 20
0.0703250000000001
  0
LWPOLYLINE
  5
A9
330
90
100
AcDbEntity
  8
AM_9
100
AcDbPolyline
 90
        3
 70
     0
 43
0.0
 10
1.518182670578675
 20
0.1406500000000001
 10
1.529448340186726
 20
0.1056456000683011
 10
1.542770152324901
 20
0.070325
  0
LINE
  5
AA
330
90
100
AcDbEntity
  8
AM_9
100
AcDbLine
 10
1.614498086150231
 20
0.0000000000000001
 30
0.0
 11
1.575602792632417
 21
0.0000000000000001
 31
0.0
  0
LWPOLYLINE
  5
AB
330
90
100
AcDbEntity
  8
AM_9
100
AcDbPolyline
 90
        3
 70
     0
 43
0.0
 10
1.542770152324901
 20
-0.070325
 10
1.529503271086379
 20
-0.1054874999999999
 10
1.518182670578675
 20
-0.1406499999999999
  0
LWPOLYLINE
  5
AC
330
90
100
AcDbEntity
  8
AM_9
100
AcDbPolyline
 90
        3
 70
     0
 43
0.0
 10
1.589910604404005
 20
0.0703250000000001
 10
1.574467424615656
 20
0.1054875000000001
 10
1.569678387035331
 20
0.1155327890893623
  0
LWPOLYLINE
  5
AD
330
90
100
AcDbEntity
  8
AM_9
100
AcDbPolyline
 90
        3
 70
     0
 43
0.0
 10
1.569843953680987
 20
-0.1151907939395562
 10
1.574393267350097
 20
-0.105645600068301
 10
1.589910604404005
 20
-0.0703249999999999
  0
LINE
  5
AE
330
90
100
AcDbEntity
  8
AM_9
100
AcDbLine
 10
1.320081355469264
 20
-0.1103623268442186
 30
0.0
 11
1.454066714632521
 21
-0.1162868888632208
 31
0.0
  0
LINE
  5
AF
330
90
100
AcDbEntity
  8
AM_9
100
AcDbLine
 10
1.454066714632521
 20
0.1162868888632209
 30
0.0
 11
1.320081355469264
 21
0.1103623268442187
 31
0.0
  0
ELLIPSE
  5
B0
330
90
100
AcDbEntity
  8
AM_9
100
AcDbEllipse
 10
1.503780421323391
 20
-0.0000000000000036
 30
0.0
 11
8.612328615004091E-18
 21
0.1406500000000054
 31
0.0
210
0.0
220
0.0
230
1.0
 40
0.70710678118653
 41
3.798906696793646
 42
5.625871263975766
  0
ELLIPSE
  5
B1
330
90
100
AcDbEntity
  8
AM_9
100
AcDbEllipse
 10
1.525927394208921
 20
-0.0000000000000001
 30
0.0
 11
6.694498085252807E-18
 21
0.1093294505797717
 31
0.0
210
0.0
220
0.0
230
1.0
 40
0.707106781186559
 41
5.423220480106912
 42
5.928986666165859
  0
ELLIPSE
  5
B2
330
90
100
AcDbEntity
  8
AM_9
100
AcDbEllipse
 10
1.525927394208923
 20
-0.0000000000000001
 30
0.0
 11
6.694498085252821E-18
 21
0.1093294505797719
 31
0.0
210
0.0
220
0.0
230
1.0
 40
0.7071067811865474
 41
4.345825373176911
 42
5.078891294186136
  0
ELLIPSE
  5
B3
330
90
100
AcDbEntity
  8
AM_9
100
AcDbEllipse
 10
1.525927394208927
 20
-0.0000000000000011
 30
0.0
 11
6.694498085252706E-18
 21
0.10932945057977
 31
0.0
210
0.0
220
0.0
230
1.0
 40
0.7071067811865329
 41
3.495791294603464
 42
4.002090542692323
  0
LWPOLYLINE
  5
B4
330
90
100
AcDbEntity
  8
AM_9
100
AcDbPolyline
 90
       14
 70
     0
 43
0.0
 10
1.543136703030258
 20
0.0933476081352164
 10
1.545620316051847
 20
0.0940594924289248
 10
1.550198787982278
 20
0.0946729113278595
 10
1.555574620651366
 20
0.0942044845433552
 10
1.560219375397097
 20
0.0927923976418405
 10
1.564925309033086
 20
0.0904585326939822
 10
1.569764429678765
 20
0.0871274039356232
 10
1.575181672847037
 20
0.0822301871971056
 10
1.580462081997502
 20
0.0761251386860316
 10
1.585484491693507
 20
0.0688347103442232
 10
1.590114746496752
 20
0.0604157759073398
 10
1.594213666670663
 20
0.0509740565822032
 10
1.597656021141666
 20
0.0406492776618368
 10
1.598148213053292
 20
0.0388906766883645
  0
LWPOLYLINE
  5
B5
330
90
100
AcDbEntity
  8
AM_9
100
AcDbPolyline
 90
        4
 70
     0
 43
0.0
 10
1.533070414021167
 20
0.0878792067243775
 10
1.536384288720298
 20
0.0901306001798034
 10
1.541105018750792
 20
0.0925741263910664
 10
1.543136703030258
 20
0.0933476081352164
  0
LWPOLYLINE
  5
B6
330
90
100
AcDbEntity
  8
AM_9
100
AcDbPolyline
 90
        4
 70
     0
 43
0.0
 10
1.542101774473667
 20
-0.0929748085957482
 10
1.541641596408872
 20
-0.0927948744947873
 10
1.536935830235598
 20
-0.0904622824393528
 10
1.533295236766745
 20
-0.0880460785961273
  0
LWPOLYLINE
  5
B7
330
90
100
AcDbEntity
  8
AM_9
100
AcDbPolyline
 90
       14
 70
     0
 43
0.0
 10
1.598146639937787
 20
-0.0388964476166823
 10
1.597685263770932
 20
-0.0405473212766402
 10
1.594248859200273
 20
-0.0508819320978971
 10
1.590168055842138
 20
-0.0603068471948792
 10
1.585581664942463
 20
-0.0686766992555502
 10
1.580647607551449
 20
-0.0758837252505231
 10
1.575539731594745
 20
-0.0818601029079842
 10
1.570433180850841
 20
-0.0865914605489482
 10
1.565475468466952
 20
-0.0901275565796935
 10
1.560754484281244
 20
-0.0925721347506214
 10
1.556239058004523
 20
-0.0940584192741095
 10
1.551660924221901
 20
-0.0946727502693023
 10
1.546286461624454
 20
-0.0942057770893081
 10
1.542101774473667
 20
-0.0929748085957482
  0
ELLIPSE
  5
B8
330
90
100
AcDbEntity
  8
AM_9
100
AcDbEllipse
 10
1.565869206145429
 20
0.0000000000000002
 30
0.0
 11
6.084620899749643E-18
 21
0.09936940028726639
 31
0.0
210
0.0
220
0.0
230
1.0
 40
0.7071067811865487
 41
2.656480407116019
 42
6.768297553653367
  0
ELLIPSE
  5
B9
330
90
100
AcDbEntity
  8
AM_9
100
AcDbEllipse
 10
1.642956778315182
 20
0.0
 30
0.0
 11
8.079715312105961E-18
 21
0.1319517646676801
 31
0.0
210
0.0
220
0.0
230
1.0
 40
0.7071067811865483
 41
3.586682484381445
 42
5.836549232039782
  0
ELLIPSE
  5
BA
330
90
100
AcDbEntity
  8
AM_9
100
AcDbEllipse
 10
1.614200534849905
 20
0.0
 30
0.0
 11
8.036249332247504E-18
 21
0.1312419113468904
 31
0.0
210
0.0
220
0.0
230
1.0
 40
0.7071067811865477
 41
2.656480407116016
 42
6.772586437935937
  0
ELLIPSE
  5
BB
330
90
100
AcDbEntity
  8
AM_9
100
AcDbEllipse
 10
1.689821354988369
 20
0.0000000000000001
 30
0.0
 11
6.357083428130995E-18
 21
0.103819051053039
 31
0.0
210
0.0
220
0.0
230
1.0
 40
0.7071067811865466
 41
3.5799744285438
 42
5.778404538482383
  0
ELLIPSE
  5
BC
330
90
100
AcDbEntity
  8
AM_9
100
AcDbEllipse
 10
1.689821354987756
 20
-0.0000000000017309
 30
0.0
 11
6.357083428249529E-18
 21
0.1038190510549748
 31
0.0
210
0.0
220
0.0
230
1.0
 40
0.7071067811865475
 41
-0.4754233200037721
 42
-0.4517458813198623
  0
ELLIPSE
  5
BD
330
90
100
AcDbEntity
  8
AM_9
100
AcDbEllipse
 10
1.456639969244288
 20
0.0000000000000001
 30
0.0
 11
7.124004163867284E-18
 21
0.1163438171532771
 31
0.0
210
0.0
220
0.0
230
1.0
 40
0.7071067811865476
 41
0.0
 42
6.283185307179586
  0
ELLIPSE
  5
BE
330
90
100
AcDbEntity
  8
AM_9
100
AcDbEllipse
 10
1.322521355085764
 20
0.0000000000000005
 30
0.0
 11
6.761045944280069E-18
 21
0.1104162595939886
 31
0.0
210
0.0
220
0.0
230
1.0
 40
0.7071067811865505
 41
0.0
 42
6.283185307179586
  0
ELLIPSE
  5
BF
330
90
100
AcDbEntity
  8
AM_9
100
AcDbEllipse
 10
1.456639969244289
 20
0.0000000000000014
 30
0.0
 11
8.612328615003849E-18
 21
0.1406500000000014
 31
0.0
210
0.0
220
0.0
230
1.0
 40
0.7071067811865482
 41
0.0
 42
6.283185307179586
  0
LINE
  5
C1
330
90
100
AcDbEntity
  8
AM_4
100
AcDbLine
 10
1.569678387035331
 20
0.1155327890893623
 30
0.0
 11
1.557077964096489
 21
0.1406500000000001
 31
0.0
  0
LINE
  5
C2
330
90
100
AcDbEntity
  8
AM_4
100
AcDbLine
 10
1.557077964096489
 20
-0.1406499999999999
 30
0.0
 11
1.569843953680987
 21
-0.1151907939395562
 31
0.0
  0
LINE
  5
C3
330
90
100
AcDbEntity
  8
AM_4
100
AcDbLine
 10
1.557077964096489
 20
0.1406500000000001
 30
0.0
 11
1.40334242647119
 21
0.1406500000000001
 31
0.0
  0
LWPOLYLINE
  5
C4
330
90
100
AcDbEntity
  8
AM_4
100
AcDbPolyline
 90
        3
 70
     0
 43
0.0
 10
1.370509786163674
 20
0.070325
 10
1.385952965952024
 20
0.1054875000000001
 10
1.40334242647119
 20
0.1406500000000001
  0
LWPOLYLINE
  5
C5
330
90
100
AcDbEntity
  8
AM_4
100
AcDbPolyline
 90
        3
 70
     0
 43
0.0
 10
1.345922304417448
 20
0.0000000000000001
 10
1.357187974025499
 20
0.035004399931699
 10
1.370509786163674
 20
0.070325
  0
LWPOLYLINE
  5
C6
330
90
100
AcDbEntity
  8
AM_4
100
AcDbPolyline
 90
        3
 70
     0
 43
0.0
 10
1.442237719989004
 20
0.1406500000000001
 10
1.430972050380953
 20
0.1056456000683011
 10
1.417650238242778
 20
0.0703250000000001
  0
LWPOLYLINE
  5
C7
330
90
100
AcDbEntity
  8
AM_4
100
AcDbPolyline
 90
        3
 70
     0
 43
0.0
 10
1.417650238242778
 20
0.0703250000000001
 10
1.402207058454428
 20
0.0351625000000001
 10
1.384817597935262
 20
0.0000000000000001
  0
LINE
  5
C8
330
90
100
AcDbEntity
  8
AM_4
100
AcDbLine
 10
1.384817597935262
 20
0.0000000000000001
 30
0.0
 11
1.345922304417448
 21
0.0000000000000001
 31
0.0
  0
LWPOLYLINE
  5
C9
330
90
100
AcDbEntity
  8
AM_4
100
AcDbPolyline
 90
        3
 70
     0
 43
0.0
 10
1.370509786163674
 20
-0.0703249999999999
 10
1.357242904925152
 20
-0.0351624999999999
 10
1.345922304417448
 20
0.0000000000000001
  0
LWPOLYLINE
  5
CA
330
90
100
AcDbEntity
  8
AM_4
100
AcDbPolyline
 90
        3
 70
     0
 43
0.0
 10
1.40334242647119
 20
-0.1406499999999999
 10
1.386027123217582
 20
-0.105645600068301
 10
1.370509786163674
 20
-0.0703249999999999
  0
LINE
  5
CB
330
90
100
AcDbEntity
  8
AM_4
100
AcDbLine
 10
1.557077964096489
 20
-0.1406499999999999
 30
0.0
 11
1.40334242647119
 21
-0.1406499999999999
 31
0.0
  0
LWPOLYLINE
  5
CC
330
90
100
AcDbEntity
  8
AM_4
100
AcDbPolyline
 90
        3
 70
     0
 43
0.0
 10
1.417650238242778
 20
-0.0703249999999999
 10
1.4309171194813
 20
-0.1054874999999999
 10
1.442237719989004
 20
-0.1406499999999999
  0
LWPOLYLINE
  5
CD
330
90
100
AcDbEntity
  8
AM_4
100
AcDbPolyline
 90
        3
 70
     0
 43
0.0
 10
1.384817597935262
 20
0.0000000000000001
 10
1.402132901188869
 20
-0.0350043999316988
 10
1.417650238242778
 20
-0.0703249999999999
  0
ELLIPSE
  5
CE
330
90
100
AcDbEntity
  8
AM_4
100
AcDbEllipse
 10
1.503780421323392
 20
0.0000000000000001
 30
0.0
 11
8.612328615003753E-18
 21
0.1406499999999999
 31
0.0
210
0.0
220
0.0
230
1.0
 40
0.707106781186553
 41
5.625871263975768
 42
10.08209200397319
  0
ELLIPSE
  5
CF
330
90
100
AcDbEntity
  8
AM_4
100
AcDbEllipse
 10
1.525927394208923
 20
-0.0000000000000001
 30
0.0
 11
6.694498085252792E-18
 21
0.1093294505797714
 31
0.0
210
0.0
220
0.0
230
1.0
 40
0.7071067811865465
 41
5.928986666165874
 42
9.778976601783093
  0
ELLIPSE
  5
D0
330
90
100
AcDbEntity
  8
AM_4
100
AcDbEllipse
 10
1.565869206145428
 20
0.0
 30
0.0
 11
6.084620899749652E-18
 21
0.09936940028726653
 31
0.0
210
0.0
220
0.0
230
1.0
 40
0.707106781186541
 41
0.4851122464737774
 42
2.656480407116022
  0
LINE
  5
D1
330
90
100
AcDbEntity
  8
AM_4
100
AcDbLine
 10
1.533104202631768
 20
-0.0879044185632922
 30
0.0
 11
1.57092623034581
 21
-0.1160995625890069
 31
0.0
  0
LINE
  5
D2
330
90
100
AcDbEntity
  8
AM_4
100
AcDbLine
 10
1.57092623034581
 20
0.1160995625890071
 30
0.0
 11
1.533104202631768
 21
0.0879044185632924
 31
0.0
  0
ELLIPSE
  5
D3
330
90
100
AcDbEntity
  8
AM_4
100
AcDbEllipse
 10
1.614200534849905
 20
-0.0000000000000002
 30
0.0
 11
8.036249332247538E-18
 21
0.131241911346891
 31
0.0
210
0.0
220
0.0
230
1.0
 40
0.7071067811865498
 41
0.4894011307563542
 42
2.646876740437948
  0
LWPOLYLINE
  5
D4
330
90
100
AcDbEntity
  8
AM_4
100
AcDbPolyline
 90
        3
 70
     0
 43
0.0
 10
1.676985092615241
 20
-0.122924144221468
 10
1.67967418621671
 20
-0.1213215498567445
 10
1.683291236539136
 20
-0.1189864862418949
  0
LWPOLYLINE
  5
D5
330
90
100
AcDbEntity
  8
AM_4
100
AcDbPolyline
 90
       11
 70
     0
 43
0.0
 10
1.569929836931401
 20
-0.1153477781645033
 10
1.575002393729517
 20
-0.1189925183471052
 10
1.586280660561878
 20
-0.1256092672775145
 10
1.598023904657967
 20
-0.1306015110169689
 10
1.610047950181107
 20
-0.1339494156045686
 10
1.622183044774862
 20
-0.1356657514503566
 10
1.634276443100758
 20
-0.1357846680224543
 10
1.646192998755925
 20
-0.1343526376495735
 10
1.657796603368608
 20
-0.1314270397442769
 10
1.668986176854311
 20
-0.127065803632108
 10
1.675891210350757
 20
-0.1235447715481882
  0
LWPOLYLINE
  5
D6
330
90
100
AcDbEntity
  8
AM_4
100
AcDbPolyline
 90
       12
 70
     0
 43
0.0
 10
1.683445980110805
 20
0.1188818260828895
 10
1.6819097457459
 20
0.1199033088780598
 10
1.670563181343682
 20
0.1263202599896489
 10
1.658775183544828
 20
0.1311080405610406
 10
1.646728390633681
 20
0.1342515427654126
 10
1.634590521444486
 20
0.1357667694882524
 10
1.622512135181065
 20
0.1356898544924223
 10
1.610627205713399
 20
0.134068472038067
 10
1.599070045309948
 20
0.130961006799929
 10
1.587938346834858
 20
0.126424779004378
 10
1.577318578427555
 20
0.1205116746647389
 10
1.570472561388709
 20
0.1157595068606588
  0
ELLIPSE
  5
D7
330
90
100
AcDbEntity
  8
AM_4
100
AcDbEllipse
 10
1.700591808753647
 20
0.0000000000000001
 30
0.0
 11
-1.484390032546748E-17
 21
-0.08080642971672804
 31
0.0
210
0.0
220
0.0
230
1.0
 40
0.7071067811865489
 41
0.0
 42
6.283185307179586
  0
LWPOLYLINE
  5
D8
330
90
100
AcDbEntity
  8
AM_4
100
AcDbPolyline
 90
       20
 70
     0
 43
0.0
 10
1.72081509276678
 20
-0.0941125970854434
 10
1.720877998684678
 20
-0.0940710831493883
 10
1.729343618210264
 20
-0.0876160235375402
 10
1.737159382681709
 20
-0.0798597916710765
 10
1.744211190336266
 20
-0.0708855700599348
 10
1.750381612770086
 20
-0.0608140977728851
 10
1.755563632055691
 20
-0.0498024222836488
 10
1.759671734241914
 20
-0.0380316367060673
 10
1.762644754471793
 20
-0.0256955707134524
 10
1.764445307614608
 20
-0.0129838319096925
 10
1.765052891700942
 20
-0.0000781746695395
 10
1.764458459191036
 20
0.0128430999997654
 10
1.762662502965291
 20
0.0256022097040611
 10
1.759674267858226
 20
0.0380230066069968
 10
1.755510924089918
 20
0.0499314807069562
 10
1.750199509376859
 20
0.0611508250597223
 10
1.743785134496842
 20
0.0714941515995765
 10
1.73634339648025
 20
0.0807651095539993
 10
1.727988571292627
 20
0.0887725725474671
 10
1.722030713161389
 20
0.0932945143537313
  0
ELLIPSE
  5
D9
330
90
100
AcDbEntity
  8
AM_4
100
AcDbEllipse
 10
1.642956778315182
 20
0.0000000000000004
 30
0.0
 11
8.079715312105943E-18
 21
0.1319517646676798
 31
0.0
210
0.0
220
0.0
230
1.0
 40
0.7071067811865483
 41
5.844803532225578
 42
9.863159735723386
  0
ELLIPSE
  5
DA
330
90
100
AcDbEntity
  8
AM_4
100
AcDbEllipse
 10
1.689821354988369
 20
0.0000000000000002
 30
0.0
 11
6.357083428130996E-18
 21
0.1038190510530391
 31
0.0
210
0.0
220
0.0
230
1.0
 40
0.7071067811865508
 41
5.844803532225582
 42
9.863159735723382
  0
LINE
  5
DB
330
90
100
AcDbEntity
  8
AM_4
100
AcDbLine
 10
1.720982541521502
 20
0.0940018950300905
 30
0.0
 11
1.682561971297394
 21
0.1194743720494001
 31
0.0
  0
LINE
  5
DC
330
90
100
AcDbEntity
  8
AM_4
100
AcDbLine
 10
1.682561971297394
 20
-0.1194743720493999
 30
0.0
 11
1.720982541521502
 21
-0.0940018950300903
 31
0.0
  0
ENDBLK
  5
93
330
90
100
AcDbEntity
  8
0
100
AcDbBlockEnd
  0
BLOCK
  5
DF
330
DD
100
AcDbEntity
  8
0
100
AcDbBlockBegin
  2
3_389930_0_in_123585_4
 70
     2
 10
0.0
 20
0.0
 30
0.0
  3
3_389930_0_in_123585_4
  1

  0
ATTDEF
  5
E1
330
DD
100
AcDbEntity
  8
AM_6
100
AcDbText
 10
6.57377298912248
 20
0.7499999999999999
 30
0.0
 40
0.5
  1
Set Screw Intermediate Duty Insert Inch Bore
100
AcDbAttributeDefinition
  3

  2
NN
 70
     8
280
     0
  0
ATTDEF
  5
E2
330
DD
100
AcDbEntity
  8
AM_6
100
AcDbText
 10
6.57377298912248
 20
0.2499999999999999
 30
0.0
 40
0.5
  1
VSC Intermediate Duty Bearing Inserts
100
AcDbAttributeDefinition
  3

  2
NT
 70
     8
280
     0
  0
ATTDEF
  5
E3
330
DD
100
AcDbEntity
  8
AM_6
100
AcDbText
 10
6.57377298912248
 20
-0.2500000000000001
 30
0.0
 40
0.5
  1
389930
100
AcDbAttributeDefinition
  3

  2
NB
 70
     8
280
     0
  0
ATTDEF
  5
E4
330
DD
100
AcDbEntity
  8
AM_6
100
AcDbText
 10
6.57377298912248
 20
-0.7500000000000001
 30
0.0
 40
0.5
  1
$PN.
100
AcDbAttributeDefinition
  3

  2
NBSYN
 70
     8
280
     0
  0
ATTDEF
  5
E5
330
DD
100
AcDbEntity
  8
AM_6
100
AcDbText
 10
6.57377298912248
 20
-1.25
 30
0.0
 40
0.5
  1
389930
100
AcDbAttributeDefinition
  3

  2
LINA
 70
     8
280
     0
  0
ATTDEF
  5
E6
330
DD
100
AcDbEntity
  8
AM_6
100
AcDbText
 10
6.57377298912248
 20
-1.75
 30
0.0
 40
0.5
  1
208
100
AcDbAttributeDefinition
  3

  2
SERIES
 70
     8
280
     0
  0
ATTDEF
  5
E7
330
DD
100
AcDbEntity
  8
AM_6
100
AcDbText
 10
6.57377298912248
 20
-2.25
 30
0.0
 40
0.5
  1
1-1/2
100
AcDbAttributeDefinition
  3

  2
SS
 70
     8
280
     0
  0
ATTDEF
  5
E8
330
DD
100
AcDbEntity
  8
AM_6
100
AcDbText
 10
6.57377298912248
 20
-2.75
 30
0.0
 40
0.5
  1
389930
100
AcDbAttributeDefinition
  3

  2
PN
 70
     8
280
     0
  0
ATTDEF
  5
E9
330
DD
100
AcDbEntity
  8
AM_6
100
AcDbText
 10
6.57377298912248
 20
-3.25
 30
0.0
 40
0.5
  1
INS-VSC-108
100
AcDbAttributeDefinition
  3

  2
DESCRIPTION
 70
     8
280
     0
  0
ATTDEF
  5
EA
330
DD
100
AcDbEntity
  8
AM_6
100
AcDbText
 10
6.57377298912248
 20
-3.75
 30
0.0
 40
0.5
  1
1.20
100
AcDbAttributeDefinition
  3

  2
WEIGHT
 70
     8
280
     0
  0
ATTDEF
  5
EB
330
DD
100
AcDbEntity
  8
AM_6
100
AcDbText
 10
6.57377298912248
 20
-4.25
 30
0.0
 40
0.5
  1
1.94
100
AcDbAttributeDefinition
  3

  2
A
 70
     8
280
     0
  0
ATTDEF
  5
EC
330
DD
100
AcDbEntity
  8
AM_6
100
AcDbText
 10
6.57377298912248
 20
-4.75
 30
0.0
 40
0.5
  1
0.87
100
AcDbAttributeDefinition
  3

  2
C
 70
     8
280
     0
  0
ATTDEF
  5
ED
330
DD
100
AcDbEntity
  8
AM_6
100
AcDbText
 10
6.57377298912248
 20
-5.25
 30
0.0
 40
0.5
  1
3.1496
100
AcDbAttributeDefinition
  3

  2
D
 70
     8
280
     0
  0
ATTDEF
  5
EE
330
DD
100
AcDbEntity
  8
AM_6
100
AcDbText
 10
6.57377298912248
 20
-5.75
 30
0.0
 40
0.5
  1
0.220
100
AcDbAttributeDefinition
  3

  2
J
 70
     8
280
     0
  0
ATTDEF
  5
EF
330
DD
100
AcDbEntity
  8
AM_6
100
AcDbText
 10
6.57377298912248
 20
-6.25
 30
0.0
 40
0.5
  1
2.05
100
AcDbAttributeDefinition
  3

  2
L
 70
     8
280
     0
  0
ATTDEF
  5
F0
330
DD
100
AcDbEntity
  8
AM_6
100
AcDbText
 10
6.57377298912248
 20
-6.75
 30
0.0
 40
0.5
  1
5/16-24
100
AcDbAttributeDefinition
  3

  2
N
 70
     8
280
     0
  0
ATTDEF
  5
F1
330
DD
100
AcDbEntity
  8
AM_6
100
AcDbText
 10
6.57377298912248
 20
-7.25
 30
0.0
 40
0.5
  1
0.75
100
AcDbAttributeDefinition
  3

  2
W
 70
     8
280
     0
  0
ATTDEF
  5
F2
330
DD
100
AcDbEntity
  8
AM_6
100
AcDbText
 10
6.57377298912248
 20
-7.75
 30
0.0
 40
0.5
  1
1.19
100
AcDbAttributeDefinition
  3

  2
Y
 70
     8
280
     0
  0
ATTDEF
  5
F3
330
DD
100
AcDbEntity
  8
AM_6
100
AcDbText
 10
6.57377298912248
 20
-8.25
 30
0.0
 40
0.5
  1
baldor
100
AcDbAttributeDefinition
  3

  2
COMPANY
 70
     8
280
     0
  0
LINE
  5
F4
330
DD
100
AcDbEntity
  8
AM_9
100
AcDbLine
 10
-1.6498
 20
0.2450757575757546
 30
0.0
 11
-1.6498
 21
0.1949242424242454
 31
0.0
  0
ARC
  5
F5
330
DD
100
AcDbEntity
  8
AM_9
100
AcDbCircle
 10
-1.570709090909091
 20
0.1949242424242471
 30
0.0
 40
0.0790909090909089
100
AcDbArc
 50
180.0
 51
270.0
  0
ARC
  5
F6
330
DD
100
AcDbEntity
  8
AM_9
100
AcDbCircle
 10
-1.570709090909091
 20
0.2450757575757527
 30
0.0
 40
0.0790909090909092
100
AcDbArc
 50
90.0
 51
180.0
  0
LINE
  5
F7
330
DD
100
AcDbEntity
  8
AM_9
100
AcDbLine
 10
-1.570709090909091
 20
0.3241666666666619
 30
0.0
 11
-1.570709090909091
 21
0.1158333333333381
 31
0.0
  0
LINE
  5
F8
330
DD
100
AcDbEntity
  8
AM_9
100
AcDbLine
 10
-1.541121443879546
 20
0.3241666666666619
 30
0.0
 11
-1.570709090909091
 21
0.3241666666666619
 31
0.0
  0
LINE
  5
F9
330
DD
100
AcDbEntity
  8
AM_9
100
AcDbLine
 10
0.6796582382676722
 20
-1.0112
 30
0.0
 11
0.9085282411148897
 21
-1.0112
 31
0.0
  0
LINE
  5
FA
330
DD
100
AcDbEntity
  8
AM_9
100
AcDbLine
 10
0.9085282411148897
 20
-0.7438
 30
0.0
 11
0.6797080991729844
 21
-0.7438
 31
0.0
  0
LWPOLYLINE
  5
FB
330
DD
100
AcDbEntity
  8
AM_9
100
AcDbPolyline
 90
       21
 70
     0
 43
0.0
 10
0.6797264259496039
 20
-1.011199999592002
 10
0.6857181595682991
 20
-1.010415057052669
 10
0.6941407117685869
 20
-1.006277534632763
 10
0.701857362412022
 20
-0.9984366045490742
 10
0.7083575485575438
 20
-0.9874847510859431
 10
0.7139167373137095
 20
-0.9731516932887522
 10
0.7182791323282595
 20
-0.9563619154507061
 10
0.7216408148420947
 20
-0.9368024235821986
 10
0.7238571482850457
 20
-0.9160771819533077
 10
0.7250953695968233
 20
-0.8935912617412352
 10
0.7253132818623621
 20
-0.8715853467067884
 10
0.7245532493255952
 20
-0.849108991006322
 10
0.7228577122020714
 20
-0.8282134389865445
 10
0.7200940405169671
 20
-0.8081251844380646
 10
0.7163292419037446
 20
-0.7903034350634902
 10
0.7113339543679343
 20
-0.7744530995998805
 10
0.7052916768872001
 20
-0.7617366520921266
 10
0.6979281416019417
 20
-0.7519989610100662
 10
0.6897922491901218
 20
-0.7460972832646389
 10
0.6805276330199119
 20
-0.7438133661183598
 10
0.6797349162103794
 20
-0.7438000003478629
  0
LWPOLYLINE
  5
FC
330
DD
100
AcDbEntity
  8
AM_9
100
AcDbPolyline
 90
       11
 70
     0
 43
0.0
 10
0.6797349162103794
 20
-0.7438000003478629
 10
0.671037518214053
 20
-0.7453040894200901
 10
0.6609417948039882
 20
-0.7505489086623129
 10
0.6511617913513496
 20
-0.7590868328929585
 10
0.6415069431172205
 20
-0.7711528569059255
 10
0.632782215396863
 20
-0.7859664538993828
 10
0.6250201768125396
 20
-0.8038153975040878
 10
0.6189694002384926
 20
-0.8233871621267936
 10
0.6146623005016263
 20
-0.845135783011244
 10
0.6129331935934517
 20
-0.861067259831928
 10
0.6123389948849185
 20
-0.8775
  0
ELLIPSE
  5
FD
330
DD
100
AcDbEntity
  8
AM_9
100
AcDbEllipse
 10
0.9085282411148896
 20
-0.8775
 30
0.0
 11
-2.456029155690020E-17
 21
-0.1337000000000002
 31
0.0
210
0.0
220
0.0
230
1.0
 40
0.4226182617406991
 41
3.51042055297701
 42
5.919520426813481
  0
LINE
  5
FE
330
DD
100
AcDbEntity
  8
AM_9
100
AcDbLine
 10
0.8821799644764049
 20
-0.9957740433970224
 30
0.0
 11
0.8962276158983269
 21
-1.013295490576137
 31
0.0
  0
LINE
  5
FF
330
DD
100
AcDbEntity
  8
AM_9
100
AcDbLine
 10
0.8963357517280033
 20
-0.7415696330540743
 30
0.0
 11
0.8821799644764049
 21
-0.7592259566029776
 31
0.0
  0
LWPOLYLINE
  5
100
330
DD
100
AcDbEntity
  8
AM_9
100
AcDbPolyline
 90
       11
 70
     0
 43
0.0
 10
0.6123389948849185
 20
-0.8775
 10
0.6133992805192825
 20
-0.8994276601712996
 10
0.616645117818838
 20
-0.9213553203425994
 10
0.6217231250140112
 20
-0.9414336405790963
 10
0.6286578574573269
 20
-0.9602602832709755
 10
0.6368295049399315
 20
-0.9764509101982403
 10
0.6462570495980396
 20
-0.990275221734956
 10
0.6560859587571306
 20
-1.000644711880101
 10
0.6664178498119304
 20
-1.007745266370778
 10
0.6761771337542489
 20
-1.010941496543762
 10
0.6797264259496039
 20
-1.011199999592002
  0
LINE
  5
101
330
DD
100
AcDbEntity
  8
AM_9
100
AcDbLine
 10
0.7499999999999999
 20
-1.149
 30
0.0
 11
0.7499999999999999
 21
0.7397499999999997
 31
0.0
  0
LINE
  5
102
330
DD
100
AcDbEntity
  8
AM_9
100
AcDbLine
 10
-0.7499999999999999
 20
0.7397499999999997
 30
0.0
 11
-0.7499999999999999
 21
-1.149
 31
0.0
  0
LINE
  5
103
330
DD
100
AcDbEntity
  8
AM_9
100
AcDbLine
 10
0.7499999999999999
 20
0.7397499999999997
 30
0.0
 11
0.7602500000000001
 21
0.7499999999999999
 31
0.0
  0
LINE
  5
104
330
DD
100
AcDbEntity
  8
AM_9
100
AcDbLine
 10
-0.7602500000000001
 20
0.7499999999999999
 30
0.0
 11
-0.7499999999999999
 21
0.7397499999999997
 31
0.0
  0
LINE
  5
105
330
DD
100
AcDbEntity
  8
AM_9
100
AcDbLine
 10
-0.7499999999999999
 20
-1.149
 30
0.0
 11
-0.7909999999999999
 21
-1.19
 31
0.0
  0
LINE
  5
106
330
DD
100
AcDbEntity
  8
AM_9
100
AcDbLine
 10
0.7909999999999999
 20
-1.19
 30
0.0
 11
0.7499999999999999
 21
-1.149
 31
0.0
  0
LINE
  5
107
330
DD
100
AcDbEntity
  8
AM_9
100
AcDbLine
 10
1.025
 20
0.435
 30
0.0
 11
1.025
 21
0.6104420317202508
 31
0.0
  0
LINE
  5
108
330
DD
100
AcDbEntity
  8
AM_9
100
AcDbLine
 10
-1.025
 20
0.6104420317202508
 30
0.0
 11
-1.025
 21
0.435
 31
0.0
  0
LINE
  5
109
330
DD
100
AcDbEntity
  8
AM_9
100
AcDbLine
 10
1.025
 20
-0.6104420317202507
 30
0.0
 11
1.025
 21
-0.435
 31
0.0
  0
LINE
  5
10A
330
DD
100
AcDbEntity
  8
AM_9
100
AcDbLine
 10
-1.025
 20
-0.435
 30
0.0
 11
-1.025
 21
-0.6104420317202507
 31
0.0
  0
LINE
  5
10B
330
DD
100
AcDbEntity
  8
AM_9
100
AcDbLine
 10
1.501466666666667
 20
-0.2640000000000001
 30
0.0
 11
1.501466666666667
 21
-0.176
 31
0.0
  0
LINE
  5
10C
330
DD
100
AcDbEntity
  8
AM_9
100
AcDbLine
 10
-1.501466666666667
 20
-0.176
 30
0.0
 11
-1.501466666666667
 21
-0.2640000000000001
 31
0.0
  0
LINE
  5
10D
330
DD
100
AcDbEntity
  8
AM_9
100
AcDbLine
 10
-1.480022851174941
 20
-0.4349999999999997
 30
0.0
 11
1.480022851174723
 21
-0.4349999999999997
 31
0.0
  0
ARC
  5
10E
330
DD
100
AcDbEntity
  8
AM_9
100
AcDbCircle
 10
1.480022851174941
 20
-0.3909999999999999
 30
0.0
 40
0.0439999999999998
100
AcDbArc
 50
270.0
 51
345.2014078426526
  0
ARC
  5
10F
330
DD
100
AcDbEntity
  8
AM_9
100
AcDbCircle
 10
-1.480022851174941
 20
-0.3910000000000002
 30
0.0
 40
0.0439999999999995
100
AcDbArc
 50
194.7985921573472
 51
270.0
  0
LINE
  5
110
330
DD
100
AcDbEntity
  8
AM_9
100
AcDbLine
 10
-1.48002285117494
 20
0.435
 30
0.0
 11
1.480022851174723
 21
0.435
 31
0.0
  0
ARC
  5
111
330
DD
100
AcDbEntity
  8
AM_9
100
AcDbCircle
 10
1.48002285117494
 20
0.3910000000000003
 30
0.0
 40
0.0439999999999998
100
AcDbArc
 50
14.79859014623451
 51
90.0
  0
ARC
  5
112
330
DD
100
AcDbEntity
  8
AM_9
100
AcDbCircle
 10
-1.48002285117494
 20
0.3910000000000003
 30
0.0
 40
0.0439999999999997
100
AcDbArc
 50
90.0
 51
165.2014098537655
  0
LINE
  5
113
330
DD
100
AcDbEntity
  8
AM_9
100
AcDbLine
 10
-1.522563356434738
 20
-0.4022385680689833
 30
0.0
 11
1.522563356434663
 21
-0.4022385680689833
 31
0.0
  0
LINE
  5
114
330
DD
100
AcDbEntity
  8
AM_9
100
AcDbLine
 10
-1.552513780937226
 20
-0.264
 30
0.0
 11
1.55251378093715
 21
-0.264
 31
0.0
  0
ARC
  5
115
330
DD
100
AcDbEntity
  8
AM_9
100
AcDbCircle
 10
-0.0000000000706666
 20
0.0000000000152877
 30
0.0
 40
1.574800000072155
100
AcDbArc
 50
345.2014078427707
 51
350.3493485929827
  0
ARC
  5
116
330
DD
100
AcDbEntity
  8
AM_9
100
AcDbCircle
 10
0.0000000000706399
 20
0.0000000000152824
 30
0.0
 40
1.574800000072128
100
AcDbArc
 50
189.6506514070172
 51
194.7985921572294
  0
LINE
  5
117
330
DD
100
AcDbEntity
  8
AM_9
100
AcDbLine
 10
-1.564934196699657
 20
-0.1759999999999997
 30
0.0
 11
1.564934196699661
 21
-0.1759999999999997
 31
0.0
  0
LINE
  5
118
330
DD
100
AcDbEntity
  8
AM_9
100
AcDbLine
 10
-1.522563356829217
 20
0.4022385665757888
 30
0.0
 11
1.522563356829221
 21
0.4022385665757888
 31
0.0
  0
ARC
  5
119
330
DD
100
AcDbEntity
  8
AM_9
100
AcDbCircle
 10
0.0000000000002585
 20
0.0000000000000186
 30
0.0
 40
1.574799999999749
100
AcDbArc
 50
353.5832052965256
 51
14.79859210115873
  0
ARC
  5
11A
330
DD
100
AcDbEntity
  8
AM_9
100
AcDbCircle
 10
-0.0000000000057614
 20
0.0000000000012776
 30
0.0
 40
1.574799999994107
100
AcDbArc
 50
165.2014078988344
 51
168.132927908302
  0
ARC
  5
11B
330
DD
100
AcDbEntity
  8
AM_9
100
AcDbCircle
 10
-0.0000000000004843
 20
0.0000000000000146
 30
0.0
 40
1.574799999999524
100
AcDbArc
 50
175.7710576100374
 51
186.4167947034751
  0
LINE
  5
11C
330
DD
100
AcDbEntity
  8
AM_9
100
AcDbLine
 10
-1.541074629024283
 20
0.3241666666664766
 30
0.0
 11
-1.570534201756414
 21
0.1158333333384663
 31
0.0
  0
LINE
  5
11D
330
DD
100
AcDbEntity
  8
AM_9
100
AcDbLine
 10
-1.545697766502648
 20
0.2917335458734299
 30
0.0
 11
-1.545335327358044
 21
0.2942797081245211
 31
0.0
  0
LINE
  5
11E
330
DD
100
AcDbEntity
  8
AM_9
100
AcDbLine
 10
-1.570534201756414
 20
0.1158333333384663
 30
0.0
 11
-1.569785220286666
 21
0.121178881193471
 31
0.0
  0
LINE
  5
121
330
DD
100
AcDbEntity
  8
AM_7
100
AcDbLine
 10
-0.140385
 20
-0.8775
 30
0.0
 11
0.140385
 21
-0.8775
 31
0.0
  0
LINE
  5
122
330
DD
100
AcDbEntity
  8
AM_7
100
AcDbLine
 10
-1.68104
 20
0.22
 30
0.0
 11
-0.9937599999999999
 21
0.22
 31
0.0
  0
ELLIPSE
  5
123
330
DD
100
AcDbEntity
  8
AM_4
100
AcDbEllipse
 10
0.9085282411148898
 20
-0.8775000000000001
 30
0.0
 11
-2.456029155690017E-17
 21
-0.1337
 31
0.0
210
0.0
220
0.0
230
1.0
 40
0.4226182617406994
 41
5.919520426813478
 42
9.7936058601566
  0
LWPOLYLINE
  5
124
330
DD
100
AcDbEntity
  8
AM_4
100
AcDbPolyline
 90
       14
 70
     0
 43
0.0
 10
0.8963799948927561
 20
-1.013485547269422
 10
0.892744680457462
 20
-1.00866203424734
 10
0.8835790922600751
 20
-0.9936356146720846
 10
0.875461747834354
 20
-0.9759342103003218
 10
0.8682575426184329
 20
-0.9545831740447912
 10
0.8628061812992149
 20
-0.9313381936869344
 10
0.8591871094349565
 20
-0.9053085177879814
 10
0.8578902160891152
 20
-0.8785401288611441
 10
0.8590740719574245
 20
-0.8509443263480565
 10
0.8627251647963761
 20
-0.824096565914176
 10
0.8687399142482436
 20
-0.7987533798243084
 10
0.87682296011181
 20
-0.7757233280818565
 10
0.8863564211935661
 20
-0.7563479960848926
 10
0.8963912738229145
 20
-0.7415003811525659
  0
LWPOLYLINE
  5
125
330
DD
100
AcDbEntity
  8
AM_4
100
AcDbPolyline
 90
       10
 70
     0
 43
0.0
 10
0.8963912738229145
 20
-0.7415003811525659
 10
0.8971178593893107
 20
-0.7406052084616267
 10
0.9079209261084636
 20
-0.7297982127316056
 10
0.918970623612591
 20
-0.7232288263155006
 10
0.9290736104728332
 20
-0.7212679896125477
 10
0.9386982408213989
 20
-0.7233197354850298
 10
0.9472898159087889
 20
-0.729104759592461
 10
0.9550128045658591
 20
-0.7383473098853852
 10
0.9601397087325736
 20
-0.7473416862767955
 10
0.9646981109346076
 20
-0.7579297283994291
  0
LINE
  5
126
330
DD
100
AcDbEntity
  8
AM_4
100
AcDbLine
 10
-1.01475
 20
0.7499999999999999
 30
0.0
 11
1.01475
 21
0.7499999999999999
 31
0.0
  0
LINE
  5
127
330
DD
100
AcDbEntity
  8
AM_4
100
AcDbLine
 10
-1.01475
 20
0.7499999999999999
 30
0.0
 11
-1.025
 21
0.7397499999999999
 31
0.0
  0
LINE
  5
128
330
DD
100
AcDbEntity
  8
AM_4
100
AcDbLine
 10
1.025
 20
0.7397499999999999
 30
0.0
 11
1.01475
 21
0.7499999999999999
 31
0.0
  0
LINE
  5
129
330
DD
100
AcDbEntity
  8
AM_4
100
AcDbLine
 10
-1.025
 20
0.7397499999999999
 30
0.0
 11
1.025
 21
0.7397499999999999
 31
0.0
  0
LINE
  5
12A
330
DD
100
AcDbEntity
  8
AM_4
100
AcDbLine
 10
1.025
 20
0.6104420317202508
 30
0.0
 11
1.025
 21
0.7397499999999999
 31
0.0
  0
LINE
  5
12B
330
DD
100
AcDbEntity
  8
AM_4
100
AcDbLine
 10
-1.025
 20
0.7397499999999999
 30
0.0
 11
-1.025
 21
0.6104420317202508
 31
0.0
  0
CIRCLE
  5
12C
330
DD
100
AcDbEntity
  8
AM_4
100
AcDbCircle
 10
0.0
 20
-0.8775
 30
0.0
 40
0.1337
  0
LINE
  5
12D
330
DD
100
AcDbEntity
  8
AM_4
100
AcDbLine
 10
-0.9839999999999998
 20
-1.19
 30
0.0
 11
0.9839999999999998
 21
-1.19
 31
0.0
  0
LINE
  5
12E
330
DD
100
AcDbEntity
  8
AM_4
100
AcDbLine
 10
0.9839999999999998
 20
-1.19
 30
0.0
 11
1.025
 21
-1.149
 31
0.0
  0
LINE
  5
12F
330
DD
100
AcDbEntity
  8
AM_4
100
AcDbLine
 10
-1.025
 20
-1.149
 30
0.0
 11
-0.9839999999999998
 21
-1.19
 31
0.0
  0
LINE
  5
130
330
DD
100
AcDbEntity
  8
AM_4
100
AcDbLine
 10
-1.025
 20
-1.149
 30
0.0
 11
1.025
 21
-1.149
 31
0.0
  0
LWPOLYLINE
  5
131
330
DD
100
AcDbEntity
  8
AM_4
100
AcDbPolyline
 90
       39
 70
     0
 43
0.0
 10
-0.1060988358425209
 20
-0.7704168843382017
 10
-0.0903466114839841
 20
-0.7549408024112768
 10
-0.0720359579106525
 20
-0.7417086377523724
 10
-0.0499199143092189
 20
-0.7307231596355118
 10
-0.0253898719353402
 20
-0.7236454206245984
 10
-0.00236997274972
 20
-0.7212707149076653
 10
0.0214346198503184
 20
-0.7229534855725178
 10
0.0431629537995689
 20
-0.7282762670754097
 10
0.0642899540018124
 20
-0.7373063632762449
 10
0.0836269258330697
 20
-0.7495765072905008
 10
0.1012209143113987
 20
-0.7651264108495214
 10
0.116702652684401
 20
-0.7839261628760267
 10
0.1293543808709515
 20
-0.8054740849797082
 10
0.1388031638859797
 20
-0.829684085501291
 10
0.1444045652848614
 20
-0.8557928408975995
 10
0.1457383631588213
 20
-0.8828433600602354
 10
0.1425216498539607
 20
-0.9105039786098317
 10
0.1348842528371311
 20
-0.9367807277339169
 10
0.1225378022347488
 20
-0.9620895927316303
 10
0.1067687590730944
 20
-0.9838160716930582
 10
0.0867753952632613
 20
-1.002989874624174
 10
0.0655253178766887
 20
-1.017033915388235
 10
0.0412753680800092
 20
-1.027337540924377
 10
0.0181905618128418
 20
-1.032524986699865
 10
-0.0062179165692629
 20
-1.033607356147286
 10
-0.0285142523755731
 20
-1.030722683765122
 10
-0.0506313387449415
 20
-1.023995988511874
 10
-0.0708864201760431
 20
-1.013985508259039
 10
-0.0897645189454457
 20
-1.000549726559219
 10
-0.1067387801722771
 20
-0.9838506176598802
 10
-0.121242365050227
 20
-0.9642031067442204
 10
-0.1329545218878323
 20
-0.941578568004265
 10
-0.1411370631631826
 20
-0.9167256272726669
 10
-0.1453359577926455
 20
-0.8902483499118617
 10
-0.1451648651188951
 20
-0.8626888504164733
 10
-0.1404977393809753
 20
-0.835730485890988
 10
-0.1311072542733376
 20
-0.809201091102097
 10
-0.1201642056336637
 20
-0.7890927952983191
 10
-0.1060988358783217
 20
-0.7704168843151682
  0
LWPOLYLINE
  5
132
330
DD
100
AcDbEntity
  8
AM_4
100
AcDbPolyline
 90
       19
 70
     0
 43
0.0
 10
0.9646981109346076
 20
-0.7579297283994291
 10
0.9698638131470348
 20
-0.7742017513348319
 10
0.974024461168707
 20
-0.7925647361893653
 10
0.9775977155477129
 20
-0.815774221442674
 10
0.97992258183548
 20
-0.8405484196914161
 10
0.9810545843261989
 20
-0.8674978268314799
 10
0.9808831736858542
 20
-0.8947188465082142
 10
0.9793530451650398
 20
-0.9219980912222955
 10
0.9764297816959426
 20
-0.9480047437544235
 10
0.972086195104878
 20
-0.9717547471695479
 10
0.9662636426469304
 20
-0.9927059202882148
 10
0.959232707710323
 20
-1.009425197994071
 10
0.9508378858937437
 20
-1.022210203705567
 10
0.9418795875656027
 20
-1.03000017285689
 10
0.9320245532913778
 20
-1.033553676328518
 10
0.9222047059561281
 20
-1.032818399094579
 10
0.9121289948000774
 20
-1.028243862112853
 10
0.9022453555751236
 20
-1.020086800913347
 10
0.8963799948927561
 20
-1.013485547269422
  0
LINE
  5
133
330
DD
100
AcDbEntity
  8
AM_4
100
AcDbLine
 10
1.025
 20
-1.149
 30
0.0
 11
1.025
 21
-0.6104420317202507
 31
0.0
  0
LINE
  5
134
330
DD
100
AcDbEntity
  8
AM_4
100
AcDbLine
 10
-1.025
 20
-0.6104420317202507
 30
0.0
 11
-1.025
 21
-1.149
 31
0.0
  0
CIRCLE
  5
136
330
DD
100
AcDbEntity
  8
AM_5
100
AcDbCircle
 10
0.0
 20
-0.8775
 30
0.0
 40
0.15625
  0
ENDBLK
  5
E0
330
DD
100
AcDbEntity
  8
0
100
AcDbBlockEnd
  0
BLOCK
  5
139
330
137
100
AcDbEntity
  8
0
100
AcDbBlockBegin
  2
4_123585vsc_0_in_123585_4
 70
     2
 10
0.0
 20
0.0
 30
0.0
  3
4_123585vsc_0_in_123585_4
  1

  0
ATTDEF
  5
13B
330
137
100
AcDbEntity
  8
AM_6
100
AcDbText
 10
8.625
 20
1.0615
 30
0.0
 40
0.5
  1
P2B-VSC -Inch - Body
100
AcDbAttributeDefinition
  3

  2
NN
 70
     8
280
     0
  0
ATTDEF
  5
13C
330
137
100
AcDbEntity
  8
AM_6
100
AcDbText
 10
8.625
 20
0.5614999999999999
 30
0.0
 40
0.5
  1
VSC Intermediate Duty Pillow Blocks
100
AcDbAttributeDefinition
  3

  2
NT
 70
     8
280
     0
  0
ATTDEF
  5
13D
330
137
100
AcDbEntity
  8
AM_6
100
AcDbText
 10
8.625
 20
0.0614999999999999
 30
0.0
 40
0.5
  1
123585vsc
100
AcDbAttributeDefinition
  3

  2
NB
 70
     8
280
     0
  0
ATTDEF
  5
13E
330
137
100
AcDbEntity
  8
AM_6
100
AcDbText
 10
8.625
 20
-0.4385000000000001
 30
0.0
 40
0.5
  1
$PN.
100
AcDbAttributeDefinition
  3

  2
NBSYN
 70
     8
280
     0
  0
ATTDEF
  5
13F
330
137
100
AcDbEntity
  8
AM_6
100
AcDbText
 10
8.625
 20
-0.9385000000000001
 30
0.0
 40
0.5
  1
123585vsc
100
AcDbAttributeDefinition
  3

  2
LINA
 70
     8
280
     0
  0
ATTDEF
  5
140
330
137
100
AcDbEntity
  8
AM_6
100
AcDbText
 10
8.625
 20
-1.4385
 30
0.0
 40
0.5
  1
208
100
AcDbAttributeDefinition
  3

  2
RS
 70
     8
280
     0
  0
ATTDEF
  5
141
330
137
100
AcDbEntity
  8
AM_6
100
AcDbText
 10
8.625
 20
-1.9385
 30
0.0
 40
0.5
  1
1-1/2
100
AcDbAttributeDefinition
  3

  2
SS
 70
     8
280
     0
  0
ATTDEF
  5
142
330
137
100
AcDbEntity
  8
AM_6
100
AcDbText
 10
8.625
 20
-2.4385
 30
0.0
 40
0.5
  1
123585vsc
100
AcDbAttributeDefinition
  3

  2
PN
 70
     8
280
     0
  0
ATTDEF
  5
143
330
137
100
AcDbEntity
  8
AM_6
100
AcDbText
 10
8.625
 20
-2.9385
 30
0.0
 40
0.5
  1
P2B-VSC-108
100
AcDbAttributeDefinition
  3

  2
DESCRIPTION
 70
     8
280
     0
  0
ATTDEF
  5
144
330
137
100
AcDbEntity
  8
AM_6
100
AcDbText
 10
8.625
 20
-3.4385
 30
0.0
 40
0.5
  1
RE-LUBE
100
AcDbAttributeDefinition
  3

  2
LF
 70
     8
280
     0
  0
ATTDEF
  5
145
330
137
100
AcDbEntity
  8
AM_6
100
AcDbText
 10
8.625
 20
-3.9385
 30
0.0
 40
0.5
  1
1.94
100
AcDbAttributeDefinition
  3

  2
A
 70
     8
280
     0
  0
ATTDEF
  5
146
330
137
100
AcDbEntity
  8
AM_6
100
AcDbText
 10
8.625
 20
-4.4385
 30
0.0
 40
0.5
  1
7.25
100
AcDbAttributeDefinition
  3

  2
B
 70
     8
280
     0
  0
ATTDEF
  5
147
330
137
100
AcDbEntity
  8
AM_6
100
AcDbText
 10
8.625
 20
-4.9385
 30
0.0
 40
0.5
  1
1.93
100
AcDbAttributeDefinition
  3

  2
C
 70
     8
280
     0
  0
ATTDEF
  5
148
330
137
100
AcDbEntity
  8
AM_6
100
AcDbText
 10
8.625
 20
-5.4385
 30
0.0
 40
0.5
  1
5.18
100
AcDbAttributeDefinition
  3

  2
DMIN
 70
     8
280
     0
  0
ATTDEF
  5
149
330
137
100
AcDbEntity
  8
AM_6
100
AcDbText
 10
8.625
 20
-5.9385
 30
0.0
 40
0.5
  1
5.88
100
AcDbAttributeDefinition
  3

  2
DMAX
 70
     8
280
     0
  0
ATTDEF
  5
14A
330
137
100
AcDbEntity
  8
AM_6
100
AcDbText
 10
8.625
 20
-6.4385
 30
0.0
 40
0.5
  1
1/2
100
AcDbAttributeDefinition
  3

  2
F
 70
     8
280
     0
  0
ATTDEF
  5
14B
330
137
100
AcDbEntity
  8
AM_6
100
AcDbText
 10
8.625
 20
-6.9385
 30
0.0
 40
0.5
  1
0.91
100
AcDbAttributeDefinition
  3

  2
G
 70
     8
280
     0
  0
ATTDEF
  5
14C
330
137
100
AcDbEntity
  8
AM_6
100
AcDbText
 10
8.625
 20
-7.4385
 30
0.0
 40
0.5
  1
0.93
100
AcDbAttributeDefinition
  3

  2
H
 70
     8
280
     0
  0
ATTDEF
  5
14D
330
137
100
AcDbEntity
  8
AM_6
100
AcDbText
 10
8.625
 20
-7.9385
 30
0.0
 40
0.5
  1
4.19
100
AcDbAttributeDefinition
  3

  2
J
 70
     8
280
     0
  0
ATTDEF
  5
14E
330
137
100
AcDbEntity
  8
AM_6
100
AcDbText
 10
8.625
 20
-8.438500000000001
 30
0.0
 40
0.5
  1
2.05
100
AcDbAttributeDefinition
  3

  2
L
 70
     8
280
     0
  0
ATTDEF
  5
14F
330
137
100
AcDbEntity
  8
AM_6
100
AcDbText
 10
8.625
 20
-8.938500000000001
 30
0.0
 40
0.5
  1
2.13
100
AcDbAttributeDefinition
  3

  2
M
 70
     8
280
     0
  0
ATTDEF
  5
150
330
137
100
AcDbEntity
  8
AM_6
100
AcDbText
 10
8.625
 20
-9.438500000000001
 30
0.0
 40
0.5
  1
0.75
100
AcDbAttributeDefinition
  3

  2
R
 70
     8
280
     0
  0
ATTDEF
  5
151
330
137
100
AcDbEntity
  8
AM_6
100
AcDbText
 10
8.625
 20
-9.938500000000001
 30
0.0
 40
0.5
  1
1.19
100
AcDbAttributeDefinition
  3

  2
S
 70
     8
280
     0
  0
ATTDEF
  5
152
330
137
100
AcDbEntity
  8
AM_6
100
AcDbText
 10
8.625
 20
-10.4385
 30
0.0
 40
0.5
  1
3.26
100
AcDbAttributeDefinition
  3

  2
U
 70
     8
280
     0
  0
ATTDEF
  5
153
330
137
100
AcDbEntity
  8
AM_6
100
AcDbText
 10
8.625
 20
-10.9385
 30
0.0
 40
0.5
  1
6.52
100
AcDbAttributeDefinition
  3

  2
V
 70
     8
280
     0
  0
ATTDEF
  5
154
330
137
100
AcDbEntity
  8
AM_6
100
AcDbText
 10
8.625
 20
-11.4385
 30
0.0
 40
0.5
  1
0.69
100
AcDbAttributeDefinition
  3

  2
W
 70
     8
280
     0
  0
ATTDEF
  5
155
330
137
100
AcDbEntity
  8
AM_6
100
AcDbText
 10
8.625
 20
-11.9385
 30
0.0
 40
0.5
  1
0.12
100
AcDbAttributeDefinition
  3

  2
X
 70
     8
280
     0
  0
ATTDEF
  5
156
330
137
100
AcDbEntity
  8
AM_6
100
AcDbText
 10
8.625
 20
-12.4385
 30
0.0
 40
0.5
  1
baldor
100
AcDbAttributeDefinition
  3

  2
COMPANY
 70
     8
280
     0
  0
LINE
  5
157
330
137
100
AcDbEntity
  8
AM_9
100
AcDbLine
 10
-1.6498
 20
0.2450757575757546
 30
0.0
 11
-1.6498
 21
0.8639047619047624
 31
0.0
  0
LINE
  5
158
330
137
100
AcDbEntity
  8
AM_9
100
AcDbLine
 10
-1.6498
 20
-0.8639047619047617
 30
0.0
 11
-1.6498
 21
0.1949242424242455
 31
0.0
  0
LINE
  5
159
330
137
100
AcDbEntity
  8
AM_9
100
AcDbLine
 10
-1.5568
 20
-0.7720000000000002
 30
0.0
 11
-1.5568
 21
0.7719999999999998
 31
0.0
  0
LINE
  5
15A
330
137
100
AcDbEntity
  8
AM_9
100
AcDbLine
 10
1.6498
 20
-0.8639047619047626
 30
0.0
 11
1.6498
 21
0.8639047619047581
 31
0.0
  0
LINE
  5
15B
330
137
100
AcDbEntity
  8
AM_9
100
AcDbLine
 10
1.5568
 20
-0.7720000000000002
 30
0.0
 11
1.5568
 21
0.7719999999999998
 31
0.0
  0
LINE
  5
15C
330
137
100
AcDbEntity
  8
AM_9
100
AcDbLine
 10
1.025
 20
-0.7720000000000004
 30
0.0
 11
-1.025
 21
-0.7720000000000001
 31
0.0
  0
LWPOLYLINE
  5
15D
330
137
100
AcDbEntity
  8
AM_9
100
AcDbPolyline
 90
        3
 70
     0
 43
0.0
 10
1.572216704437676
 20
-0.7731227104707183
 10
1.57410695185043
 20
-0.773441147131248
 10
1.574799999997922
 20
-0.7735680900279185
  0
LINE
  5
15E
330
137
100
AcDbEntity
  8
AM_9
100
AcDbLine
 10
-1.573457482804951
 20
0.7733271609188338
 30
0.0
 11
-1.574799999997922
 21
0.7735680900279182
 31
0.0
  0
LINE
  5
15F
330
137
100
AcDbEntity
  8
AM_9
100
AcDbLine
 10
-1.572216704437676
 20
0.773122710470718
 30
0.0
 11
-1.573457482804951
 21
0.7733271609188338
 31
0.0
  0
LINE
  5
160
330
137
100
AcDbEntity
  8
AM_9
100
AcDbLine
 10
1.5748
 20
-0.7734997765414577
 30
0.0
 11
1.5748
 21
0.7735070198251697
 31
0.0
  0
LINE
  5
161
330
137
100
AcDbEntity
  8
AM_9
100
AcDbLine
 10
-1.5748
 20
0.7734997765414573
 30
0.0
 11
-1.5748
 21
-0.7735070198251693
 31
0.0
  0
LINE
  5
162
330
137
100
AcDbEntity
  8
AM_9
100
AcDbLine
 10
-1.574799999997909
 20
-0.7735680900279157
 30
0.0
 11
-1.572346450764391
 21
-0.773143273854147
 31
0.0
  0
LINE
  5
163
330
137
100
AcDbEntity
  8
AM_9
100
AcDbLine
 10
1.574799999997909
 20
0.7735680900279158
 30
0.0
 11
1.572346450764391
 21
0.7731432738541474
 31
0.0
  0
LINE
  5
164
330
137
100
AcDbEntity
  8
AM_7
100
AcDbLine
 10
-3.323
 20
-0.6900000000000001
 30
0.0
 11
-3.197
 21
-0.6900000000000001
 31
0.0
  0
LINE
  5
165
330
137
100
AcDbEntity
  8
AM_7
100
AcDbLine
 10
-3.26
 20
-0.7530000000000001
 30
0.0
 11
-3.26
 21
-0.627
 31
0.0
  0
LINE
  5
166
330
137
100
AcDbEntity
  8
AM_7
100
AcDbLine
 10
3.197
 20
-0.6900000000000001
 30
0.0
 11
3.323
 21
-0.6900000000000001
 31
0.0
  0
LINE
  5
167
330
137
100
AcDbEntity
  8
AM_7
100
AcDbLine
 10
3.26
 20
-0.7530000000000001
 30
0.0
 11
3.26
 21
-0.627
 31
0.0
  0
LINE
  5
168
330
137
100
AcDbEntity
  8
AM_7
100
AcDbLine
 10
0.0
 20
1.0615
 30
0.0
 11
0.0
 21
-1.287
 31
0.0
  0
LINE
  5
169
330
137
100
AcDbEntity
  8
AM_7
100
AcDbLine
 10
-3.234
 20
0.0000000000000002
 30
0.0
 11
-2.296
 21
0.0000000000000003
 31
0.0
  0
LINE
  5
16A
330
137
100
AcDbEntity
  8
AM_7
100
AcDbLine
 10
-2.59
 20
-0.2939999999999999
 30
0.0
 11
-2.59
 21
0.2940000000000006
 31
0.0
  0
LINE
  5
16B
330
137
100
AcDbEntity
  8
AM_7
100
AcDbLine
 10
2.296
 20
-0.0000000000000001
 30
0.0
 11
3.234
 21
0.0000000000000001
 31
0.0
  0
LINE
  5
16C
330
137
100
AcDbEntity
  8
AM_7
100
AcDbLine
 10
2.94
 20
-0.2940000000000002
 30
0.0
 11
2.94
 21
0.2940000000000003
 31
0.0
  0
LINE
  5
16D
330
137
100
AcDbEntity
  8
AM_7
100
AcDbLine
 10
2.59
 20
-0.2940000000000004
 30
0.0
 11
2.59
 21
0.2940000000000002
 31
0.0
  0
LINE
  5
16E
330
137
100
AcDbEntity
  8
AM_7
100
AcDbLine
 10
-2.94
 20
-0.294
 30
0.0
 11
-2.94
 21
0.2940000000000005
 31
0.0
  0
LINE
  5
16F
330
137
100
AcDbEntity
  8
AM_4
100
AcDbLine
 10
-3.432
 20
0.9649999999999999
 30
0.0
 11
-3.625
 21
0.7720000000000001
 31
0.0
  0
LINE
  5
170
330
137
100
AcDbEntity
  8
AM_4
100
AcDbLine
 10
-3.625
 20
-0.7719999999999997
 30
0.0
 11
-3.432
 21
-0.9649999999999995
 31
0.0
  0
ARC
  5
171
330
137
100
AcDbEntity
  8
AM_4
100
AcDbCircle
 10
-2.94
 20
0.0000000000000002
 30
0.0
 40
0.2800000000000001
100
AcDbArc
 50
90.0
 51
270.0
  0
LINE
  5
172
330
137
100
AcDbEntity
  8
AM_4
100
AcDbLine
 10
-1.741704761904762
 20
0.9649999999999999
 30
0.0
 11
-3.432
 21
0.9649999999999999
 31
0.0
  0
ARC
  5
173
330
137
100
AcDbEntity
  8
AM_4
100
AcDbCircle
 10
-2.59
 20
0.0000000000000004
 30
0.0
 40
0.2800000000000001
100
AcDbArc
 50
270.0
 51
90.0
  0
CIRCLE
  5
174
330
137
100
AcDbEntity
  8
AM_4
100
AcDbCircle
 10
-3.26
 20
-0.6900000000000001
 30
0.0
 40
0.06
  0
LINE
  5
175
330
137
100
AcDbEntity
  8
AM_4
100
AcDbLine
 10
-1.741704761904762
 20
-0.9649999999999995
 30
0.0
 11
-3.432
 21
-0.9649999999999995
 31
0.0
  0
LINE
  5
176
330
137
100
AcDbEntity
  8
AM_4
100
AcDbLine
 10
-2.59
 20
0.2800000000000002
 30
0.0
 11
-2.94
 21
0.2800000000000002
 31
0.0
  0
LINE
  5
177
330
137
100
AcDbEntity
  8
AM_4
100
AcDbLine
 10
-2.94
 20
-0.28
 30
0.0
 11
-2.59
 21
-0.2799999999999997
 31
0.0
  0
LINE
  5
178
330
137
100
AcDbEntity
  8
AM_4
100
AcDbLine
 10
-3.439
 20
-0.9579999999999993
 30
0.0
 11
-3.439
 21
0.9579999999999997
 31
0.0
  0
LINE
  5
179
330
137
100
AcDbEntity
  8
AM_4
100
AcDbLine
 10
-3.625
 20
-0.7719999999999995
 30
0.0
 11
-3.625
 21
0.7719999999999998
 31
0.0
  0
LINE
  5
17A
330
137
100
AcDbEntity
  8
AM_4
100
AcDbLine
 10
3.432000000000001
 20
-0.9650000000000001
 30
0.0
 11
3.625
 21
-0.7720000000000006
 31
0.0
  0
LINE
  5
17B
330
137
100
AcDbEntity
  8
AM_4
100
AcDbLine
 10
3.625
 20
0.7720000000000001
 30
0.0
 11
3.432
 21
0.9649999999999999
 31
0.0
  0
LINE
  5
17C
330
137
100
AcDbEntity
  8
AM_4
100
AcDbLine
 10
2.94
 20
0.2800000000000001
 30
0.0
 11
2.59
 21
0.2799999999999999
 31
0.0
  0
ARC
  5
17D
330
137
100
AcDbEntity
  8
AM_4
100
AcDbCircle
 10
2.94
 20
0.0
 30
0.0
 40
0.28
100
AcDbArc
 50
270.0
 51
90.0
  0
LINE
  5
17E
330
137
100
AcDbEntity
  8
AM_4
100
AcDbLine
 10
2.59
 20
-0.2800000000000001
 30
0.0
 11
2.94
 21
-0.28
 31
0.0
  0
ARC
  5
17F
330
137
100
AcDbEntity
  8
AM_4
100
AcDbCircle
 10
2.59
 20
-0.0000000000000001
 30
0.0
 40
0.28
100
AcDbArc
 50
90.0
 51
270.0
  0
LINE
  5
180
330
137
100
AcDbEntity
  8
AM_4
100
AcDbLine
 10
3.432
 20
0.9649999999999999
 30
0.0
 11
1.741704761904762
 21
0.9649999999999995
 31
0.0
  0
LINE
  5
181
330
137
100
AcDbEntity
  8
AM_4
100
AcDbLine
 10
3.432000000000001
 20
-0.9650000000000001
 30
0.0
 11
1.741704761904762
 21
-0.9650000000000006
 31
0.0
  0
CIRCLE
  5
182
330
137
100
AcDbEntity
  8
AM_4
100
AcDbCircle
 10
3.26
 20
-0.6900000000000001
 30
0.0
 40
0.06
  0
LINE
  5
183
330
137
100
AcDbEntity
  8
AM_4
100
AcDbLine
 10
3.625
 20
-0.7720000000000006
 30
0.0
 11
3.625
 21
0.7719999999999997
 31
0.0
  0
LINE
  5
184
330
137
100
AcDbEntity
  8
AM_4
100
AcDbLine
 10
3.439
 20
-0.9580000000000002
 30
0.0
 11
3.439
 21
0.9580000000000002
 31
0.0
  0
LINE
  5
185
330
137
100
AcDbEntity
  8
AM_4
100
AcDbLine
 10
2.887117805329118
 20
-0.5000000000000001
 30
0.0
 11
2.59
 21
-0.5000000000000001
 31
0.0
  0
LINE
  5
186
330
137
100
AcDbEntity
  8
AM_4
100
AcDbLine
 10
2.887117805329118
 20
-0.9650000000000001
 30
0.0
 11
2.887117805329118
 21
-0.5000000000000001
 31
0.0
  0
LINE
  5
187
330
137
100
AcDbEntity
  8
AM_4
100
AcDbLine
 10
2.59
 20
0.4999999999999999
 30
0.0
 11
2.887117805329118
 21
0.4999999999999999
 31
0.0
  0
LINE
  5
188
330
137
100
AcDbEntity
  8
AM_4
100
AcDbLine
 10
2.887117805329118
 20
0.4999999999999999
 30
0.0
 11
2.887117805329118
 21
0.9649999999999999
 31
0.0
  0
LINE
  5
189
330
137
100
AcDbEntity
  8
AM_4
100
AcDbLine
 10
-2.887117805329119
 20
0.5000000000000003
 30
0.0
 11
-2.59
 21
0.5000000000000002
 31
0.0
  0
LINE
  5
18A
330
137
100
AcDbEntity
  8
AM_4
100
AcDbLine
 10
-2.887117805329119
 20
0.5000000000000003
 30
0.0
 11
-2.887117805329119
 21
0.9649999999999999
 31
0.0
  0
LINE
  5
18B
330
137
100
AcDbEntity
  8
AM_4
100
AcDbLine
 10
-2.59
 20
-0.4999999999999997
 30
0.0
 11
-2.887117805329119
 21
-0.4999999999999997
 31
0.0
  0
LINE
  5
18C
330
137
100
AcDbEntity
  8
AM_4
100
AcDbLine
 10
-2.887117805329119
 20
-0.9650000000000001
 30
0.0
 11
-2.887117805329119
 21
-0.4999999999999997
 31
0.0
  0
LINE
  5
18D
330
137
100
AcDbEntity
  8
AM_4
100
AcDbLine
 10
2.716449514241077
 20
-0.948415644298107
 30
0.0
 11
2.716449514241077
 21
-0.5000000000000001
 31
0.0
  0
LWPOLYLINE
  5
18E
330
137
100
AcDbEntity
  8
AM_4
100
AcDbPolyline
 90
       37
 70
     0
 43
0.0
 10
2.59
 20
0.4999999999999999
 10
2.546422128626171
 20
0.4980973490458727
 10
2.503175911166535
 20
0.492403876506104
 10
2.46059047744874
 20
0.4829629131445341
 10
2.418989928337166
 20
0.4698463103929542
 10
2.37869086912965
 20
0.453153893518325
 10
2.34
 20
0.4330127018922194
 10
2.303211781824477
 20
0.4095760221444961
 10
2.26860619515673
 20
0.3830222215594892
 10
2.236446609406726
 20
0.3535533905932741
 10
2.206977778440511
 20
0.3213938048432701
 10
2.180423977855504
 20
0.2867882181755235
 10
2.156987298107781
 20
0.2500000000000005
 10
2.136846106481675
 20
0.2113091308703503
 10
2.120153689607046
 20
0.1710100716628351
 10
2.107037086855466
 20
0.1294095225512611
 10
2.097596123493896
 20
0.086824088833466
 10
2.091902650954127
 20
0.04357787137383
 10
2.09
 20
0.0000000000000009
 10
2.091902650954127
 20
-0.0435778713738281
 10
2.097596123493896
 20
-0.0868240888334642
 10
2.107037086855466
 20
-0.1294095225512593
 10
2.120153689607045
 20
-0.1710100716628333
 10
2.136846106481674
 20
-0.2113091308703487
 10
2.15698729810778
 20
-0.2499999999999989
 10
2.180423977855503
 20
-0.286788218175522
 10
2.20697777844051
 20
-0.3213938048432687
 10
2.236446609406725
 20
-0.3535533905932727
 10
2.268606195156729
 20
-0.3830222215594881
 10
2.303211781824476
 20
-0.4095760221444951
 10
2.339999999999999
 20
-0.4330127018922186
 10
2.378690869129649
 20
-0.4531538935183244
 10
2.418989928337164
 20
-0.4698463103929537
 10
2.460590477448738
 20
-0.4829629131445338
 10
2.503175911166533
 20
-0.4924038765061038
 10
2.546422128626169
 20
-0.4980973490458727
 10
2.589999999999999
 20
-0.5000000000000001
  0
LINE
  5
18F
330
137
100
AcDbEntity
  8
AM_4
100
AcDbLine
 10
2.716449514241077
 20
0.4999999999999998
 30
0.0
 11
2.716449514241077
 21
0.9484156442981068
 31
0.0
  0
LINE
  5
190
330
137
100
AcDbEntity
  8
AM_4
100
AcDbLine
 10
-2.716449514241078
 20
-0.948415644298107
 30
0.0
 11
-2.716449514241078
 21
-0.4999999999999997
 31
0.0
  0
LINE
  5
191
330
137
100
AcDbEntity
  8
AM_4
100
AcDbLine
 10
-2.716449514241078
 20
0.5000000000000003
 30
0.0
 11
-2.716449514241078
 21
0.9484156442981068
 31
0.0
  0
LWPOLYLINE
  5
192
330
137
100
AcDbEntity
  8
AM_4
100
AcDbPolyline
 90
       37
 70
     0
 43
0.0
 10
-2.59
 20
-0.4999999999999997
 10
-2.546422128626171
 20
-0.4980973490458725
 10
-2.503175911166535
 20
-0.4924038765061038
 10
-2.46059047744874
 20
-0.4829629131445338
 10
-2.418989928337166
 20
-0.4698463103929539
 10
-2.37869086912965
 20
-0.4531538935183247
 10
-2.34
 20
-0.4330127018922191
 10
-2.303211781824477
 20
-0.4095760221444958
 10
-2.26860619515673
 20
-0.383022221559489
 10
-2.236446609406726
 20
-0.3535533905932738
 10
-2.206977778440511
 20
-0.3213938048432697
 10
-2.180423977855504
 20
-0.2867882181755232
 10
-2.156987298107781
 20
-0.2500000000000002
 10
-2.136846106481675
 20
-0.21130913087035
 10
-2.120153689607046
 20
-0.1710100716628347
 10
-2.107037086855466
 20
-0.1294095225512608
 10
-2.097596123493896
 20
-0.0868240888334657
 10
-2.091902650954128
 20
-0.0435778713738296
 10
-2.09
 20
-0.0000000000000006
 10
-2.091902650954127
 20
0.0435778713738285
 10
-2.097596123493896
 20
0.0868240888334645
 10
-2.107037086855466
 20
0.1294095225512597
 10
-2.120153689607045
 20
0.1710100716628337
 10
-2.136846106481674
 20
0.211309130870349
 10
-2.15698729810778
 20
0.2499999999999993
 10
-2.180423977855503
 20
0.2867882181755223
 10
-2.20697777844051
 20
0.321393804843269
 10
-2.236446609406725
 20
0.3535533905932731
 10
-2.268606195156729
 20
0.3830222215594884
 10
-2.303211781824476
 20
0.4095760221444953
 10
-2.339999999999999
 20
0.4330127018922189
 10
-2.378690869129649
 20
0.4531538935183246
 10
-2.418989928337164
 20
0.4698463103929539
 10
-2.460590477448738
 20
0.482962913144534
 10
-2.503175911166533
 20
0.492403876506104
 10
-2.546422128626169
 20
0.4980973490458729
 10
-2.589999999999999
 20
0.5000000000000002
  0
LINE
  5
193
330
137
100
AcDbEntity
  8
AM_4
100
AcDbLine
 10
-1.025
 20
-0.7720000000000001
 30
0.0
 11
-1.557895238095238
 21
-0.7720000000000001
 31
0.0
  0
LINE
  5
194
330
137
100
AcDbEntity
  8
AM_4
100
AcDbLine
 10
1.557895238095237
 20
-0.7720000000000002
 30
0.0
 11
1.025
 21
-0.7720000000000004
 31
0.0
  0
LWPOLYLINE
  5
195
330
137
100
AcDbEntity
  8
AM_4
100
AcDbPolyline
 90
        3
 70
     0
 43
0.0
 10
1.557895238095237
 20
-0.7720000000000002
 10
1.568670004545692
 20
-0.7726337935264813
 10
1.572216704437676
 20
-0.7731227104707183
  0
LINE
  5
196
330
137
100
AcDbEntity
  8
AM_4
100
AcDbLine
 10
-1.557895238095237
 20
0.7720000000000001
 30
0.0
 11
1.557895238095238
 21
0.7720000000000002
 31
0.0
  0
LWPOLYLINE
  5
197
330
137
100
AcDbEntity
  8
AM_4
100
AcDbPolyline
 90
        3
 70
     0
 43
0.0
 10
-1.557895238095237
 20
0.772
 10
-1.568670004545692
 20
0.7726337935264811
 10
-1.572216704437676
 20
0.773122710470718
  0
LWPOLYLINE
  5
198
330
137
100
AcDbEntity
  8
AM_4
100
AcDbPolyline
 90
        3
 70
     0
 43
0.0
 10
-1.571988716873842
 20
-0.7730870372212619
 10
-1.56655758875028
 20
-0.77240913937614
 10
-1.55789523809524
 20
-0.7719999999999986
  0
LWPOLYLINE
  5
199
330
137
100
AcDbEntity
  8
AM_4
100
AcDbPolyline
 90
        3
 70
     0
 43
0.0
 10
1.571988716873842
 20
0.773087037221262
 10
1.56655758875028
 20
0.7724091393761401
 10
1.55789523809524
 20
0.7719999999999988
  0
LINE
  5
19A
330
137
100
AcDbEntity
  8
AM_4
100
AcDbLine
 10
1.6498
 20
-0.8639047619047624
 30
0.0
 11
1.6498
 21
-0.8730952380952378
 31
0.0
  0
LWPOLYLINE
  5
19B
330
137
100
AcDbEntity
  8
AM_4
100
AcDbPolyline
 90
       19
 70
     0
 43
0.0
 10
1.6498
 20
-0.8730952380952373
 10
1.650149725365854
 20
-0.8811052658810934
 10
1.651196239842211
 20
-0.8890543325189122
 10
1.652931578822004
 20
-0.8968819408118023
 10
1.655342535327771
 20
-0.9045285179342154
 10
1.658410760524726
 20
-0.9119358688171206
 10
1.662112903366477
 20
-0.9190476190476182
 10
1.666420788310582
 20
-0.9258096439122622
 10
1.671301629751445
 20
-0.9321704803188099
 10
1.676718281538569
 20
-0.9380817184614297
 10
1.682629519681188
 20
-0.9434983702485532
 10
1.688990356087736
 20
-0.9483792116894165
 10
1.69575238095238
 20
-0.9526870966335219
 10
1.702864131182877
 20
-0.956389239475273
 10
1.710271482065782
 20
-0.9594574646722286
 10
1.717918059188195
 20
-0.9618684211779953
 10
1.725745667481085
 20
-0.9636037601577889
 10
1.733694734118904
 20
-0.9646502746341465
 10
1.74170476190476
 20
-0.9650000000000005
  0
LWPOLYLINE
  5
19C
330
137
100
AcDbEntity
  8
AM_4
100
AcDbPolyline
 90
       15
 70
     0
 43
0.0
 10
2.887117805329118
 20
-0.965
 10
2.870906837178053
 20
-0.9648952433068232
 10
2.854819244283069
 20
-0.9645817704889819
 10
2.838977462940049
 20
-0.9640619672638996
 10
2.823502058670544
 20
-0.9633397896479851
 10
2.808510808645349
 20
-0.9624207338489584
 10
2.794117805329118
 20
-0.9613117944363909
 10
2.780432588167824
 20
-0.9600214111088086
 10
2.767559309927422
 20
-0.9585594044624887
 10
2.75559594402842
 20
-0.9569369012507936
 10
2.744633538908989
 20
-0.9551662497028585
 10
2.734755525091366
 20
-0.953260925546112
 10
2.726037080225213
 20
-0.9512354294478529
 10
2.718544556940302
 20
-0.949105176656417
 10
2.716449514241077
 20
-0.948415644298107
  0
LINE
  5
19D
330
137
100
AcDbEntity
  8
AM_4
100
AcDbLine
 10
1.890197202372931
 20
-0.6661761975586001
 30
0.0
 11
2.716449514241077
 21
-0.948415644298107
 31
0.0
  0
LINE
  5
19E
330
137
100
AcDbEntity
  8
AM_4
100
AcDbLine
 10
-2.716449514241078
 20
-0.948415644298107
 30
0.0
 11
-1.890197202372931
 21
-0.6661761975586
 31
0.0
  0
LWPOLYLINE
  5
19F
330
137
100
AcDbEntity
  8
AM_4
100
AcDbPolyline
 90
       15
 70
     0
 43
0.0
 10
-2.716449514241078
 20
-0.948415644298107
 10
-2.723543967810957
 20
-0.9505755461489322
 10
-2.731883317052933
 20
-0.9526357134169339
 10
-2.741404094483838
 20
-0.9545804669852396
 10
-2.75203384123862
 20
-0.95639500610492
 10
-2.763691658526057
 20
-0.9580655210376259
 10
-2.776288823317412
 20
-0.9595792981560346
 10
-2.789729463582244
 20
-0.9609248167022317
 10
-2.803911287932459
 20
-0.9620918364676343
 10
-2.81872636412153
 20
-0.9630714757271617
 10
-2.834061940474073
 20
-0.9638562788345266
 10
-2.84980130399417
 20
-0.9644402729642051
 10
-2.865824668621746
 20
-0.9648190135682446
 10
-2.882010086876812
 20
-0.9649896182019589
 10
-2.887117805329119
 20
-0.9650000000000001
  0
LWPOLYLINE
  5
1A0
330
137
100
AcDbEntity
  8
AM_4
100
AcDbPolyline
 90
       19
 70
     0
 43
0.0
 10
-1.741704761904762
 20
-0.9649999999999994
 10
-1.733694734118906
 20
-0.9646502746341455
 10
-1.725745667481087
 20
-0.963603760157788
 10
-1.717918059188197
 20
-0.9618684211779948
 10
-1.710271482065784
 20
-0.9594574646722283
 10
-1.702864131182878
 20
-0.9563892394752725
 10
-1.695752380952381
 20
-0.9526870966335216
 10
-1.688990356087737
 20
-0.9483792116894164
 10
-1.68262951968119
 20
-0.9434983702485532
 10
-1.67671828153857
 20
-0.9380817184614297
 10
-1.671301629751446
 20
-0.93217048031881
 10
-1.666420788310583
 20
-0.9258096439122623
 10
-1.662112903366478
 20
-0.9190476190476186
 10
-1.658410760524727
 20
-0.911935868817121
 10
-1.655342535327771
 20
-0.9045285179342157
 10
-1.652931578822004
 20
-0.8968819408118027
 10
-1.651196239842211
 20
-0.8890543325189126
 10
-1.650149725365854
 20
-0.8811052658810938
 10
-1.6498
 20
-0.8730952380952376
  0
LINE
  5
1A1
330
137
100
AcDbEntity
  8
AM_4
100
AcDbLine
 10
-1.6498
 20
-0.8730952380952376
 30
0.0
 11
-1.6498
 21
-0.8639047619047616
 31
0.0
  0
LWPOLYLINE
  5
1A2
330
137
100
AcDbEntity
  8
AM_4
100
AcDbPolyline
 90
       18
 70
     0
 43
0.0
 10
-1.571820214751096
 20
-0.7730610483858574
 10
-1.57968477733655
 20
-0.774620377825449
 10
-1.587383508371495
 20
-0.7768592153392692
 10
-1.594857815864133
 20
-0.7797605220219908
 10
-1.602050815821335
 20
-0.7833022171779014
 10
-1.608907765170175
 20
-0.7874573463683305
 10
-1.615376478385768
 20
-0.7921942865512037
 10
-1.621407724654629
 20
-0.7974769867514861
 10
-1.626955602550885
 20
-0.8032652424308724
 10
-1.631977889373845
 20
-0.8095150014685979
 10
-1.636436362488247
 20
-0.8161786994246777
 10
-1.640297090221591
 20
-0.8232056215340156
 10
-1.643530690104654
 20
-0.8305422886763876
 10
-1.646112552489826
 20
-0.8381328643848397
 10
-1.648023027845385
 20
-0.8459195797949156
 10
-1.649247576300297
 20
-0.8538431733005973
 10
-1.64977687830142
 20
-0.86184334157091
 10
-1.6498
 20
-0.8639047619047615
  0
LWPOLYLINE
  5
1A3
330
137
100
AcDbEntity
  8
AM_4
100
AcDbPolyline
 90
       36
 70
     0
 43
0.0
 10
1.571820214751096
 20
-0.7730610483858578
 10
1.557399582089603
 20
-0.7528397565366836
 10
1.531126198224829
 20
-0.7328814329793256
 10
1.493200019472288
 20
-0.7133379726072205
 10
1.443909686952741
 20
-0.6943581129544645
 10
1.383630329858977
 20
-0.6760863022133669
 10
1.31282071049615
 20
-0.658661599896489
 10
1.23201973282363
 20
-0.642216618509785
 10
1.141842341070468
 20
-0.6268765142913589
 10
1.042974839638503
 20
-0.6127580346969211
 10
0.9361696699114629
 20
-0.5999686298811564
 10
0.8222396837216945
 20
-0.5886056349371667
 10
0.7020519570569089
 20
-0.5787555291176393
 10
0.5765211910883584
 20
-0.5704932776755176
 10
0.4466027507426125
 20
-0.5638817613331598
 10
0.3132853937976016
 20
-0.5589712977220742
 10
0.1775837458388981
 20
-0.5557992584353599
 10
0.0405305783463632
 20
-0.5543897846073186
 10
-0.0968310513204199
 20
-0.5547536031848453
 10
-0.2334557382184673
 20
-0.5568879452888853
 10
-0.3683036859842432
 20
-0.5607765672872759
 10
-0.5003486203118332
 20
-0.5663898744185951
 10
-0.6285855995200931
 20
-0.5736851460261662
 10
-0.7520386627656426
 20
-0.58260686068805
 10
-0.8697682576941858
 20
-0.593087118768591
 10
-0.9808783910012433
 20
-0.6050461591756434
 10
-1.084523447482216
 20
-0.6183929663906436
 10
-1.179914625674686
 20
-0.6330259631516629
 10
-1.266325941113842
 20
-0.6488337835177048
 10
-1.343099751512614
 20
-0.6656961204307611
 10
-1.40965176181657
 20
-0.6834846413251656
 10
-1.465475471042098
 20
-0.7020639648159097
 10
-1.510146027054712
 20
-0.7212926910327263
 10
-1.543323459950337
 20
-0.7410244777584835
 10
-1.564755269431557
 20
-0.7611091541818191
 10
-1.571820214751096
 20
-0.7730610483858573
  0
LWPOLYLINE
  5
1A4
330
137
100
AcDbEntity
  8
AM_4
100
AcDbPolyline
 90
       18
 70
     0
 43
0.0
 10
1.6498
 20
-0.8639047619047624
 10
1.649450274634146
 20
-0.8558947341189063
 10
1.648403760157789
 20
-0.8479456674810875
 10
1.646668421177995
 20
-0.8401180591881974
 10
1.644257464672229
 20
-0.8324714820657843
 10
1.641189239475273
 20
-0.825064131182879
 10
1.637487096633522
 20
-0.8179523809523814
 10
1.633179211689417
 20
-0.8111903560877376
 10
1.628298370248554
 20
-0.80482951968119
 10
1.62288171846143
 20
-0.79891828153857
 10
1.616970480318811
 20
-0.7935016297514468
 10
1.610609643912263
 20
-0.7886207883105835
 10
1.603847619047619
 20
-0.7843129033664782
 10
1.596735868817121
 20
-0.7806107605247272
 10
1.589328517934216
 20
-0.7775425353277716
 10
1.581681940811803
 20
-0.775131578822005
 10
1.573854332518913
 20
-0.7733962398422116
 10
1.571820214751096
 20
-0.7730610483858578
  0
LINE
  5
1A5
330
137
100
AcDbEntity
  8
AM_4
100
AcDbLine
 10
-1.6498
 20
0.8639047619047626
 30
0.0
 11
-1.6498
 21
0.8730952380952351
 31
0.0
  0
LWPOLYLINE
  5
1A6
330
137
100
AcDbEntity
  8
AM_4
100
AcDbPolyline
 90
       19
 70
     0
 43
0.0
 10
-1.6498
 20
0.8730952380952325
 10
-1.650149725365853
 20
0.8811052658810886
 10
-1.65119623984221
 20
0.8890543325189074
 10
-1.652931578822003
 20
0.8968819408117976
 10
-1.655342535327769
 20
0.9045285179342109
 10
-1.658410760524724
 20
0.9119358688171162
 10
-1.662112903366475
 20
0.919047619047614
 10
-1.66642078831058
 20
0.9258096439122581
 10
-1.671301629751443
 20
0.932170480318806
 10
-1.676718281538566
 20
0.9380817184614262
 10
-1.682629519681185
 20
0.9434983702485499
 10
-1.688990356087732
 20
0.9483792116894135
 10
-1.695752380952376
 20
0.9526870966335191
 10
-1.702864131182873
 20
0.9563892394752705
 10
-1.710271482065778
 20
0.9594574646722266
 10
-1.717918059188191
 20
0.9618684211779938
 10
-1.725745667481081
 20
0.9636037601577875
 10
-1.7336947341189
 20
0.9646502746341455
 10
-1.741704761904756
 20
0.965
  0
LWPOLYLINE
  5
1A7
330
137
100
AcDbEntity
  8
AM_4
100
AcDbPolyline
 90
       15
 70
     0
 43
0.0
 10
-2.887117805329119
 20
0.965
 10
-2.870906837178054
 20
0.9648952433068231
 10
-2.85481924428307
 20
0.9645817704889816
 10
-2.83897746294005
 20
0.9640619672638995
 10
-2.823502058670544
 20
0.963339789647985
 10
-2.808510808645349
 20
0.9624207338489583
 10
-2.794117805329119
 20
0.9613117944363908
 10
-2.780432588167824
 20
0.9600214111088085
 10
-2.767559309927423
 20
0.9585594044624886
 10
-2.755595944028422
 20
0.9569369012507933
 10
-2.744633538908989
 20
0.9551662497028583
 10
-2.734755525091367
 20
0.9532609255461119
 10
-2.726037080225214
 20
0.9512354294478528
 10
-2.718544556940303
 20
0.9491051766564169
 10
-2.716449514241078
 20
0.9484156442981069
  0
LINE
  5
1A8
330
137
100
AcDbEntity
  8
AM_4
100
AcDbLine
 10
-1.890197202372931
 20
0.6661761975585999
 30
0.0
 11
-2.716449514241078
 21
0.9484156442981068
 31
0.0
  0
LINE
  5
1A9
330
137
100
AcDbEntity
  8
AM_4
100
AcDbLine
 10
2.716449514241077
 20
0.9484156442981068
 30
0.0
 11
1.890197202372931
 21
0.6661761975586
 31
0.0
  0
LWPOLYLINE
  5
1AA
330
137
100
AcDbEntity
  8
AM_4
100
AcDbPolyline
 90
       15
 70
     0
 43
0.0
 10
2.716449514241077
 20
0.9484156442981069
 10
2.723543967810957
 20
0.950575546148932
 10
2.731883317052933
 20
0.9526357134169338
 10
2.741404094483837
 20
0.9545804669852395
 10
2.752033841238619
 20
0.9563950061049198
 10
2.763691658526057
 20
0.9580655210376255
 10
2.77628882331741
 20
0.9595792981560345
 10
2.789729463582243
 20
0.9609248167022316
 10
2.803911287932457
 20
0.962091836467634
 10
2.818726364121529
 20
0.9630714757271615
 10
2.834061940474073
 20
0.9638562788345264
 10
2.849801303994169
 20
0.9644402729642048
 10
2.865824668621745
 20
0.9648190135682444
 10
2.882010086876811
 20
0.9649896182019588
 10
2.887117805329118
 20
0.9649999999999999
  0
LWPOLYLINE
  5
1AB
330
137
100
AcDbEntity
  8
AM_4
100
AcDbPolyline
 90
       19
 70
     0
 43
0.0
 10
1.741704761904762
 20
0.9649999999999996
 10
1.733694734118906
 20
0.9646502746341459
 10
1.725745667481087
 20
0.9636037601577884
 10
1.717918059188197
 20
0.961868421177995
 10
1.710271482065784
 20
0.9594574646722284
 10
1.702864131182878
 20
0.9563892394752727
 10
1.695752380952381
 20
0.9526870966335219
 10
1.688990356087737
 20
0.9483792116894165
 10
1.68262951968119
 20
0.9434983702485533
 10
1.67671828153857
 20
0.9380817184614301
 10
1.671301629751446
 20
0.9321704803188101
 10
1.666420788310583
 20
0.9258096439122624
 10
1.662112903366478
 20
0.9190476190476187
 10
1.658410760524727
 20
0.9119358688171211
 10
1.655342535327772
 20
0.9045285179342158
 10
1.652931578822005
 20
0.8968819408118028
 10
1.651196239842211
 20
0.8890543325189127
 10
1.650149725365854
 20
0.881105265881094
 10
1.6498
 20
0.8730952394647254
  0
LINE
  5
1AC
330
137
100
AcDbEntity
  8
AM_4
100
AcDbLine
 10
1.6498
 20
0.8730952394647254
 30
0.0
 11
1.6498
 21
0.8639047619047545
 31
0.0
  0
LWPOLYLINE
  5
1AD
330
137
100
AcDbEntity
  8
AM_4
100
AcDbPolyline
 90
       18
 70
     0
 43
0.0
 10
1.571820214751094
 20
0.7730610483858574
 10
1.579684777336549
 20
0.7746203778254488
 10
1.587383508371494
 20
0.7768592153392687
 10
1.594857815864132
 20
0.7797605220219902
 10
1.602050815821334
 20
0.7833022171779008
 10
1.608907765170174
 20
0.7874573463683299
 10
1.615376478385767
 20
0.7921942865512028
 10
1.621407724654628
 20
0.7974769867514852
 10
1.626955602550884
 20
0.8032652424308713
 10
1.631977889373844
 20
0.8095150014685967
 10
1.636436362488246
 20
0.8161786994246765
 10
1.64029709022159
 20
0.8232056215340143
 10
1.643530690104653
 20
0.8305422886763862
 10
1.646112552489826
 20
0.8381328643848382
 10
1.648023027845384
 20
0.8459195797949141
 10
1.649247576300297
 20
0.8538431733005959
 10
1.64977687830142
 20
0.8618433415709085
 10
1.6498
 20
0.8639047619047473
  0
LWPOLYLINE
  5
1AE
330
137
100
AcDbEntity
  8
AM_4
100
AcDbPolyline
 90
       36
 70
     0
 43
0.0
 10
-1.571820214751096
 20
0.7730610483858574
 10
-1.557399582089602
 20
0.7528397565366832
 10
-1.531126198224828
 20
0.7328814329793253
 10
-1.493200019472288
 20
0.7133379726072204
 10
-1.44390968695274
 20
0.6943581129544641
 10
-1.383630329858975
 20
0.6760863022133667
 10
-1.312820710496149
 20
0.6586615998964889
 10
-1.232019732823628
 20
0.642216618509785
 10
-1.141842341070466
 20
0.6268765142913588
 10
-1.042974839638501
 20
0.6127580346969211
 10
-0.9361696699114604
 20
0.5999686298811564
 10
-0.8222396837216921
 20
0.5886056349371667
 10
-0.7020519570569063
 20
0.5787555291176394
 10
-0.5765211910883556
 20
0.5704932776755177
 10
-0.4466027507426096
 20
0.56388176133316
 10
-0.3132853937975986
 20
0.5589712977220744
 10
-0.1775837458388952
 20
0.5557992584353602
 10
-0.0405305783463602
 20
0.554389784607319
 10
0.0968310513204229
 20
0.5547536031848457
 10
0.2334557382184703
 20
0.5568879452888857
 10
0.3683036859842461
 20
0.5607765672872763
 10
0.5003486203118361
 20
0.5663898744185957
 10
0.6285855995200957
 20
0.5736851460261667
 10
0.7520386627656452
 20
0.5826068606880505
 10
0.8697682576941882
 20
0.5930871187685915
 10
0.9808783910012456
 20
0.605046159175644
 10
1.084523447482218
 20
0.6183929663906441
 10
1.179914625674688
 20
0.6330259631516635
 10
1.266325941113844
 20
0.6488337835177056
 10
1.343099751512615
 20
0.6656961204307617
 10
1.409651761816572
 20
0.6834846413251663
 10
1.465475471042099
 20
0.7020639648159104
 10
1.510146027054712
 20
0.7212926910327271
 10
1.543323459950338
 20
0.741024477758484
 10
1.564755269431557
 20
0.7611091541818197
 10
1.571820214751096
 20
0.7730610483858577
  0
LWPOLYLINE
  5
1AF
330
137
100
AcDbEntity
  8
AM_4
100
AcDbPolyline
 90
       18
 70
     0
 43
0.0
 10
-1.6498
 20
0.8639047619047626
 10
-1.649450274634146
 20
0.8558947341189064
 10
-1.648403760157789
 20
0.8479456674810875
 10
-1.646668421177995
 20
0.8401180591881974
 10
-1.644257464672229
 20
0.8324714820657843
 10
-1.641189239475273
 20
0.825064131182879
 10
-1.637487096633522
 20
0.8179523809523814
 10
-1.633179211689417
 20
0.8111903560877375
 10
-1.628298370248554
 20
0.8048295196811899
 10
-1.62288171846143
 20
0.7989182815385699
 10
-1.616970480318811
 20
0.7935016297514466
 10
-1.610609643912262
 20
0.7886207883105834
 10
-1.603847619047619
 20
0.7843129033664779
 10
-1.596735868817121
 20
0.7806107605247271
 10
-1.589328517934216
 20
0.7775425353277714
 10
-1.581681940811803
 20
0.7751315788220047
 10
-1.573854332518913
 20
0.7733962398422115
 10
-1.571820214751094
 20
0.7730610483858573
  0
LINE
  5
1B0
330
137
100
AcDbEntity
  8
AM_4
100
AcDbLine
 10
-1.890197202372931
 20
-0.6661761975586
 30
0.0
 11
-1.890197202372931
 21
0.6661761975585999
 31
0.0
  0
LWPOLYLINE
  5
1B1
330
137
100
AcDbEntity
  8
AM_4
100
AcDbPolyline
 90
       28
 70
     0
 43
0.0
 10
-1.890197202372931
 20
-0.6661761975585999
 10
-1.81162422197534
 20
-0.6422547039419333
 10
-1.719263687359904
 20
-0.6194377976404092
 10
-1.61381851796386
 20
-0.5978991290882071
 10
-1.496091215195849
 20
-0.5778026205584128
 10
-1.366977754915623
 20
-0.5593012186155419
 10
-1.227460768516752
 20
-0.5425357300998315
 10
-1.078602064508394
 20
-0.5276337505021648
 10
-0.921534547511393
 20
-0.5147086928853413
 10
-0.7574535961700574
 20
-0.5038589247421883
 10
-0.5876079655988815
 20
-0.4951670193595444
 10
-0.4132902836021077
 20
-0.4886991273856873
 10
-0.2358272129956257
 20
-0.4845044733839581
 10
-0.0565693549018825
 20
-0.4826149812041113
 10
0.1231190301401745
 20
-0.483045031022542
 10
0.3018704050215617
 20
-0.4857913499004609
 10
0.4783243638464008
 20
-0.4908330366929343
 10
0.6511379854422212
 20
-0.4981317211192177
 10
0.8189960538009611
 20
-0.5076318557837611
 10
0.9806210676669379
 20
-0.5192611389254291
 10
1.134782963092779
 20
-0.5329310646775604
 10
1.280308474968798
 20
-0.5485375966510544
 10
1.41609006627891
 20
-0.5659619597141113
 10
1.541094357126079
 20
-0.585071543942703
 10
1.654369989377304
 20
-0.6057209138621678
 10
1.755054867073457
 20
-0.6277529152989876
 10
1.842382717500078
 20
-0.6509998714189424
 10
1.890197202372931
 20
-0.6661761975586
  0
LINE
  5
1B2
330
137
100
AcDbEntity
  8
AM_4
100
AcDbLine
 10
1.890197202372931
 20
-0.6661761975586001
 30
0.0
 11
1.890197202372931
 21
0.6661761975586
 31
0.0
  0
LWPOLYLINE
  5
1B3
330
137
100
AcDbEntity
  8
AM_4
100
AcDbPolyline
 90
       28
 70
     0
 43
0.0
 10
1.890197202372932
 20
0.6661761975586001
 10
1.81162422197534
 20
0.6422547039419334
 10
1.719263687359904
 20
0.6194377976404093
 10
1.613818517963861
 20
0.5978991290882073
 10
1.49609121519585
 20
0.5778026205584131
 10
1.366977754915623
 20
0.5593012186155422
 10
1.227460768516753
 20
0.5425357300998318
 10
1.078602064508395
 20
0.527633750502165
 10
0.9215345475113939
 20
0.5147086928853416
 10
0.7574535961700584
 20
0.5038589247421886
 10
0.5876079655988825
 20
0.4951670193595446
 10
0.4132902836021087
 20
0.4886991273856875
 10
0.2358272129956266
 20
0.4845044733839583
 10
0.0565693549018834
 20
0.4826149812041114
 10
-0.1231190301401735
 20
0.4830450310225422
 10
-0.3018704050215608
 20
0.4857913499004611
 10
-0.4783243638463999
 20
0.4908330366929345
 10
-0.6511379854422202
 20
0.498131721119218
 10
-0.8189960538009602
 20
0.5076318557837612
 10
-0.980621067666937
 20
0.5192611389254292
 10
-1.134782963092779
 20
0.5329310646775605
 10
-1.280308474968797
 20
0.5485375966510545
 10
-1.416090066278909
 20
0.5659619597141113
 10
-1.541094357126079
 20
0.5850715439427031
 10
-1.654369989377304
 20
0.6057209138621679
 10
-1.755054867073457
 20
0.6277529152989877
 10
-1.842382717500078
 20
0.6509998714189426
 10
-1.890197202372931
 20
0.6661761975585999
  0
ENDBLK
  5
13A
330
137
100
AcDbEntity
  8
0
100
AcDbBlockEnd
  0
ENDSEC
  0
SECTION
  2
ENTITIES
  0
INSERT
  5
6F
330
1F
100
AcDbEntity
  8
0
100
AcDbBlockReference
  2
1_123585_4
 10
0.0
 20
0.0
 30
0.0
  0
POINT
  5
1B5
330
1F
100
AcDbEntity
  8
ConnectionPoints
100
AcDbPoint
 10
0.0
 20
-1.19
 30
0.0000000000000002
  0
POINT
  5
1B6
330
1F
100
AcDbEntity
  8
ConnectionPoints
100
AcDbPoint
 10
1.456639969244288
 20
0.0000000000000001
 30
1.456639969244289
  0
POINT
  5
1B7
330
1F
100
AcDbEntity
  8
ConnectionPoints
100
AcDbPoint
 10
0.0
 20
-1.19
 30
0.0000000000000001
  0
ENDSEC
  0
SECTION
  2
OBJECTS
  0
DICTIONARY
  5
C
330
0
100
AcDbDictionary
281
     1
  3
ACAD_DETAILVIEWSTYLE
350
1BF
  3
ACAD_GROUP
350
D
  3
ACAD_LAYOUT
350
1A
  3
ACAD_MATERIAL
350
43
  3
ACAD_MLEADERSTYLE
350
6B
  3
ACAD_MLINESTYLE
350
17
  3
ACAD_PLOTSETTINGS
350
19
  3
ACAD_PLOTSTYLENAME
350
E
  3
ACAD_SCALELIST
350
47
  3
ACAD_SECTIONVIEWSTYLE
350
1C0
  3
ACAD_TABLESTYLE
350
69
  3
ACAD_VISUALSTYLE
350
2A
  3
ACDB_RECOMPOSE_DATA
350
1BC
  3
AcDbVariableDictionary
350
1B8
  0
SUN
  5
6D
330
29
100
AcDbSun
 90
        1
290
     0
 63
     7
421
 16777215
 40
1.0
291
     1
 91
  2455826
 92
 54000000
292
     0
 70
     2
 71
   256
280
     1
  0
DICTIONARY
  5
1BF
102
{ACAD_REACTORS
330
C
102
}
330
C
100
AcDbDictionary
281
     1
  0
DICTIONARY
  5
D
102
{ACAD_REACTORS
330
C
102
}
330
C
100
AcDbDictionary
281
     1
  0
DICTIONARY
  5
1A
102
{ACAD_REACTORS
330
C
102
}
330
C
100
AcDbDictionary
281
     1
  3
Layout1
350
1E
  3
Layout2
350
26
  3
Model
350
22
  0
DICTIONARY
  5
43
102
{ACAD_REACTORS
330
C
102
}
330
C
100
AcDbDictionary
281
     1
  3
ByBlock
350
45
  3
ByLayer
350
44
  3
Global
350
46
  0
DICTIONARY
  5
6B
102
{ACAD_REACTORS
330
C
102
}
330
C
100
AcDbDictionary
281
     1
  3
Standard
350
6C
  0
DICTIONARY
  5
17
102
{ACAD_REACTORS
330
C
102
}
330
C
100
AcDbDictionary
281
     1
  3
Standard
350
18
  0
DICTIONARY
  5
19
102
{ACAD_REACTORS
330
C
102
}
330
C
100
AcDbDictionary
281
     1
  0
ACDBDICTIONARYWDFLT
  5
E
102
{ACAD_REACTORS
330
C
102
}
330
C
100
AcDbDictionary
281
     1
  3
Normal
350
F
100
AcDbDictionaryWithDefault
340
F
  0
DICTIONARY
  5
47
102
{ACAD_REACTORS
330
C
102
}
330
C
100
AcDbDictionary
281
     1
  3
A0
350
48
  3
A1
350
49
  3
A2
350
4A
  3
A3
350
4B
  3
A4
350
4C
  3
A5
350
4D
  3
A6
350
4E
  3
A7
350
4F
  3
A8
350
50
  3
A9
350
51
  3
B0
350
52
  3
B1
350
53
  3
B2
350
54
  3
B3
350
55
  3
B4
350
56
  3
B5
350
57
  3
B6
350
58
  3
B7
350
59
  3
B8
350
5A
  3
B9
350
5B
  3
C0
350
5C
  3
C1
350
5D
  3
C2
350
5E
  3
C3
350
5F
  3
C4
350
60
  3
C5
350
61
  3
C6
350
62
  3
C7
350
63
  3
C8
350
64
  3
C9
350
65
  3
D0
350
66
  3
D1
350
67
  3
D2
350
68
  0
DICTIONARY
  5
1C0
102
{ACAD_REACTORS
330
C
102
}
330
C
100
AcDbDictionary
281
     1
  0
DICTIONARY
  5
69
102
{ACAD_REACTORS
330
C
102
}
330
C
100
AcDbDictionary
281
     1
  3
Standard
350
6A
  0
DICTIONARY
  5
2A
102
{ACAD_REACTORS
330
C
102
}
330
C
100
AcDbDictionary
281
     1
  3
2dWireframe
350
2F
  3
Basic
350
32
  3
Brighten
350
36
  3
ColorChange
350
3A
  3
Conceptual
350
34
  3
Dim
350
35
  3
EdgeColorOff
350
3D
  3
Facepattern
350
39
  3
Flat
350
2B
  3
FlatWithEdges
350
2C
  3
Gouraud
350
2D
  3
GouraudWithEdges
350
2E
  3
Hidden
350
31
  3
JitterOff
350
3B
  3
Linepattern
350
38
  3
OverhangOff
350
3C
  3
Realistic
350
33
  3
Shaded
350
42
  3
Shaded with edges
350
41
  3
Shades of Gray
350
3E
  3
Sketchy
350
3F
  3
Thicken
350
37
  3
Wireframe
350
30
  3
X-Ray
350
40
  0
XRECORD
  5
1BC
102
{ACAD_REACTORS
330
C
102
}
330
C
100
AcDbXrecord
280
     1
 90
        1
330
6A
  0
DICTIONARY
  5
1B8
102
{ACAD_REACTORS
330
C
102
}
330
C
100
AcDbDictionary
281
     1
  3
CANNOSCALE
350
1B9
  3
CMLEADERSTYLE
350
1BE
  3
CTABLESTYLE
350
1BD
  0
LAYOUT
  5
1E
102
{ACAD_REACTORS
330
1A
102
}
330
1A
100
AcDbPlotSettings
  1

  2
none_device
  4

  6

 40
0.0
 41
0.0
 42
0.0
 43
0.0
 44
0.0
 45
0.0
 46
0.0
 47
0.0
 48
0.0
 49
0.0
140
0.0
141
0.0
142
1.0
143
1.0
 70
   688
 72
     0
 73
     0
 74
     5
  7

 75
    16
 76
     0
 77
     2
 78
   300
147
1.0
148
0.0
149
0.0
100
AcDbLayout
  1
Layout1
 70
     1
 71
     1
 10
0.0
 20
0.0
 11
12.0
 21
9.0
 12
0.0
 22
0.0
 32
0.0
 14
1.000000000000000E+20
 24
1.000000000000000E+20
 34
1.000000000000000E+20
 15
-1.000000000000000E+20
 25
-1.000000000000000E+20
 35
-1.000000000000000E+20
146
0.0
 13
0.0
 23
0.0
 33
0.0
 16
1.0
 26
0.0
 36
0.0
 17
0.0
 27
1.0
 37
0.0
 76
     0
330
1B
  0
LAYOUT
  5
26
102
{ACAD_REACTORS
330
1A
102
}
330
1A
100
AcDbPlotSettings
  1

  2
none_device
  4

  6

 40
0.0
 41
0.0
 42
0.0
 43
0.0
 44
0.0
 45
0.0
 46
0.0
 47
0.0
 48
0.0
 49
0.0
140
0.0
141
0.0
142
1.0
143
1.0
 70
   688
 72
     0
 73
     0
 74
     5
  7

 75
    16
 76
     0
 77
     2
 78
   300
147
1.0
148
0.0
149
0.0
100
AcDbLayout
  1
Layout2
 70
     1
 71
     2
 10
0.0
 20
0.0
 11
0.0
 21
0.0
 12
0.0
 22
0.0
 32
0.0
 14
0.0
 24
0.0
 34
0.0
 15
0.0
 25
0.0
 35
0.0
146
0.0
 13
0.0
 23
0.0
 33
0.0
 16
1.0
 26
0.0
 36
0.0
 17
0.0
 27
1.0
 37
0.0
 76
     0
330
23
  0
LAYOUT
  5
22
102
{ACAD_REACTORS
330
1A
102
}
330
1A
100
AcDbPlotSettings
  1

  2
none_device
  4
Letter_(8.50_x_11.00_Inches)
  6

 40
6.35
 41
6.35
 42
6.35000508
 43
6.35000508
 44
215.9
 45
279.4
 46
0.0
 47
0.0
 48
0.0
 49
0.0
140
0.0
141
0.0
142
1.0
143
1.0
 70
  1712
 72
     0
 73
     0
 74
     0
  7

 75
     0
 76
     0
 77
     2
 78
   300
147
1.0
148
0.0
149
0.0
100
AcDbLayout
  1
Model
 70
     1
 71
     0
 10
0.0
 20
0.0
 11
12.0
 21
9.0
 12
0.0
 22
0.0
 32
0.0
 14
1.000000000000000E+20
 24
1.000000000000000E+20
 34
1.000000000000000E+20
 15
-1.000000000000000E+20
 25
-1.000000000000000E+20
 35
-1.000000000000000E+20
146
0.0
 13
0.0
 23
0.0
 33
0.0
 16
1.0
 26
0.0
 36
0.0
 17
0.0
 27
1.0
 37
0.0
 76
     0
330
1F
331
29
  0
MATERIAL
  5
45
102
{ACAD_REACTORS
330
43
102
}
330
43
100
AcDbMaterial
  1
ByBlock
 72
     1
 94
      127
  0
MATERIAL
  5
44
102
{ACAD_REACTORS
330
43
102
}
330
43
100
AcDbMaterial
  1
ByLayer
 72
     1
 94
      127
  0
MATERIAL
  5
46
102
{ACAD_REACTORS
330
43
102
}
330
43
100
AcDbMaterial
  1
Global
 72
     1
 94
      127
  0
MLEADERSTYLE
  5
6C
102
{ACAD_REACTORS
330
6B
102
}
330
6B
100
AcDbMLeaderStyle
179
     2
170
     2
171
     1
172
     0
 90
        2
 40
0.0
 41
0.0
173
     1
 91
-1056964608
340
14
 92
       -2
290
     1
 42
0.09
291
     1
 43
0.36
  3
Standard
341
0
 44
0.18
300

342
11
174
     1
178
     6
175
     1
176
     0
 93
-1056964608
 45
0.18
292
     0
297
     0
 46
0.18
343
0
 94
-1056964608
 47
1.0
 49
1.0
140
1.0
293
     1
141
0.0
294
     1
177
     0
142
1.0
295
     0
296
     0
143
0.125
271
     0
272
     9
273
     9
298
     0
  0
MLINESTYLE
  5
18
102
{ACAD_REACTORS
330
17
102
}
330
17
100
AcDbMlineStyle
  2
Standard
 70
     0
  3

 62
   256
 51
90.0
 52
90.0
 71
     2
 49
0.5
 62
   256
  6
BYLAYER
 49
-0.5
 62
   256
  6
BYLAYER
  0
ACDBPLACEHOLDER
  5
F
102
{ACAD_REACTORS
330
E
102
}
330
E
  0
SCALE
  5
48
102
{ACAD_REACTORS
330
47
102
}
330
47
100
AcDbScale
 70
     0
300
1:1
140
1.0
141
1.0
290
     1
  0
SCALE
  5
49
102
{ACAD_REACTORS
330
47
102
}
330
47
100
AcDbScale
 70
     0
300
1:2
140
1.0
141
2.0
290
     0
  0
SCALE
  5
4A
102
{ACAD_REACTORS
330
47
102
}
330
47
100
AcDbScale
 70
     0
300
1:4
140
1.0
141
4.0
290
     0
  0
SCALE
  5
4B
102
{ACAD_REACTORS
330
47
102
}
330
47
100
AcDbScale
 70
     0
300
1:5
140
1.0
141
5.0
290
     0
  0
SCALE
  5
4C
102
{ACAD_REACTORS
330
47
102
}
330
47
100
AcDbScale
 70
     0
300
1:8
140
1.0
141
8.0
290
     0
  0
SCALE
  5
4D
102
{ACAD_REACTORS
330
47
102
}
330
47
100
AcDbScale
 70
     0
300
1:10
140
1.0
141
10.0
290
     0
  0
SCALE
  5
4E
102
{ACAD_REACTORS
330
47
102
}
330
47
100
AcDbScale
 70
     0
300
1:16
140
1.0
141
16.0
290
     0
  0
SCALE
  5
4F
102
{ACAD_REACTORS
330
47
102
}
330
47
100
AcDbScale
 70
     0
300
1:20
140
1.0
141
20.0
290
     0
  0
SCALE
  5
50
102
{ACAD_REACTORS
330
47
102
}
330
47
100
AcDbScale
 70
     0
300
1:30
140
1.0
141
30.0
290
     0
  0
SCALE
  5
51
102
{ACAD_REACTORS
330
47
102
}
330
47
100
AcDbScale
 70
     0
300
1:40
140
1.0
141
40.0
290
     0
  0
SCALE
  5
52
102
{ACAD_REACTORS
330
47
102
}
330
47
100
AcDbScale
 70
     0
300
1:50
140
1.0
141
50.0
290
     0
  0
SCALE
  5
53
102
{ACAD_REACTORS
330
47
102
}
330
47
100
AcDbScale
 70
     0
300
1:100
140
1.0
141
100.0
290
     0
  0
SCALE
  5
54
102
{ACAD_REACTORS
330
47
102
}
330
47
100
AcDbScale
 70
     0
300
2:1
140
2.0
141
1.0
290
     0
  0
SCALE
  5
55
102
{ACAD_REACTORS
330
47
102
}
330
47
100
AcDbScale
 70
     0
300
4:1
140
4.0
141
1.0
290
     0
  0
SCALE
  5
56
102
{ACAD_REACTORS
330
47
102
}
330
47
100
AcDbScale
 70
     0
300
8:1
140
8.0
141
1.0
290
     0
  0
SCALE
  5
57
102
{ACAD_REACTORS
330
47
102
}
330
47
100
AcDbScale
 70
     0
300
10:1
140
10.0
141
1.0
290
     0
  0
SCALE
  5
58
102
{ACAD_REACTORS
330
47
102
}
330
47
100
AcDbScale
 70
     0
300
100:1
140
100.0
141
1.0
290
     0
  0
SCALE
  5
59
102
{ACAD_REACTORS
330
47
102
}
330
47
100
AcDbScale
 70
     0
300
1/128" = 1'-0"
140
0.0078125
141
12.0
290
     0
  0
SCALE
  5
5A
102
{ACAD_REACTORS
330
47
102
}
330
47
100
AcDbScale
 70
     0
300
1/64" = 1'-0"
140
0.015625
141
12.0
290
     0
  0
SCALE
  5
5B
102
{ACAD_REACTORS
330
47
102
}
330
47
100
AcDbScale
 70
     0
300
1/32" = 1'-0"
140
0.03125
141
12.0
290
     0
  0
SCALE
  5
5C
102
{ACAD_REACTORS
330
47
102
}
330
47
100
AcDbScale
 70
     0
300
1/16" = 1'-0"
140
0.0625
141
12.0
290
     0
  0
SCALE
  5
5D
102
{ACAD_REACTORS
330
47
102
}
330
47
100
AcDbScale
 70
     0
300
3/32" = 1'-0"
140
0.09375
141
12.0
290
     0
  0
SCALE
  5
5E
102
{ACAD_REACTORS
330
47
102
}
330
47
100
AcDbScale
 70
     0
300
1/8" = 1'-0"
140
0.125
141
12.0
290
     0
  0
SCALE
  5
5F
102
{ACAD_REACTORS
330
47
102
}
330
47
100
AcDbScale
 70
     0
300
3/16" = 1'-0"
140
0.1875
141
12.0
290
     0
  0
SCALE
  5
60
102
{ACAD_REACTORS
330
47
102
}
330
47
100
AcDbScale
 70
     0
300
1/4" = 1'-0"
140
0.25
141
12.0
290
     0
  0
SCALE
  5
61
102
{ACAD_REACTORS
330
47
102
}
330
47
100
AcDbScale
 70
     0
300
3/8" = 1'-0"
140
0.375
141
12.0
290
     0
  0
SCALE
  5
62
102
{ACAD_REACTORS
330
47
102
}
330
47
100
AcDbScale
 70
     0
300
1/2" = 1'-0"
140
0.5
141
12.0
290
     0
  0
SCALE
  5
63
102
{ACAD_REACTORS
330
47
102
}
330
47
100
AcDbScale
 70
     0
300
3/4" = 1'-0"
140
0.75
141
12.0
290
     0
  0
SCALE
  5
64
102
{ACAD_REACTORS
330
47
102
}
330
47
100
AcDbScale
 70
     0
300
1" = 1'-0"
140
1.0
141
12.0
290
     0
  0
SCALE
  5
65
102
{ACAD_REACTORS
330
47
102
}
330
47
100
AcDbScale
 70
     0
300
1-1/2" = 1'-0"
140
1.5
141
12.0
290
     0
  0
SCALE
  5
66
102
{ACAD_REACTORS
330
47
102
}
330
47
100
AcDbScale
 70
     0
300
3" = 1'-0"
140
3.0
141
12.0
290
     0
  0
SCALE
  5
67
102
{ACAD_REACTORS
330
47
102
}
330
47
100
AcDbScale
 70
     0
300
6" = 1'-0"
140
6.0
141
12.0
290
     0
  0
SCALE
  5
68
102
{ACAD_REACTORS
330
47
102
}
330
47
100
AcDbScale
 70
     0
300
1'-0" = 1'-0"
140
12.0
141
12.0
290
     0
  0
TABLESTYLE
  5
6A
102
{ACAD_REACTORS
330
69
102
}
102
{ACAD_XDICTIONARY
360
1BA
102
}
330
69
100
AcDbTableStyle
  3
Standard
 70
     0
 71
     0
 40
0.06
 41
0.06
280
     0
281
     0
  7
Standard
140
0.18
170
     2
 62
     0
 63
   257
283
     0
 90
        4
 91
        0
  1

274
    -2
284
     1
 64
     0
275
    -2
285
     1
 65
     0
276
    -2
286
     1
 66
     0
277
    -2
287
     1
 67
     0
278
    -2
288
     1
 68
     0
279
    -2
289
     1
 69
     0
  7
Standard
140
0.25
170
     5
 62
     0
 63
   257
283
     0
 90
        4
 91
        0
  1

274
    -2
284
     1
 64
     0
275
    -2
285
     1
 65
     0
276
    -2
286
     1
 66
     0
277
    -2
287
     1
 67
     0
278
    -2
288
     1
 68
     0
279
    -2
289
     1
 69
     0
  7
Standard
140
0.18
170
     5
 62
     0
 63
   257
283
     0
 90
        4
 91
        0
  1

274
    -2
284
     1
 64
     0
275
    -2
285
     1
 65
     0
276
    -2
286
     1
 66
     0
277
    -2
287
     1
 67
     0
278
    -2
288
     1
 68
     0
279
    -2
289
     1
 69
     0
  0
VISUALSTYLE
  5
2F
102
{ACAD_REACTORS
330
2A
102
}
330
2A
100
AcDbVisualStyle
  2
2dWireframe
 70
     4
177
     3
291
     0
 70
    58
 90
        0
176
     1
 90
        2
176
     1
 90
        0
176
     1
 90
        0
176
     1
 40
0.6
176
     1
 40
30.0
176
     1
 62
     7
420
 16777215
176
     1
 90
        1
176
     1
 90
        4
176
     1
 62
     7
176
     1
 62
   257
176
     1
 90
        1
176
     1
 90
        1
176
     1
 40
1.0
176
     1
 90
        0
176
     1
 62
   257
176
     1
 40
1.0
176
     1
 90
        1
176
     1
 90
        6
176
     1
 90
        2
176
     1
 62
     7
176
     1
 90
        5
176
     1
 90
        0
176
     1
 90
        0
176
     1
290
     0
176
     1
 90
        1
176
     1
 40
0.0
176
     1
 90
        0
176
     1
290
     1
176
     1
290
     1
176
     1
290
     0
176
     1
290
     0
176
     1
290
     0
176
     1
290
     0
176
     1
290
     0
176
     1
290
     0
176
     1
290
     0
176
     1
 90
       50
176
     1
 40
0.0
176
     1
 40
1.0
176
     1
 90
        0
176
     1
 62
    18
420
        0
176
     1
 90
       50
176
     1
 90
        3
176
     1
 62
     5
420
      255
176
     1
290
     0
176
     1
 90
       50
176
     1
 90
       50
176
     1
 90
       50
176
     1
290
     0
176
     1
 90
       50
176
     1
 62
   256
176
     0
 40
1.0
176
     0
 90
        2
176
     1
  1
strokes_ogs.tif
176
     1
290
     0
176
     1
 40
1.0
176
     1
 40
1.0
176
     1
  0
VISUALSTYLE
  5
32
102
{ACAD_REACTORS
330
2A
102
}
330
2A
100
AcDbVisualStyle
  2
Basic
 70
     7
177
     3
291
     1
 70
    58
 90
        1
176
     1
 90
        0
176
     1
 90
        1
176
     1
 90
        0
176
     1
 40
0.6
176
     1
 40
30.0
176
     1
 62
     7
420
 16777215
176
     1
 90
        0
176
     1
 90
        4
176
     1
 62
     7
176
     1
 62
   257
176
     1
 90
        1
176
     1
 90
        1
176
     1
 40
1.0
176
     1
 90
        8
176
     1
 62
     7
176
     1
 40
1.0
176
     1
 90
        1
176
     1
 90
        6
176
     1
 90
        2
176
     1
 62
     7
176
     1
 90
        5
176
     1
 90
        0
176
     1
 90
        0
176
     1
290
     0
176
     1
 90
        1
176
     1
 40
0.0
176
     1
 90
        0
176
     1
290
     0
176
     1
290
     1
176
     1
290
     1
176
     1
290
     0
176
     1
290
     0
176
     1
290
     0
176
     1
290
     0
176
     1
290
     0
176
     1
290
     0
176
     1
 90
       50
176
     1
 40
0.0
176
     1
 40
1.0
176
     1
 90
        0
176
     1
 62
    18
420
        0
176
     1
 90
       50
176
     1
 90
        3
176
     1
 62
     5
420
      255
176
     1
290
     0
176
     1
 90
       50
176
     1
 90
       50
176
     1
 90
       50
176
     1
290
     0
176
     1
 90
       50
176
     1
 62
   256
176
     0
 40
1.0
176
     0
 90
        2
176
     1
  1
strokes_ogs.tif
176
     1
290
     0
176
     1
 40
1.0
176
     1
 40
1.0
176
     1
  0
VISUALSTYLE
  5
36
102
{ACAD_REACTORS
330
2A
102
}
330
2A
100
AcDbVisualStyle
  2
Brighten
 70
    12
177
     3
291
     1
 70
    58
 90
        2
176
     1
 90
        2
176
     1
 90
        0
176
     1
 90
        0
176
     1
 40
0.6
176
     1
 40
30.0
176
     1
 62
     7
420
 16777215
176
     1
 90
        1
176
     1
 90
        4
176
     1
 62
     7
176
     1
 62
   257
176
     1
 90
        1
176
     1
 90
        1
176
     1
 40
1.0
176
     1
 90
        8
176
     1
 62
     7
176
     1
 40
1.0
176
     1
 90
        1
176
     1
 90
        6
176
     1
 90
        2
176
     1
 62
     7
176
     1
 90
        5
176
     1
 90
        0
176
     1
 90
        0
176
     1
290
     0
176
     1
 90
        1
176
     1
 40
50.0
176
     1
 90
        0
176
     1
290
     0
176
     1
290
     1
176
     1
290
     1
176
     1
290
     0
176
     1
290
     0
176
     1
290
     0
176
     1
290
     0
176
     1
290
     0
176
     1
290
     0
176
     1
 90
       50
176
     1
 40
0.0
176
     1
 40
1.0
176
     1
 90
        0
176
     1
 62
    18
420
        0
176
     1
 90
       50
176
     1
 90
        3
176
     1
 62
     5
420
      255
176
     1
290
     0
176
     1
 90
       50
176
     1
 90
       50
176
     1
 90
       50
176
     1
290
     0
176
     1
 90
       50
176
     1
 62
   256
176
     0
 40
1.0
176
     0
 90
        2
176
     1
  1
strokes_ogs.tif
176
     1
290
     0
176
     1
 40
1.0
176
     1
 40
1.0
176
     1
  0
VISUALSTYLE
  5
3A
102
{ACAD_REACTORS
330
2A
102
}
330
2A
100
AcDbVisualStyle
  2
ColorChange
 70
    16
177
     3
291
     1
 70
    58
 90
        2
176
     1
 90
        2
176
     1
 90
        3
176
     1
 90
        0
176
     1
 40
0.6
176
     1
 40
30.0
176
     1
 62
     8
420
  8421504
176
     1
 90
        1
176
     1
 90
        4
176
     1
 62
     7
176
     1
 62
   257
176
     1
 90
        1
176
     1
 90
        1
176
     1
 40
1.0
176
     1
 90
        8
176
     1
 62
     8
420
  8421504
176
     1
 40
1.0
176
     1
 90
        1
176
     1
 90
        6
176
     1
 90
        2
176
     1
 62
     7
176
     1
 90
        5
176
     1
 90
        0
176
     1
 90
        0
176
     1
290
     0
176
     1
 90
        1
176
     1
 40
0.0
176
     1
 90
        0
176
     1
290
     0
176
     1
290
     1
176
     1
290
     1
176
     1
290
     0
176
     1
290
     0
176
     1
290
     0
176
     1
290
     0
176
     1
290
     0
176
     1
290
     0
176
     1
 90
       50
176
     1
 40
0.0
176
     1
 40
1.0
176
     1
 90
        0
176
     1
 62
    18
420
        0
176
     1
 90
       50
176
     1
 90
        3
176
     1
 62
     5
420
      255
176
     1
290
     0
176
     1
 90
       50
176
     1
 90
       50
176
     1
 90
       50
176
     1
290
     0
176
     1
 90
       50
176
     1
 62
   256
176
     0
 40
1.0
176
     0
 90
        2
176
     1
  1
strokes_ogs.tif
176
     1
290
     0
176
     1
 40
1.0
176
     1
 40
1.0
176
     1
  0
VISUALSTYLE
  5
34
102
{ACAD_REACTORS
330
2A
102
}
330
2A
100
AcDbVisualStyle
  2
Conceptual
 70
     9
177
     3
291
     0
 70
    58
 90
        3
176
     1
 90
        2
176
     1
 90
        0
176
     1
 90
        0
176
     1
 40
0.6
176
     1
 40
30.0
176
     1
 62
     7
420
 16777215
176
     1
 90
        2
176
     1
 90
        2
176
     1
 62
     7
176
     1
 62
   257
176
     1
 90
        1
176
     1
 90
        1
176
     1
 40
179.0
176
     1
 90
        8
176
     1
 62
     7
176
     1
 40
1.0
176
     1
 90
        1
176
     1
 90
        6
176
     1
 90
        2
176
     1
 62
     7
176
     1
 90
        3
176
     1
 90
        0
176
     1
 90
        0
176
     1
290
     0
176
     1
 90
        1
176
     1
 40
0.0
176
     1
 90
        0
176
     1
290
     0
176
     1
290
     1
176
     1
290
     1
176
     1
290
     0
176
     1
290
     0
176
     1
290
     0
176
     1
290
     0
176
     1
290
     0
176
     1
290
     0
176
     1
 90
       50
176
     1
 40
0.0
176
     1
 40
1.0
176
     1
 90
        0
176
     1
 62
    18
420
        0
176
     1
 90
       50
176
     1
 90
        3
176
     1
 62
     5
420
      255
176
     1
290
     0
176
     1
 90
       50
176
     1
 90
       50
176
     1
 90
       50
176
     1
290
     0
176
     1
 90
       50
176
     1
 62
   256
176
     0
 40
1.0
176
     0
 90
        2
176
     1
  1
strokes_ogs.tif
176
     1
290
     0
176
     1
 40
1.0
176
     1
 40
1.0
176
     1
  0
VISUALSTYLE
  5
35
102
{ACAD_REACTORS
330
2A
102
}
330
2A
100
AcDbVisualStyle
  2
Dim
 70
    11
177
     3
291
     1
 70
    58
 90
        2
176
     1
 90
        2
176
     1
 90
        0
176
     1
 90
        0
176
     1
 40
0.6
176
     1
 40
30.0
176
     1
 62
     7
420
 16777215
176
     1
 90
        1
176
     1
 90
        4
176
     1
 62
     7
176
     1
 62
   257
176
     1
 90
        1
176
     1
 90
        1
176
     1
 40
1.0
176
     1
 90
        8
176
     1
 62
     7
176
     1
 40
1.0
176
     1
 90
        1
176
     1
 90
        6
176
     1
 90
        2
176
     1
 62
     7
176
     1
 90
        5
176
     1
 90
        0
176
     1
 90
        0
176
     1
290
     0
176
     1
 90
        1
176
     1
 40
-50.0
176
     1
 90
        0
176
     1
290
     0
176
     1
290
     1
176
     1
290
     1
176
     1
290
     0
176
     1
290
     0
176
     1
290
     0
176
     1
290
     0
176
     1
290
     0
176
     1
290
     0
176
     1
 90
       50
176
     1
 40
0.0
176
     1
 40
1.0
176
     1
 90
        0
176
     1
 62
    18
420
        0
176
     1
 90
       50
176
     1
 90
        3
176
     1
 62
     5
420
      255
176
     1
290
     0
176
     1
 90
       50
176
     1
 90
       50
176
     1
 90
       50
176
     1
290
     0
176
     1
 90
       50
176
     1
 62
   256
176
     0
 40
1.0
176
     0
 90
        2
176
     1
  1
strokes_ogs.tif
176
     1
290
     0
176
     1
 40
1.0
176
     1
 40
1.0
176
     1
  0
VISUALSTYLE
  5
3D
102
{ACAD_REACTORS
330
2A
102
}
330
2A
100
AcDbVisualStyle
  2
EdgeColorOff
 70
    22
177
     3
291
     1
 70
    58
 90
        2
176
     0
 90
        2
176
     0
 90
        0
176
     0
 90
        0
176
     0
 40
0.6
176
     0
 40
30.0
176
     0
 62
     7
420
 16777215
176
     0
 90
        1
176
     0
 90
        4
176
     0
 62
     7
176
     0
 62
   257
176
     0
 90
        1
176
     0
 90
        1
176
     0
 40
1.0
176
     0
 90
        8
176
     2
 62
     7
176
     0
 40
1.0
176
     0
 90
        1
176
     0
 90
        6
176
     0
 90
        2
176
     0
 62
     7
176
     0
 90
        5
176
     0
 90
        0
176
     0
 90
        0
176
     0
290
     0
176
     0
 90
        1
176
     0
 40
0.0
176
     0
 90
        0
176
     0
290
     0
176
     0
290
     1
176
     0
290
     1
176
     0
290
     0
176
     0
290
     0
176
     0
290
     0
176
     0
290
     0
176
     0
290
     0
176
     0
290
     0
176
     0
 90
       50
176
     0
 40
0.0
176
     0
 40
1.0
176
     0
 90
        0
176
     0
 62
    18
420
        0
176
     0
 90
       50
176
     0
 90
        3
176
     0
 62
     5
420
      255
176
     0
290
     0
176
     0
 90
       50
176
     0
 90
       50
176
     0
 90
       50
176
     0
290
     0
176
     0
 90
       50
176
     0
 62
   256
176
     0
 40
1.0
176
     0
 90
        2
176
     0
  1
strokes_ogs.tif
176
     0
290
     0
176
     0
 40
1.0
176
     0
 40
1.0
176
     0
  0
VISUALSTYLE
  5
39
102
{ACAD_REACTORS
330
2A
102
}
330
2A
100
AcDbVisualStyle
  2
Facepattern
 70
    15
177
     3
291
     1
 70
    58
 90
        2
176
     1
 90
        2
176
     1
 90
        0
176
     1
 90
        0
176
     1
 40
0.6
176
     1
 40
30.0
176
     1
 62
     7
420
 16777215
176
     1
 90
        1
176
     1
 90
        4
176
     1
 62
     7
176
     1
 62
   257
176
     1
 90
        1
176
     1
 90
        1
176
     1
 40
1.0
176
     1
 90
        8
176
     1
 62
     7
176
     1
 40
1.0
176
     1
 90
        1
176
     1
 90
        6
176
     1
 90
        2
176
     1
 62
     7
176
     1
 90
        5
176
     1
 90
        0
176
     1
 90
        0
176
     1
290
     0
176
     1
 90
        1
176
     1
 40
0.0
176
     1
 90
        0
176
     1
290
     0
176
     1
290
     1
176
     1
290
     1
176
     1
290
     0
176
     1
290
     0
176
     1
290
     0
176
     1
290
     0
176
     1
290
     0
176
     1
290
     0
176
     1
 90
       50
176
     1
 40
0.0
176
     1
 40
1.0
176
     1
 90
        0
176
     1
 62
    18
420
        0
176
     1
 90
       50
176
     1
 90
        3
176
     1
 62
     5
420
      255
176
     1
290
     0
176
     1
 90
       50
176
     1
 90
       50
176
     1
 90
       50
176
     1
290
     0
176
     1
 90
       50
176
     1
 62
   256
176
     0
 40
1.0
176
     0
 90
        2
176
     1
  1
strokes_ogs.tif
176
     1
290
     0
176
     1
 40
1.0
176
     1
 40
1.0
176
     1
  0
VISUALSTYLE
  5
2B
102
{ACAD_REACTORS
330
2A
102
}
330
2A
100
AcDbVisualStyle
  2
Flat
 70
     0
177
     3
291
     1
 70
    58
 90
        2
176
     1
 90
        1
176
     1
 90
        1
176
     1
 90
        2
176
     1
 40
0.6
176
     1
 40
30.0
176
     1
 62
     7
420
 16777215
176
     1
 90
        0
176
     1
 90
        0
176
     1
 62
     7
176
     1
 62
   257
176
     1
 90
        1
176
     1
 90
        1
176
     1
 40
1.0
176
     1
 90
        8
176
     1
 62
     7
176
     1
 40
1.0
176
     1
 90
        1
176
     1
 90
        6
176
     1
 90
        2
176
     1
 62
     7
176
     1
 90
        5
176
     1
 90
        0
176
     1
 90
        0
176
     1
290
     0
176
     1
 90
       13
176
     1
 40
0.0
176
     1
 90
        0
176
     1
290
     0
176
     1
290
     1
176
     1
290
     1
176
     1
290
     0
176
     1
290
     0
176
     1
290
     0
176
     1
290
     0
176
     1
290
     0
176
     1
290
     0
176
     1
 90
       50
176
     1
 40
0.0
176
     1
 40
1.0
176
     1
 90
        0
176
     1
 62
    18
420
        0
176
     1
 90
       50
176
     1
 90
        3
176
     1
 62
     5
420
      255
176
     1
290
     0
176
     1
 90
       50
176
     1
 90
       50
176
     1
 90
       50
176
     1
290
     0
176
     1
 90
       50
176
     1
 62
   256
176
     0
 40
1.0
176
     0
 90
        2
176
     1
  1
strokes_ogs.tif
176
     1
290
     0
176
     1
 40
1.0
176
     1
 40
1.0
176
     1
  0
VISUALSTYLE
  5
2C
102
{ACAD_REACTORS
330
2A
102
}
330
2A
100
AcDbVisualStyle
  2
FlatWithEdges
 70
     1
177
     3
291
     1
 70
    58
 90
        2
176
     1
 90
        1
176
     1
 90
        1
176
     1
 90
        2
176
     1
 40
0.6
176
     1
 40
30.0
176
     1
 62
     7
420
 16777215
176
     1
 90
        1
176
     1
 90
        0
176
     1
 62
     7
176
     1
 62
   257
176
     1
 90
        1
176
     1
 90
        1
176
     1
 40
1.0
176
     1
 90
        0
176
     1
 62
   257
176
     1
 40
1.0
176
     1
 90
        1
176
     1
 90
        6
176
     1
 90
        2
176
     1
 62
     7
176
     1
 90
        5
176
     1
 90
        0
176
     1
 90
        0
176
     1
290
     0
176
     1
 90
       13
176
     1
 40
0.0
176
     1
 90
        0
176
     1
290
     0
176
     1
290
     1
176
     1
290
     1
176
     1
290
     0
176
     1
290
     0
176
     1
290
     0
176
     1
290
     0
176
     1
290
     0
176
     1
290
     0
176
     1
 90
       50
176
     1
 40
0.0
176
     1
 40
1.0
176
     1
 90
        0
176
     1
 62
    18
420
        0
176
     1
 90
       50
176
     1
 90
        3
176
     1
 62
     5
420
      255
176
     1
290
     0
176
     1
 90
       50
176
     1
 90
       50
176
     1
 90
       50
176
     1
290
     0
176
     1
 90
       50
176
     1
 62
   256
176
     0
 40
1.0
176
     0
 90
        2
176
     1
  1
strokes_ogs.tif
176
     1
290
     0
176
     1
 40
1.0
176
     1
 40
1.0
176
     1
  0
VISUALSTYLE
  5
2D
102
{ACAD_REACTORS
330
2A
102
}
330
2A
100
AcDbVisualStyle
  2
Gouraud
 70
     2
177
     3
291
     1
 70
    58
 90
        2
176
     1
 90
        2
176
     1
 90
        1
176
     1
 90
        2
176
     1
 40
0.6
176
     1
 40
30.0
176
     1
 62
     7
420
 16777215
176
     1
 90
        0
176
     1
 90
        0
176
     1
 62
     7
176
     1
 62
   257
176
     1
 90
        1
176
     1
 90
        1
176
     1
 40
1.0
176
     1
 90
        0
176
     1
 62
     7
176
     1
 40
1.0
176
     1
 90
        1
176
     1
 90
        6
176
     1
 90
        2
176
     1
 62
     7
176
     1
 90
        5
176
     1
 90
        0
176
     1
 90
        0
176
     1
290
     0
176
     1
 90
       13
176
     1
 40
0.0
176
     1
 90
        0
176
     1
290
     0
176
     1
290
     1
176
     1
290
     1
176
     1
290
     0
176
     1
290
     0
176
     1
290
     0
176
     1
290
     0
176
     1
290
     0
176
     1
290
     0
176
     1
 90
       50
176
     1
 40
0.0
176
     1
 40
1.0
176
     1
 90
        0
176
     1
 62
    18
420
        0
176
     1
 90
       50
176
     1
 90
        3
176
     1
 62
     5
420
      255
176
     1
290
     0
176
     1
 90
       50
176
     1
 90
       50
176
     1
 90
       50
176
     1
290
     0
176
     1
 90
       50
176
     1
 62
   256
176
     0
 40
1.0
176
     0
 90
        2
176
     1
  1
strokes_ogs.tif
176
     1
290
     0
176
     1
 40
1.0
176
     1
 40
1.0
176
     1
  0
VISUALSTYLE
  5
2E
102
{ACAD_REACTORS
330
2A
102
}
330
2A
100
AcDbVisualStyle
  2
GouraudWithEdges
 70
     3
177
     3
291
     1
 70
    58
 90
        2
176
     1
 90
        2
176
     1
 90
        1
176
     1
 90
        2
176
     1
 40
0.6
176
     1
 40
30.0
176
     1
 62
     7
420
 16777215
176
     1
 90
        1
176
     1
 90
        0
176
     1
 62
     7
176
     1
 62
   257
176
     1
 90
        1
176
     1
 90
        1
176
     1
 40
1.0
176
     1
 90
        0
176
     1
 62
   257
176
     1
 40
1.0
176
     1
 90
        1
176
     1
 90
        6
176
     1
 90
        2
176
     1
 62
     7
176
     1
 90
        5
176
     1
 90
        0
176
     1
 90
        0
176
     1
290
     0
176
     1
 90
       13
176
     1
 40
0.0
176
     1
 90
        0
176
     1
290
     0
176
     1
290
     1
176
     1
290
     1
176
     1
290
     0
176
     1
290
     0
176
     1
290
     0
176
     1
290
     0
176
     1
290
     0
176
     1
290
     0
176
     1
 90
       50
176
     1
 40
0.0
176
     1
 40
1.0
176
     1
 90
        0
176
     1
 62
    18
420
        0
176
     1
 90
       50
176
     1
 90
        3
176
     1
 62
     5
420
      255
176
     1
290
     0
176
     1
 90
       50
176
     1
 90
       50
176
     1
 90
       50
176
     1
290
     0
176
     1
 90
       50
176
     1
 62
   256
176
     0
 40
1.0
176
     0
 90
        2
176
     1
  1
strokes_ogs.tif
176
     1
290
     0
176
     1
 40
1.0
176
     1
 40
1.0
176
     1
  0
VISUALSTYLE
  5
31
102
{ACAD_REACTORS
330
2A
102
}
330
2A
100
AcDbVisualStyle
  2
Hidden
 70
     6
177
     3
291
     0
 70
    58
 90
        1
176
     1
 90
        2
176
     1
 90
        2
176
     1
 90
        0
176
     1
 40
0.6
176
     1
 40
30.0
176
     1
 62
     7
420
 16777215
176
     1
 90
        2
176
     1
 90
        2
176
     1
 62
     7
176
     1
 62
   257
176
     1
 90
        2
176
     1
 90
        1
176
     1
 40
40.0
176
     1
 90
        0
176
     1
 62
   257
176
     1
 40
1.0
176
     1
 90
        1
176
     1
 90
        6
176
     1
 90
        2
176
     1
 62
     7
176
     1
 90
        3
176
     1
 90
        0
176
     1
 90
        0
176
     1
290
     0
176
     1
 90
        1
176
     1
 40
0.0
176
     1
 90
        0
176
     1
290
     0
176
     1
290
     1
176
     1
290
     1
176
     1
290
     0
176
     1
290
     0
176
     1
290
     0
176
     1
290
     0
176
     1
290
     0
176
     1
290
     0
176
     1
 90
       50
176
     1
 40
0.0
176
     1
 40
1.0
176
     1
 90
        0
176
     1
 62
    18
420
        0
176
     1
 90
       50
176
     1
 90
        3
176
     1
 62
     5
420
      255
176
     1
290
     0
176
     1
 90
       50
176
     1
 90
       50
176
     1
 90
       50
176
     1
290
     0
176
     1
 90
       50
176
     1
 62
   256
176
     0
 40
1.0
176
     0
 90
        2
176
     1
  1
strokes_ogs.tif
176
     1
290
     0
176
     1
 40
1.0
176
     1
 40
1.0
176
     1
  0
VISUALSTYLE
  5
3B
102
{ACAD_REACTORS
330
2A
102
}
330
2A
100
AcDbVisualStyle
  2
JitterOff
 70
    20
177
     3
291
     1
 70
    58
 90
        2
176
     0
 90
        2
176
     0
 90
        0
176
     0
 90
        0
176
     0
 40
0.6
176
     0
 40
30.0
176
     0
 62
     7
420
 16777215
176
     0
 90
        1
176
     0
 90
        4
176
     0
 62
     7
176
     0
 62
   257
176
     0
 90
        1
176
     0
 90
        1
176
     0
 40
1.0
176
     0
 90
       10
176
     2
 62
     7
176
     0
 40
1.0
176
     0
 90
        1
176
     0
 90
        6
176
     0
 90
        2
176
     0
 62
     7
176
     0
 90
        5
176
     0
 90
        0
176
     0
 90
        0
176
     0
290
     0
176
     0
 90
        1
176
     0
 40
0.0
176
     0
 90
        0
176
     0
290
     0
176
     0
290
     1
176
     0
290
     1
176
     0
290
     0
176
     0
290
     0
176
     0
290
     0
176
     0
290
     0
176
     0
290
     0
176
     0
290
     0
176
     0
 90
       50
176
     0
 40
0.0
176
     0
 40
1.0
176
     0
 90
        0
176
     0
 62
    18
420
        0
176
     0
 90
       50
176
     0
 90
        3
176
     0
 62
     5
420
      255
176
     0
290
     0
176
     0
 90
       50
176
     0
 90
       50
176
     0
 90
       50
176
     0
290
     0
176
     0
 90
       50
176
     0
 62
   256
176
     0
 40
1.0
176
     0
 90
        2
176
     0
  1
strokes_ogs.tif
176
     0
290
     0
176
     0
 40
1.0
176
     0
 40
1.0
176
     0
  0
VISUALSTYLE
  5
38
102
{ACAD_REACTORS
330
2A
102
}
330
2A
100
AcDbVisualStyle
  2
Linepattern
 70
    14
177
     3
291
     1
 70
    58
 90
        2
176
     1
 90
        2
176
     1
 90
        0
176
     1
 90
        0
176
     1
 40
0.6
176
     1
 40
30.0
176
     1
 62
     7
420
 16777215
176
     1
 90
        1
176
     1
 90
        4
176
     1
 62
     7
176
     1
 62
   257
176
     1
 90
        7
176
     1
 90
        7
176
     1
 40
1.0
176
     1
 90
        8
176
     1
 62
     7
176
     1
 40
1.0
176
     1
 90
        1
176
     1
 90
        6
176
     1
 90
        2
176
     1
 62
     7
176
     1
 90
        5
176
     1
 90
        0
176
     1
 90
        0
176
     1
290
     0
176
     1
 90
        1
176
     1
 40
0.0
176
     1
 90
        0
176
     1
290
     0
176
     1
290
     1
176
     1
290
     1
176
     1
290
     0
176
     1
290
     0
176
     1
290
     0
176
     1
290
     0
176
     1
290
     0
176
     1
290
     0
176
     1
 90
       50
176
     1
 40
0.0
176
     1
 40
1.0
176
     1
 90
        0
176
     1
 62
    18
420
        0
176
     1
 90
       50
176
     1
 90
        3
176
     1
 62
     5
420
      255
176
     1
290
     0
176
     1
 90
       50
176
     1
 90
       50
176
     1
 90
       50
176
     1
290
     0
176
     1
 90
       50
176
     1
 62
   256
176
     0
 40
1.0
176
     0
 90
        2
176
     1
  1
strokes_ogs.tif
176
     1
290
     0
176
     1
 40
1.0
176
     1
 40
1.0
176
     1
  0
VISUALSTYLE
  5
3C
102
{ACAD_REACTORS
330
2A
102
}
330
2A
100
AcDbVisualStyle
  2
OverhangOff
 70
    21
177
     3
291
     1
 70
    58
 90
        2
176
     0
 90
        2
176
     0
 90
        0
176
     0
 90
        0
176
     0
 40
0.6
176
     0
 40
30.0
176
     0
 62
     7
420
 16777215
176
     0
 90
        1
176
     0
 90
        4
176
     0
 62
     7
176
     0
 62
   257
176
     0
 90
        1
176
     0
 90
        1
176
     0
 40
1.0
176
     0
 90
        9
176
     2
 62
     7
176
     0
 40
1.0
176
     0
 90
        1
176
     0
 90
        6
176
     0
 90
        2
176
     0
 62
     7
176
     0
 90
        5
176
     0
 90
        0
176
     0
 90
        0
176
     0
290
     0
176
     0
 90
        1
176
     0
 40
0.0
176
     0
 90
        0
176
     0
290
     0
176
     0
290
     1
176
     0
290
     1
176
     0
290
     0
176
     0
290
     0
176
     0
290
     0
176
     0
290
     0
176
     0
290
     0
176
     0
290
     0
176
     0
 90
       50
176
     0
 40
0.0
176
     0
 40
1.0
176
     0
 90
        0
176
     0
 62
    18
420
        0
176
     0
 90
       50
176
     0
 90
        3
176
     0
 62
     5
420
      255
176
     0
290
     0
176
     0
 90
       50
176
     0
 90
       50
176
     0
 90
       50
176
     0
290
     0
176
     0
 90
       50
176
     0
 62
   256
176
     0
 40
1.0
176
     0
 90
        2
176
     0
  1
strokes_ogs.tif
176
     0
290
     0
176
     0
 40
1.0
176
     0
 40
1.0
176
     0
  0
VISUALSTYLE
  5
33
102
{ACAD_REACTORS
330
2A
102
}
330
2A
100
AcDbVisualStyle
  2
Realistic
 70
     8
177
     3
291
     0
 70
    58
 90
        2
176
     1
 90
        3
176
     1
 90
        0
176
     1
 90
        2
176
     1
 40
0.6
176
     1
 40
30.0
176
     1
 62
     7
420
 16777215
176
     1
 90
        0
176
     1
 90
        0
176
     1
 62
     7
176
     1
 62
   257
176
     1
 90
        1
176
     1
 90
        1
176
     1
 40
1.0
176
     1
 90
        8
176
     1
 62
   257
176
     1
 40
1.0
176
     1
 90
        1
176
     1
 90
        6
176
     1
 90
        2
176
     1
 62
     7
176
     1
 90
        3
176
     1
 90
        0
176
     1
 90
        0
176
     1
290
     0
176
     1
 90
       13
176
     1
 40
0.0
176
     1
 90
        0
176
     1
290
     0
176
     1
290
     1
176
     1
290
     1
176
     1
290
     0
176
     1
290
     0
176
     1
290
     0
176
     1
290
     0
176
     1
290
     0
176
     1
290
     0
176
     1
 90
       50
176
     1
 40
0.0
176
     1
 40
1.0
176
     1
 90
        0
176
     1
 62
    18
420
        0
176
     1
 90
       50
176
     1
 90
        3
176
     1
 62
     5
420
      255
176
     1
290
     0
176
     1
 90
       50
176
     1
 90
       50
176
     1
 90
       50
176
     1
290
     0
176
     1
 90
       50
176
     1
 62
   256
176
     0
 40
1.0
176
     0
 90
        2
176
     1
  1
strokes_ogs.tif
176
     1
290
     0
176
     1
 40
1.0
176
     1
 40
1.0
176
     1
  0
VISUALSTYLE
  5
42
102
{ACAD_REACTORS
330
2A
102
}
330
2A
100
AcDbVisualStyle
  2
Shaded
 70
    27
177
     3
291
     0
 70
    58
 90
        2
176
     1
 90
        2
176
     1
 90
        1
176
     1
 90
        2
176
     1
 40
0.6
176
     1
 40
30.0
176
     1
 62
     7
420
 16777215
176
     1
 90
        0
176
     1
 90
        4
176
     1
 62
     7
176
     1
 62
   257
176
     1
 90
        1
176
     1
 90
        1
176
     1
 40
1.0
176
     1
 90
        8
176
     1
 62
   257
176
     1
 40
1.0
176
     1
 90
        1
176
     1
 90
        6
176
     1
 90
        2
176
     1
 62
     8
420
  7895160
176
     1
 90
        3
176
     1
 90
        0
176
     1
 90
        0
176
     1
290
     0
176
     1
 90
        5
176
     1
 40
0.0
176
     1
 90
        0
176
     1
290
     0
176
     1
290
     1
176
     1
290
     1
176
     1
290
     0
176
     1
290
     0
176
     1
290
     0
176
     1
290
     0
176
     1
290
     0
176
     1
290
     0
176
     1
 90
       50
176
     1
 40
0.0
176
     1
 40
1.0
176
     1
 90
        0
176
     1
 62
    18
420
        0
176
     1
 90
       50
176
     1
 90
        3
176
     1
 62
     5
420
      255
176
     1
290
     0
176
     1
 90
       50
176
     1
 90
       50
176
     1
 90
       50
176
     1
290
     0
176
     1
 90
       50
176
     1
 62
   256
176
     0
 40
1.0
176
     0
 90
        2
176
     1
  1
strokes_ogs.tif
176
     1
290
     0
176
     1
 40
1.0
176
     1
 40
1.0
176
     1
  0
VISUALSTYLE
  5
41
102
{ACAD_REACTORS
330
2A
102
}
330
2A
100
AcDbVisualStyle
  2
Shaded with edges
 70
    26
177
     3
291
     0
 70
    58
 90
        2
176
     1
 90
        2
176
     1
 90
        1
176
     1
 90
        2
176
     1
 40
0.6
176
     1
 40
30.0
176
     1
 62
     7
420
 16777215
176
     1
 90
        1
176
     1
 90
       10
176
     1
 62
     7
176
     1
 62
   257
176
     1
 90
        2
176
     1
 90
        1
176
     1
 40
1.0
176
     1
 90
        8
176
     1
 62
   257
176
     1
 40
1.0
176
     1
 90
        1
176
     1
 90
        6
176
     1
 90
        2
176
     1
 62
     7
176
     1
 90
        3
176
     1
 90
        0
176
     1
 90
        0
176
     1
290
     0
176
     1
 90
        5
176
     1
 40
0.0
176
     1
 90
        0
176
     1
290
     0
176
     1
290
     1
176
     1
290
     1
176
     1
290
     0
176
     1
290
     0
176
     1
290
     0
176
     1
290
     0
176
     1
290
     0
176
     1
290
     0
176
     1
 90
       50
176
     1
 40
0.0
176
     1
 40
1.0
176
     1
 90
        0
176
     1
 62
    18
420
        0
176
     1
 90
       50
176
     1
 90
        3
176
     1
 62
     5
420
      255
176
     1
290
     0
176
     1
 90
       50
176
     1
 90
       50
176
     1
 90
       50
176
     1
290
     0
176
     1
 90
       50
176
     1
 62
   256
176
     0
 40
1.0
176
     0
 90
        2
176
     1
  1
strokes_ogs.tif
176
     1
290
     0
176
     1
 40
1.0
176
     1
 40
1.0
176
     1
  0
VISUALSTYLE
  5
3E
102
{ACAD_REACTORS
330
2A
102
}
330
2A
100
AcDbVisualStyle
  2
Shades of Gray
 70
    23
177
     3
291
     0
 70
    58
 90
        2
176
     1
 90
        2
176
     1
 90
        3
176
     1
 90
        0
176
     1
 40
0.6
176
     1
 40
30.0
176
     1
 62
     7
420
 16777215
176
     1
 90
        2
176
     1
 90
        2
176
     1
 62
     7
176
     1
 62
     7
176
     1
 90
        1
176
     1
 90
        1
176
     1
 40
40.0
176
     1
 90
        8
176
     1
 62
     7
176
     1
 40
1.0
176
     1
 90
        1
176
     1
 90
        6
176
     1
 90
        2
176
     1
 62
     7
176
     1
 90
        3
176
     1
 90
        0
176
     1
 90
        0
176
     1
290
     0
176
     1
 90
        1
176
     1
 40
0.0
176
     1
 90
        0
176
     1
290
     0
176
     1
290
     1
176
     1
290
     1
176
     1
290
     0
176
     1
290
     0
176
     1
290
     0
176
     1
290
     0
176
     1
290
     0
176
     1
290
     0
176
     1
 90
       50
176
     1
 40
0.0
176
     1
 40
1.0
176
     1
 90
        0
176
     1
 62
    18
420
        0
176
     1
 90
       50
176
     1
 90
        3
176
     1
 62
     5
420
      255
176
     1
290
     0
176
     1
 90
       50
176
     1
 90
       50
176
     1
 90
       50
176
     1
290
     0
176
     1
 90
       50
176
     1
 62
   256
176
     0
 40
1.0
176
     0
 90
        2
176
     1
  1
strokes_ogs.tif
176
     1
290
     0
176
     1
 40
1.0
176
     1
 40
1.0
176
     1
  0
VISUALSTYLE
  5
3F
102
{ACAD_REACTORS
330
2A
102
}
330
2A
100
AcDbVisualStyle
  2
Sketchy
 70
    24
177
     3
291
     0
 70
    58
 90
        1
176
     1
 90
        2
176
     1
 90
        2
176
     1
 90
        0
176
     1
 40
0.6
176
     1
 40
30.0
176
     1
 62
     7
420
 16777215
176
     1
 90
        2
176
     1
 90
        2
176
     1
 62
     7
176
     1
 62
     7
176
     1
 90
        1
176
     1
 90
        1
176
     1
 40
40.0
176
     1
 90
       11
176
     1
 62
     7
176
     1
 40
1.0
176
     1
 90
        1
176
     1
 90
        6
176
     1
 90
        2
176
     1
 62
     7
176
     1
 90
        6
176
     1
 90
        0
176
     1
 90
        0
176
     1
290
     0
176
     1
 90
        1
176
     1
 40
0.0
176
     1
 90
        0
176
     1
290
     0
176
     1
290
     1
176
     1
290
     1
176
     1
290
     0
176
     1
290
     0
176
     1
290
     0
176
     1
290
     0
176
     1
290
     0
176
     1
290
     0
176
     1
 90
       50
176
     1
 40
0.0
176
     1
 40
1.0
176
     1
 90
        0
176
     1
 62
    18
420
        0
176
     1
 90
       50
176
     1
 90
        3
176
     1
 62
     5
420
      255
176
     1
290
     0
176
     1
 90
       50
176
     1
 90
       50
176
     1
 90
       50
176
     1
290
     0
176
     1
 90
       50
176
     1
 62
   256
176
     0
 40
1.0
176
     0
 90
        2
176
     1
  1
strokes_ogs.tif
176
     1
290
     0
176
     1
 40
1.0
176
     1
 40
1.0
176
     1
  0
VISUALSTYLE
  5
37
102
{ACAD_REACTORS
330
2A
102
}
330
2A
100
AcDbVisualStyle
  2
Thicken
 70
    13
177
     3
291
     1
 70
    58
 90
        2
176
     1
 90
        2
176
     1
 90
        0
176
     1
 90
        0
176
     1
 40
0.6
176
     1
 40
30.0
176
     1
 62
     7
420
 16777215
176
     1
 90
        1
176
     1
 90
        4
176
     1
 62
     7
176
     1
 62
   257
176
     1
 90
        1
176
     1
 90
        1
176
     1
 40
1.0
176
     1
 90
       12
176
     1
 62
     7
176
     1
 40
1.0
176
     1
 90
        1
176
     1
 90
        6
176
     1
 90
        2
176
     1
 62
     7
176
     1
 90
        5
176
     1
 90
        0
176
     1
 90
        0
176
     1
290
     0
176
     1
 90
        1
176
     1
 40
0.0
176
     1
 90
        0
176
     1
290
     0
176
     1
290
     1
176
     1
290
     1
176
     1
290
     0
176
     1
290
     0
176
     1
290
     0
176
     1
290
     0
176
     1
290
     0
176
     1
290
     0
176
     1
 90
       50
176
     1
 40
0.0
176
     1
 40
1.0
176
     1
 90
        0
176
     1
 62
    18
420
        0
176
     1
 90
       50
176
     1
 90
        3
176
     1
 62
     5
420
      255
176
     1
290
     0
176
     1
 90
       50
176
     1
 90
       50
176
     1
 90
       50
176
     1
290
     0
176
     1
 90
       50
176
     1
 62
   256
176
     0
 40
1.0
176
     0
 90
        2
176
     1
  1
strokes_ogs.tif
176
     1
290
     0
176
     1
 40
1.0
176
     1
 40
1.0
176
     1
  0
VISUALSTYLE
  5
30
102
{ACAD_REACTORS
330
2A
102
}
330
2A
100
AcDbVisualStyle
  2
Wireframe
 70
     5
177
     3
291
     0
 70
    58
 90
        0
176
     1
 90
        2
176
     1
 90
        0
176
     1
 90
        0
176
     1
 40
0.6
176
     1
 40
30.0
176
     1
 62
     7
420
 16777215
176
     1
 90
        1
176
     1
 90
        4
176
     1
 62
     7
176
     1
 62
   257
176
     1
 90
        1
176
     1
 90
        1
176
     1
 40
1.0
176
     1
 90
        0
176
     1
 62
   257
176
     1
 40
1.0
176
     1
 90
        1
176
     1
 90
        6
176
     1
 90
        2
176
     1
 62
     7
176
     1
 90
        3
176
     1
 90
        0
176
     1
 90
        0
176
     1
290
     0
176
     1
 90
        1
176
     1
 40
0.0
176
     1
 90
        0
176
     1
290
     0
176
     1
290
     1
176
     1
290
     1
176
     1
290
     0
176
     1
290
     0
176
     1
290
     0
176
     1
290
     0
176
     1
290
     0
176
     1
290
     0
176
     1
 90
       50
176
     1
 40
0.0
176
     1
 40
1.0
176
     1
 90
        0
176
     1
 62
    18
420
        0
176
     1
 90
       50
176
     1
 90
        3
176
     1
 62
     5
420
      255
176
     1
290
     0
176
     1
 90
       50
176
     1
 90
       50
176
     1
 90
       50
176
     1
290
     0
176
     1
 90
       50
176
     1
 62
   256
176
     0
 40
1.0
176
     0
 90
        2
176
     1
  1
strokes_ogs.tif
176
     1
290
     0
176
     1
 40
1.0
176
     1
 40
1.0
176
     1
  0
VISUALSTYLE
  5
40
102
{ACAD_REACTORS
330
2A
102
}
330
2A
100
AcDbVisualStyle
  2
X-Ray
 70
    25
177
     3
291
     0
 70
    58
 90
        2
176
     1
 90
        2
176
     1
 90
        1
176
     1
 90
        1
176
     1
 40
0.5
176
     1
 40
30.0
176
     1
 62
     7
420
 16777215
176
     1
 90
        1
176
     1
 90
        0
176
     1
 62
     7
176
     1
 62
   257
176
     1
 90
        1
176
     1
 90
        1
176
     1
 40
1.0
176
     1
 90
        8
176
     1
 62
     7
176
     1
 40
1.0
176
     1
 90
        1
176
     1
 90
        6
176
     1
 90
        2
176
     1
 62
     7
176
     1
 90
        3
176
     1
 90
        0
176
     1
 90
        0
176
     1
290
     0
176
     1
 90
       13
176
     1
 40
0.0
176
     1
 90
        0
176
     1
290
     0
176
     1
290
     1
176
     1
290
     1
176
     1
290
     0
176
     1
290
     0
176
     1
290
     0
176
     1
290
     0
176
     1
290
     0
176
     1
290
     0
176
     1
 90
       50
176
     1
 40
0.0
176
     1
 40
1.0
176
     1
 90
        0
176
     1
 62
    18
420
        0
176
     1
 90
       50
176
     1
 90
        3
176
     1
 62
     5
420
      255
176
     1
290
     0
176
     1
 90
       50
176
     1
 90
       50
176
     1
 90
       50
176
     1
290
     0
176
     1
 90
       50
176
     1
 62
   256
176
     0
 40
1.0
176
     0
 90
        2
176
     1
  1
strokes_ogs.tif
176
     1
290
     0
176
     1
 40
1.0
176
     1
 40
1.0
176
     1
  0
DICTIONARYVAR
  5
1B9
102
{ACAD_REACTORS
330
1B8
102
}
330
1B8
100
DictionaryVariables
280
     0
  1
1:1
  0
DICTIONARYVAR
  5
1BE
102
{ACAD_REACTORS
330
1B8
102
}
330
1B8
100
DictionaryVariables
280
     0
  1
Standard
  0
DICTIONARYVAR
  5
1BD
102
{ACAD_REACTORS
330
1B8
102
}
330
1B8
100
DictionaryVariables
280
     0
  1
Standard
  0
DICTIONARY
  5
1BA
330
6A
100
AcDbDictionary
280
     1
281
     1
  3
ACAD_ROUNDTRIP_2008_TABLESTYLE_CELLSTYLEMAP
360
1BB
  0
CELLSTYLEMAP
  5
1BB
102
{ACAD_REACTORS
330
1BA
102
}
330
1BA
100
AcDbCellStyleMap
 90
        3
300
CELLSTYLE
  1
TABLEFORMAT_BEGIN
 90
        5
170
     1
 91
        0
 92
    32768
 62
   257
 93
        1
300
CONTENTFORMAT
  1
CONTENTFORMAT_BEGIN
 90
        0
 91
        0
 92
        4
 93
        0
300

 40
0.0
140
1.0
 94
        5
 62
     0
340
11
144
0.25
309
CONTENTFORMAT_END
171
     1
301
MARGIN
  1
CELLMARGIN_BEGIN
 40
0.06
 40
0.06
 40
0.06
 40
0.06
 40
0.06
 40
0.06
309
CELLMARGIN_END
 94
        6
 95
        1
302
GRIDFORMAT
  1
GRIDFORMAT_BEGIN
 90
        0
 91
        1
 62
     0
 92
       -2
340
14
 93
        0
 40
0.045
309
GRIDFORMAT_END
 95
        2
302
GRIDFORMAT
  1
GRIDFORMAT_BEGIN
 90
        0
 91
        1
 62
     0
 92
       -2
340
14
 93
        0
 40
0.045
309
GRIDFORMAT_END
 95
        4
302
GRIDFORMAT
  1
GRIDFORMAT_BEGIN
 90
        0
 91
        1
 62
     0
 92
       -2
340
14
 93
        0
 40
0.045
309
GRIDFORMAT_END
 95
        8
302
GRIDFORMAT
  1
GRIDFORMAT_BEGIN
 90
        0
 91
        1
 62
     0
 92
       -2
340
14
 93
        0
 40
0.045
309
GRIDFORMAT_END
 95
       16
302
GRIDFORMAT
  1
GRIDFORMAT_BEGIN
 90
        0
 91
        1
 62
     0
 92
       -2
340
14
 93
        0
 40
0.045
309
GRIDFORMAT_END
 95
       32
302
GRIDFORMAT
  1
GRIDFORMAT_BEGIN
 90
        0
 91
        1
 62
     0
 92
       -2
340
14
 93
        0
 40
0.045
309
GRIDFORMAT_END
309
TABLEFORMAT_END
  1
CELLSTYLE_BEGIN
 90
        1
 91
        1
300
_TITLE
309
CELLSTYLE_END
300
CELLSTYLE
  1
TABLEFORMAT_BEGIN
 90
        5
170
     1
 91
        0
 92
        0
 62
   257
 93
        1
300
CONTENTFORMAT
  1
CONTENTFORMAT_BEGIN
 90
        0
 91
        0
 92
        4
 93
        0
300

 40
0.0
140
1.0
 94
        5
 62
     0
340
11
144
0.18
309
CONTENTFORMAT_END
171
     1
301
MARGIN
  1
CELLMARGIN_BEGIN
 40
0.06
 40
0.06
 40
0.06
 40
0.06
 40
0.06
 40
0.06
309
CELLMARGIN_END
 94
        6
 95
        1
302
GRIDFORMAT
  1
GRIDFORMAT_BEGIN
 90
        0
 91
        1
 62
     0
 92
       -2
340
14
 93
        0
 40
0.045
309
GRIDFORMAT_END
 95
        2
302
GRIDFORMAT
  1
GRIDFORMAT_BEGIN
 90
        0
 91
        1
 62
     0
 92
       -2
340
14
 93
        0
 40
0.045
309
GRIDFORMAT_END
 95
        4
302
GRIDFORMAT
  1
GRIDFORMAT_BEGIN
 90
        0
 91
        1
 62
     0
 92
       -2
340
14
 93
        0
 40
0.045
309
GRIDFORMAT_END
 95
        8
302
GRIDFORMAT
  1
GRIDFORMAT_BEGIN
 90
        0
 91
        1
 62
     0
 92
       -2
340
14
 93
        0
 40
0.045
309
GRIDFORMAT_END
 95
       16
302
GRIDFORMAT
  1
GRIDFORMAT_BEGIN
 90
        0
 91
        1
 62
     0
 92
       -2
340
14
 93
        0
 40
0.045
309
GRIDFORMAT_END
 95
       32
302
GRIDFORMAT
  1
GRIDFORMAT_BEGIN
 90
        0
 91
        1
 62
     0
 92
       -2
340
14
 93
        0
 40
0.045
309
GRIDFORMAT_END
309
TABLEFORMAT_END
  1
CELLSTYLE_BEGIN
 90
        2
 91
        1
300
_HEADER
309
CELLSTYLE_END
300
CELLSTYLE
  1
TABLEFORMAT_BEGIN
 90
        5
170
     1
 91
        0
 92
        0
 62
   257
 93
        1
300
CONTENTFORMAT
  1
CONTENTFORMAT_BEGIN
 90
        0
 91
        0
 92
        4
 93
        0
300

 40
0.0
140
1.0
 94
        2
 62
     0
340
11
144
0.18
309
CONTENTFORMAT_END
171
     1
301
MARGIN
  1
CELLMARGIN_BEGIN
 40
0.06
 40
0.06
 40
0.06
 40
0.06
 40
0.06
 40
0.06
309
CELLMARGIN_END
 94
        6
 95
        1
302
GRIDFORMAT
  1
GRIDFORMAT_BEGIN
 90
        0
 91
        1
 62
     0
 92
       -2
340
14
 93
        0
 40
0.045
309
GRIDFORMAT_END
 95
        2
302
GRIDFORMAT
  1
GRIDFORMAT_BEGIN
 90
        0
 91
        1
 62
     0
 92
       -2
340
14
 93
        0
 40
0.045
309
GRIDFORMAT_END
 95
        4
302
GRIDFORMAT
  1
GRIDFORMAT_BEGIN
 90
        0
 91
        1
 62
     0
 92
       -2
340
14
 93
        0
 40
0.045
309
GRIDFORMAT_END
 95
        8
302
GRIDFORMAT
  1
GRIDFORMAT_BEGIN
 90
        0
 91
        1
 62
     0
 92
       -2
340
14
 93
        0
 40
0.045
309
GRIDFORMAT_END
 95
       16
302
GRIDFORMAT
  1
GRIDFORMAT_BEGIN
 90
        0
 91
        1
 62
     0
 92
       -2
340
14
 93
        0
 40
0.045
309
GRIDFORMAT_END
 95
       32
302
GRIDFORMAT
  1
GRIDFORMAT_BEGIN
 90
        0
 91
        1
 62
     0
 92
       -2
340
14
 93
        0
 40
0.045
309
GRIDFORMAT_END
309
TABLEFORMAT_END
  1
CELLSTYLE_BEGIN
 90
        3
 91
        2
300
_DATA
309
CELLSTYLE_END
  0
ENDSEC
  0
EOF