999
DXF file: _cgs_temp_output.dxf
999
Pro/ENGINEER 2016360 by Parametric Technology Corporation
  0
SECTION
  2
HEADER
  9
$ACADVER
  1
AC1021
  9
$DWGCODEPAGE
  3
ANSI_1252
  9
$EXTMAX
 10
22.0
 20
17.0
 30
0.0
  9
$EXTMIN
 10
0.0
 20
0.0
 30
0.0
  9
$LIMMIN
 10
0.0
 20
0.0
  9
$LIMMAX
 10
22.0
 20
17.0
  9
$VIEWCTR
 10
11.0
 20
8.5
  9
$VIEWSIZE
 40
17.0
  9
$CLAYER
  8
0
  9
$LTSCALE
 40
1.21
  9
$CELTYPE
  6
BYLAYER
  9
$DIMSCALE
 40
1.0
  9
$DIMASZ
 40
0.1875
  9
$DIMEXO
 40
0.0625
  9
$DIMDLI
 40
0.836
  9
$DIMEXE
 40
0.125
  9
$DIMCEN
 40
0.198
  9
$DIMLFAC
 40
1.0
  9
$DIMBLK
  1
_CLOSED
  9
$DIMALT
 70
0
  9
$DIMALTF
 40
25.4
  9
$DIMTXT
 40
0.15625
  9
$DIMTOL
 70
0
  9
$DIMLIM
 70
0
  9
$DIMTFAC
 40
1.0
  9
$DIMGAP
 40
0.09
  9
$DIMDSEP
 70
46
  9
$AUNITS
 70
0
  9
$PDMODE
 70
3
  9
$PDSIZE
 40
0.3125
  9
$HANDSEED
  5
2F6
  9
$TILEMODE
 70
1
  9
$MEASUREMENT
 70
0
  9
$INSUNITS
 70
1
  0
ENDSEC
  0
SECTION
  2
CLASSES
  0
CLASS
  1
ACDBDICTIONARYWDFLT
  2
AcDbDictionaryWithDefault
  3
AutoCAD 2000
 90
0
 91
1
280
0
281
0
  0
CLASS
  1
ACDBPLACEHOLDER
  2
AcDbPlaceHolder
  3
AutoCAD 2000
 90
0
 91
1
280
0
281
0
  0
CLASS
  1
LAYOUT
  2
AcDbLayout
  3
AutoCAD 2000
 90
0
 91
0
280
0
281
0
  0
ENDSEC
  0
SECTION
  2
TABLES
  0
TABLE
  2
VPORT
  5
8
100
AcDbSymbolTable
 70
2
  0
VPORT
  5
1F4
100
AcDbSymbolTableRecord
100
AcDbViewportTableRecord
  2
*ACTIVE
 70
0
 10
0.0
 20
0.0
 11
1.0
 21
1.0
 12
11.0
 22
8.5
 13
0.0
 23
0.0
 14
1.0
 24
1.0
 15
0.0
 25
0.0
 16
0.0
 26
0.0
 36
1.0
 17
0.0
 27
0.0
 37
0.0
 40
17.0
 41
1.2941176471
 42
50.0
 43
0.0
 44
0.0
 50
0.0
 51
0.0
 71
0
 72
100
 73
1
 74
1
 75
0
 76
0
 77
0
 78
0
  0
ENDTAB
  0
TABLE
  2
LTYPE
  5
5
100
AcDbSymbolTable
 70
6
  0
LTYPE
  5
14
100
AcDbSymbolTableRecord
100
AcDbLinetypeTableRecord
  2
BYBLOCK
 70
0
  3

 72
65
 73
0
 40
0.0
  0
LTYPE
  5
15
100
AcDbSymbolTableRecord
100
AcDbLinetypeTableRecord
  2
BYLAYER
 70
0
  3

 72
65
 73
0
 40
0.0
  0
LTYPE
  5
16
100
AcDbSymbolTableRecord
100
AcDbLinetypeTableRecord
  2
CONTINUOUS
 70
64
  3
Solid line
 72
65
 73
0
 40
0.0
  0
LTYPE
  5
1F5
100
AcDbSymbolTableRecord
100
AcDbLinetypeTableRecord
  2
CENTER
 70
64
  3
____ _ ____ _ ____ _ ____ _ ____ _ ____ _ ____
 72
65
 73
4
 40
0.6
 49
0.375
 74
0
 49
-0.075
 74
0
 49
0.075
 74
0
 49
-0.075
 74
0
  0
LTYPE
  5
1F6
100
AcDbSymbolTableRecord
100
AcDbLinetypeTableRecord
  2
HIDDEN
 70
64
  3
- - - - - - - - - - - - - - - - - - - -
 72
65
 73
2
 40
0.2
 49
0.1
 74
0
 49
-0.1
 74
0
  0
LTYPE
  5
1F7
100
AcDbSymbolTableRecord
100
AcDbLinetypeTableRecord
  2
PHANTOM
 70
64
  3
_____ _ _ _____ _ _ _____ _ _ _____
 72
65
 73
6
 40
0.8
 49
0.45
 74
0
 49
-0.05
 74
0
 49
0.1
 74
0
 49
-0.05
 74
0
 49
0.1
 74
0
 49
-0.05
 74
0
  0
LTYPE
  5
1F8
100
AcDbSymbolTableRecord
100
AcDbLinetypeTableRecord
  2
DOT
 70
64
  3
. . . . . . . . . . . . . . . . . . . .
 72
65
 73
2
 40
0.2
 49
0.1
 74
0
 49
-0.1
 74
0
  0
LTYPE
  5
1F9
100
AcDbSymbolTableRecord
100
AcDbLinetypeTableRecord
  2
DASHED
 70
64
  3
- - - - - - - - - - - - - - - - - - - -
 72
65
 73
2
 40
0.2
 49
0.1
 74
0
 49
-0.1
 74
0
  0
ENDTAB
  0
TABLE
  2
LAYER
  5
2
100
AcDbSymbolTable
 70
36
  0
LAYER
  5
10
100
AcDbSymbolTableRecord
100
AcDbLayerTableRecord
  2
0
 70
0
 62
7
  6
CONTINUOUS
370
-3
390
F
  0
LAYER
  5
1FA
100
AcDbSymbolTableRecord
100
AcDbLayerTableRecord
  2
DEFAULT_1
 70
0
 62
7
  6
CENTER
370
-3
390
F
  0
LAYER
  5
1FB
100
AcDbSymbolTableRecord
100
AcDbLayerTableRecord
  2
DEFAULT_2
 70
0
 62
8
  6
HIDDEN
370
-3
390
F
  0
LAYER
  5
1FC
100
AcDbSymbolTableRecord
100
AcDbLayerTableRecord
  2
DEFAULT_3
 70
0
 62
7
  6
PHANTOM
370
-3
390
F
  0
LAYER
  5
1FD
100
AcDbSymbolTableRecord
100
AcDbLayerTableRecord
  2
01_ALL_DTM_PLN
 70
0
 62
7
  6
CONTINUOUS
370
-3
390
F
  0
LAYER
  5
1FE
100
AcDbSymbolTableRecord
100
AcDbLayerTableRecord
  2
01__ASM_ALL_DTM_PLN
 70
0
 62
7
  6
CONTINUOUS
370
-3
390
F
  0
LAYER
  5
1FF
100
AcDbSymbolTableRecord
100
AcDbLayerTableRecord
  2
01__ASM_DEF_DTM_PLN
 70
0
 62
7
  6
CONTINUOUS
370
-3
390
F
  0
LAYER
  5
200
100
AcDbSymbolTableRecord
100
AcDbLayerTableRecord
  2
01___PRT_ALL_DTM_PLN
 70
0
 62
7
  6
CONTINUOUS
370
-3
390
F
  0
LAYER
  5
201
100
AcDbSymbolTableRecord
100
AcDbLayerTableRecord
  2
01___PRT_DEF_DTM_PLN
 70
0
 62
7
  6
CONTINUOUS
370
-3
390
F
  0
LAYER
  5
202
100
AcDbSymbolTableRecord
100
AcDbLayerTableRecord
  2
02_ALL_AXES
 70
0
 62
7
  6
CONTINUOUS
370
-3
390
F
  0
LAYER
  5
203
100
AcDbSymbolTableRecord
100
AcDbLayerTableRecord
  2
02__ASM_ALL_AXES
 70
0
 62
7
  6
CONTINUOUS
370
-3
390
F
  0
LAYER
  5
204
100
AcDbSymbolTableRecord
100
AcDbLayerTableRecord
  2
02___PRT_ALL_AXES
 70
0
 62
7
  6
CONTINUOUS
370
-3
390
F
  0
LAYER
  5
205
100
AcDbSymbolTableRecord
100
AcDbLayerTableRecord
  2
03_ALL_CURVES
 70
0
 62
7
  6
CONTINUOUS
370
-3
390
F
  0
LAYER
  5
206
100
AcDbSymbolTableRecord
100
AcDbLayerTableRecord
  2
03__ASM_ALL_CURVES
 70
0
 62
7
  6
CONTINUOUS
370
-3
390
F
  0
LAYER
  5
207
100
AcDbSymbolTableRecord
100
AcDbLayerTableRecord
  2
03___PRT_ALL_CURVES
 70
0
 62
7
  6
CONTINUOUS
370
-3
390
F
  0
LAYER
  5
208
100
AcDbSymbolTableRecord
100
AcDbLayerTableRecord
  2
04_ALL_DTM_PNT
 70
0
 62
7
  6
CONTINUOUS
370
-3
390
F
  0
LAYER
  5
209
100
AcDbSymbolTableRecord
100
AcDbLayerTableRecord
  2
04__ASM_ALL_DTM_PNT
 70
0
 62
7
  6
CONTINUOUS
370
-3
390
F
  0
LAYER
  5
20A
100
AcDbSymbolTableRecord
100
AcDbLayerTableRecord
  2
04___PRT_ALL_DTM_PNT
 70
0
 62
7
  6
CONTINUOUS
370
-3
390
F
  0
LAYER
  5
20B
100
AcDbSymbolTableRecord
100
AcDbLayerTableRecord
  2
05_ALL_DTM_CSYS
 70
0
 62
7
  6
CONTINUOUS
370
-3
390
F
  0
LAYER
  5
20C
100
AcDbSymbolTableRecord
100
AcDbLayerTableRecord
  2
05__ASM_ALL_DTM_CSYS
 70
0
 62
7
  6
CONTINUOUS
370
-3
390
F
  0
LAYER
  5
20D
100
AcDbSymbolTableRecord
100
AcDbLayerTableRecord
  2
05__ASM_DEF_DTM_CSYS
 70
0
 62
7
  6
CONTINUOUS
370
-3
390
F
  0
LAYER
  5
20E
100
AcDbSymbolTableRecord
100
AcDbLayerTableRecord
  2
05___PRT_ALL_DTM_CSYS
 70
0
 62
7
  6
CONTINUOUS
370
-3
390
F
  0
LAYER
  5
20F
100
AcDbSymbolTableRecord
100
AcDbLayerTableRecord
  2
05___PRT_DEF_DTM_CSYS
 70
0
 62
7
  6
CONTINUOUS
370
-3
390
F
  0
LAYER
  5
210
100
AcDbSymbolTableRecord
100
AcDbLayerTableRecord
  2
06_ALL_SURFS
 70
0
 62
7
  6
CONTINUOUS
370
-3
390
F
  0
LAYER
  5
211
100
AcDbSymbolTableRecord
100
AcDbLayerTableRecord
  2
06__ASM_ALL_SURFS
 70
0
 62
7
  6
CONTINUOUS
370
-3
390
F
  0
LAYER
  5
212
100
AcDbSymbolTableRecord
100
AcDbLayerTableRecord
  2
06___PRT_ALL_SURFS
 70
0
 62
7
  6
CONTINUOUS
370
-3
390
F
  0
LAYER
  5
213
100
AcDbSymbolTableRecord
100
AcDbLayerTableRecord
  2
07__ASM_ALL_SKELETONS
 70
0
 62
7
  6
CONTINUOUS
370
-3
390
F
  0
ENDTAB
  0
TABLE
  2
STYLE
  5
3
100
AcDbSymbolTable
 70
1
  0
STYLE
  5
11
100
AcDbSymbolTableRecord
100
AcDbTextStyleTableRecord
  2
STANDARD
 70
0
 40
0.0
 41
0.8
 50
0.0
 71
0
 42
0.2
  3
txt
  4

  0
STYLE
  5
214
100
AcDbSymbolTableRecord
100
AcDbTextStyleTableRecord
  2
TEXTSTYLE_1
 70
0
 40
0.0
 41
0.8
 50
0.0
 71
0
 42
0.2
  3
gdt
  4

  0
ENDTAB
  0
TABLE
  2
VIEW
  5
6
100
AcDbSymbolTable
 70
0
  0
ENDTAB
  0
TABLE
  2
UCS
  5
7
100
AcDbSymbolTable
 70
0
  0
ENDTAB
  0
TABLE
  2
APPID
  5
9
100
AcDbSymbolTable
 70
1
  0
APPID
  5
215
100
AcDbSymbolTableRecord
100
AcDbRegAppTableRecord
  2
ACAD
 70
0
  0
ENDTAB
  0
TABLE
  2
BLOCK_RECORD
  5
1
100
AcDbSymbolTable
 70
0
  0
BLOCK_RECORD
  5
216
100
AcDbSymbolTableRecord
100
AcDbBlockTableRecord
  2
*Model_Space
  0
BLOCK_RECORD
  5
217
100
AcDbSymbolTableRecord
100
AcDbBlockTableRecord
  2
*Paper_Space
  0
ENDTAB
  0
TABLE
  2
DIMSTYLE
  5
A
100
AcDbSymbolTable
 70
1
100
AcDbDimStyleTable
 71
0
  0
DIMSTYLE
105
218
100
AcDbSymbolTableRecord
100
AcDbDimStyleTableRecord
  2
STANDARD
 70
0
  3

  4

 40
1.0
 41
0.1875
 42
0.0625
 43
0.38
 44
0.125
 45
0.0
 46
0.0
 47
0.0001
 48
0.0001
140
0.15625
141
0.09
142
0.0
143
25.4
144
1.0
145
0.0
146
1.0
147
0.09
 71
0.0
 72
0.0
 73
1
 74
1
 75
0
 76
0
 77
0
 78
4
 79
1
170
0
171
3
172
0
173
0
174
0
175
0
176
0
177
0
178
0
270
2
179
4
271
4
272
4
273
2
274
2
275
0
280
0
281
0
282
0
283
1
284
4
285
0
286
0
287
3
288
0
340
11
278
46
  0
ENDTAB
  0
ENDSEC
  0
SECTION
  2
BLOCKS
  0
BLOCK
  5
20
100
AcDbEntity
  8
0
100
AcDbBlockBegin
  2
*Model_Space
 70
0
 10
0.0
 20
0.0
 30
0.0
  3
*Model_Space
  1

  0
ENDBLK
  5
21
100
AcDbEntity
  8
0
100
AcDbBlockEnd
  0
BLOCK
  5
1C
100
AcDbEntity
  8
0
100
AcDbBlockBegin
  2
*Paper_Space
 70
0
 10
0.0
 20
0.0
 30
0.0
  3
*Paper_Space
  1

  0
ENDBLK
  5
1D
100
AcDbEntity
  8
0
100
AcDbBlockEnd
  0
ENDSEC
  0
SECTION
  2
ENTITIES
  0
MTEXT
  5
219
100
AcDbEntity
  8
0
100
AcDbMText
 62
7
  6
CONTINUOUS
  7
STANDARD
 71
1
 72
1
 10
15.9560215477
 20
0.9479130325
 30
0.0
 11
1.0
 21
0.0
 31
0.0
 44
0.9
  1
SCALE: 1:1.000
 40
0.3
 41
3.36
  0
LINE
  5
21A
100
AcDbEntity
  8
0
100
AcDbLine
 62
7
  6
CONTINUOUS
 10
0.0
 20
0.0
 11
0.0
 21
17.0
  0
LINE
  5
21B
100
AcDbEntity
  8
0
100
AcDbLine
 62
7
  6
CONTINUOUS
 10
0.0
 20
0.0
 11
22.0
 21
0.0
  0
LINE
  5
21C
100
AcDbEntity
  8
0
100
AcDbLine
 62
7
  6
CONTINUOUS
 10
0.0
 20
17.0
 11
22.0
 21
17.0
  0
LINE
  5
21D
100
AcDbEntity
  8
0
100
AcDbLine
 62
7
  6
CONTINUOUS
 10
22.0
 20
0.0
 11
22.0
 21
17.0
  0
LINE
  5
21E
100
AcDbEntity
  8
0
100
AcDbLine
 62
7
  6
CONTINUOUS
 10
5.7553672762
 20
5.6636199056
 11
5.7553672762
 21
5.6175351553
  0
LINE
  5
21F
100
AcDbEntity
  8
0
100
AcDbLine
 62
7
  6
CONTINUOUS
 10
5.8181264636
 20
5.3701494294
 11
5.7587746935
 21
5.5916532508
  0
LINE
  5
220
100
AcDbEntity
  8
0
100
AcDbLine
 62
7
  6
CONTINUOUS
 10
5.8422746093
 20
5.3516199056
 11
6.4184599431
 21
5.3516199056
  0
LINE
  5
221
100
AcDbEntity
  8
0
100
AcDbLine
 62
7
  6
CONTINUOUS
 10
5.8121749833
 20
5.4639532389
 11
6.448559569
 21
5.4639532389
  0
LINE
  5
222
100
AcDbEntity
  8
0
100
AcDbLine
 62
7
  6
CONTINUOUS
 10
6.4803672762
 20
5.6886199056
 11
5.7803672762
 21
5.6886199056
  0
LINE
  5
223
100
AcDbEntity
  8
0
100
AcDbLine
 62
7
  6
CONTINUOUS
 10
6.4426080887
 20
5.3701494294
 11
6.5019598588
 21
5.5916532508
  0
LINE
  5
224
100
AcDbEntity
  8
0
100
AcDbLine
 62
7
  6
CONTINUOUS
 10
6.5053672762
 20
5.6175351553
 11
6.5053672762
 21
5.6636199056
  0
LINE
  5
225
100
AcDbEntity
  8
0
100
AcDbLine
 62
7
  6
CONTINUOUS
 10
6.4458720839
 20
10.6000477814
 11
5.6958720839
 21
10.6000477814
  0
LINE
  5
226
100
AcDbEntity
  8
0
100
AcDbLine
 62
7
  6
CONTINUOUS
 10
5.6958720839
 20
10.6000477814
 11
5.6958720839
 21
14.6000477814
  0
LINE
  5
227
100
AcDbEntity
  8
0
100
AcDbLine
 62
7
  6
CONTINUOUS
 10
6.4458720839
 20
10.6000477814
 11
6.4458720839
 21
14.6000477814
  0
LINE
  5
228
100
AcDbEntity
  8
0
100
AcDbLine
 62
7
  6
CONTINUOUS
 10
5.6958720839
 20
14.6000477814
 11
6.4458720839
 21
14.6000477814
  0
LINE
  5
229
100
AcDbEntity
  8
0
100
AcDbLine
 62
7
  6
CONTINUOUS
 10
13.5603552569
 20
5.4044580466
 11
13.5603552569
 21
5.6291247133
  0
LINE
  5
22A
100
AcDbEntity
  8
0
100
AcDbLine
 62
7
  6
CONTINUOUS
 10
13.6774132275
 20
5.3826920887
 11
13.6932972863
 21
5.3138906711
  0
LINE
  5
22B
100
AcDbEntity
  8
0
100
AcDbLine
 62
7
  6
CONTINUOUS
 10
13.9274132275
 20
5.3138906711
 11
13.9432972863
 21
5.3826920887
  0
LINE
  5
22C
100
AcDbEntity
  8
0
100
AcDbLine
 62
7
  6
CONTINUOUS
 10
14.1774132275
 20
5.3826920887
 11
14.1932972863
 21
5.3138906711
  0
LINE
  5
22D
100
AcDbEntity
  8
0
100
AcDbLine
 62
7
  6
CONTINUOUS
 10
14.4274132275
 20
5.3138906711
 11
14.4432972863
 21
5.3826920887
  0
LINE
  5
22E
100
AcDbEntity
  8
0
100
AcDbLine
 62
7
  6
CONTINUOUS
 10
14.6774132275
 20
5.3826920887
 11
14.6932972863
 21
5.3138906711
  0
LINE
  5
22F
100
AcDbEntity
  8
0
100
AcDbLine
 62
7
  6
CONTINUOUS
 10
14.9274132275
 20
5.3138906711
 11
14.9432972863
 21
5.3826920887
  0
LINE
  5
230
100
AcDbEntity
  8
0
100
AcDbLine
 62
7
  6
CONTINUOUS
 10
15.1774132275
 20
5.3826920887
 11
15.1932972863
 21
5.3138906711
  0
LINE
  5
231
100
AcDbEntity
  8
0
100
AcDbLine
 62
7
  6
CONTINUOUS
 10
13.7206608457
 20
5.2921247133
 11
13.9000496682
 21
5.2921247133
  0
LINE
  5
232
100
AcDbEntity
  8
0
100
AcDbLine
 62
7
  6
CONTINUOUS
 10
14.2206608457
 20
5.2921247133
 11
14.4000496682
 21
5.2921247133
  0
LINE
  5
233
100
AcDbEntity
  8
0
100
AcDbLine
 62
7
  6
CONTINUOUS
 10
14.7206608457
 20
5.2921247133
 11
14.9000496682
 21
5.2921247133
  0
LINE
  5
234
100
AcDbEntity
  8
0
100
AcDbLine
 62
7
  6
CONTINUOUS
 10
15.2206608457
 20
5.2921247133
 11
15.4000496682
 21
5.2921247133
  0
LINE
  5
235
100
AcDbEntity
  8
0
100
AcDbLine
 62
7
  6
CONTINUOUS
 10
15.7206608457
 20
5.2921247133
 11
15.9000496682
 21
5.2921247133
  0
LINE
  5
236
100
AcDbEntity
  8
0
100
AcDbLine
 62
7
  6
CONTINUOUS
 10
16.2206608457
 20
5.2921247133
 11
16.4000496682
 21
5.2921247133
  0
LINE
  5
237
100
AcDbEntity
  8
0
100
AcDbLine
 62
7
  6
CONTINUOUS
 10
16.7206608457
 20
5.2921247133
 11
16.9000496682
 21
5.2921247133
  0
LINE
  5
238
100
AcDbEntity
  8
0
100
AcDbLine
 62
7
  6
CONTINUOUS
 10
17.2206608457
 20
5.2921247133
 11
17.4000496682
 21
5.2921247133
  0
LINE
  5
239
100
AcDbEntity
  8
0
100
AcDbLine
 62
7
  6
CONTINUOUS
 10
15.4274132275
 20
5.3138906711
 11
15.4432972863
 21
5.3826920887
  0
LINE
  5
23A
100
AcDbEntity
  8
0
100
AcDbLine
 62
7
  6
CONTINUOUS
 10
13.5603552569
 20
5.4044580466
 11
13.6500496682
 21
5.4044580466
  0
LINE
  5
23B
100
AcDbEntity
  8
0
100
AcDbLine
 62
7
  6
CONTINUOUS
 10
13.9706608457
 20
5.4044580466
 11
14.1500496682
 21
5.4044580466
  0
LINE
  5
23C
100
AcDbEntity
  8
0
100
AcDbLine
 62
7
  6
CONTINUOUS
 10
14.4706608457
 20
5.4044580466
 11
14.6500496682
 21
5.4044580466
  0
LINE
  5
23D
100
AcDbEntity
  8
0
100
AcDbLine
 62
7
  6
CONTINUOUS
 10
14.9706608457
 20
5.4044580466
 11
15.1500496682
 21
5.4044580466
  0
LINE
  5
23E
100
AcDbEntity
  8
0
100
AcDbLine
 62
7
  6
CONTINUOUS
 10
15.4706608457
 20
5.4044580466
 11
15.6500496682
 21
5.4044580466
  0
LINE
  5
23F
100
AcDbEntity
  8
0
100
AcDbLine
 62
7
  6
CONTINUOUS
 10
15.9706608457
 20
5.4044580466
 11
16.1500496682
 21
5.4044580466
  0
LINE
  5
240
100
AcDbEntity
  8
0
100
AcDbLine
 62
7
  6
CONTINUOUS
 10
16.4706608457
 20
5.4044580466
 11
16.6500496682
 21
5.4044580466
  0
LINE
  5
241
100
AcDbEntity
  8
0
100
AcDbLine
 62
7
  6
CONTINUOUS
 10
16.9706608457
 20
5.4044580466
 11
17.1500496682
 21
5.4044580466
  0
LINE
  5
242
100
AcDbEntity
  8
0
100
AcDbLine
 62
7
  6
CONTINUOUS
 10
17.4706608457
 20
5.4044580466
 11
17.5603552569
 21
5.4044580466
  0
LINE
  5
243
100
AcDbEntity
  8
0
100
AcDbLine
 62
7
  6
CONTINUOUS
 10
15.6774132275
 20
5.3826920887
 11
15.6932972863
 21
5.3138906711
  0
LINE
  5
244
100
AcDbEntity
  8
0
100
AcDbLine
 62
7
  6
CONTINUOUS
 10
13.5603552569
 20
5.6291247133
 11
17.5603552569
 21
5.6291247133
  0
LINE
  5
245
100
AcDbEntity
  8
0
100
AcDbLine
 62
7
  6
CONTINUOUS
 10
15.9274132275
 20
5.3138906711
 11
15.9432972863
 21
5.3826920887
  0
LINE
  5
246
100
AcDbEntity
  8
0
100
AcDbLine
 62
7
  6
CONTINUOUS
 10
16.1774132275
 20
5.3826920887
 11
16.1932972863
 21
5.3138906711
  0
LINE
  5
247
100
AcDbEntity
  8
0
100
AcDbLine
 62
7
  6
CONTINUOUS
 10
16.4274132275
 20
5.3138906711
 11
16.4432972863
 21
5.3826920887
  0
LINE
  5
248
100
AcDbEntity
  8
0
100
AcDbLine
 62
7
  6
CONTINUOUS
 10
16.6774132275
 20
5.3826920887
 11
16.6932972863
 21
5.3138906711
  0
LINE
  5
249
100
AcDbEntity
  8
0
100
AcDbLine
 62
7
  6
CONTINUOUS
 10
16.9274132275
 20
5.3138906711
 11
16.9432972863
 21
5.3826920887
  0
LINE
  5
24A
100
AcDbEntity
  8
0
100
AcDbLine
 62
7
  6
CONTINUOUS
 10
17.1774132275
 20
5.3826920887
 11
17.1932972863
 21
5.3138906711
  0
LINE
  5
24B
100
AcDbEntity
  8
0
100
AcDbLine
 62
7
  6
CONTINUOUS
 10
17.5603552569
 20
5.4044580466
 11
17.5603552569
 21
5.6291247133
  0
LINE
  5
24C
100
AcDbEntity
  8
0
100
AcDbLine
 62
7
  6
CONTINUOUS
 10
17.4274132275
 20
5.3138906711
 11
17.4432972863
 21
5.3826920887
  0
LINE
  5
24D
100
AcDbEntity
  8
0
100
AcDbLine
 62
7
  6
CONTINUOUS
 10
14.7428402852
 20
10.8743236539
 11
15.3289893043
 21
10.8743236539
  0
LINE
  5
24E
100
AcDbEntity
  8
0
100
AcDbLine
 62
7
  6
CONTINUOUS
 10
15.3566698634
 20
10.9194413621
 11
15.3660595218
 21
10.9194413621
  0
LINE
  5
24F
100
AcDbEntity
  8
0
100
AcDbLine
 62
7
  6
CONTINUOUS
 10
14.6547015113
 20
10.9537032542
 11
14.7149460896
 21
10.8858417906
  0
LWPOLYLINE
  5
250
100
AcDbEntity
  8
0
100
AcDbPolyline
 62
7
  6
CONTINUOUS
 90
5
 70
0
 10
15.3660543914
 20
10.9194416473
 10
15.3723021235
 20
10.9202302201
 10
15.3786012643
 20
10.9227947128
 10
15.3836536418
 20
10.9266155384
 10
15.3874598753
 20
10.9313222695
  0
LINE
  5
251
100
AcDbEntity
  8
0
100
AcDbLine
 62
7
  6
CONTINUOUS
 10
15.2897534033
 20
11.0139786934
 11
14.6450107075
 21
11.0139786934
  0
LINE
  5
252
100
AcDbEntity
  8
0
100
AcDbLine
 62
7
  6
CONTINUOUS
 10
14.6296102293
 20
10.9984384442
 11
14.6436680076
 21
10.9697917041
  0
LWPOLYLINE
  5
253
100
AcDbEntity
  8
0
100
AcDbPolyline
 62
7
  6
CONTINUOUS
 90
5
 70
0
 10
15.4870875531
 20
11.3111051021
 10
15.4933352852
 20
11.3118936749
 10
15.499634426
 20
11.3144581676
 10
15.5046868035
 20
11.3182789932
 10
15.508493037
 20
11.3229857243
  0
LINE
  5
254
100
AcDbEntity
  8
0
100
AcDbLine
 62
7
  6
CONTINUOUS
 10
15.4777030251
 20
11.311104817
 11
15.4870926835
 21
11.311104817
  0
LWPOLYLINE
  5
255
100
AcDbEntity
  8
0
100
AcDbPolyline
 62
7
  6
CONTINUOUS
 90
5
 70
0
 10
15.6081207148
 20
11.7027685569
 10
15.6143684469
 20
11.7035571297
 10
15.6206675877
 20
11.7061216224
 10
15.6257199652
 20
11.709942448
 10
15.6295261987
 20
11.7146491792
  0
LINE
  5
256
100
AcDbEntity
  8
0
100
AcDbLine
 62
7
  6
CONTINUOUS
 10
15.5987361868
 20
11.7027682718
 11
15.6081258452
 21
11.7027682718
  0
LINE
  5
257
100
AcDbEntity
  8
0
100
AcDbLine
 62
7
  6
CONTINUOUS
 10
15.3344637531
 20
10.9697917041
 11
15.3204059748
 21
10.9984384442
  0
LINE
  5
258
100
AcDbEntity
  8
0
100
AcDbLine
 62
7
  6
CONTINUOUS
 10
14.6287512331
 20
11.0058196285
 11
15.5970165267
 21
14.139127267
  0
LWPOLYLINE
  5
259
100
AcDbEntity
  8
0
100
AcDbPolyline
 62
7
  6
CONTINUOUS
 90
5
 70
0
 10
15.7291538765
 20
12.0944320117
 10
15.7354016086
 20
12.0952205845
 10
15.7417007495
 20
12.0977850773
 10
15.7467531269
 20
12.1016059028
 10
15.7505593604
 20
12.106312634
  0
LINE
  5
25A
100
AcDbEntity
  8
0
100
AcDbLine
 62
7
  6
CONTINUOUS
 10
15.7197693485
 20
12.0944317266
 11
15.7291590069
 21
12.0944317266
  0
LINE
  5
25B
100
AcDbEntity
  8
0
100
AcDbLine
 62
7
  6
CONTINUOUS
 10
15.3455789388
 20
10.8858417906
 11
15.3392203783
 21
10.9537032542
  0
LINE
  5
25C
100
AcDbEntity
  8
0
100
AcDbLine
 62
7
  6
CONTINUOUS
 10
15.4357225584
 20
11.0900404843
 11
15.4355602626
 21
11.1452505427
  0
LWPOLYLINE
  5
25D
100
AcDbEntity
  8
0
100
AcDbPolyline
 62
7
  6
CONTINUOUS
 90
6
 70
0
 10
15.435560317
 20
11.1452687003
 10
15.4356016407
 20
11.1486729628
 10
15.4363469787
 20
11.1605851493
 10
15.4380605194
 20
11.1743685551
 10
15.4405552418
 20
11.1881188345
 10
15.443440662
 20
11.2000297916
  0
LWPOLYLINE
  5
25E
100
AcDbEntity
  8
0
100
AcDbPolyline
 62
7
  6
CONTINUOUS
 90
5
 70
0
 10
15.8501870382
 20
12.4860954666
 10
15.8564347703
 20
12.4868840393
 10
15.8627339112
 20
12.4894485321
 10
15.8677862886
 20
12.4932693577
 10
15.8715925221
 20
12.4979760888
  0
LINE
  5
25F
100
AcDbEntity
  8
0
100
AcDbLine
 62
7
  6
CONTINUOUS
 10
15.8408025102
 20
12.4860951814
 11
15.8501921686
 21
12.4860951814
  0
LINE
  5
260
100
AcDbEntity
  8
0
100
AcDbLine
 62
7
  6
CONTINUOUS
 10
15.5567557201
 20
11.4817039391
 11
15.5565934243
 21
11.5369139975
  0
LWPOLYLINE
  5
261
100
AcDbEntity
  8
0
100
AcDbPolyline
 62
7
  6
CONTINUOUS
 90
6
 70
0
 10
15.5565934787
 20
11.5369321551
 10
15.5566348024
 20
11.5403364176
 10
15.5573801404
 20
11.5522486041
 10
15.5590936811
 20
11.5660320099
 10
15.5615884035
 20
11.5797822893
 10
15.5644738237
 20
11.5916932465
  0
LINE
  5
262
100
AcDbEntity
  8
0
100
AcDbLine
 62
7
  6
CONTINUOUS
 10
15.4355030127
 20
11.0860266023
 11
15.4357225555
 21
11.0900419946
  0
LINE
  5
263
100
AcDbEntity
  8
0
100
AcDbLine
 62
7
  6
CONTINUOUS
 10
15.3452462637
 20
10.8824834928
 11
15.3455789388
 21
10.8858417906
  0
LINE
  5
264
100
AcDbEntity
  8
0
100
AcDbLine
 62
7
  6
CONTINUOUS
 10
15.6777888818
 20
11.8733673939
 11
15.677626586
 21
11.9285774523
  0
LWPOLYLINE
  5
265
100
AcDbEntity
  8
0
100
AcDbPolyline
 62
7
  6
CONTINUOUS
 90
6
 70
0
 10
15.6776266404
 20
11.9285956099
 10
15.6776679641
 20
11.9319998724
 10
15.6784133021
 20
11.9439120589
 10
15.6801268428
 20
11.9576954647
 10
15.6826215652
 20
11.9714457441
 10
15.6855069854
 20
11.9833567013
  0
LINE
  5
266
100
AcDbEntity
  8
0
100
AcDbLine
 62
7
  6
CONTINUOUS
 10
15.5565361744
 20
11.4776900571
 11
15.5567557172
 21
11.4817054494
  0
LINE
  5
267
100
AcDbEntity
  8
0
100
AcDbLine
 62
7
  6
CONTINUOUS
 10
15.6775693361
 20
11.8693535119
 11
15.6777888789
 21
11.8733689042
  0
LINE
  5
268
100
AcDbEntity
  8
0
100
AcDbLine
 62
7
  6
CONTINUOUS
 10
16.2159817308
 20
13.6996773227
 11
16.2173252686
 21
13.7029609893
  0
LINE
  5
269
100
AcDbEntity
  8
0
100
AcDbLine
 62
7
  6
CONTINUOUS
 10
16.2173252686
 20
13.7029609893
 11
16.2178800202
 21
13.7041019442
  0
LINE
  5
26A
100
AcDbEntity
  8
0
100
AcDbLine
 62
7
  6
CONTINUOUS
 10
16.0962921069
 20
13.3112975345
 11
16.0968468585
 21
13.3124384894
  0
LWPOLYLINE
  5
26B
100
AcDbEntity
  8
0
100
AcDbPolyline
 62
7
  6
CONTINUOUS
 90
3
 70
0
 10
16.2346920072
 20
13.6729664532
 10
16.23713115
 20
13.6778535123
 10
16.2378312784
 20
13.6798808044
  0
LWPOLYLINE
  5
26C
100
AcDbEntity
  8
0
100
AcDbPolyline
 62
7
  6
CONTINUOUS
 90
3
 70
0
 10
16.1136588455
 20
13.2813029984
 10
16.1160979883
 20
13.2861900575
 10
16.1167981167
 20
13.2882173496
  0
LINE
  5
26D
100
AcDbEntity
  8
0
100
AcDbLine
 62
7
  6
CONTINUOUS
 10
15.7988220435
 20
12.2650308487
 11
15.7986597477
 21
12.3202409071
  0
LWPOLYLINE
  5
26E
100
AcDbEntity
  8
0
100
AcDbPolyline
 62
7
  6
CONTINUOUS
 90
6
 70
0
 10
15.7986598021
 20
12.3202590647
 10
15.7987011258
 20
12.3236633272
 10
15.7994464638
 20
12.3355755137
 10
15.8011600045
 20
12.3493589195
 10
15.8036547269
 20
12.3631091989
 10
15.8065401471
 20
12.3750201561
  0
LINE
  5
26F
100
AcDbEntity
  8
0
100
AcDbLine
 62
7
  6
CONTINUOUS
 10
15.7986024978
 20
12.2610169667
 11
15.7988220406
 21
12.265032359
  0
LWPOLYLINE
  5
270
100
AcDbEntity
  8
0
100
AcDbPolyline
 62
7
  6
CONTINUOUS
 90
3
 70
0
 10
15.4340199799
 20
11.0787468138
 10
15.4349104576
 20
11.0822415002
 10
15.4355030127
 20
11.0860266023
  0
LWPOLYLINE
  5
271
100
AcDbEntity
  8
0
100
AcDbPolyline
 62
7
  6
CONTINUOUS
 90
3
 70
0
 10
15.5550531416
 20
11.4704102686
 10
15.5559436193
 20
11.4739049551
 10
15.5565361744
 20
11.4776900571
  0
LWPOLYLINE
  5
272
100
AcDbEntity
  8
0
100
AcDbPolyline
 62
7
  6
CONTINUOUS
 90
3
 70
0
 10
15.6760863033
 20
11.8620737234
 10
15.676976781
 20
11.8655684099
 10
15.6775693361
 20
11.8693535119
  0
LWPOLYLINE
  5
273
100
AcDbEntity
  8
0
100
AcDbPolyline
 62
7
  6
CONTINUOUS
 90
3
 70
0
 10
15.797119465
 20
12.2537371782
 10
15.7980099427
 20
12.2572318647
 10
15.7986024978
 20
12.2610169667
  0
LINE
  5
274
100
AcDbEntity
  8
0
100
AcDbLine
 62
7
  6
CONTINUOUS
 10
15.443440662
 20
11.2000297916
 11
15.444564969
 21
11.2038717477
  0
LINE
  5
275
100
AcDbEntity
  8
0
100
AcDbLine
 62
7
  6
CONTINUOUS
 10
15.5644738237
 20
11.5916932465
 11
15.5655981307
 21
11.5955352025
  0
LINE
  5
276
100
AcDbEntity
  8
0
100
AcDbLine
 62
7
  6
CONTINUOUS
 10
15.6855069854
 20
11.9833567013
 11
15.6866312924
 21
11.9871986573
  0
LINE
  5
277
100
AcDbEntity
  8
0
100
AcDbLine
 62
7
  6
CONTINUOUS
 10
15.8065401471
 20
12.3750201561
 11
15.8076644541
 21
12.3788621121
  0
LINE
  5
278
100
AcDbEntity
  8
0
100
AcDbLine
 62
7
  6
CONTINUOUS
 10
15.9275733088
 20
12.7666836109
 11
15.9286976158
 21
12.7705255669
  0
LINE
  5
279
100
AcDbEntity
  8
0
100
AcDbLine
 62
7
  6
CONTINUOUS
 10
16.0486064705
 20
13.1583470657
 11
16.0497307775
 21
13.1621890217
  0
LINE
  5
27A
100
AcDbEntity
  8
0
100
AcDbLine
 62
7
  6
CONTINUOUS
 10
16.1696396323
 20
13.5500105205
 11
16.1707639392
 21
13.5538524765
  0
LINE
  5
27B
100
AcDbEntity
  8
0
100
AcDbLine
 62
7
  6
CONTINUOUS
 10
15.3462251046
 20
10.8856421103
 11
15.3669607743
 21
10.9527427622
  0
LINE
  5
27C
100
AcDbEntity
  8
0
100
AcDbLine
 62
7
  6
CONTINUOUS
 10
15.4445699441
 20
11.2038861276
 11
15.487993936
 21
11.344406217
  0
LINE
  5
27D
100
AcDbEntity
  8
0
100
AcDbLine
 62
7
  6
CONTINUOUS
 10
15.5656031058
 20
11.5955495824
 11
15.6090270977
 21
11.7360696718
  0
LINE
  5
27E
100
AcDbEntity
  8
0
100
AcDbLine
 62
7
  6
CONTINUOUS
 10
15.6866362675
 20
11.9872130372
 11
15.7300602594
 21
12.1277331266
  0
LINE
  5
27F
100
AcDbEntity
  8
0
100
AcDbLine
 62
7
  6
CONTINUOUS
 10
15.8076694292
 20
12.3788764921
 11
15.8510934211
 21
12.5193965814
  0
LINE
  5
280
100
AcDbEntity
  8
0
100
AcDbLine
 62
7
  6
CONTINUOUS
 10
15.9287025909
 20
12.7705399469
 11
15.9721265829
 21
12.9110600363
  0
LINE
  5
281
100
AcDbEntity
  8
0
100
AcDbLine
 62
7
  6
CONTINUOUS
 10
16.0497357526
 20
13.1622034017
 11
16.0931597446
 21
13.3027234911
  0
LINE
  5
282
100
AcDbEntity
  8
0
100
AcDbLine
 62
7
  6
CONTINUOUS
 10
16.1707689143
 20
13.5538668565
 11
16.2141929063
 21
13.6943869459
  0
LINE
  5
283
100
AcDbEntity
  8
0
100
AcDbLine
 62
7
  6
CONTINUOUS
 10
16.291802076
 20
13.9455303113
 11
16.3135140724
 21
14.0157903573
  0
LINE
  5
284
100
AcDbEntity
  8
0
100
AcDbLine
 62
7
  6
CONTINUOUS
 10
16.2141934584
 20
13.6943890345
 11
16.2159817308
 21
13.6996773227
  0
LINE
  5
285
100
AcDbEntity
  8
0
100
AcDbLine
 62
7
  6
CONTINUOUS
 10
16.0931602967
 20
13.3027255797
 11
16.0949485691
 21
13.3080138679
  0
LINE
  5
286
100
AcDbEntity
  8
0
100
AcDbLine
 62
7
  6
CONTINUOUS
 10
15.972127135
 20
12.9110621249
 11
15.9739154074
 21
12.9163504131
  0
LINE
  5
287
100
AcDbEntity
  8
0
100
AcDbLine
 62
7
  6
CONTINUOUS
 10
15.8510939733
 20
12.5193986701
 11
15.8528822457
 21
12.5246869583
  0
LINE
  5
288
100
AcDbEntity
  8
0
100
AcDbLine
 62
7
  6
CONTINUOUS
 10
15.7300608116
 20
12.1277352153
 11
15.731849084
 21
12.1330235035
  0
LINE
  5
289
100
AcDbEntity
  8
0
100
AcDbLine
 62
7
  6
CONTINUOUS
 10
15.6090276499
 20
11.7360717605
 11
15.6108159223
 21
11.7413600487
  0
LINE
  5
28A
100
AcDbEntity
  8
0
100
AcDbLine
 62
7
  6
CONTINUOUS
 10
16.0949485691
 20
13.3080138679
 11
16.0962921069
 21
13.3112975345
  0
LINE
  5
28B
100
AcDbEntity
  8
0
100
AcDbLine
 62
7
  6
CONTINUOUS
 10
15.9739154074
 20
12.9163504131
 11
15.9752589452
 21
12.9196340797
  0
LINE
  5
28C
100
AcDbEntity
  8
0
100
AcDbLine
 62
7
  6
CONTINUOUS
 10
15.8528822457
 20
12.5246869583
 11
15.8542257835
 21
12.5279706249
  0
LINE
  5
28D
100
AcDbEntity
  8
0
100
AcDbLine
 62
7
  6
CONTINUOUS
 10
15.731849084
 20
12.1330235035
 11
15.7331926218
 21
12.1363071701
  0
LINE
  5
28E
100
AcDbEntity
  8
0
100
AcDbLine
 62
7
  6
CONTINUOUS
 10
15.9752589452
 20
12.9196340797
 11
15.9758136968
 21
12.9207750346
  0
LINE
  5
28F
100
AcDbEntity
  8
0
100
AcDbLine
 62
7
  6
CONTINUOUS
 10
15.8542257835
 20
12.5279706249
 11
15.8547805351
 21
12.5291115798
  0
LWPOLYLINE
  5
290
100
AcDbEntity
  8
0
100
AcDbPolyline
 62
7
  6
CONTINUOUS
 90
3
 70
0
 10
15.9926256838
 20
12.8896395436
 10
15.9950648266
 20
12.8945266027
 10
15.995764955
 20
12.8965538948
  0
LWPOLYLINE
  5
291
100
AcDbEntity
  8
0
100
AcDbPolyline
 62
7
  6
CONTINUOUS
 90
3
 70
0
 10
15.8715925221
 20
12.4979760888
 10
15.8740316649
 20
12.5028631479
 10
15.8747317933
 20
12.50489044
  0
LWPOLYLINE
  5
292
100
AcDbEntity
  8
0
100
AcDbPolyline
 62
7
  6
CONTINUOUS
 90
5
 70
0
 10
15.9712201999
 20
12.8777589214
 10
15.977467932
 20
12.8785474942
 10
15.9837670729
 20
12.8811119869
 10
15.9888194503
 20
12.8849328125
 10
15.9926256838
 20
12.8896395436
  0
LINE
  5
293
100
AcDbEntity
  8
0
100
AcDbLine
 62
7
  6
CONTINUOUS
 10
15.9618356719
 20
12.8777586362
 11
15.9712253303
 21
12.8777586362
  0
LINE
  5
294
100
AcDbEntity
  8
0
100
AcDbLine
 62
7
  6
CONTINUOUS
 10
15.9198552053
 20
12.6566943035
 11
15.9196929094
 21
12.711904362
  0
LWPOLYLINE
  5
295
100
AcDbEntity
  8
0
100
AcDbPolyline
 62
7
  6
CONTINUOUS
 90
6
 70
0
 10
15.9196929638
 20
12.7119225195
 10
15.9197342875
 20
12.715326782
 10
15.9204796255
 20
12.7272389685
 10
15.9221931662
 20
12.7410223743
 10
15.9246878886
 20
12.7547726537
 10
15.9275733088
 20
12.7666836109
  0
LINE
  5
296
100
AcDbEntity
  8
0
100
AcDbLine
 62
7
  6
CONTINUOUS
 10
15.9196356595
 20
12.6526804215
 11
15.9198552023
 21
12.6566958138
  0
LWPOLYLINE
  5
297
100
AcDbEntity
  8
0
100
AcDbPolyline
 62
7
  6
CONTINUOUS
 90
3
 70
0
 10
15.9181526267
 20
12.645400633
 10
15.9190431044
 20
12.6488953195
 10
15.9196356595
 20
12.6526804215
  0
LWPOLYLINE
  5
298
100
AcDbEntity
  8
0
100
AcDbPolyline
 62
7
  6
CONTINUOUS
 90
3
 70
0
 10
16.0391857884
 20
13.0370640878
 10
16.0400762661
 20
13.0405587743
 10
16.0406688212
 20
13.0443438763
  0
LWPOLYLINE
  5
299
100
AcDbEntity
  8
0
100
AcDbPolyline
 62
7
  6
CONTINUOUS
 90
3
 70
0
 10
16.1602189501
 20
13.4287275427
 10
16.1611094278
 20
13.4322222291
 10
16.1617019829
 20
13.4360073312
  0
LWPOLYLINE
  5
29A
100
AcDbEntity
  8
0
100
AcDbPolyline
 62
7
  6
CONTINUOUS
 90
3
 70
0
 10
16.2812521118
 20
13.8203909975
 10
16.2821425895
 20
13.8238856839
 10
16.2827351446
 20
13.827670786
  0
LINE
  5
29B
100
AcDbEntity
  8
0
100
AcDbLine
 62
7
  6
CONTINUOUS
 10
16.290672794
 20
13.9416739753
 11
16.2917971009
 21
13.9455159314
  0
LINE
  5
29C
100
AcDbEntity
  8
0
100
AcDbLine
 62
7
  6
CONTINUOUS
 10
15.3905961415
 20
10.9382268804
 11
15.4340201427
 21
11.0787469998
  0
LINE
  5
29D
100
AcDbEntity
  8
0
100
AcDbLine
 62
7
  6
CONTINUOUS
 10
15.5116293033
 20
11.3298903353
 11
15.5550533044
 21
11.4704104546
  0
LINE
  5
29E
100
AcDbEntity
  8
0
100
AcDbLine
 62
7
  6
CONTINUOUS
 10
15.632662465
 20
11.7215537901
 11
15.6760864662
 21
11.8620739094
  0
LINE
  5
29F
100
AcDbEntity
  8
0
100
AcDbLine
 62
7
  6
CONTINUOUS
 10
15.7536956267
 20
12.1132172449
 11
15.7971196279
 21
12.2537373643
  0
LINE
  5
2A0
100
AcDbEntity
  8
0
100
AcDbLine
 62
7
  6
CONTINUOUS
 10
15.8747287884
 20
12.5048806997
 11
15.9181527896
 21
12.6454008191
  0
LINE
  5
2A1
100
AcDbEntity
  8
0
100
AcDbLine
 62
7
  6
CONTINUOUS
 10
15.9957619501
 20
12.8965441545
 11
16.0391859513
 21
13.0370642739
  0
LINE
  5
2A2
100
AcDbEntity
  8
0
100
AcDbLine
 62
7
  6
CONTINUOUS
 10
16.1167951118
 20
13.2882076093
 11
16.160219113
 21
13.4287277287
  0
LINE
  5
2A3
100
AcDbEntity
  8
0
100
AcDbLine
 62
7
  6
CONTINUOUS
 10
16.2378282735
 20
13.6798710641
 11
16.2812522747
 21
13.8203911835
  0
LINE
  5
2A4
100
AcDbEntity
  8
0
100
AcDbLine
 62
7
  6
CONTINUOUS
 10
15.4879944882
 20
11.3444083057
 11
15.4897827606
 21
11.3496965938
  0
LINE
  5
2A5
100
AcDbEntity
  8
0
100
AcDbLine
 62
7
  6
CONTINUOUS
 10
15.3669613264
 20
10.9527448508
 11
15.3687495989
 21
10.958033139
  0
LINE
  5
2A6
100
AcDbEntity
  8
0
100
AcDbLine
 62
7
  6
CONTINUOUS
 10
15.6108159223
 20
11.7413600487
 11
15.6121594601
 21
11.7446437153
  0
LINE
  5
2A7
100
AcDbEntity
  8
0
100
AcDbLine
 62
7
  6
CONTINUOUS
 10
15.4897827606
 20
11.3496965938
 11
15.4911262984
 21
11.3529802604
  0
LINE
  5
2A8
100
AcDbEntity
  8
0
100
AcDbLine
 62
7
  6
CONTINUOUS
 10
15.3687495989
 20
10.958033139
 11
15.3700931367
 21
10.9613168056
  0
LINE
  5
2A9
100
AcDbEntity
  8
0
100
AcDbLine
 62
7
  6
CONTINUOUS
 10
15.7331926218
 20
12.1363071701
 11
15.7337473734
 21
12.137448125
  0
LINE
  5
2AA
100
AcDbEntity
  8
0
100
AcDbLine
 62
7
  6
CONTINUOUS
 10
15.6121594601
 20
11.7446437153
 11
15.6127142116
 21
11.7457846701
  0
LWPOLYLINE
  5
2AB
100
AcDbEntity
  8
0
100
AcDbPolyline
 62
7
  6
CONTINUOUS
 90
3
 70
0
 10
15.7505593604
 20
12.106312634
 10
15.7529985032
 20
12.1111996931
 10
15.7536986316
 20
12.1132269852
  0
LWPOLYLINE
  5
2AC
100
AcDbEntity
  8
0
100
AcDbPolyline
 62
7
  6
CONTINUOUS
 90
3
 70
0
 10
15.6295261987
 20
11.7146491792
 10
15.6319653415
 20
11.7195362382
 10
15.6326654699
 20
11.7215635303
  0
LINE
  5
2AD
100
AcDbEntity
  8
0
100
AcDbLine
 62
7
  6
CONTINUOUS
 10
16.040888367
 20
13.0483577583
 11
16.0407260711
 21
13.1035678168
  0
LWPOLYLINE
  5
2AE
100
AcDbEntity
  8
0
100
AcDbPolyline
 62
7
  6
CONTINUOUS
 90
6
 70
0
 10
16.0407261255
 20
13.1035859743
 10
16.0407674492
 20
13.1069902369
 10
16.0415127872
 20
13.1189024233
 10
16.0432263279
 20
13.1326858291
 10
16.0457210503
 20
13.1464361085
 10
16.0486064705
 20
13.1583470657
  0
LINE
  5
2AF
100
AcDbEntity
  8
0
100
AcDbLine
 62
7
  6
CONTINUOUS
 10
16.0406688212
 20
13.0443438763
 11
16.040888364
 21
13.0483592686
  0
LINE
  5
2B0
100
AcDbEntity
  8
0
100
AcDbLine
 62
7
  6
CONTINUOUS
 10
15.4911262984
 20
11.3529802604
 11
15.4916810499
 21
11.3541212153
  0
LINE
  5
2B1
100
AcDbEntity
  8
0
100
AcDbLine
 62
7
  6
CONTINUOUS
 10
15.3700931367
 20
10.9613168056
 11
15.3706478882
 21
10.9624577605
  0
LWPOLYLINE
  5
2B2
100
AcDbEntity
  8
0
100
AcDbPolyline
 62
7
  6
CONTINUOUS
 90
3
 70
0
 10
15.508493037
 20
11.3229857243
 10
15.5109321798
 20
11.3278727834
 10
15.5116323082
 20
11.3299000755
  0
LINE
  5
2B3
100
AcDbEntity
  8
0
100
AcDbLine
 62
7
  6
CONTINUOUS
 10
16.1619215287
 20
13.4400212132
 11
16.1617592328
 21
13.4952312716
  0
LWPOLYLINE
  5
2B4
100
AcDbEntity
  8
0
100
AcDbPolyline
 62
7
  6
CONTINUOUS
 90
6
 70
0
 10
16.1617592872
 20
13.4952494292
 10
16.1618006109
 20
13.4986536917
 10
16.1625459489
 20
13.5105658781
 10
16.1642594896
 20
13.5243492839
 10
16.166754212
 20
13.5380995634
 10
16.1696396323
 20
13.5500105205
  0
LINE
  5
2B5
100
AcDbEntity
  8
0
100
AcDbLine
 62
7
  6
CONTINUOUS
 10
16.1617019829
 20
13.4360073312
 11
16.1619215257
 21
13.4400227234
  0
LINE
  5
2B6
100
AcDbEntity
  8
0
100
AcDbLine
 62
7
  6
CONTINUOUS
 10
16.2827351446
 20
13.827670786
 11
16.2829546874
 21
13.8316861783
  0
LINE
  5
2B7
100
AcDbEntity
  8
0
100
AcDbLine
 62
7
  6
CONTINUOUS
 10
16.3138442325
 20
14.0191494291
 11
16.3135115573
 21
14.0157911313
  0
LWPOLYLINE
  5
2B8
100
AcDbEntity
  8
0
100
AcDbPolyline
 62
7
  6
CONTINUOUS
 90
3
 70
0
 10
15.3874598753
 20
10.9313222695
 10
15.3898990181
 20
10.9362093286
 10
15.3905991465
 20
10.9382366207
  0
LWPOLYLINE
  5
2B9
100
AcDbEntity
  8
0
100
AcDbPolyline
 62
7
  6
CONTINUOUS
 90
5
 70
0
 10
16.0922533616
 20
13.2694223762
 10
16.0985010937
 20
13.270210949
 10
16.1048002346
 20
13.2727754417
 10
16.109852612
 20
13.2765962673
 10
16.1136588455
 20
13.2813029984
  0
LINE
  5
2BA
100
AcDbEntity
  8
0
100
AcDbLine
 62
7
  6
CONTINUOUS
 10
16.2829546904
 20
13.831684668
 11
16.2827923945
 21
13.8868947264
  0
LWPOLYLINE
  5
2BB
100
AcDbEntity
  8
0
100
AcDbPolyline
 62
7
  6
CONTINUOUS
 90
6
 70
0
 10
16.2827924489
 20
13.886912884
 10
16.2828337726
 20
13.8903171465
 10
16.2835791106
 20
13.902229333
 10
16.2852926513
 20
13.9160127388
 10
16.2877873738
 20
13.9297630182
 10
16.290672794
 20
13.9416739753
  0
LINE
  5
2BC
100
AcDbEntity
  8
0
100
AcDbLine
 62
7
  6
CONTINUOUS
 10
16.0828688336
 20
13.269422091
 11
16.092258492
 21
13.269422091
  0
LINE
  5
2BD
100
AcDbEntity
  8
0
100
AcDbLine
 62
7
  6
CONTINUOUS
 10
16.3138442325
 20
14.0191494291
 11
16.3074856719
 21
14.0870108927
  0
LWPOLYLINE
  5
2BE
100
AcDbEntity
  8
0
100
AcDbPolyline
 62
7
  6
CONTINUOUS
 90
5
 70
0
 10
16.2132865233
 20
13.661085831
 10
16.2195342554
 20
13.6618744038
 10
16.2258333963
 20
13.6644388965
 10
16.2308857737
 20
13.6682597221
 10
16.2346920072
 20
13.6729664532
  0
LINE
  5
2BF
100
AcDbEntity
  8
0
100
AcDbLine
 62
7
  6
CONTINUOUS
 10
16.2039019953
 20
13.6610855458
 11
16.2132916537
 21
13.6610855458
  0
LINE
  5
2C0
100
AcDbEntity
  8
0
100
AcDbLine
 62
7
  6
CONTINUOUS
 10
16.3027290467
 20
14.1030993426
 11
16.2886712685
 21
14.1317460827
  0
LINE
  5
2C1
100
AcDbEntity
  8
0
100
AcDbLine
 62
7
  6
CONTINUOUS
 10
16.2580186969
 20
14.1472863319
 11
15.6132760011
 21
14.1472863319
  0
ARC
  5
2C2
100
AcDbEntity
  8
0
100
AcDbCircle
 62
7
  6
CONTINUOUS
 10
6.4053672762
 20
5.6175351553
 40
0.1
100
AcDbArc
 50
345.0
 51
360.0
  0
ARC
  5
2C3
100
AcDbEntity
  8
0
100
AcDbCircle
 62
7
  6
CONTINUOUS
 10
5.8553672762
 20
5.6175351553
 40
0.1
100
AcDbArc
 50
180.0
 51
195.0
  0
ARC
  5
2C4
100
AcDbEntity
  8
0
100
AcDbCircle
 62
7
  6
CONTINUOUS
 10
6.4803672762
 20
5.6636199056
 40
0.025
100
AcDbArc
 50
0.0
 51
90.0
  0
ARC
  5
2C5
100
AcDbEntity
  8
0
100
AcDbCircle
 62
7
  6
CONTINUOUS
 10
6.448559569
 20
5.4889532389
 40
0.025
100
AcDbArc
 50
270.0
 51
345.0
  0
ARC
  5
2C6
100
AcDbEntity
  8
0
100
AcDbCircle
 62
7
  6
CONTINUOUS
 10
5.8121749833
 20
5.4889532389
 40
0.025
100
AcDbArc
 50
195.0
 51
270.0
  0
ARC
  5
2C7
100
AcDbEntity
  8
0
100
AcDbCircle
 62
7
  6
CONTINUOUS
 10
5.7803672762
 20
5.6636199056
 40
0.025
100
AcDbArc
 50
90.0
 51
180.0
  0
ARC
  5
2C8
100
AcDbEntity
  8
0
100
AcDbCircle
 62
7
  6
CONTINUOUS
 10
6.4184599431
 20
5.3766199056
 40
0.025
100
AcDbArc
 50
270.0
 51
345.0
  0
ARC
  5
2C9
100
AcDbEntity
  8
0
100
AcDbCircle
 62
7
  6
CONTINUOUS
 10
5.84227461
 20
5.3766199026
 40
0.025
100
AcDbArc
 50
194.9999929547
 51
269.9999981765
  0
ARC
  5
2CA
100
AcDbEntity
  8
0
100
AcDbCircle
 62
7
  6
CONTINUOUS
 10
13.7206608457
 20
5.3202080466
 40
0.0280833333
100
AcDbArc
 50
193.0
 51
270.0
  0
ARC
  5
2CB
100
AcDbEntity
  8
0
100
AcDbCircle
 62
7
  6
CONTINUOUS
 10
13.9000496682
 20
5.3202080466
 40
0.0280833333
100
AcDbArc
 50
270.0
 51
347.0
  0
ARC
  5
2CC
100
AcDbEntity
  8
0
100
AcDbCircle
 62
7
  6
CONTINUOUS
 10
14.2206608457
 20
5.3202080466
 40
0.0280833333
100
AcDbArc
 50
193.0
 51
270.0
  0
ARC
  5
2CD
100
AcDbEntity
  8
0
100
AcDbCircle
 62
7
  6
CONTINUOUS
 10
14.4000496682
 20
5.3202080466
 40
0.0280833333
100
AcDbArc
 50
270.0
 51
347.0
  0
ARC
  5
2CE
100
AcDbEntity
  8
0
100
AcDbCircle
 62
7
  6
CONTINUOUS
 10
14.7206608457
 20
5.3202080466
 40
0.0280833333
100
AcDbArc
 50
193.0
 51
270.0
  0
ARC
  5
2CF
100
AcDbEntity
  8
0
100
AcDbCircle
 62
7
  6
CONTINUOUS
 10
14.9000496682
 20
5.3202080466
 40
0.0280833333
100
AcDbArc
 50
270.0
 51
347.0
  0
ARC
  5
2D0
100
AcDbEntity
  8
0
100
AcDbCircle
 62
7
  6
CONTINUOUS
 10
15.2206608457
 20
5.3202080466
 40
0.0280833333
100
AcDbArc
 50
193.0
 51
270.0
  0
ARC
  5
2D1
100
AcDbEntity
  8
0
100
AcDbCircle
 62
7
  6
CONTINUOUS
 10
15.4000496682
 20
5.3202080466
 40
0.0280833333
100
AcDbArc
 50
270.0
 51
347.0
  0
ARC
  5
2D2
100
AcDbEntity
  8
0
100
AcDbCircle
 62
7
  6
CONTINUOUS
 10
13.6500496682
 20
5.3763747133
 40
0.0280833333
100
AcDbArc
 50
13.0
 51
90.0
  0
ARC
  5
2D3
100
AcDbEntity
  8
0
100
AcDbCircle
 62
7
  6
CONTINUOUS
 10
13.9706608457
 20
5.3763747133
 40
0.0280833333
100
AcDbArc
 50
90.0
 51
167.0
  0
ARC
  5
2D4
100
AcDbEntity
  8
0
100
AcDbCircle
 62
7
  6
CONTINUOUS
 10
14.1500496682
 20
5.3763747133
 40
0.0280833333
100
AcDbArc
 50
13.0
 51
90.0
  0
ARC
  5
2D5
100
AcDbEntity
  8
0
100
AcDbCircle
 62
7
  6
CONTINUOUS
 10
14.4706608457
 20
5.3763747133
 40
0.0280833333
100
AcDbArc
 50
90.0
 51
167.0
  0
ARC
  5
2D6
100
AcDbEntity
  8
0
100
AcDbCircle
 62
7
  6
CONTINUOUS
 10
14.6500496682
 20
5.3763747133
 40
0.0280833333
100
AcDbArc
 50
13.0
 51
90.0
  0
ARC
  5
2D7
100
AcDbEntity
  8
0
100
AcDbCircle
 62
7
  6
CONTINUOUS
 10
14.9706608457
 20
5.3763747133
 40
0.0280833333
100
AcDbArc
 50
90.0
 51
167.0
  0
ARC
  5
2D8
100
AcDbEntity
  8
0
100
AcDbCircle
 62
7
  6
CONTINUOUS
 10
15.1500496682
 20
5.3763747133
 40
0.0280833333
100
AcDbArc
 50
13.0
 51
90.0
  0
ARC
  5
2D9
100
AcDbEntity
  8
0
100
AcDbCircle
 62
7
  6
CONTINUOUS
 10
15.4706608457
 20
5.3763747133
 40
0.0280833333
100
AcDbArc
 50
90.0
 51
167.0
  0
ARC
  5
2DA
100
AcDbEntity
  8
0
100
AcDbCircle
 62
7
  6
CONTINUOUS
 10
17.4000496682
 20
5.3202080466
 40
0.0280833333
100
AcDbArc
 50
270.0
 51
347.0
  0
ARC
  5
2DB
100
AcDbEntity
  8
0
100
AcDbCircle
 62
7
  6
CONTINUOUS
 10
17.2206608457
 20
5.3202080466
 40
0.0280833333
100
AcDbArc
 50
193.0
 51
270.0
  0
ARC
  5
2DC
100
AcDbEntity
  8
0
100
AcDbCircle
 62
7
  6
CONTINUOUS
 10
16.9000496682
 20
5.3202080466
 40
0.0280833333
100
AcDbArc
 50
270.0
 51
347.0
  0
ARC
  5
2DD
100
AcDbEntity
  8
0
100
AcDbCircle
 62
7
  6
CONTINUOUS
 10
16.7206608457
 20
5.3202080466
 40
0.0280833333
100
AcDbArc
 50
193.0
 51
270.0
  0
ARC
  5
2DE
100
AcDbEntity
  8
0
100
AcDbCircle
 62
7
  6
CONTINUOUS
 10
16.4000496682
 20
5.3202080466
 40
0.0280833333
100
AcDbArc
 50
270.0
 51
347.0
  0
ARC
  5
2DF
100
AcDbEntity
  8
0
100
AcDbCircle
 62
7
  6
CONTINUOUS
 10
16.2206608457
 20
5.3202080466
 40
0.0280833333
100
AcDbArc
 50
193.0
 51
270.0
  0
ARC
  5
2E0
100
AcDbEntity
  8
0
100
AcDbCircle
 62
7
  6
CONTINUOUS
 10
15.9000496682
 20
5.3202080466
 40
0.0280833333
100
AcDbArc
 50
270.0
 51
347.0
  0
ARC
  5
2E1
100
AcDbEntity
  8
0
100
AcDbCircle
 62
7
  6
CONTINUOUS
 10
15.7206608457
 20
5.3202080466
 40
0.0280833333
100
AcDbArc
 50
193.0
 51
270.0
  0
ARC
  5
2E2
100
AcDbEntity
  8
0
100
AcDbCircle
 62
7
  6
CONTINUOUS
 10
17.4706608457
 20
5.3763747133
 40
0.0280833333
100
AcDbArc
 50
90.0
 51
167.0
  0
ARC
  5
2E3
100
AcDbEntity
  8
0
100
AcDbCircle
 62
7
  6
CONTINUOUS
 10
17.1500496682
 20
5.3763747133
 40
0.0280833333
100
AcDbArc
 50
13.0
 51
90.0
  0
ARC
  5
2E4
100
AcDbEntity
  8
0
100
AcDbCircle
 62
7
  6
CONTINUOUS
 10
16.9706608457
 20
5.3763747133
 40
0.0280833333
100
AcDbArc
 50
90.0
 51
167.0
  0
ARC
  5
2E5
100
AcDbEntity
  8
0
100
AcDbCircle
 62
7
  6
CONTINUOUS
 10
16.6500496682
 20
5.3763747133
 40
0.0280833333
100
AcDbArc
 50
13.0
 51
90.0
  0
ARC
  5
2E6
100
AcDbEntity
  8
0
100
AcDbCircle
 62
7
  6
CONTINUOUS
 10
16.4706608457
 20
5.3763747133
 40
0.0280833333
100
AcDbArc
 50
90.0
 51
167.0
  0
ARC
  5
2E7
100
AcDbEntity
  8
0
100
AcDbCircle
 62
7
  6
CONTINUOUS
 10
16.1500496682
 20
5.3763747133
 40
0.0280833333
100
AcDbArc
 50
13.0
 51
90.0
  0
ARC
  5
2E8
100
AcDbEntity
  8
0
100
AcDbCircle
 62
7
  6
CONTINUOUS
 10
15.9706608457
 20
5.3763747133
 40
0.0280833333
100
AcDbArc
 50
90.0
 51
167.0
  0
ARC
  5
2E9
100
AcDbEntity
  8
0
100
AcDbCircle
 62
7
  6
CONTINUOUS
 10
15.6500496682
 20
5.3763747133
 40
0.0280833333
100
AcDbArc
 50
13.0
 51
90.0
  0
SPLINE
  5
2EA
100
AcDbEntity
  8
0
100
AcDbSpline
 62
7
  6
CONTINUOUS
 70
0
 71
3
 72
15
 73
11
 74
0
 42
0.0000001
 43
0.0000001
 44
0.0000000001
 40
0.0
 40
0.0
 40
0.0
 40
0.0
 40
0.1295680424
 40
0.264574921
 40
0.4012659145
 40
0.5362717629
 40
0.6662158937
 40
0.7881017698
 40
0.8998148192
 40
1.0
 40
1.0
 40
1.0
 40
1.0
 10
16.2580186969
 20
14.1472863319
 30
0.0
 10
16.2595669498
 20
14.1472863319
 30
0.0
 10
16.2627308933
 20
14.1470711121
 30
0.0
 10
16.2674534064
 20
14.1461872113
 30
0.0
 10
16.272109721
 20
14.144759762
 30
0.0
 10
16.2765216011
 20
14.1428444445
 30
0.0
 10
16.2805277953
 20
14.1405157487
 30
0.0
 10
16.2839798761
 20
14.1378544074
 30
0.0
 10
16.2867457371
 20
14.134958371
 30
0.0
 10
16.2881438741
 20
14.1328207995
 30
0.0
 10
16.2886712685
 20
14.1317460827
 30
0.0
  0
SPLINE
  5
2EB
100
AcDbEntity
  8
0
100
AcDbSpline
 62
7
  6
CONTINUOUS
 70
0
 71
3
 72
15
 73
11
 74
0
 42
0.0000001
 43
0.0000001
 44
0.0000000001
 40
0.0
 40
0.0
 40
0.0
 40
0.0
 40
0.0996464329
 40
0.2028723667
 40
0.3125946623
 40
0.4308581435
 40
0.5588169051
 40
0.6968326285
 40
0.8443988546
 40
1.0
 40
1.0
 40
1.0
 40
1.0
 10
15.5970165168
 20
14.139127274
 30
0.0
 10
15.5972066319
 20
14.1397425178
 30
0.0
 10
15.5977452676
 20
14.1409534648
 30
0.0
 10
15.5989762553
 20
14.1425744141
 30
0.0
 10
15.6005996492
 20
14.1439895797
 30
0.0
 10
15.6025838257
 20
14.1451736344
 30
0.0
 10
15.6048913745
 20
14.1461122637
 30
0.0
 10
15.6074829837
 20
14.1467909969
 30
0.0
 10
15.6103098504
 20
14.1471986531
 30
0.0
 10
15.6122704558
 20
14.1472863319
 30
0.0
 10
15.6132760011
 20
14.1472863319
 30
0.0
  0
SPLINE
  5
2EC
100
AcDbEntity
  8
0
100
AcDbSpline
 62
7
  6
CONTINUOUS
 70
0
 71
3
 72
11
 73
7
 74
0
 42
0.0000001
 43
0.0000001
 44
0.0000000001
 40
0.0
 40
0.0
 40
0.0
 40
0.0
 40
0.2336957283
 40
0.4747289333
 40
0.7289545435
 40
1.0
 40
1.0
 40
1.0
 40
1.0
 10
14.6287512231
 20
11.0058196355
 30
0.0
 10
14.6285763682
 20
11.0052537763
 30
0.0
 10
14.628346055
 20
11.0040616272
 30
0.0
 10
14.6283883351
 20
11.0022023479
 30
0.0
 10
14.6288061475
 20
11.0002951761
 30
0.0
 10
14.6293076139
 20
10.9990551097
 30
0.0
 10
14.6296102293
 20
10.9984384442
 30
0.0
  0
SPLINE
  5
2ED
100
AcDbEntity
  8
0
100
AcDbSpline
 62
7
  6
CONTINUOUS
 70
0
 71
3
 72
9
 73
5
 74
0
 42
0.0000001
 43
0.0000001
 44
0.0000000001
 40
0.0
 40
0.0
 40
0.0
 40
0.0
 40
0.517600766
 40
1.0
 40
1.0
 40
1.0
 40
1.0
 10
16.3027290467
 20
14.1030993426
 30
0.0
 10
16.3040094902
 20
14.100490073
 30
0.0
 10
16.3061112601
 20
14.0952521454
 30
0.0
 10
16.3072329624
 20
14.089707924
 30
0.0
 10
16.3074856719
 20
14.0870108927
 30
0.0
  0
SPLINE
  5
2EE
100
AcDbEntity
  8
0
100
AcDbSpline
 62
7
  6
CONTINUOUS
 70
0
 71
3
 72
14
 73
10
 74
0
 42
0.0000001
 43
0.0000001
 44
0.0000000001
 40
0.0
 40
0.0
 40
0.0
 40
0.0
 40
0.1556289752
 40
0.3032634506
 40
0.5688223361
 40
0.6871311287
 40
0.7968675477
 40
0.9001631072
 40
1.0
 40
1.0
 40
1.0
 40
1.0
 10
15.3289893043
 20
10.8743236539
 30
0.0
 10
15.3299944527
 20
10.8743236539
 30
0.0
 10
15.3319554315
 20
10.8744114647
 30
0.0
 10
15.3355932749
 20
10.8749361462
 30
0.0
 10
15.3389138709
 20
10.8759802378
 30
0.0
 10
15.3416641218
 20
10.8776188645
 30
0.0
 10
15.3432879712
 20
10.8790332294
 30
0.0
 10
15.3445194022
 20
10.8806546533
 30
0.0
 10
15.3450577221
 20
10.8818668624
 30
0.0
 10
15.3452475897
 20
10.8824830834
 30
0.0
  0
SPLINE
  5
2EF
100
AcDbEntity
  8
0
100
AcDbSpline
 62
7
  6
CONTINUOUS
 70
0
 71
3
 72
15
 73
11
 74
0
 42
0.0000001
 43
0.0000001
 44
0.0000000001
 40
0.0
 40
0.0
 40
0.0
 40
0.0
 40
0.1102065895
 40
0.228721153
 40
0.3536308376
 40
0.4829519154
 40
0.614566667
 40
0.7462258647
 40
0.8755872606
 40
1.0
 40
1.0
 40
1.0
 40
1.0
 10
14.7149460896
 20
10.8858417906
 30
0.0
 10
14.7157014199
 20
10.884990962
 30
0.0
 10
14.7174040283
 20
10.8833428438
 30
0.0
 10
14.7203213885
 20
10.881135901
 30
0.0
 10
14.7236324678
 20
10.8791611193
 30
0.0
 10
14.7272442492
 20
10.8774667915
 30
0.0
 10
14.7310657097
 20
10.8760989883
 30
0.0
 10
14.7349978016
 20
10.8750899427
 30
0.0
 10
14.7389345697
 20
10.87447266
 30
0.0
 10
14.7415558947
 20
10.8743236539
 30
0.0
 10
14.7428402852
 20
10.8743236539
 30
0.0
  0
SPLINE
  5
2F0
100
AcDbEntity
  8
0
100
AcDbSpline
 62
7
  6
CONTINUOUS
 70
0
 71
3
 72
9
 73
5
 74
0
 42
0.0000001
 43
0.0000001
 44
0.0000000001
 40
0.0
 40
0.0
 40
0.0
 40
0.0
 40
0.481356552
 40
1.0
 40
1.0
 40
1.0
 40
1.0
 10
14.6436680076
 20
10.9697917041
 30
0.0
 10
14.6450500911
 20
10.966975314
 30
0.0
 10
14.648397098
 20
10.9613519551
 30
0.0
 10
14.6524573951
 20
10.9562311001
 30
0.0
 10
14.6547015113
 20
10.9537032542
 30
0.0
  0
SPLINE
  5
2F1
100
AcDbEntity
  8
0
100
AcDbSpline
 62
7
  6
CONTINUOUS
 70
0
 71
3
 72
9
 73
5
 74
0
 42
0.0000001
 43
0.0000001
 44
0.0000000001
 40
0.0
 40
0.0
 40
0.0
 40
0.0
 40
0.482399234
 40
1.0
 40
1.0
 40
1.0
 40
1.0
 10
15.3392203783
 20
10.9537032542
 30
0.0
 10
15.3389676688
 20
10.9564002855
 30
0.0
 10
15.3378459665
 20
10.9619445069
 30
0.0
 10
15.3357441966
 20
10.9671824345
 30
0.0
 10
15.3344637531
 20
10.9697917041
 30
0.0
  0
SPLINE
  5
2F2
100
AcDbEntity
  8
0
100
AcDbSpline
 62
7
  6
CONTINUOUS
 70
0
 71
3
 72
15
 73
11
 74
0
 42
0.0000001
 43
0.0000001
 44
0.0000000001
 40
0.0
 40
0.0
 40
0.0
 40
0.0
 40
0.1001851808
 40
0.2118982302
 40
0.3337841063
 40
0.4637282371
 40
0.5987340855
 40
0.735425079
 40
0.8704319576
 40
1.0
 40
1.0
 40
1.0
 40
1.0
 10
15.3204059748
 20
10.9984384442
 30
0.0
 10
15.3198785805
 20
10.999513161
 30
0.0
 10
15.3184804434
 20
11.0016507324
 30
0.0
 10
15.3157145824
 20
11.0045467688
 30
0.0
 10
15.3122625017
 20
11.0072081102
 30
0.0
 10
15.3082563075
 20
11.009536806
 30
0.0
 10
15.3038444274
 20
11.0114521235
 30
0.0
 10
15.2991881128
 20
11.0128795728
 30
0.0
 10
15.2944655997
 20
11.0137634736
 30
0.0
 10
15.2913016562
 20
11.0139786934
 30
0.0
 10
15.2897534033
 20
11.0139786934
 30
0.0
  0
SPLINE
  5
2F3
100
AcDbEntity
  8
0
100
AcDbSpline
 62
7
  6
CONTINUOUS
 70
0
 71
3
 72
15
 73
11
 74
0
 42
0.0000001
 43
0.0000001
 44
0.0000000001
 40
0.0
 40
0.0
 40
0.0
 40
0.0
 40
0.1556011454
 40
0.3031673715
 40
0.4411830949
 40
0.5691418565
 40
0.6874053377
 40
0.7971276333
 40
0.9003535671
 40
1.0
 40
1.0
 40
1.0
 40
1.0
 10
14.6450107075
 20
11.0139786934
 30
0.0
 10
14.6440051622
 20
11.0139786934
 30
0.0
 10
14.6420445568
 20
11.0138910146
 30
0.0
 10
14.63921769
 20
11.0134833584
 30
0.0
 10
14.6366260808
 20
11.0128046252
 30
0.0
 10
14.634318532
 20
11.0118659959
 30
0.0
 10
14.6323343556
 20
11.0106819412
 30
0.0
 10
14.6307109617
 20
11.0092667756
 30
0.0
 10
14.629479974
 20
11.0076458263
 30
0.0
 10
14.6289413383
 20
11.0064348792
 30
0.0
 10
14.6287512231
 20
11.0058196355
 30
0.0
  0
ENDSEC
  0
SECTION
  2
OBJECTS
  0
DICTIONARY
  5
C
100
AcDbDictionary
280
0
281
1
  3
ACAD_GROUP
350
D
  3
ACAD_MLINESTYLE
350
17
  3
ACAD_LAYOUT
350
1A
  3
ACAD_PLOTSETTINGS
350
19
  3
ACAD_PLOTSTYLENAME
350
E
  0
DICTIONARY
  5
D
102
{ACAD_REACTORS
330
C
102
}
100
AcDbDictionary
280
0
281
1
  0
ACDBDICTIONARYWDFLT
  5
E
102
{ACAD_REACTORS
330
C
102
}
100
AcDbDictionary
281
1
  3
Normal
350
F
100
AcDbDictionaryWithDefault
340
F
  0
DICTIONARY
  5
17
102
{ACAD_REACTORS
330
C
102
}
100
AcDbDictionary
280
0
281
1
  3
Standard
350
18
  0
DICTIONARY
  5
19
102
{ACAD_REACTORS
330
C
102
}
100
AcDbDictionary
281
1
  0
DICTIONARY
  5
1A
102
{ACAD_REACTORS
330
C
102
}
100
AcDbDictionary
281
1
  3
Model
350
2F4
  3
Layout1
350
2F5
  0
ACDBPLACEHOLDER
  5
F
102
{ACAD_REACTORS
330
E
102
}
  0
MLINESTYLE
  5
18
102
{ACAD_REACTORS
330
17
102
}
100
AcDbMlineStyle
  2
STANDARD
 70
0
  3

 62
256
 51
90.0
 52
90.0
 71
2
 49
0.5
 62
256
  6
BYLAYER
 49
-0.5
 62
256
  6
BYLAYER
  0
LAYOUT
  5
2F4
102
{ACAD_REACTORS
330
1A
102
}
100
AcDbPlotSettings
  1

  2
none_device
  4
ANSI_C_(22.00_x_17.00_Inches)
  6

 40
0.0
 41
0.0
 42
0.0
 43
0.0
 44
558.8
 45
431.8
 46
0.0
 47
0.0
 48
0.0
 49
0.0
140
0.0
141
0.0
142
1.0
143
1.0
 70
1024
 72
0
 73
0
 74
0
  7

 75
0
147
1.0
148
0.0
149
0.0
100
AcDbLayout
  1
Model
 70
0
 71
0
 10
0.0
 20
0.0
 11
22.0
 21
17.0
 12
0.0
 22
0.0
 32
0.0
 14
0.0
 24
0.0
 34
0.0
 15
0.0
 25
0.0
 35
0.0
146
0.0
 13
0.0
 23
0.0
 33
0.0
 16
1.0
 26
0.0
 36
0.0
 17
0.0
 27
1.0
 37
0.0
 76
0
330
216
345
0
346
0
  0
LAYOUT
  5
2F5
102
{ACAD_REACTORS
330
1A
102
}
100
AcDbPlotSettings
  1

  2
none_device
  4
ANSI_C_(22.00_x_17.00_Inches)
  6

 40
0.0
 41
0.0
 42
0.0
 43
0.0
 44
558.8
 45
431.8
 46
0.0
 47
0.0
 48
0.0
 49
0.0
140
0.0
141
0.0
142
1.0
143
1.0
 70
0
 72
0
 73
0
 74
0
  7

 75
0
147
1.0
148
0.0
149
0.0
100
AcDbLayout
  1
Layout1
 70
0
 71
1
 10
0.0
 20
0.0
 11
22.0
 21
17.0
 12
0.0
 22
0.0
 32
0.0
 14
0.0
 24
0.0
 34
0.0
 15
0.0
 25
0.0
 35
0.0
146
0.0
 13
0.0
 23
0.0
 33
0.0
 16
1.0
 26
0.0
 36
0.0
 17
0.0
 27
1.0
 37
0.0
 76
0
330
217
345
0
346
0
  0
ENDSEC
  0
EOF