999
DXF file: _cgs_temp_output.dxf
999
Pro/ENGINEER 2015110 by Parametric Technology Corporation
  0
SECTION
  2
HEADER
  9
$ACADVER
  1
AC1021
  9
$DWGCODEPAGE
  3
ANSI_1252
  9
$EXTMAX
 10
22.0
 20
17.0
 30
0.0
  9
$EXTMIN
 10
0.0
 20
0.0
 30
0.0
  9
$LIMMIN
 10
0.0
 20
0.0
  9
$LIMMAX
 10
22.0
 20
17.0
  9
$VIEWCTR
 10
11.0
 20
8.5
  9
$VIEWSIZE
 40
17.0
  9
$CLAYER
  8
0
  9
$LTSCALE
 40
1.21
  9
$CELTYPE
  6
BYLAYER
  9
$DIMSCALE
 40
1.0
  9
$DIMASZ
 40
0.1875
  9
$DIMEXO
 40
0.0625
  9
$DIMDLI
 40
0.836
  9
$DIMEXE
 40
0.125
  9
$DIMCEN
 40
0.198
  9
$DIMLFAC
 40
1.0
  9
$DIMBLK
  1
_CLOSED
  9
$DIMALT
 70
0
  9
$DIMALTF
 40
25.4
  9
$DIMTXT
 40
0.15625
  9
$DIMTOL
 70
0
  9
$DIMLIM
 70
0
  9
$DIMTFAC
 40
1.0
  9
$DIMGAP
 40
0.09
  9
$DIMDSEP
 70
46
  9
$AUNITS
 70
0
  9
$PDMODE
 70
3
  9
$PDSIZE
 40
0.3125
  9
$HANDSEED
  5
321
  9
$TILEMODE
 70
1
  9
$MEASUREMENT
 70
0
  9
$INSUNITS
 70
1
  0
ENDSEC
  0
SECTION
  2
CLASSES
  0
CLASS
  1
ACDBDICTIONARYWDFLT
  2
AcDbDictionaryWithDefault
  3
AutoCAD 2000
 90
0
 91
1
280
0
281
0
  0
CLASS
  1
ACDBPLACEHOLDER
  2
AcDbPlaceHolder
  3
AutoCAD 2000
 90
0
 91
1
280
0
281
0
  0
CLASS
  1
LAYOUT
  2
AcDbLayout
  3
AutoCAD 2000
 90
0
 91
0
280
0
281
0
  0
ENDSEC
  0
SECTION
  2
TABLES
  0
TABLE
  2
VPORT
  5
8
100
AcDbSymbolTable
 70
2
  0
VPORT
  5
1F4
100
AcDbSymbolTableRecord
100
AcDbViewportTableRecord
  2
*ACTIVE
 70
0
 10
0.0
 20
0.0
 11
1.0
 21
1.0
 12
11.0
 22
8.5
 13
0.0
 23
0.0
 14
1.0
 24
1.0
 15
0.0
 25
0.0
 16
0.0
 26
0.0
 36
1.0
 17
0.0
 27
0.0
 37
0.0
 40
17.0
 41
1.2941176471
 42
50.0
 43
0.0
 44
0.0
 50
0.0
 51
0.0
 71
0
 72
100
 73
1
 74
1
 75
0
 76
0
 77
0
 78
0
  0
ENDTAB
  0
TABLE
  2
LTYPE
  5
5
100
AcDbSymbolTable
 70
6
  0
LTYPE
  5
14
100
AcDbSymbolTableRecord
100
AcDbLinetypeTableRecord
  2
BYBLOCK
 70
0
  3

 72
65
 73
0
 40
0.0
  0
LTYPE
  5
15
100
AcDbSymbolTableRecord
100
AcDbLinetypeTableRecord
  2
BYLAYER
 70
0
  3

 72
65
 73
0
 40
0.0
  0
LTYPE
  5
16
100
AcDbSymbolTableRecord
100
AcDbLinetypeTableRecord
  2
CONTINUOUS
 70
64
  3
Solid line
 72
65
 73
0
 40
0.0
  0
LTYPE
  5
1F5
100
AcDbSymbolTableRecord
100
AcDbLinetypeTableRecord
  2
CENTER
 70
64
  3
____ _ ____ _ ____ _ ____ _ ____ _ ____ _ ____
 72
65
 73
4
 40
0.6
 49
0.375
 74
0
 49
-0.075
 74
0
 49
0.075
 74
0
 49
-0.075
 74
0
  0
LTYPE
  5
1F6
100
AcDbSymbolTableRecord
100
AcDbLinetypeTableRecord
  2
HIDDEN
 70
64
  3
- - - - - - - - - - - - - - - - - - - -
 72
65
 73
2
 40
0.2
 49
0.1
 74
0
 49
-0.1
 74
0
  0
LTYPE
  5
1F7
100
AcDbSymbolTableRecord
100
AcDbLinetypeTableRecord
  2
PHANTOM
 70
64
  3
_____ _ _ _____ _ _ _____ _ _ _____
 72
65
 73
6
 40
0.8
 49
0.45
 74
0
 49
-0.05
 74
0
 49
0.1
 74
0
 49
-0.05
 74
0
 49
0.1
 74
0
 49
-0.05
 74
0
  0
LTYPE
  5
1F8
100
AcDbSymbolTableRecord
100
AcDbLinetypeTableRecord
  2
DOT
 70
64
  3
. . . . . . . . . . . . . . . . . . . .
 72
65
 73
2
 40
0.2
 49
0.1
 74
0
 49
-0.1
 74
0
  0
LTYPE
  5
1F9
100
AcDbSymbolTableRecord
100
AcDbLinetypeTableRecord
  2
DASHED
 70
64
  3
- - - - - - - - - - - - - - - - - - - -
 72
65
 73
2
 40
0.2
 49
0.1
 74
0
 49
-0.1
 74
0
  0
ENDTAB
  0
TABLE
  2
LAYER
  5
2
100
AcDbSymbolTable
 70
36
  0
LAYER
  5
10
100
AcDbSymbolTableRecord
100
AcDbLayerTableRecord
  2
0
 70
0
 62
7
  6
CONTINUOUS
370
-3
390
F
  0
LAYER
  5
1FA
100
AcDbSymbolTableRecord
100
AcDbLayerTableRecord
  2
DEFAULT_1
 70
0
 62
7
  6
CENTER
370
-3
390
F
  0
LAYER
  5
1FB
100
AcDbSymbolTableRecord
100
AcDbLayerTableRecord
  2
DEFAULT_2
 70
0
 62
8
  6
HIDDEN
370
-3
390
F
  0
LAYER
  5
1FC
100
AcDbSymbolTableRecord
100
AcDbLayerTableRecord
  2
DEFAULT_3
 70
0
 62
7
  6
PHANTOM
370
-3
390
F
  0
LAYER
  5
1FD
100
AcDbSymbolTableRecord
100
AcDbLayerTableRecord
  2
01_ALL_DTM_PLN
 70
0
 62
7
  6
CONTINUOUS
370
-3
390
F
  0
LAYER
  5
1FE
100
AcDbSymbolTableRecord
100
AcDbLayerTableRecord
  2
01__ASM_ALL_DTM_PLN
 70
0
 62
7
  6
CONTINUOUS
370
-3
390
F
  0
LAYER
  5
1FF
100
AcDbSymbolTableRecord
100
AcDbLayerTableRecord
  2
01__ASM_DEF_DTM_PLN
 70
0
 62
7
  6
CONTINUOUS
370
-3
390
F
  0
LAYER
  5
200
100
AcDbSymbolTableRecord
100
AcDbLayerTableRecord
  2
01___PRT_ALL_DTM_PLN
 70
0
 62
7
  6
CONTINUOUS
370
-3
390
F
  0
LAYER
  5
201
100
AcDbSymbolTableRecord
100
AcDbLayerTableRecord
  2
01___PRT_DEF_DTM_PLN
 70
0
 62
7
  6
CONTINUOUS
370
-3
390
F
  0
LAYER
  5
202
100
AcDbSymbolTableRecord
100
AcDbLayerTableRecord
  2
02_ALL_AXES
 70
0
 62
7
  6
CONTINUOUS
370
-3
390
F
  0
LAYER
  5
203
100
AcDbSymbolTableRecord
100
AcDbLayerTableRecord
  2
02__ASM_ALL_AXES
 70
0
 62
7
  6
CONTINUOUS
370
-3
390
F
  0
LAYER
  5
204
100
AcDbSymbolTableRecord
100
AcDbLayerTableRecord
  2
02___PRT_ALL_AXES
 70
0
 62
7
  6
CONTINUOUS
370
-3
390
F
  0
LAYER
  5
205
100
AcDbSymbolTableRecord
100
AcDbLayerTableRecord
  2
03_ALL_CURVES
 70
0
 62
7
  6
CONTINUOUS
370
-3
390
F
  0
LAYER
  5
206
100
AcDbSymbolTableRecord
100
AcDbLayerTableRecord
  2
03__ASM_ALL_CURVES
 70
0
 62
7
  6
CONTINUOUS
370
-3
390
F
  0
LAYER
  5
207
100
AcDbSymbolTableRecord
100
AcDbLayerTableRecord
  2
03___PRT_ALL_CURVES
 70
0
 62
7
  6
CONTINUOUS
370
-3
390
F
  0
LAYER
  5
208
100
AcDbSymbolTableRecord
100
AcDbLayerTableRecord
  2
04_ALL_DTM_PNT
 70
0
 62
7
  6
CONTINUOUS
370
-3
390
F
  0
LAYER
  5
209
100
AcDbSymbolTableRecord
100
AcDbLayerTableRecord
  2
04__ASM_ALL_DTM_PNT
 70
0
 62
7
  6
CONTINUOUS
370
-3
390
F
  0
LAYER
  5
20A
100
AcDbSymbolTableRecord
100
AcDbLayerTableRecord
  2
04___PRT_ALL_DTM_PNT
 70
0
 62
7
  6
CONTINUOUS
370
-3
390
F
  0
LAYER
  5
20B
100
AcDbSymbolTableRecord
100
AcDbLayerTableRecord
  2
05_ALL_DTM_CSYS
 70
0
 62
7
  6
CONTINUOUS
370
-3
390
F
  0
LAYER
  5
20C
100
AcDbSymbolTableRecord
100
AcDbLayerTableRecord
  2
05__ASM_ALL_DTM_CSYS
 70
0
 62
7
  6
CONTINUOUS
370
-3
390
F
  0
LAYER
  5
20D
100
AcDbSymbolTableRecord
100
AcDbLayerTableRecord
  2
05__ASM_DEF_DTM_CSYS
 70
0
 62
7
  6
CONTINUOUS
370
-3
390
F
  0
LAYER
  5
20E
100
AcDbSymbolTableRecord
100
AcDbLayerTableRecord
  2
05___PRT_ALL_DTM_CSYS
 70
0
 62
7
  6
CONTINUOUS
370
-3
390
F
  0
LAYER
  5
20F
100
AcDbSymbolTableRecord
100
AcDbLayerTableRecord
  2
05___PRT_DEF_DTM_CSYS
 70
0
 62
7
  6
CONTINUOUS
370
-3
390
F
  0
LAYER
  5
210
100
AcDbSymbolTableRecord
100
AcDbLayerTableRecord
  2
06_ALL_SURFS
 70
0
 62
7
  6
CONTINUOUS
370
-3
390
F
  0
LAYER
  5
211
100
AcDbSymbolTableRecord
100
AcDbLayerTableRecord
  2
06__ASM_ALL_SURFS
 70
0
 62
7
  6
CONTINUOUS
370
-3
390
F
  0
LAYER
  5
212
100
AcDbSymbolTableRecord
100
AcDbLayerTableRecord
  2
06___PRT_ALL_SURFS
 70
0
 62
7
  6
CONTINUOUS
370
-3
390
F
  0
LAYER
  5
213
100
AcDbSymbolTableRecord
100
AcDbLayerTableRecord
  2
07__ASM_ALL_SKELETONS
 70
0
 62
7
  6
CONTINUOUS
370
-3
390
F
  0
LAYER
  5
214
100
AcDbSymbolTableRecord
100
AcDbLayerTableRecord
  2
LAYER_DIM
 70
0
 62
7
  6
CONTINUOUS
370
-3
390
F
  0
LAYER
  5
215
100
AcDbSymbolTableRecord
100
AcDbLayerTableRecord
  2
LAYER_FEATURE
 70
0
 62
7
  6
CONTINUOUS
370
-3
390
F
  0
LAYER
  5
216
100
AcDbSymbolTableRecord
100
AcDbLayerTableRecord
  2
LAYER_GEOM_FEAT
 70
0
 62
7
  6
CONTINUOUS
370
-3
390
F
  0
LAYER
  5
217
100
AcDbSymbolTableRecord
100
AcDbLayerTableRecord
  2
LAYER_PARAMETER_DIM
 70
0
 62
7
  6
CONTINUOUS
370
-3
390
F
  0
LAYER
  5
218
100
AcDbSymbolTableRecord
100
AcDbLayerTableRecord
  2
LAYER_PROTRUSION_FEAT
 70
0
 62
7
  6
CONTINUOUS
370
-3
390
F
  0
LAYER
  5
219
100
AcDbSymbolTableRecord
100
AcDbLayerTableRecord
  2
LAYER_ROUND_FEAT
 70
0
 62
7
  6
CONTINUOUS
370
-3
390
F
  0
ENDTAB
  0
TABLE
  2
STYLE
  5
3
100
AcDbSymbolTable
 70
1
  0
STYLE
  5
11
100
AcDbSymbolTableRecord
100
AcDbTextStyleTableRecord
  2
STANDARD
 70
0
 40
0.0
 41
0.8
 50
0.0
 71
0
 42
0.2
  3
txt
  4

  0
STYLE
  5
21A
100
AcDbSymbolTableRecord
100
AcDbTextStyleTableRecord
  2
TEXTSTYLE_1
 70
0
 40
0.0
 41
0.8
 50
0.0
 71
0
 42
0.2
  3
gdt
  4

  0
ENDTAB
  0
TABLE
  2
VIEW
  5
6
100
AcDbSymbolTable
 70
0
  0
ENDTAB
  0
TABLE
  2
UCS
  5
7
100
AcDbSymbolTable
 70
0
  0
ENDTAB
  0
TABLE
  2
APPID
  5
9
100
AcDbSymbolTable
 70
1
  0
APPID
  5
21B
100
AcDbSymbolTableRecord
100
AcDbRegAppTableRecord
  2
ACAD
 70
0
  0
ENDTAB
  0
TABLE
  2
BLOCK_RECORD
  5
1
100
AcDbSymbolTable
 70
0
  0
BLOCK_RECORD
  5
21C
100
AcDbSymbolTableRecord
100
AcDbBlockTableRecord
  2
*Model_Space
  0
BLOCK_RECORD
  5
21D
100
AcDbSymbolTableRecord
100
AcDbBlockTableRecord
  2
*Paper_Space
  0
ENDTAB
  0
TABLE
  2
DIMSTYLE
  5
A
100
AcDbSymbolTable
 70
1
100
AcDbDimStyleTable
 71
0
  0
DIMSTYLE
105
21E
100
AcDbSymbolTableRecord
100
AcDbDimStyleTableRecord
  2
STANDARD
 70
0
  3

  4

 40
1.0
 41
0.1875
 42
0.0625
 43
0.38
 44
0.125
 45
0.0
 46
0.0
 47
0.0001
 48
0.0001
140
0.15625
141
0.09
142
0.0
143
25.4
144
1.0
145
0.0
146
1.0
147
0.09
 71
0.0
 72
0.0
 73
1
 74
1
 75
0
 76
0
 77
0
 78
4
170
0
171
2
172
0
173
0
174
0
175
0
176
0
177
0
178
0
270
2
271
4
272
4
273
2
274
2
275
0
280
0
281
0
282
0
283
1
284
4
285
0
286
0
287
3
288
0
340
11
278
46
  0
ENDTAB
  0
ENDSEC
  0
SECTION
  2
BLOCKS
  0
BLOCK
  5
20
100
AcDbEntity
  8
0
100
AcDbBlockBegin
  2
*Model_Space
 70
0
 10
0.0
 20
0.0
 30
0.0
  3
*Model_Space
  1

  0
ENDBLK
  5
21
100
AcDbEntity
  8
0
100
AcDbBlockEnd
  0
BLOCK
  5
1C
100
AcDbEntity
  8
0
100
AcDbBlockBegin
  2
*Paper_Space
 70
0
 10
0.0
 20
0.0
 30
0.0
  3
*Paper_Space
  1

  0
ENDBLK
  5
1D
100
AcDbEntity
  8
0
100
AcDbBlockEnd
  0
ENDSEC
  0
SECTION
  2
ENTITIES
  0
MTEXT
  5
21F
100
AcDbEntity
  8
0
100
AcDbMText
 62
7
  6
CONTINUOUS
  7
STANDARD
 71
1
 72
1
 10
15.9560215477
 20
0.9479130325
 30
0.0
 11
1.0
 21
0.0
 31
0.0
 44
0.9
  1
SCALE: 1:1.000
 40
0.3
 41
3.36
  0
LINE
  5
220
100
AcDbEntity
  8
0
100
AcDbLine
 62
7
  6
CONTINUOUS
 10
0.0
 20
0.0
 11
0.0
 21
17.0
  0
LINE
  5
221
100
AcDbEntity
  8
0
100
AcDbLine
 62
7
  6
CONTINUOUS
 10
0.0
 20
0.0
 11
22.0
 21
0.0
  0
LINE
  5
222
100
AcDbEntity
  8
0
100
AcDbLine
 62
7
  6
CONTINUOUS
 10
0.0
 20
17.0
 11
22.0
 21
17.0
  0
LINE
  5
223
100
AcDbEntity
  8
0
100
AcDbLine
 62
7
  6
CONTINUOUS
 10
22.0
 20
0.0
 11
22.0
 21
17.0
  0
LINE
  5
224
100
AcDbEntity
  8
0
100
AcDbLine
 62
7
  6
CONTINUOUS
 10
2.0363672762
 20
5.8151198968
 11
2.0363672762
 21
5.7401198968
  0
LINE
  5
225
100
AcDbEntity
  8
0
100
AcDbLine
 62
7
  6
CONTINUOUS
 10
2.0363672762
 20
5.7401198968
 11
2.1481649817
 21
5.2304185295
  0
LINE
  5
226
100
AcDbEntity
  8
0
100
AcDbLine
 62
7
  6
CONTINUOUS
 10
2.6563672762
 20
5.7401198968
 11
2.6563672762
 21
5.7851198968
  0
LINE
  5
227
100
AcDbEntity
  8
LAYER_FEATURE
100
AcDbLine
 62
7
  6
CONTINUOUS
 10
2.7243672762
 20
5.7851198968
 11
2.7243672762
 21
5.7401198968
  0
LINE
  5
228
100
AcDbEntity
  8
0
100
AcDbLine
 62
7
  6
CONTINUOUS
 10
2.5445695706
 20
5.2304185295
 11
2.6563672762
 21
5.7401198968
  0
LINE
  5
229
100
AcDbEntity
  8
LAYER_FEATURE
100
AcDbLine
 62
7
  6
CONTINUOUS
 10
2.7243672762
 20
5.7401198968
 11
2.8361649817
 21
5.2304185295
  0
LINE
  5
22A
100
AcDbEntity
  8
LAYER_FEATURE
100
AcDbLine
 62
7
  6
CONTINUOUS
 10
3.3443672762
 20
5.7401198968
 11
3.3443672762
 21
5.7851198968
  0
LINE
  5
22B
100
AcDbEntity
  8
LAYER_FEATURE
100
AcDbLine
 62
7
  6
CONTINUOUS
 10
3.4123672762
 20
5.7851198968
 11
3.4123672762
 21
5.7401198968
  0
LINE
  5
22C
100
AcDbEntity
  8
LAYER_FEATURE
100
AcDbLine
 62
7
  6
CONTINUOUS
 10
3.2325695706
 20
5.2304185295
 11
3.3443672762
 21
5.7401198968
  0
LINE
  5
22D
100
AcDbEntity
  8
LAYER_FEATURE
100
AcDbLine
 62
7
  6
CONTINUOUS
 10
3.4123672762
 20
5.7401198968
 11
3.5241649817
 21
5.2304185295
  0
LINE
  5
22E
100
AcDbEntity
  8
LAYER_FEATURE
100
AcDbLine
 62
7
  6
CONTINUOUS
 10
4.0323672762
 20
5.7401198968
 11
4.0323672762
 21
5.7851198968
  0
LINE
  5
22F
100
AcDbEntity
  8
LAYER_FEATURE
100
AcDbLine
 62
7
  6
CONTINUOUS
 10
4.1003672762
 20
5.7851198968
 11
4.1003672762
 21
5.7401198968
  0
LINE
  5
230
100
AcDbEntity
  8
LAYER_FEATURE
100
AcDbLine
 62
7
  6
CONTINUOUS
 10
3.9205695706
 20
5.2304185295
 11
4.0323672762
 21
5.7401198968
  0
LINE
  5
231
100
AcDbEntity
  8
LAYER_FEATURE
100
AcDbLine
 62
7
  6
CONTINUOUS
 10
4.1003672762
 20
5.7401198968
 11
4.2121649817
 21
5.2304185295
  0
LINE
  5
232
100
AcDbEntity
  8
LAYER_FEATURE
100
AcDbLine
 62
7
  6
CONTINUOUS
 10
4.7203672762
 20
5.7401198968
 11
4.7203672762
 21
5.7851198968
  0
LINE
  5
233
100
AcDbEntity
  8
LAYER_FEATURE
100
AcDbLine
 62
7
  6
CONTINUOUS
 10
4.7883672762
 20
5.7851198968
 11
4.7883672762
 21
5.7401198968
  0
LINE
  5
234
100
AcDbEntity
  8
LAYER_FEATURE
100
AcDbLine
 62
7
  6
CONTINUOUS
 10
4.6085695706
 20
5.2304185295
 11
4.7203672762
 21
5.7401198968
  0
LINE
  5
235
100
AcDbEntity
  8
LAYER_FEATURE
100
AcDbLine
 62
7
  6
CONTINUOUS
 10
4.7883672762
 20
5.7401198968
 11
4.9001649817
 21
5.2304185295
  0
LINE
  5
236
100
AcDbEntity
  8
LAYER_FEATURE
100
AcDbLine
 62
7
  6
CONTINUOUS
 10
5.4083672762
 20
5.7401198968
 11
5.4083672762
 21
5.7851198968
  0
LINE
  5
237
100
AcDbEntity
  8
LAYER_FEATURE
100
AcDbLine
 62
7
  6
CONTINUOUS
 10
5.4763672762
 20
5.7851198968
 11
5.4763672762
 21
5.7401198968
  0
LINE
  5
238
100
AcDbEntity
  8
LAYER_FEATURE
100
AcDbLine
 62
7
  6
CONTINUOUS
 10
5.2965695706
 20
5.2304185295
 11
5.4083672762
 21
5.7401198968
  0
LINE
  5
239
100
AcDbEntity
  8
LAYER_FEATURE
100
AcDbLine
 62
7
  6
CONTINUOUS
 10
5.4763672762
 20
5.7401198968
 11
5.5881649817
 21
5.2304185295
  0
LINE
  5
23A
100
AcDbEntity
  8
0
100
AcDbLine
 62
7
  6
CONTINUOUS
 10
2.1733984555
 20
5.2101198968
 11
2.5193360968
 21
5.2101198968
  0
LINE
  5
23B
100
AcDbEntity
  8
LAYER_FEATURE
100
AcDbLine
 62
7
  6
CONTINUOUS
 10
2.8613984555
 20
5.2101198968
 11
3.2073360968
 21
5.2101198968
  0
LINE
  5
23C
100
AcDbEntity
  8
LAYER_FEATURE
100
AcDbLine
 62
7
  6
CONTINUOUS
 10
3.5493984555
 20
5.2101198968
 11
3.8953360968
 21
5.2101198968
  0
LINE
  5
23D
100
AcDbEntity
  8
LAYER_FEATURE
100
AcDbLine
 62
7
  6
CONTINUOUS
 10
4.2373984555
 20
5.2101198968
 11
4.5833360968
 21
5.2101198968
  0
LINE
  5
23E
100
AcDbEntity
  8
LAYER_FEATURE
100
AcDbLine
 62
7
  6
CONTINUOUS
 10
4.9253984555
 20
5.2101198968
 11
5.2713360968
 21
5.2101198968
  0
LINE
  5
23F
100
AcDbEntity
  8
LAYER_FEATURE
100
AcDbLine
 62
7
  6
CONTINUOUS
 10
5.6133984555
 20
5.2101198968
 11
5.9593360968
 21
5.2101198968
  0
LINE
  5
240
100
AcDbEntity
  8
LAYER_FEATURE
100
AcDbLine
 62
7
  6
CONTINUOUS
 10
6.3013984555
 20
5.2101198968
 11
6.6473360968
 21
5.2101198968
  0
LINE
  5
241
100
AcDbEntity
  8
LAYER_FEATURE
100
AcDbLine
 62
7
  6
CONTINUOUS
 10
6.9893984555
 20
5.2101198968
 11
7.3353360968
 21
5.2101198968
  0
LINE
  5
242
100
AcDbEntity
  8
LAYER_FEATURE
100
AcDbLine
 62
7
  6
CONTINUOUS
 10
7.6773984555
 20
5.2101198968
 11
8.0233360968
 21
5.2101198968
  0
LINE
  5
243
100
AcDbEntity
  8
LAYER_FEATURE
100
AcDbLine
 62
7
  6
CONTINUOUS
 10
8.3653984555
 20
5.2101198968
 11
8.7113360968
 21
5.2101198968
  0
LINE
  5
244
100
AcDbEntity
  8
LAYER_FEATURE
100
AcDbLine
 62
7
  6
CONTINUOUS
 10
9.0533984555
 20
5.2101198968
 11
9.3993360968
 21
5.2101198968
  0
LINE
  5
245
100
AcDbEntity
  8
LAYER_FEATURE
100
AcDbLine
 62
7
  6
CONTINUOUS
 10
9.7413984555
 20
5.2101198968
 11
10.0873360968
 21
5.2101198968
  0
LINE
  5
246
100
AcDbEntity
  8
LAYER_FEATURE
100
AcDbLine
 62
7
  6
CONTINUOUS
 10
6.0963672762
 20
5.7401198968
 11
6.0963672762
 21
5.7851198968
  0
LINE
  5
247
100
AcDbEntity
  8
LAYER_FEATURE
100
AcDbLine
 62
7
  6
CONTINUOUS
 10
6.1643672762
 20
5.7851198968
 11
6.1643672762
 21
5.7401198968
  0
LINE
  5
248
100
AcDbEntity
  8
LAYER_FEATURE
100
AcDbLine
 62
7
  6
CONTINUOUS
 10
5.9845695706
 20
5.2304185295
 11
6.0963672762
 21
5.7401198968
  0
LINE
  5
249
100
AcDbEntity
  8
LAYER_FEATURE
100
AcDbLine
 62
7
  6
CONTINUOUS
 10
2.6563672762
 20
5.7851198968
 11
2.7243672762
 21
5.7851198968
  0
LINE
  5
24A
100
AcDbEntity
  8
LAYER_FEATURE
100
AcDbLine
 62
7
  6
CONTINUOUS
 10
3.3443672762
 20
5.7851198968
 11
3.4123672762
 21
5.7851198968
  0
LINE
  5
24B
100
AcDbEntity
  8
LAYER_FEATURE
100
AcDbLine
 62
7
  6
CONTINUOUS
 10
4.0323672762
 20
5.7851198968
 11
4.1003672762
 21
5.7851198968
  0
LINE
  5
24C
100
AcDbEntity
  8
LAYER_FEATURE
100
AcDbLine
 62
7
  6
CONTINUOUS
 10
4.7203672762
 20
5.7851198968
 11
4.7883672762
 21
5.7851198968
  0
LINE
  5
24D
100
AcDbEntity
  8
LAYER_FEATURE
100
AcDbLine
 62
7
  6
CONTINUOUS
 10
5.4083672762
 20
5.7851198968
 11
5.4763672762
 21
5.7851198968
  0
LINE
  5
24E
100
AcDbEntity
  8
LAYER_FEATURE
100
AcDbLine
 62
7
  6
CONTINUOUS
 10
6.0963672762
 20
5.7851198968
 11
6.1643672762
 21
5.7851198968
  0
LINE
  5
24F
100
AcDbEntity
  8
LAYER_FEATURE
100
AcDbLine
 62
7
  6
CONTINUOUS
 10
6.7843672762
 20
5.7851198968
 11
6.8523672762
 21
5.7851198968
  0
LINE
  5
250
100
AcDbEntity
  8
LAYER_FEATURE
100
AcDbLine
 62
7
  6
CONTINUOUS
 10
7.4723672762
 20
5.7851198968
 11
7.5403672762
 21
5.7851198968
  0
LINE
  5
251
100
AcDbEntity
  8
LAYER_FEATURE
100
AcDbLine
 62
7
  6
CONTINUOUS
 10
8.1603672762
 20
5.7851198968
 11
8.2283672762
 21
5.7851198968
  0
LINE
  5
252
100
AcDbEntity
  8
LAYER_FEATURE
100
AcDbLine
 62
7
  6
CONTINUOUS
 10
8.8483672762
 20
5.7851198968
 11
8.9163672762
 21
5.7851198968
  0
LINE
  5
253
100
AcDbEntity
  8
LAYER_FEATURE
100
AcDbLine
 62
7
  6
CONTINUOUS
 10
9.5363672762
 20
5.7851198968
 11
9.6043672762
 21
5.7851198968
  0
LINE
  5
254
100
AcDbEntity
  8
0
100
AcDbLine
 62
7
  6
CONTINUOUS
 10
10.2093672762
 20
5.8301198968
 11
2.0513672762
 21
5.8301198968
  0
LINE
  5
255
100
AcDbEntity
  8
LAYER_FEATURE
100
AcDbLine
 62
7
  6
CONTINUOUS
 10
6.1643672762
 20
5.7401198968
 11
6.2761649817
 21
5.2304185295
  0
LINE
  5
256
100
AcDbEntity
  8
LAYER_FEATURE
100
AcDbLine
 62
7
  6
CONTINUOUS
 10
6.7843672762
 20
5.7401198968
 11
6.7843672762
 21
5.7851198968
  0
LINE
  5
257
100
AcDbEntity
  8
LAYER_FEATURE
100
AcDbLine
 62
7
  6
CONTINUOUS
 10
6.8523672762
 20
5.7851198968
 11
6.8523672762
 21
5.7401198968
  0
LINE
  5
258
100
AcDbEntity
  8
LAYER_FEATURE
100
AcDbLine
 62
7
  6
CONTINUOUS
 10
6.6725695706
 20
5.2304185295
 11
6.7843672762
 21
5.7401198968
  0
LINE
  5
259
100
AcDbEntity
  8
LAYER_FEATURE
100
AcDbLine
 62
7
  6
CONTINUOUS
 10
6.8523672762
 20
5.7401198968
 11
6.9641649817
 21
5.2304185295
  0
LINE
  5
25A
100
AcDbEntity
  8
LAYER_FEATURE
100
AcDbLine
 62
7
  6
CONTINUOUS
 10
7.4723672762
 20
5.7401198968
 11
7.4723672762
 21
5.7851198968
  0
LINE
  5
25B
100
AcDbEntity
  8
LAYER_FEATURE
100
AcDbLine
 62
7
  6
CONTINUOUS
 10
7.3605695706
 20
5.2304185295
 11
7.4723672762
 21
5.7401198968
  0
LINE
  5
25C
100
AcDbEntity
  8
LAYER_FEATURE
100
AcDbLine
 62
7
  6
CONTINUOUS
 10
7.5403672762
 20
5.7851198968
 11
7.5403672762
 21
5.7401198968
  0
LINE
  5
25D
100
AcDbEntity
  8
LAYER_FEATURE
100
AcDbLine
 62
7
  6
CONTINUOUS
 10
7.5403672762
 20
5.7401198968
 11
7.6521649817
 21
5.2304185295
  0
LINE
  5
25E
100
AcDbEntity
  8
LAYER_FEATURE
100
AcDbLine
 62
7
  6
CONTINUOUS
 10
8.0485695706
 20
5.2304185295
 11
8.1603672762
 21
5.7401198968
  0
LINE
  5
25F
100
AcDbEntity
  8
LAYER_FEATURE
100
AcDbLine
 62
7
  6
CONTINUOUS
 10
8.1603672762
 20
5.7401198968
 11
8.1603672762
 21
5.7851198968
  0
LINE
  5
260
100
AcDbEntity
  8
LAYER_FEATURE
100
AcDbLine
 62
7
  6
CONTINUOUS
 10
8.2283672762
 20
5.7851198968
 11
8.2283672762
 21
5.7401198968
  0
LINE
  5
261
100
AcDbEntity
  8
LAYER_FEATURE
100
AcDbLine
 62
7
  6
CONTINUOUS
 10
8.2283672762
 20
5.7401198968
 11
8.3401649817
 21
5.2304185295
  0
LINE
  5
262
100
AcDbEntity
  8
LAYER_FEATURE
100
AcDbLine
 62
7
  6
CONTINUOUS
 10
8.8483672762
 20
5.7401198968
 11
8.8483672762
 21
5.7851198968
  0
LINE
  5
263
100
AcDbEntity
  8
LAYER_FEATURE
100
AcDbLine
 62
7
  6
CONTINUOUS
 10
8.7365695706
 20
5.2304185295
 11
8.8483672762
 21
5.7401198968
  0
LINE
  5
264
100
AcDbEntity
  8
LAYER_FEATURE
100
AcDbLine
 62
7
  6
CONTINUOUS
 10
8.9163672762
 20
5.7401198968
 11
9.0281649817
 21
5.2304185295
  0
LINE
  5
265
100
AcDbEntity
  8
LAYER_FEATURE
100
AcDbLine
 62
7
  6
CONTINUOUS
 10
8.9163672762
 20
5.7851198968
 11
8.9163672762
 21
5.7401198968
  0
LINE
  5
266
100
AcDbEntity
  8
LAYER_FEATURE
100
AcDbLine
 62
7
  6
CONTINUOUS
 10
9.4245695706
 20
5.2304185295
 11
9.5363672762
 21
5.7401198968
  0
LINE
  5
267
100
AcDbEntity
  8
LAYER_FEATURE
100
AcDbLine
 62
7
  6
CONTINUOUS
 10
9.5363672762
 20
5.7401198968
 11
9.5363672762
 21
5.7851198968
  0
LINE
  5
268
100
AcDbEntity
  8
LAYER_FEATURE
100
AcDbLine
 62
7
  6
CONTINUOUS
 10
9.6043672762
 20
5.7851198968
 11
9.6043672762
 21
5.7401198968
  0
LINE
  5
269
100
AcDbEntity
  8
LAYER_FEATURE
100
AcDbLine
 62
7
  6
CONTINUOUS
 10
9.6043672762
 20
5.7401198968
 11
9.7161649817
 21
5.2304185295
  0
LINE
  5
26A
100
AcDbEntity
  8
0
100
AcDbLine
 62
7
  6
CONTINUOUS
 10
10.2243672762
 20
5.7401198968
 11
10.2243672762
 21
5.8151198968
  0
LINE
  5
26B
100
AcDbEntity
  8
LAYER_FEATURE
100
AcDbLine
 62
7
  6
CONTINUOUS
 10
10.1125695706
 20
5.2304185295
 11
10.2243672762
 21
5.7401198968
  0
LINE
  5
26C
100
AcDbEntity
  8
0
100
AcDbLine
 62
7
  6
CONTINUOUS
 10
1.9768720839
 20
14.6000477814
 11
1.9768720839
 21
10.6000477814
  0
LINE
  5
26D
100
AcDbEntity
  8
0
100
AcDbLine
 62
7
  6
CONTINUOUS
 10
10.1648720839
 20
10.6000477814
 11
1.9768720839
 21
10.6000477814
  0
LINE
  5
26E
100
AcDbEntity
  8
0
100
AcDbLine
 62
7
  6
CONTINUOUS
 10
1.9768720839
 20
14.6000477814
 11
10.1648720839
 21
14.6000477814
  0
LINE
  5
26F
100
AcDbEntity
  8
0
100
AcDbLine
 62
7
  6
CONTINUOUS
 10
10.1648720839
 20
10.6000477814
 11
10.1648720839
 21
14.6000477814
  0
LINE
  5
270
100
AcDbEntity
  8
LAYER_FEATURE
100
AcDbLine
 62
7
  6
CONTINUOUS
 10
13.5603552569
 20
5.1506247044
 11
13.5603552569
 21
5.6806247044
  0
LINE
  5
271
100
AcDbEntity
  8
0
100
AcDbLine
 62
7
  6
CONTINUOUS
 10
13.5603552569
 20
5.6806247044
 11
13.5603552569
 21
5.7706247044
  0
LINE
  5
272
100
AcDbEntity
  8
LAYER_FEATURE
100
AcDbLine
 62
7
  6
CONTINUOUS
 10
13.5603552569
 20
5.1506247044
 11
17.5603552569
 21
5.1506247044
  0
LINE
  5
273
100
AcDbEntity
  8
LAYER_FEATURE
100
AcDbLine
 62
7
  6
CONTINUOUS
 10
17.5603552569
 20
5.6806247044
 11
13.5603552569
 21
5.6806247044
  0
LINE
  5
274
100
AcDbEntity
  8
0
100
AcDbLine
 62
7
  6
CONTINUOUS
 10
13.5603552569
 20
5.7706247044
 11
17.5603552569
 21
5.7706247044
  0
LINE
  5
275
100
AcDbEntity
  8
0
100
AcDbLine
 62
7
  6
CONTINUOUS
 10
17.5603552569
 20
5.7706247044
 11
17.5603552569
 21
5.6806247044
  0
LINE
  5
276
100
AcDbEntity
  8
LAYER_FEATURE
100
AcDbLine
 62
7
  6
CONTINUOUS
 10
17.5603552569
 20
5.1506247044
 11
17.5603552569
 21
5.6806247044
  0
LINE
  5
277
100
AcDbEntity
  8
0
100
AcDbLine
 62
7
  6
CONTINUOUS
 10
11.1788135692
 20
11.1275261143
 11
11.2016917092
 21
11.0809053667
  0
LINE
  5
278
100
AcDbEntity
  8
0
100
AcDbLine
 62
7
  6
CONTINUOUS
 10
11.2016917092
 20
11.0809053667
 11
11.4601444715
 21
10.7640699159
  0
LINE
  5
279
100
AcDbEntity
  8
0
100
AcDbLine
 62
7
  6
CONTINUOUS
 10
12.146563465
 20
14.2652624634
 11
11.1782981714
 21
11.1319548249
  0
LINE
  5
27A
100
AcDbEntity
  8
LAYER_FEATURE
100
AcDbLine
 62
7
  6
CONTINUOUS
 10
11.835381673
 20
11.0809053667
 11
12.0938344353
 21
10.7640699159
  0
LINE
  5
27B
100
AcDbEntity
  8
0
100
AcDbLine
 62
7
  6
CONTINUOUS
 10
11.7727495254
 20
11.0809053667
 11
11.7590226414
 21
11.1088778152
  0
LINE
  5
27C
100
AcDbEntity
  8
LAYER_FEATURE
100
AcDbLine
 62
7
  6
CONTINUOUS
 10
11.821654789
 20
11.1088778152
 11
11.835381673
 21
11.0809053667
  0
LINE
  5
27D
100
AcDbEntity
  8
0
100
AcDbLine
 62
7
  6
CONTINUOUS
 10
11.8252572761
 20
10.7640699159
 11
11.7727495254
 21
11.0809053667
  0
LINE
  5
27E
100
AcDbEntity
  8
0
100
AcDbLine
 62
7
  6
CONTINUOUS
 10
11.8250101482
 20
10.7598827926
 11
11.8252572761
 21
10.7640699159
  0
LINE
  5
27F
100
AcDbEntity
  8
LAYER_FEATURE
100
AcDbLine
 62
7
  6
CONTINUOUS
 10
12.4064394893
 20
11.0809053667
 11
12.3927126053
 21
11.1088778152
  0
LINE
  5
280
100
AcDbEntity
  8
0
100
AcDbLine
 62
7
  6
CONTINUOUS
 10
11.7813936658
 20
11.1088778152
 11
11.7727495254
 21
11.0809053667
  0
LINE
  5
281
100
AcDbEntity
  8
LAYER_FEATURE
100
AcDbLine
 62
7
  6
CONTINUOUS
 10
12.4690716369
 20
11.0809053667
 11
12.7275243992
 21
10.7640699159
  0
LINE
  5
282
100
AcDbEntity
  8
LAYER_FEATURE
100
AcDbLine
 62
7
  6
CONTINUOUS
 10
12.4553447529
 20
11.1088778152
 11
12.4690716369
 21
11.0809053667
  0
LINE
  5
283
100
AcDbEntity
  8
LAYER_FEATURE
100
AcDbLine
 62
7
  6
CONTINUOUS
 10
12.45894724
 20
10.7640699159
 11
12.4064394893
 21
11.0809053667
  0
LINE
  5
284
100
AcDbEntity
  8
LAYER_FEATURE
100
AcDbLine
 62
7
  6
CONTINUOUS
 10
12.4587001121
 20
10.7598827926
 11
12.45894724
 21
10.7640699159
  0
LINE
  5
285
100
AcDbEntity
  8
0
100
AcDbLine
 62
7
  6
CONTINUOUS
 10
11.8262117666
 20
10.7637749561
 11
11.899806459
 21
11.0019274679
  0
LINE
  5
286
100
AcDbEntity
  8
LAYER_FEATURE
100
AcDbLine
 62
7
  6
CONTINUOUS
 10
13.0401294532
 20
11.0809053667
 11
13.0264025692
 21
11.1088778152
  0
LINE
  5
287
100
AcDbEntity
  8
LAYER_FEATURE
100
AcDbLine
 62
7
  6
CONTINUOUS
 10
13.0890347168
 20
11.1088778152
 11
13.1027616008
 21
11.0809053667
  0
LINE
  5
288
100
AcDbEntity
  8
LAYER_FEATURE
100
AcDbLine
 62
7
  6
CONTINUOUS
 10
12.4150836297
 20
11.1088778152
 11
12.4064394893
 21
11.0809053667
  0
LINE
  5
289
100
AcDbEntity
  8
LAYER_FEATURE
100
AcDbLine
 62
7
  6
CONTINUOUS
 10
13.1027616008
 20
11.0809053667
 11
13.3612143631
 21
10.7640699159
  0
LINE
  5
28A
100
AcDbEntity
  8
LAYER_FEATURE
100
AcDbLine
 62
7
  6
CONTINUOUS
 10
13.0926372039
 20
10.7640699159
 11
13.0401294532
 21
11.0809053667
  0
LINE
  5
28B
100
AcDbEntity
  8
LAYER_FEATURE
100
AcDbLine
 62
7
  6
CONTINUOUS
 10
13.092390076
 20
10.7598827926
 11
13.0926372039
 21
10.7640699159
  0
LINE
  5
28C
100
AcDbEntity
  8
LAYER_FEATURE
100
AcDbLine
 62
7
  6
CONTINUOUS
 10
12.4599017304
 20
10.7637749561
 11
12.5334964228
 21
11.0019274679
  0
LINE
  5
28D
100
AcDbEntity
  8
LAYER_FEATURE
100
AcDbLine
 62
7
  6
CONTINUOUS
 10
13.7364515647
 20
11.0809053667
 11
13.994904327
 21
10.7640699159
  0
LINE
  5
28E
100
AcDbEntity
  8
LAYER_FEATURE
100
AcDbLine
 62
7
  6
CONTINUOUS
 10
13.6738194171
 20
11.0809053667
 11
13.6600925331
 21
11.1088778152
  0
LINE
  5
28F
100
AcDbEntity
  8
LAYER_FEATURE
100
AcDbLine
 62
7
  6
CONTINUOUS
 10
13.7227246807
 20
11.1088778152
 11
13.7364515647
 21
11.0809053667
  0
LINE
  5
290
100
AcDbEntity
  8
LAYER_FEATURE
100
AcDbLine
 62
7
  6
CONTINUOUS
 10
13.0487735936
 20
11.1088778152
 11
13.0401294532
 21
11.0809053667
  0
LINE
  5
291
100
AcDbEntity
  8
LAYER_FEATURE
100
AcDbLine
 62
7
  6
CONTINUOUS
 10
13.7263271678
 20
10.7640699159
 11
13.6738194171
 21
11.0809053667
  0
LINE
  5
292
100
AcDbEntity
  8
LAYER_FEATURE
100
AcDbLine
 62
7
  6
CONTINUOUS
 10
13.7260800398
 20
10.7598827926
 11
13.7263271678
 21
10.7640699159
  0
LINE
  5
293
100
AcDbEntity
  8
LAYER_FEATURE
100
AcDbLine
 62
7
  6
CONTINUOUS
 10
13.0935916943
 20
10.7637749561
 11
13.1671863867
 21
11.0019274679
  0
LINE
  5
294
100
AcDbEntity
  8
0
100
AcDbLine
 62
7
  6
CONTINUOUS
 10
11.4895779727
 20
10.7514520835
 11
11.8082076405
 21
10.7514520835
  0
LINE
  5
295
100
AcDbEntity
  8
LAYER_FEATURE
100
AcDbLine
 62
7
  6
CONTINUOUS
 10
12.1232679366
 20
10.7514520835
 11
12.4418976044
 21
10.7514520835
  0
LINE
  5
296
100
AcDbEntity
  8
LAYER_FEATURE
100
AcDbLine
 62
7
  6
CONTINUOUS
 10
12.7569579005
 20
10.7514520835
 11
13.0755875682
 21
10.7514520835
  0
LINE
  5
297
100
AcDbEntity
  8
LAYER_FEATURE
100
AcDbLine
 62
7
  6
CONTINUOUS
 10
13.3906478644
 20
10.7514520835
 11
13.7092775321
 21
10.7514520835
  0
LINE
  5
298
100
AcDbEntity
  8
LAYER_FEATURE
100
AcDbLine
 62
7
  6
CONTINUOUS
 10
14.0243378282
 20
10.7514520835
 11
14.342967496
 21
10.7514520835
  0
LINE
  5
299
100
AcDbEntity
  8
LAYER_FEATURE
100
AcDbLine
 62
7
  6
CONTINUOUS
 10
14.6580277921
 20
10.7514520835
 11
14.9766574599
 21
10.7514520835
  0
LINE
  5
29A
100
AcDbEntity
  8
LAYER_FEATURE
100
AcDbLine
 62
7
  6
CONTINUOUS
 10
15.291717756
 20
10.7514520835
 11
15.6103474237
 21
10.7514520835
  0
LINE
  5
29B
100
AcDbEntity
  8
LAYER_FEATURE
100
AcDbLine
 62
7
  6
CONTINUOUS
 10
15.9254077199
 20
10.7514520835
 11
16.2440373876
 21
10.7514520835
  0
LINE
  5
29C
100
AcDbEntity
  8
LAYER_FEATURE
100
AcDbLine
 62
7
  6
CONTINUOUS
 10
16.5590976837
 20
10.7514520835
 11
16.8777273515
 21
10.7514520835
  0
LINE
  5
29D
100
AcDbEntity
  8
LAYER_FEATURE
100
AcDbLine
 62
7
  6
CONTINUOUS
 10
17.1927876476
 20
10.7514520835
 11
17.5114173153
 21
10.7514520835
  0
LINE
  5
29E
100
AcDbEntity
  8
LAYER_FEATURE
100
AcDbLine
 62
7
  6
CONTINUOUS
 10
17.8264776115
 20
10.7514520835
 11
18.1451072792
 21
10.7514520835
  0
LINE
  5
29F
100
AcDbEntity
  8
LAYER_FEATURE
100
AcDbLine
 62
7
  6
CONTINUOUS
 10
18.4601675754
 20
10.7514520835
 11
18.7787972431
 21
10.7514520835
  0
LINE
  5
2A0
100
AcDbEntity
  8
LAYER_FEATURE
100
AcDbLine
 62
7
  6
CONTINUOUS
 10
14.3701415285
 20
11.0809053667
 11
14.6285942908
 21
10.7640699159
  0
LINE
  5
2A1
100
AcDbEntity
  8
LAYER_FEATURE
100
AcDbLine
 62
7
  6
CONTINUOUS
 10
14.3075093809
 20
11.0809053667
 11
14.2937824969
 21
11.1088778152
  0
LINE
  5
2A2
100
AcDbEntity
  8
LAYER_FEATURE
100
AcDbLine
 62
7
  6
CONTINUOUS
 10
14.3564146445
 20
11.1088778152
 11
14.3701415285
 21
11.0809053667
  0
LINE
  5
2A3
100
AcDbEntity
  8
LAYER_FEATURE
100
AcDbLine
 62
7
  6
CONTINUOUS
 10
13.6824635575
 20
11.1088778152
 11
13.6738194171
 21
11.0809053667
  0
LINE
  5
2A4
100
AcDbEntity
  8
LAYER_FEATURE
100
AcDbLine
 62
7
  6
CONTINUOUS
 10
11.7590226414
 20
11.1088778152
 11
11.821654789
 21
11.1088778152
  0
LINE
  5
2A5
100
AcDbEntity
  8
LAYER_FEATURE
100
AcDbLine
 62
7
  6
CONTINUOUS
 10
12.3927126053
 20
11.1088778152
 11
12.4553447529
 21
11.1088778152
  0
LINE
  5
2A6
100
AcDbEntity
  8
LAYER_FEATURE
100
AcDbLine
 62
7
  6
CONTINUOUS
 10
13.0264025692
 20
11.1088778152
 11
13.0890347168
 21
11.1088778152
  0
LINE
  5
2A7
100
AcDbEntity
  8
LAYER_FEATURE
100
AcDbLine
 62
7
  6
CONTINUOUS
 10
13.6600925331
 20
11.1088778152
 11
13.7227246807
 21
11.1088778152
  0
LINE
  5
2A8
100
AcDbEntity
  8
LAYER_FEATURE
100
AcDbLine
 62
7
  6
CONTINUOUS
 10
14.2937824969
 20
11.1088778152
 11
14.3564146445
 21
11.1088778152
  0
LINE
  5
2A9
100
AcDbEntity
  8
LAYER_FEATURE
100
AcDbLine
 62
7
  6
CONTINUOUS
 10
14.9274724608
 20
11.1088778152
 11
14.9901046084
 21
11.1088778152
  0
LINE
  5
2AA
100
AcDbEntity
  8
LAYER_FEATURE
100
AcDbLine
 62
7
  6
CONTINUOUS
 10
15.5611624247
 20
11.1088778152
 11
15.6237945723
 21
11.1088778152
  0
LINE
  5
2AB
100
AcDbEntity
  8
LAYER_FEATURE
100
AcDbLine
 62
7
  6
CONTINUOUS
 10
16.1948523886
 20
11.1088778152
 11
16.2574845362
 21
11.1088778152
  0
LINE
  5
2AC
100
AcDbEntity
  8
LAYER_FEATURE
100
AcDbLine
 62
7
  6
CONTINUOUS
 10
16.8285423524
 20
11.1088778152
 11
16.8911745
 21
11.1088778152
  0
LINE
  5
2AD
100
AcDbEntity
  8
LAYER_FEATURE
100
AcDbLine
 62
7
  6
CONTINUOUS
 10
17.4622323163
 20
11.1088778152
 11
17.5248644639
 21
11.1088778152
  0
LINE
  5
2AE
100
AcDbEntity
  8
LAYER_FEATURE
100
AcDbLine
 62
7
  6
CONTINUOUS
 10
18.0959222802
 20
11.1088778152
 11
18.1585544278
 21
11.1088778152
  0
LINE
  5
2AF
100
AcDbEntity
  8
0
100
AcDbLine
 62
7
  6
CONTINUOUS
 10
18.7020694451
 20
11.1368502638
 11
11.1880538561
 21
11.1368502638
  0
LINE
  5
2B0
100
AcDbEntity
  8
LAYER_FEATURE
100
AcDbLine
 62
7
  6
CONTINUOUS
 10
15.0038314924
 20
11.0809053667
 11
15.2622842547
 21
10.7640699159
  0
LINE
  5
2B1
100
AcDbEntity
  8
LAYER_FEATURE
100
AcDbLine
 62
7
  6
CONTINUOUS
 10
14.3600171316
 20
10.7640699159
 11
14.3075093809
 21
11.0809053667
  0
LINE
  5
2B2
100
AcDbEntity
  8
LAYER_FEATURE
100
AcDbLine
 62
7
  6
CONTINUOUS
 10
14.3597700037
 20
10.7598827926
 11
14.3600171316
 21
10.7640699159
  0
LINE
  5
2B3
100
AcDbEntity
  8
LAYER_FEATURE
100
AcDbLine
 62
7
  6
CONTINUOUS
 10
13.7272816582
 20
10.7637749561
 11
13.8008763506
 21
11.0019274679
  0
LINE
  5
2B4
100
AcDbEntity
  8
LAYER_FEATURE
100
AcDbLine
 62
7
  6
CONTINUOUS
 10
14.9411993448
 20
11.0809053667
 11
14.9274724608
 21
11.1088778152
  0
LINE
  5
2B5
100
AcDbEntity
  8
LAYER_FEATURE
100
AcDbLine
 62
7
  6
CONTINUOUS
 10
14.9901046084
 20
11.1088778152
 11
15.0038314924
 21
11.0809053667
  0
LINE
  5
2B6
100
AcDbEntity
  8
LAYER_FEATURE
100
AcDbLine
 62
7
  6
CONTINUOUS
 10
14.3161535213
 20
11.1088778152
 11
14.3075093809
 21
11.0809053667
  0
LINE
  5
2B7
100
AcDbEntity
  8
LAYER_FEATURE
100
AcDbLine
 62
7
  6
CONTINUOUS
 10
15.6375214563
 20
11.0809053667
 11
15.8959742186
 21
10.7640699159
  0
LINE
  5
2B8
100
AcDbEntity
  8
LAYER_FEATURE
100
AcDbLine
 62
7
  6
CONTINUOUS
 10
14.9937070955
 20
10.7640699159
 11
14.9411993448
 21
11.0809053667
  0
LINE
  5
2B9
100
AcDbEntity
  8
LAYER_FEATURE
100
AcDbLine
 62
7
  6
CONTINUOUS
 10
14.9934605188
 20
10.7598826219
 11
14.9937070955
 21
10.7640699159
  0
LINE
  5
2BA
100
AcDbEntity
  8
LAYER_FEATURE
100
AcDbLine
 62
7
  6
CONTINUOUS
 10
14.3609716221
 20
10.7637749561
 11
14.4345663145
 21
11.0019274679
  0
LINE
  5
2BB
100
AcDbEntity
  8
LAYER_FEATURE
100
AcDbLine
 62
7
  6
CONTINUOUS
 10
16.2712114202
 20
11.0809053667
 11
16.5296641825
 21
10.7640699159
  0
LINE
  5
2BC
100
AcDbEntity
  8
LAYER_FEATURE
100
AcDbLine
 62
7
  6
CONTINUOUS
 10
15.5748893087
 20
11.0809053667
 11
15.5611624247
 21
11.1088778152
  0
LINE
  5
2BD
100
AcDbEntity
  8
LAYER_FEATURE
100
AcDbLine
 62
7
  6
CONTINUOUS
 10
15.6237945723
 20
11.1088778152
 11
15.6375214563
 21
11.0809053667
  0
LINE
  5
2BE
100
AcDbEntity
  8
LAYER_FEATURE
100
AcDbLine
 62
7
  6
CONTINUOUS
 10
14.9498434852
 20
11.1088778152
 11
14.9411993448
 21
11.0809053667
  0
LINE
  5
2BF
100
AcDbEntity
  8
LAYER_FEATURE
100
AcDbLine
 62
7
  6
CONTINUOUS
 10
16.2085792726
 20
11.0809053667
 11
16.1948523886
 21
11.1088778152
  0
LINE
  5
2C0
100
AcDbEntity
  8
LAYER_FEATURE
100
AcDbLine
 62
7
  6
CONTINUOUS
 10
15.6273970594
 20
10.7640699159
 11
15.5748893087
 21
11.0809053667
  0
LINE
  5
2C1
100
AcDbEntity
  8
LAYER_FEATURE
100
AcDbLine
 62
7
  6
CONTINUOUS
 10
15.6271499315
 20
10.7598827926
 11
15.6273970594
 21
10.7640699159
  0
LINE
  5
2C2
100
AcDbEntity
  8
LAYER_FEATURE
100
AcDbLine
 62
7
  6
CONTINUOUS
 10
14.9946615859
 20
10.7637749561
 11
15.0682562783
 21
11.0019274679
  0
LINE
  5
2C3
100
AcDbEntity
  8
LAYER_FEATURE
100
AcDbLine
 62
7
  6
CONTINUOUS
 10
16.904901384
 20
11.0809053667
 11
17.1633541463
 21
10.7640699159
  0
LINE
  5
2C4
100
AcDbEntity
  8
LAYER_FEATURE
100
AcDbLine
 62
7
  6
CONTINUOUS
 10
16.2574845362
 20
11.1088778152
 11
16.2712114202
 21
11.0809053667
  0
LINE
  5
2C5
100
AcDbEntity
  8
LAYER_FEATURE
100
AcDbLine
 62
7
  6
CONTINUOUS
 10
15.5835334491
 20
11.1088778152
 11
15.5748893087
 21
11.0809053667
  0
LINE
  5
2C6
100
AcDbEntity
  8
LAYER_FEATURE
100
AcDbLine
 62
7
  6
CONTINUOUS
 10
16.8422692364
 20
11.0809053667
 11
16.8285423524
 21
11.1088778152
  0
LINE
  5
2C7
100
AcDbEntity
  8
LAYER_FEATURE
100
AcDbLine
 62
7
  6
CONTINUOUS
 10
16.8911745
 20
11.1088778152
 11
16.904901384
 21
11.0809053667
  0
LINE
  5
2C8
100
AcDbEntity
  8
LAYER_FEATURE
100
AcDbLine
 62
7
  6
CONTINUOUS
 10
16.2610870233
 20
10.7640699159
 11
16.2085792726
 21
11.0809053667
  0
LINE
  5
2C9
100
AcDbEntity
  8
LAYER_FEATURE
100
AcDbLine
 62
7
  6
CONTINUOUS
 10
16.2608398953
 20
10.7598827926
 11
16.2610870233
 21
10.7640699159
  0
LINE
  5
2CA
100
AcDbEntity
  8
LAYER_FEATURE
100
AcDbLine
 62
7
  6
CONTINUOUS
 10
15.6283515498
 20
10.7637749561
 11
15.7019462422
 21
11.0019274679
  0
LINE
  5
2CB
100
AcDbEntity
  8
LAYER_FEATURE
100
AcDbLine
 62
7
  6
CONTINUOUS
 10
17.5385913479
 20
11.0809053667
 11
17.7970441102
 21
10.7640699159
  0
LINE
  5
2CC
100
AcDbEntity
  8
LAYER_FEATURE
100
AcDbLine
 62
7
  6
CONTINUOUS
 10
16.217223413
 20
11.1088778152
 11
16.2085792726
 21
11.0809053667
  0
LINE
  5
2CD
100
AcDbEntity
  8
LAYER_FEATURE
100
AcDbLine
 62
7
  6
CONTINUOUS
 10
16.2620415137
 20
10.7637749561
 11
16.3356362061
 21
11.0019274679
  0
LINE
  5
2CE
100
AcDbEntity
  8
LAYER_FEATURE
100
AcDbLine
 62
7
  6
CONTINUOUS
 10
18.1722813118
 20
11.0809053667
 11
18.4307340741
 21
10.7640699159
  0
LINE
  5
2CF
100
AcDbEntity
  8
LAYER_FEATURE
100
AcDbLine
 62
7
  6
CONTINUOUS
 10
17.4759592003
 20
11.0809053667
 11
17.4622323163
 21
11.1088778152
  0
LINE
  5
2D0
100
AcDbEntity
  8
LAYER_FEATURE
100
AcDbLine
 62
7
  6
CONTINUOUS
 10
17.5248644639
 20
11.1088778152
 11
17.5385913479
 21
11.0809053667
  0
LINE
  5
2D1
100
AcDbEntity
  8
LAYER_FEATURE
100
AcDbLine
 62
7
  6
CONTINUOUS
 10
16.8947769871
 20
10.7640699159
 11
16.8422692364
 21
11.0809053667
  0
LINE
  5
2D2
100
AcDbEntity
  8
LAYER_FEATURE
100
AcDbLine
 62
7
  6
CONTINUOUS
 10
16.8945298592
 20
10.7598827926
 11
16.8947769871
 21
10.7640699159
  0
LINE
  5
2D3
100
AcDbEntity
  8
LAYER_FEATURE
100
AcDbLine
 62
7
  6
CONTINUOUS
 10
16.8509133768
 20
11.1088778152
 11
16.8422692364
 21
11.0809053667
  0
LINE
  5
2D4
100
AcDbEntity
  8
LAYER_FEATURE
100
AcDbLine
 62
7
  6
CONTINUOUS
 10
16.8957314776
 20
10.7637749561
 11
16.96932617
 21
11.0019274679
  0
LINE
  5
2D5
100
AcDbEntity
  8
0
100
AcDbLine
 62
7
  6
CONTINUOUS
 10
12.1563191497
 20
14.2701579023
 11
19.6703347388
 21
14.2701579023
  0
LINE
  5
2D6
100
AcDbEntity
  8
LAYER_FEATURE
100
AcDbLine
 62
7
  6
CONTINUOUS
 10
18.1096491642
 20
11.0809053667
 11
18.0959222802
 21
11.1088778152
  0
LINE
  5
2D7
100
AcDbEntity
  8
LAYER_FEATURE
100
AcDbLine
 62
7
  6
CONTINUOUS
 10
18.1585544278
 20
11.1088778152
 11
18.1722813118
 21
11.0809053667
  0
LINE
  5
2D8
100
AcDbEntity
  8
LAYER_FEATURE
100
AcDbLine
 62
7
  6
CONTINUOUS
 10
17.528466951
 20
10.7640699159
 11
17.4759592003
 21
11.0809053667
  0
LINE
  5
2D9
100
AcDbEntity
  8
LAYER_FEATURE
100
AcDbLine
 62
7
  6
CONTINUOUS
 10
17.5282198231
 20
10.7598827926
 11
17.528466951
 21
10.7640699159
  0
LINE
  5
2DA
100
AcDbEntity
  8
LAYER_FEATURE
100
AcDbLine
 62
7
  6
CONTINUOUS
 10
17.4846033407
 20
11.1088778152
 11
17.4759592003
 21
11.0809053667
  0
LINE
  5
2DB
100
AcDbEntity
  8
LAYER_FEATURE
100
AcDbLine
 62
7
  6
CONTINUOUS
 10
17.5294214414
 20
10.7637749561
 11
17.6030161338
 21
11.0019274679
  0
LINE
  5
2DC
100
AcDbEntity
  8
0
100
AcDbLine
 62
7
  6
CONTINUOUS
 10
18.7433391281
 20
11.0809053667
 11
18.7204609881
 21
11.1275261143
  0
LINE
  5
2DD
100
AcDbEntity
  8
LAYER_FEATURE
100
AcDbLine
 62
7
  6
CONTINUOUS
 10
18.1621569149
 20
10.7640699159
 11
18.1096491642
 21
11.0809053667
  0
LINE
  5
2DE
100
AcDbEntity
  8
LAYER_FEATURE
100
AcDbLine
 62
7
  6
CONTINUOUS
 10
18.161909787
 20
10.7598827926
 11
18.1621569149
 21
10.7640699159
  0
LINE
  5
2DF
100
AcDbEntity
  8
LAYER_FEATURE
100
AcDbLine
 62
7
  6
CONTINUOUS
 10
18.1182933046
 20
11.1088778152
 11
18.1096491642
 21
11.0809053667
  0
LINE
  5
2E0
100
AcDbEntity
  8
LAYER_FEATURE
100
AcDbLine
 62
7
  6
CONTINUOUS
 10
18.1631114053
 20
10.7637749561
 11
18.2367060977
 21
11.0019274679
  0
LINE
  5
2E1
100
AcDbEntity
  8
LAYER_FEATURE
100
AcDbLine
 62
7
  6
CONTINUOUS
 10
18.7958468787
 20
10.7640699159
 11
18.7433391281
 21
11.0809053667
  0
LINE
  5
2E2
100
AcDbEntity
  8
LAYER_FEATURE
100
AcDbLine
 62
7
  6
CONTINUOUS
 10
18.7955997508
 20
10.7598827926
 11
18.7958468787
 21
10.7640699159
  0
LINE
  5
2E3
100
AcDbEntity
  8
LAYER_FEATURE
100
AcDbLine
 62
7
  6
CONTINUOUS
 10
19.7116044217
 20
14.2142130052
 11
18.7433391281
 21
11.0809053667
  0
LINE
  5
2E4
100
AcDbEntity
  8
LAYER_FEATURE
100
AcDbLine
 62
7
  6
CONTINUOUS
 10
18.7968013692
 20
10.7637749561
 11
19.7638639936
 21
13.8931907557
  0
LINE
  5
2E5
100
AcDbEntity
  8
LAYER_FEATURE
100
AcDbLine
 62
7
  6
CONTINUOUS
 10
19.7641121724
 20
13.8973775544
 11
19.7638650445
 21
13.8931904311
  0
LINE
  5
2E6
100
AcDbEntity
  8
0
100
AcDbLine
 62
7
  6
CONTINUOUS
 10
19.6887262817
 20
14.2608337528
 11
19.7116044217
 21
14.2142130052
  0
LINE
  5
2E7
100
AcDbEntity
  8
LAYER_FEATURE
100
AcDbLine
 62
7
  6
CONTINUOUS
 10
19.7641121724
 20
13.8973775544
 11
19.7116044217
 21
14.2142130052
  0
ARC
  5
2E8
100
AcDbEntity
  8
0
100
AcDbCircle
 62
7
  6
CONTINUOUS
 10
2.1733984555
 20
5.2359532301
 40
0.0258333333
100
AcDbArc
 50
192.3713234544
 51
270.0
  0
ARC
  5
2E9
100
AcDbEntity
  8
0
100
AcDbCircle
 62
7
  6
CONTINUOUS
 10
2.5193360968
 20
5.2359532301
 40
0.0258333333
100
AcDbArc
 50
270.0
 51
347.6286765456
  0
ARC
  5
2EA
100
AcDbEntity
  8
LAYER_FEATURE
100
AcDbCircle
 62
7
  6
CONTINUOUS
 10
2.8613984555
 20
5.2359532301
 40
0.0258333333
100
AcDbArc
 50
192.3713234544
 51
270.0
  0
ARC
  5
2EB
100
AcDbEntity
  8
LAYER_FEATURE
100
AcDbCircle
 62
7
  6
CONTINUOUS
 10
3.2073360968
 20
5.2359532301
 40
0.0258333333
100
AcDbArc
 50
270.0
 51
347.6286765456
  0
ARC
  5
2EC
100
AcDbEntity
  8
LAYER_FEATURE
100
AcDbCircle
 62
7
  6
CONTINUOUS
 10
3.5493984555
 20
5.2359532301
 40
0.0258333333
100
AcDbArc
 50
192.3713234544
 51
270.0
  0
ARC
  5
2ED
100
AcDbEntity
  8
LAYER_FEATURE
100
AcDbCircle
 62
7
  6
CONTINUOUS
 10
3.8953360968
 20
5.2359532301
 40
0.0258333333
100
AcDbArc
 50
270.0
 51
347.6286765456
  0
ARC
  5
2EE
100
AcDbEntity
  8
LAYER_FEATURE
100
AcDbCircle
 62
7
  6
CONTINUOUS
 10
4.2373984555
 20
5.2359532301
 40
0.0258333333
100
AcDbArc
 50
192.3713234544
 51
270.0
  0
ARC
  5
2EF
100
AcDbEntity
  8
LAYER_FEATURE
100
AcDbCircle
 62
7
  6
CONTINUOUS
 10
4.5833360968
 20
5.2359532301
 40
0.0258333333
100
AcDbArc
 50
270.0
 51
347.6286765456
  0
ARC
  5
2F0
100
AcDbEntity
  8
LAYER_FEATURE
100
AcDbCircle
 62
7
  6
CONTINUOUS
 10
4.9253984555
 20
5.2359532301
 40
0.0258333333
100
AcDbArc
 50
192.3713234544
 51
270.0
  0
ARC
  5
2F1
100
AcDbEntity
  8
LAYER_FEATURE
100
AcDbCircle
 62
7
  6
CONTINUOUS
 10
5.2713360968
 20
5.2359532301
 40
0.0258333333
100
AcDbArc
 50
270.0
 51
347.6286765456
  0
ARC
  5
2F2
100
AcDbEntity
  8
LAYER_FEATURE
100
AcDbCircle
 62
7
  6
CONTINUOUS
 10
5.6133984555
 20
5.2359532301
 40
0.0258333333
100
AcDbArc
 50
192.3713234544
 51
270.0
  0
ARC
  5
2F3
100
AcDbEntity
  8
LAYER_FEATURE
100
AcDbCircle
 62
7
  6
CONTINUOUS
 10
5.9593360968
 20
5.2359532301
 40
0.0258333333
100
AcDbArc
 50
270.0
 51
347.6286765456
  0
ARC
  5
2F4
100
AcDbEntity
  8
LAYER_FEATURE
100
AcDbCircle
 62
7
  6
CONTINUOUS
 10
6.3013984555
 20
5.2359532301
 40
0.0258333333
100
AcDbArc
 50
192.3713234544
 51
270.0
  0
ARC
  5
2F5
100
AcDbEntity
  8
LAYER_FEATURE
100
AcDbCircle
 62
7
  6
CONTINUOUS
 10
6.6473360968
 20
5.2359532301
 40
0.0258333333
100
AcDbArc
 50
270.0
 51
347.6286765456
  0
ARC
  5
2F6
100
AcDbEntity
  8
LAYER_FEATURE
100
AcDbCircle
 62
7
  6
CONTINUOUS
 10
6.9893984555
 20
5.2359532301
 40
0.0258333333
100
AcDbArc
 50
192.3713234544
 51
270.0
  0
ARC
  5
2F7
100
AcDbEntity
  8
LAYER_FEATURE
100
AcDbCircle
 62
7
  6
CONTINUOUS
 10
7.3353360968
 20
5.2359532301
 40
0.0258333333
100
AcDbArc
 50
270.0
 51
347.6286765456
  0
ARC
  5
2F8
100
AcDbEntity
  8
LAYER_FEATURE
100
AcDbCircle
 62
7
  6
CONTINUOUS
 10
7.6773984555
 20
5.2359532301
 40
0.0258333333
100
AcDbArc
 50
192.3713234544
 51
270.0
  0
ARC
  5
2F9
100
AcDbEntity
  8
LAYER_FEATURE
100
AcDbCircle
 62
7
  6
CONTINUOUS
 10
8.0233360968
 20
5.2359532301
 40
0.0258333333
100
AcDbArc
 50
270.0
 51
347.6286765456
  0
ARC
  5
2FA
100
AcDbEntity
  8
LAYER_FEATURE
100
AcDbCircle
 62
7
  6
CONTINUOUS
 10
8.3653984555
 20
5.2359532301
 40
0.0258333333
100
AcDbArc
 50
192.3713234544
 51
270.0
  0
ARC
  5
2FB
100
AcDbEntity
  8
LAYER_FEATURE
100
AcDbCircle
 62
7
  6
CONTINUOUS
 10
8.7113360968
 20
5.2359532301
 40
0.0258333333
100
AcDbArc
 50
270.0
 51
347.6286765456
  0
ARC
  5
2FC
100
AcDbEntity
  8
LAYER_FEATURE
100
AcDbCircle
 62
7
  6
CONTINUOUS
 10
10.0873360968
 20
5.2359532301
 40
0.0258333333
100
AcDbArc
 50
270.0
 51
347.6286765456
  0
ARC
  5
2FD
100
AcDbEntity
  8
LAYER_FEATURE
100
AcDbCircle
 62
7
  6
CONTINUOUS
 10
9.7413984555
 20
5.2359532301
 40
0.0258333333
100
AcDbArc
 50
192.3713234544
 51
270.0
  0
ARC
  5
2FE
100
AcDbEntity
  8
LAYER_FEATURE
100
AcDbCircle
 62
7
  6
CONTINUOUS
 10
9.3993360968
 20
5.2359532301
 40
0.0258333333
100
AcDbArc
 50
270.0
 51
347.6286765456
  0
ARC
  5
2FF
100
AcDbEntity
  8
LAYER_FEATURE
100
AcDbCircle
 62
7
  6
CONTINUOUS
 10
9.0533984555
 20
5.2359532301
 40
0.0258333333
100
AcDbArc
 50
192.3713234544
 51
270.0
  0
ARC
  5
300
100
AcDbEntity
  8
0
100
AcDbCircle
 62
7
  6
CONTINUOUS
 10
2.0513672762
 20
5.8151198968
 40
0.015
100
AcDbArc
 50
90.0
 51
180.0
  0
ARC
  5
301
100
AcDbEntity
  8
0
100
AcDbCircle
 62
7
  6
CONTINUOUS
 10
10.2093672762
 20
5.8151198968
 40
0.015
100
AcDbArc
 50
0.0
 51
90.0
  0
SPLINE
  5
302
100
AcDbEntity
  8
0
100
AcDbSpline
 62
7
  6
CONTINUOUS
 70
0
 71
3
 72
14
 73
10
 74
0
 42
0.0000001
 43
0.0000001
 44
0.0000000001
 40
0.0
 40
0.0
 40
0.0
 40
0.0
 40
0.1294728473
 40
0.2646331316
 40
0.5360611217
 40
0.6660108363
 40
0.7880472601
 40
0.8998759483
 40
1.0
 40
1.0
 40
1.0
 40
1.0
 10
19.6703347388
 20
14.2701579023
 30
0.0
 10
19.6712625922
 20
14.2701579023
 30
0.0
 10
19.6731608371
 20
14.2700278197
 30
0.0
 10
19.6769422367
 20
14.2693214483
 30
0.0
 10
19.6805908105
 20
14.2679849914
 30
0.0
 10
19.6838392283
 20
14.2660952945
 30
0.0
 10
19.6859123348
 20
14.2644988211
 30
0.0
 10
19.687570303
 20
14.2627593795
 30
0.0
 10
19.6884101798
 20
14.2614779008
 30
0.0
 10
19.6887262817
 20
14.2608337528
 30
0.0
  0
SPLINE
  5
303
100
AcDbEntity
  8
0
100
AcDbSpline
 62
7
  6
CONTINUOUS
 70
0
 71
3
 72
10
 73
6
 74
0
 42
0.0000001
 43
0.0000001
 44
0.0000000001
 40
0.0
 40
0.0
 40
0.0
 40
0.0
 40
0.2343758129
 40
0.4761728829
 40
1.0
 40
1.0
 40
1.0
 40
1.0
 10
11.1782982577
 20
11.1319547729
 30
0.0
 10
11.1781930296
 20
11.1316150078
 30
0.0
 10
11.1780550785
 20
11.1308985286
 30
0.0
 10
11.1780919554
 20
11.1293728267
 30
0.0
 10
11.1784633569
 20
11.1282397718
 30
0.0
 10
11.1788135692
 20
11.1275261143
 30
0.0
  0
SPLINE
  5
304
100
AcDbEntity
  8
0
100
AcDbSpline
 62
7
  6
CONTINUOUS
 70
0
 71
3
 72
13
 73
9
 74
0
 42
0.0000001
 43
0.0000001
 44
0.0000000001
 40
0.0
 40
0.0
 40
0.0
 40
0.0
 40
0.0997942201
 40
0.2030647278
 40
0.3128498857
 40
0.4312452013
 40
0.6971835619
 40
1.0
 40
1.0
 40
1.0
 40
1.0
 10
12.1465635513
 20
14.2652624114
 30
0.0
 10
12.1466779145
 20
14.2656316719
 30
0.0
 10
12.147001719
 20
14.2663577805
 30
0.0
 10
12.1477384116
 20
14.2673315627
 30
0.0
 10
12.148713406
 20
14.2681793271
 30
0.0
 10
12.1503640933
 20
14.2691645587
 30
0.0
 10
12.1529367976
 20
14.2699704464
 30
0.0
 10
12.1551461547
 20
14.2701579023
 30
0.0
 10
12.1563191497
 20
14.2701579023
 30
0.0
  0
SPLINE
  5
305
100
AcDbEntity
  8
LAYER_FEATURE
100
AcDbSpline
 62
7
  6
CONTINUOUS
 70
0
 71
3
 72
13
 73
9
 74
0
 42
0.0000001
 43
0.0000001
 44
0.0000000001
 40
0.0
 40
0.0
 40
0.0
 40
0.0
 40
0.3029738273
 40
0.5686840767
 40
0.6870512807
 40
0.7968241028
 40
0.9001442997
 40
1.0
 40
1.0
 40
1.0
 40
1.0
 10
18.7787972431
 20
10.7514520835
 30
0.0
 10
18.7808184921
 20
10.7514520835
 30
0.0
 10
18.7846237036
 20
10.7517725549
 30
0.0
 10
18.7890523671
 20
10.753163838
 30
0.0
 10
18.7918952062
 20
10.7548575279
 30
0.0
 10
18.7935729907
 20
10.7563191393
 30
0.0
 10
18.7948447449
 20
10.757994685
 30
0.0
 10
18.7954019542
 20
10.7592466591
 30
0.0
 10
18.7955979228
 20
10.7598833567
 30
0.0
  0
SPLINE
  5
306
100
AcDbEntity
  8
LAYER_FEATURE
100
AcDbSpline
 62
7
  6
CONTINUOUS
 70
0
 71
3
 72
14
 73
10
 74
0
 42
0.0000001
 43
0.0000001
 44
0.0000000001
 40
0.0
 40
0.0
 40
0.0
 40
0.0
 40
0.1085252466
 40
0.2260086103
 40
0.3505410679
 40
0.4800474121
 40
0.7444810972
 40
0.8747810689
 40
1.0
 40
1.0
 40
1.0
 40
1.0
 10
18.4307340741
 20
10.7640699159
 30
0.0
 10
18.4314870858
 20
10.7631468041
 30
0.0
 10
18.4332153669
 20
10.7613525711
 30
0.0
 10
18.4362285393
 20
10.7589456467
 30
0.0
 10
18.4396963859
 20
10.7567825739
 30
0.0
 10
18.4448183221
 20
10.7542853158
 30
0.0
 10
18.4503459957
 20
10.752532333
 30
0.0
 10
18.4559861418
 20
10.7516172128
 30
0.0
 10
18.4587930422
 20
10.7514520835
 30
0.0
 10
18.4601675754
 20
10.7514520835
 30
0.0
  0
SPLINE
  5
307
100
AcDbEntity
  8
LAYER_FEATURE
100
AcDbSpline
 62
7
  6
CONTINUOUS
 70
0
 71
3
 72
13
 73
9
 74
0
 42
0.0000001
 43
0.0000001
 44
0.0000000001
 40
0.0
 40
0.0
 40
0.0
 40
0.0
 40
0.3029738273
 40
0.5686840767
 40
0.6870512807
 40
0.7968241028
 40
0.9001442997
 40
1.0
 40
1.0
 40
1.0
 40
1.0
 10
18.1451072792
 20
10.7514520835
 30
0.0
 10
18.1471285282
 20
10.7514520835
 30
0.0
 10
18.1509337397
 20
10.7517725549
 30
0.0
 10
18.1553624032
 20
10.753163838
 30
0.0
 10
18.1582052423
 20
10.7548575279
 30
0.0
 10
18.1598830269
 20
10.7563191393
 30
0.0
 10
18.1611547811
 20
10.757994685
 30
0.0
 10
18.1617119903
 20
10.7592466591
 30
0.0
 10
18.1619079589
 20
10.7598833567
 30
0.0
  0
SPLINE
  5
308
100
AcDbEntity
  8
LAYER_FEATURE
100
AcDbSpline
 62
7
  6
CONTINUOUS
 70
0
 71
3
 72
14
 73
10
 74
0
 42
0.0000001
 43
0.0000001
 44
0.0000000001
 40
0.0
 40
0.0
 40
0.0
 40
0.0
 40
0.1085252466
 40
0.2260086103
 40
0.3505410679
 40
0.4800474121
 40
0.7444810972
 40
0.8747810689
 40
1.0
 40
1.0
 40
1.0
 40
1.0
 10
17.7970441102
 20
10.7640699159
 30
0.0
 10
17.7977971219
 20
10.7631468041
 30
0.0
 10
17.799525403
 20
10.7613525711
 30
0.0
 10
17.8025385754
 20
10.7589456467
 30
0.0
 10
17.8060064221
 20
10.7567825739
 30
0.0
 10
17.8111283583
 20
10.7542853158
 30
0.0
 10
17.8166560318
 20
10.752532333
 30
0.0
 10
17.822296178
 20
10.7516172128
 30
0.0
 10
17.8251030784
 20
10.7514520835
 30
0.0
 10
17.8264776115
 20
10.7514520835
 30
0.0
  0
SPLINE
  5
309
100
AcDbEntity
  8
LAYER_FEATURE
100
AcDbSpline
 62
7
  6
CONTINUOUS
 70
0
 71
3
 72
13
 73
9
 74
0
 42
0.0000001
 43
0.0000001
 44
0.0000000001
 40
0.0
 40
0.0
 40
0.0
 40
0.0
 40
0.3029738273
 40
0.5686840767
 40
0.6870512807
 40
0.7968241028
 40
0.9001442997
 40
1.0
 40
1.0
 40
1.0
 40
1.0
 10
17.5114173153
 20
10.7514520835
 30
0.0
 10
17.5134385644
 20
10.7514520835
 30
0.0
 10
17.5172437758
 20
10.7517725549
 30
0.0
 10
17.5216724393
 20
10.753163838
 30
0.0
 10
17.5245152785
 20
10.7548575279
 30
0.0
 10
17.526193063
 20
10.7563191393
 30
0.0
 10
17.5274648172
 20
10.757994685
 30
0.0
 10
17.5280220264
 20
10.7592466591
 30
0.0
 10
17.5282179951
 20
10.7598833567
 30
0.0
  0
SPLINE
  5
30A
100
AcDbEntity
  8
LAYER_FEATURE
100
AcDbSpline
 62
7
  6
CONTINUOUS
 70
0
 71
3
 72
14
 73
10
 74
0
 42
0.0000001
 43
0.0000001
 44
0.0000000001
 40
0.0
 40
0.0
 40
0.0
 40
0.0
 40
0.1085252466
 40
0.2260086103
 40
0.3505410679
 40
0.4800474121
 40
0.7444810972
 40
0.8747810689
 40
1.0
 40
1.0
 40
1.0
 40
1.0
 10
17.1633541463
 20
10.7640699159
 30
0.0
 10
17.1641071581
 20
10.7631468041
 30
0.0
 10
17.1658354391
 20
10.7613525711
 30
0.0
 10
17.1688486115
 20
10.7589456467
 30
0.0
 10
17.1723164582
 20
10.7567825739
 30
0.0
 10
17.1774383944
 20
10.7542853158
 30
0.0
 10
17.1829660679
 20
10.752532333
 30
0.0
 10
17.1886062141
 20
10.7516172128
 30
0.0
 10
17.1914131145
 20
10.7514520835
 30
0.0
 10
17.1927876476
 20
10.7514520835
 30
0.0
  0
SPLINE
  5
30B
100
AcDbEntity
  8
LAYER_FEATURE
100
AcDbSpline
 62
7
  6
CONTINUOUS
 70
0
 71
3
 72
13
 73
9
 74
0
 42
0.0000001
 43
0.0000001
 44
0.0000000001
 40
0.0
 40
0.0
 40
0.0
 40
0.0
 40
0.3029738273
 40
0.5686840767
 40
0.6870512807
 40
0.7968241028
 40
0.9001442997
 40
1.0
 40
1.0
 40
1.0
 40
1.0
 10
16.8777273515
 20
10.7514520835
 30
0.0
 10
16.8797486005
 20
10.7514520835
 30
0.0
 10
16.8835538119
 20
10.7517725549
 30
0.0
 10
16.8879824755
 20
10.753163838
 30
0.0
 10
16.8908253146
 20
10.7548575279
 30
0.0
 10
16.8925030991
 20
10.7563191393
 30
0.0
 10
16.8937748533
 20
10.757994685
 30
0.0
 10
16.8943320625
 20
10.7592466591
 30
0.0
 10
16.8945280312
 20
10.7598833567
 30
0.0
  0
SPLINE
  5
30C
100
AcDbEntity
  8
LAYER_FEATURE
100
AcDbSpline
 62
7
  6
CONTINUOUS
 70
0
 71
3
 72
14
 73
10
 74
0
 42
0.0000001
 43
0.0000001
 44
0.0000000001
 40
0.0
 40
0.0
 40
0.0
 40
0.0
 40
0.1085252466
 40
0.2260086103
 40
0.3505410679
 40
0.4800474121
 40
0.7444810972
 40
0.8747810689
 40
1.0
 40
1.0
 40
1.0
 40
1.0
 10
16.5296641825
 20
10.7640699159
 30
0.0
 10
16.5304171942
 20
10.7631468041
 30
0.0
 10
16.5321454752
 20
10.7613525711
 30
0.0
 10
16.5351586477
 20
10.7589456467
 30
0.0
 10
16.5386264943
 20
10.7567825739
 30
0.0
 10
16.5437484305
 20
10.7542853158
 30
0.0
 10
16.5492761041
 20
10.752532333
 30
0.0
 10
16.5549162502
 20
10.7516172128
 30
0.0
 10
16.5577231506
 20
10.7514520835
 30
0.0
 10
16.5590976837
 20
10.7514520835
 30
0.0
  0
SPLINE
  5
30D
100
AcDbEntity
  8
LAYER_FEATURE
100
AcDbSpline
 62
7
  6
CONTINUOUS
 70
0
 71
3
 72
13
 73
9
 74
0
 42
0.0000001
 43
0.0000001
 44
0.0000000001
 40
0.0
 40
0.0
 40
0.0
 40
0.0
 40
0.3029738273
 40
0.5686840767
 40
0.6870512807
 40
0.7968241028
 40
0.9001442997
 40
1.0
 40
1.0
 40
1.0
 40
1.0
 10
16.2440373876
 20
10.7514520835
 30
0.0
 10
16.2460586366
 20
10.7514520835
 30
0.0
 10
16.2498638481
 20
10.7517725549
 30
0.0
 10
16.2542925116
 20
10.753163838
 30
0.0
 10
16.2571353507
 20
10.7548575279
 30
0.0
 10
16.2588131353
 20
10.7563191393
 30
0.0
 10
16.2600848894
 20
10.757994685
 30
0.0
 10
16.2606420987
 20
10.7592466591
 30
0.0
 10
16.2608380673
 20
10.7598833567
 30
0.0
  0
SPLINE
  5
30E
100
AcDbEntity
  8
LAYER_FEATURE
100
AcDbSpline
 62
7
  6
CONTINUOUS
 70
0
 71
3
 72
14
 73
10
 74
0
 42
0.0000001
 43
0.0000001
 44
0.0000000001
 40
0.0
 40
0.0
 40
0.0
 40
0.0
 40
0.1085252466
 40
0.2260086103
 40
0.3505410679
 40
0.4800474121
 40
0.7444810972
 40
0.8747810689
 40
1.0
 40
1.0
 40
1.0
 40
1.0
 10
15.8959742186
 20
10.7640699159
 30
0.0
 10
15.8967272303
 20
10.7631468041
 30
0.0
 10
15.8984555114
 20
10.7613525711
 30
0.0
 10
15.9014686838
 20
10.7589456467
 30
0.0
 10
15.9049365305
 20
10.7567825739
 30
0.0
 10
15.9100584666
 20
10.7542853158
 30
0.0
 10
15.9155861402
 20
10.752532333
 30
0.0
 10
15.9212262863
 20
10.7516172128
 30
0.0
 10
15.9240331867
 20
10.7514520835
 30
0.0
 10
15.9254077199
 20
10.7514520835
 30
0.0
  0
SPLINE
  5
30F
100
AcDbEntity
  8
LAYER_FEATURE
100
AcDbSpline
 62
7
  6
CONTINUOUS
 70
0
 71
3
 72
13
 73
9
 74
0
 42
0.0000001
 43
0.0000001
 44
0.0000000001
 40
0.0
 40
0.0
 40
0.0
 40
0.0
 40
0.3029738273
 40
0.5686840767
 40
0.6870512807
 40
0.7968241028
 40
0.9001442997
 40
1.0
 40
1.0
 40
1.0
 40
1.0
 10
15.6103474237
 20
10.7514520835
 30
0.0
 10
15.6123686728
 20
10.7514520835
 30
0.0
 10
15.6161738842
 20
10.7517725549
 30
0.0
 10
15.6206025477
 20
10.753163838
 30
0.0
 10
15.6234453868
 20
10.7548575279
 30
0.0
 10
15.6251231714
 20
10.7563191393
 30
0.0
 10
15.6263949256
 20
10.757994685
 30
0.0
 10
15.6269521348
 20
10.7592466591
 30
0.0
 10
15.6271481035
 20
10.7598833567
 30
0.0
  0
SPLINE
  5
310
100
AcDbEntity
  8
LAYER_FEATURE
100
AcDbSpline
 62
7
  6
CONTINUOUS
 70
0
 71
3
 72
14
 73
10
 74
0
 42
0.0000001
 43
0.0000001
 44
0.0000000001
 40
0.0
 40
0.0
 40
0.0
 40
0.0
 40
0.1085252466
 40
0.2260086103
 40
0.3505410679
 40
0.4800474121
 40
0.7444810972
 40
0.8747810689
 40
1.0
 40
1.0
 40
1.0
 40
1.0
 10
15.2622842547
 20
10.7640699159
 30
0.0
 10
15.2630372664
 20
10.7631468041
 30
0.0
 10
15.2647655475
 20
10.7613525711
 30
0.0
 10
15.2677787199
 20
10.7589456467
 30
0.0
 10
15.2712465666
 20
10.7567825739
 30
0.0
 10
15.2763685028
 20
10.7542853158
 30
0.0
 10
15.2818961763
 20
10.752532333
 30
0.0
 10
15.2875363225
 20
10.7516172128
 30
0.0
 10
15.2903432229
 20
10.7514520835
 30
0.0
 10
15.291717756
 20
10.7514520835
 30
0.0
  0
SPLINE
  5
311
100
AcDbEntity
  8
LAYER_FEATURE
100
AcDbSpline
 62
7
  6
CONTINUOUS
 70
0
 71
3
 72
13
 73
9
 74
0
 42
0.0000001
 43
0.0000001
 44
0.0000000001
 40
0.0
 40
0.0
 40
0.0
 40
0.0
 40
0.3029738853
 40
0.5686846477
 40
0.6870518603
 40
0.7968250637
 40
0.9001455035
 40
1.0
 40
1.0
 40
1.0
 40
1.0
 10
14.9766574599
 20
10.7514520835
 30
0.0
 10
14.9786787089
 20
10.7514520835
 30
0.0
 10
14.9824839207
 20
10.7517725676
 30
0.0
 10
14.9869125941
 20
10.7531638315
 30
0.0
 10
14.989755434
 20
10.7548575326
 30
0.0
 10
14.9914332107
 20
10.7563191607
 30
0.0
 10
14.9927049475
 20
10.7579947096
 30
0.0
 10
14.9932621842
 20
10.759246663
 30
0.0
 10
14.9934581567
 20
10.7598833509
 30
0.0
  0
SPLINE
  5
312
100
AcDbEntity
  8
LAYER_FEATURE
100
AcDbSpline
 62
7
  6
CONTINUOUS
 70
0
 71
3
 72
14
 73
10
 74
0
 42
0.0000001
 43
0.0000001
 44
0.0000000001
 40
0.0
 40
0.0
 40
0.0
 40
0.0
 40
0.1085252466
 40
0.2260086103
 40
0.3505410679
 40
0.4800474121
 40
0.7444810972
 40
0.8747810689
 40
1.0
 40
1.0
 40
1.0
 40
1.0
 10
14.6285942908
 20
10.7640699159
 30
0.0
 10
14.6293473026
 20
10.7631468041
 30
0.0
 10
14.6310755836
 20
10.7613525711
 30
0.0
 10
14.634088756
 20
10.7589456467
 30
0.0
 10
14.6375566027
 20
10.7567825739
 30
0.0
 10
14.6426785389
 20
10.7542853158
 30
0.0
 10
14.6482062124
 20
10.752532333
 30
0.0
 10
14.6538463586
 20
10.7516172128
 30
0.0
 10
14.656653259
 20
10.7514520835
 30
0.0
 10
14.6580277921
 20
10.7514520835
 30
0.0
  0
SPLINE
  5
313
100
AcDbEntity
  8
LAYER_FEATURE
100
AcDbSpline
 62
7
  6
CONTINUOUS
 70
0
 71
3
 72
13
 73
9
 74
0
 42
0.0000001
 43
0.0000001
 44
0.0000000001
 40
0.0
 40
0.0
 40
0.0
 40
0.0
 40
0.3029738273
 40
0.5686840767
 40
0.6870512807
 40
0.7968241028
 40
0.9001442997
 40
1.0
 40
1.0
 40
1.0
 40
1.0
 10
14.342967496
 20
10.7514520835
 30
0.0
 10
14.344988745
 20
10.7514520835
 30
0.0
 10
14.3487939564
 20
10.7517725549
 30
0.0
 10
14.35322262
 20
10.753163838
 30
0.0
 10
14.3560654591
 20
10.7548575279
 30
0.0
 10
14.3577432436
 20
10.7563191393
 30
0.0
 10
14.3590149978
 20
10.757994685
 30
0.0
 10
14.359572207
 20
10.7592466591
 30
0.0
 10
14.3597681757
 20
10.7598833567
 30
0.0
  0
SPLINE
  5
314
100
AcDbEntity
  8
LAYER_FEATURE
100
AcDbSpline
 62
7
  6
CONTINUOUS
 70
0
 71
3
 72
14
 73
10
 74
0
 42
0.0000001
 43
0.0000001
 44
0.0000000001
 40
0.0
 40
0.0
 40
0.0
 40
0.0
 40
0.1085252466
 40
0.2260086103
 40
0.3505410679
 40
0.4800474121
 40
0.7444810972
 40
0.8747810689
 40
1.0
 40
1.0
 40
1.0
 40
1.0
 10
13.994904327
 20
10.7640699159
 30
0.0
 10
13.9956573387
 20
10.7631468041
 30
0.0
 10
13.9973856198
 20
10.7613525711
 30
0.0
 10
14.0003987922
 20
10.7589456467
 30
0.0
 10
14.0038666388
 20
10.7567825739
 30
0.0
 10
14.008988575
 20
10.7542853158
 30
0.0
 10
14.0145162486
 20
10.752532333
 30
0.0
 10
14.0201563947
 20
10.7516172128
 30
0.0
 10
14.0229632951
 20
10.7514520835
 30
0.0
 10
14.0243378282
 20
10.7514520835
 30
0.0
  0
SPLINE
  5
315
100
AcDbEntity
  8
LAYER_FEATURE
100
AcDbSpline
 62
7
  6
CONTINUOUS
 70
0
 71
3
 72
13
 73
9
 74
0
 42
0.0000001
 43
0.0000001
 44
0.0000000001
 40
0.0
 40
0.0
 40
0.0
 40
0.0
 40
0.3029738273
 40
0.5686840767
 40
0.6870512807
 40
0.7968241028
 40
0.9001442997
 40
1.0
 40
1.0
 40
1.0
 40
1.0
 10
13.7092775321
 20
10.7514520835
 30
0.0
 10
13.7112987811
 20
10.7514520835
 30
0.0
 10
13.7151039926
 20
10.7517725549
 30
0.0
 10
13.7195326561
 20
10.753163838
 30
0.0
 10
13.7223754952
 20
10.7548575279
 30
0.0
 10
13.7240532798
 20
10.7563191393
 30
0.0
 10
13.725325034
 20
10.757994685
 30
0.0
 10
13.7258822432
 20
10.7592466591
 30
0.0
 10
13.7260782118
 20
10.7598833567
 30
0.0
  0
SPLINE
  5
316
100
AcDbEntity
  8
LAYER_FEATURE
100
AcDbSpline
 62
7
  6
CONTINUOUS
 70
0
 71
3
 72
14
 73
10
 74
0
 42
0.0000001
 43
0.0000001
 44
0.0000000001
 40
0.0
 40
0.0
 40
0.0
 40
0.0
 40
0.1085252466
 40
0.2260086103
 40
0.3505410679
 40
0.4800474121
 40
0.7444810972
 40
0.8747810689
 40
1.0
 40
1.0
 40
1.0
 40
1.0
 10
13.3612143631
 20
10.7640699159
 30
0.0
 10
13.3619673748
 20
10.7631468041
 30
0.0
 10
13.3636956559
 20
10.7613525711
 30
0.0
 10
13.3667088283
 20
10.7589456467
 30
0.0
 10
13.370176675
 20
10.7567825739
 30
0.0
 10
13.3752986112
 20
10.7542853158
 30
0.0
 10
13.3808262847
 20
10.752532333
 30
0.0
 10
13.3864664308
 20
10.7516172128
 30
0.0
 10
13.3892733312
 20
10.7514520835
 30
0.0
 10
13.3906478644
 20
10.7514520835
 30
0.0
  0
SPLINE
  5
317
100
AcDbEntity
  8
LAYER_FEATURE
100
AcDbSpline
 62
7
  6
CONTINUOUS
 70
0
 71
3
 72
13
 73
9
 74
0
 42
0.0000001
 43
0.0000001
 44
0.0000000001
 40
0.0
 40
0.0
 40
0.0
 40
0.0
 40
0.3029738273
 40
0.5686840767
 40
0.6870512807
 40
0.7968241028
 40
0.9001442997
 40
1.0
 40
1.0
 40
1.0
 40
1.0
 10
13.0755875682
 20
10.7514520835
 30
0.0
 10
13.0776088173
 20
10.7514520835
 30
0.0
 10
13.0814140287
 20
10.7517725549
 30
0.0
 10
13.0858426922
 20
10.753163838
 30
0.0
 10
13.0886855314
 20
10.7548575279
 30
0.0
 10
13.0903633159
 20
10.7563191393
 30
0.0
 10
13.0916350701
 20
10.757994685
 30
0.0
 10
13.0921922793
 20
10.7592466591
 30
0.0
 10
13.092388248
 20
10.7598833567
 30
0.0
  0
SPLINE
  5
318
100
AcDbEntity
  8
LAYER_FEATURE
100
AcDbSpline
 62
7
  6
CONTINUOUS
 70
0
 71
3
 72
14
 73
10
 74
0
 42
0.0000001
 43
0.0000001
 44
0.0000000001
 40
0.0
 40
0.0
 40
0.0
 40
0.0
 40
0.1085252466
 40
0.2260086103
 40
0.3505410679
 40
0.4800474121
 40
0.7444810972
 40
0.8747810689
 40
1.0
 40
1.0
 40
1.0
 40
1.0
 10
12.7275243992
 20
10.7640699159
 30
0.0
 10
12.7282774109
 20
10.7631468041
 30
0.0
 10
12.730005692
 20
10.7613525711
 30
0.0
 10
12.7330188644
 20
10.7589456467
 30
0.0
 10
12.7364867111
 20
10.7567825739
 30
0.0
 10
12.7416086473
 20
10.7542853158
 30
0.0
 10
12.7471363208
 20
10.752532333
 30
0.0
 10
12.752776467
 20
10.7516172128
 30
0.0
 10
12.7555833674
 20
10.7514520835
 30
0.0
 10
12.7569579005
 20
10.7514520835
 30
0.0
  0
SPLINE
  5
319
100
AcDbEntity
  8
LAYER_FEATURE
100
AcDbSpline
 62
7
  6
CONTINUOUS
 70
0
 71
3
 72
13
 73
9
 74
0
 42
0.0000001
 43
0.0000001
 44
0.0000000001
 40
0.0
 40
0.0
 40
0.0
 40
0.0
 40
0.3029738273
 40
0.5686840767
 40
0.6870512807
 40
0.7968241028
 40
0.9001442997
 40
1.0
 40
1.0
 40
1.0
 40
1.0
 10
12.4418976044
 20
10.7514520835
 30
0.0
 10
12.4439188534
 20
10.7514520835
 30
0.0
 10
12.4477240648
 20
10.7517725549
 30
0.0
 10
12.4521527283
 20
10.753163838
 30
0.0
 10
12.4549955675
 20
10.7548575279
 30
0.0
 10
12.456673352
 20
10.7563191393
 30
0.0
 10
12.4579451062
 20
10.757994685
 30
0.0
 10
12.4585023154
 20
10.7592466591
 30
0.0
 10
12.4586982841
 20
10.7598833567
 30
0.0
  0
SPLINE
  5
31A
100
AcDbEntity
  8
LAYER_FEATURE
100
AcDbSpline
 62
7
  6
CONTINUOUS
 70
0
 71
3
 72
14
 73
10
 74
0
 42
0.0000001
 43
0.0000001
 44
0.0000000001
 40
0.0
 40
0.0
 40
0.0
 40
0.0
 40
0.1085252466
 40
0.2260086103
 40
0.3505410679
 40
0.4800474121
 40
0.7444810972
 40
0.8747810689
 40
1.0
 40
1.0
 40
1.0
 40
1.0
 10
12.0938344353
 20
10.7640699159
 30
0.0
 10
12.0945874471
 20
10.7631468041
 30
0.0
 10
12.0963157281
 20
10.7613525711
 30
0.0
 10
12.0993289006
 20
10.7589456467
 30
0.0
 10
12.1027967472
 20
10.7567825739
 30
0.0
 10
12.1079186834
 20
10.7542853158
 30
0.0
 10
12.1134463569
 20
10.752532333
 30
0.0
 10
12.1190865031
 20
10.7516172128
 30
0.0
 10
12.1218934035
 20
10.7514520835
 30
0.0
 10
12.1232679366
 20
10.7514520835
 30
0.0
  0
SPLINE
  5
31B
100
AcDbEntity
  8
0
100
AcDbSpline
 62
7
  6
CONTINUOUS
 70
0
 71
3
 72
13
 73
9
 74
0
 42
0.0000001
 43
0.0000001
 44
0.0000000001
 40
0.0
 40
0.0
 40
0.0
 40
0.0
 40
0.3029738273
 40
0.5686840767
 40
0.6870512807
 40
0.7968241028
 40
0.9001442997
 40
1.0
 40
1.0
 40
1.0
 40
1.0
 10
11.8082076405
 20
10.7514520835
 30
0.0
 10
11.8102288895
 20
10.7514520835
 30
0.0
 10
11.814034101
 20
10.7517725549
 30
0.0
 10
11.8184627645
 20
10.753163838
 30
0.0
 10
11.8213056036
 20
10.7548575279
 30
0.0
 10
11.8229833881
 20
10.7563191393
 30
0.0
 10
11.8242551423
 20
10.757994685
 30
0.0
 10
11.8248123515
 20
10.7592466591
 30
0.0
 10
11.8250083202
 20
10.7598833567
 30
0.0
  0
SPLINE
  5
31C
100
AcDbEntity
  8
0
100
AcDbSpline
 62
7
  6
CONTINUOUS
 70
0
 71
3
 72
14
 73
10
 74
0
 42
0.0000001
 43
0.0000001
 44
0.0000000001
 40
0.0
 40
0.0
 40
0.0
 40
0.0
 40
0.1085252466
 40
0.2260086103
 40
0.3505410679
 40
0.4800474121
 40
0.7444810972
 40
0.8747810689
 40
1.0
 40
1.0
 40
1.0
 40
1.0
 10
11.4601444715
 20
10.7640699159
 30
0.0
 10
11.4608974832
 20
10.7631468041
 30
0.0
 10
11.4626257643
 20
10.7613525711
 30
0.0
 10
11.4656389367
 20
10.7589456467
 30
0.0
 10
11.4691067833
 20
10.7567825739
 30
0.0
 10
11.4742287195
 20
10.7542853158
 30
0.0
 10
11.4797563931
 20
10.752532333
 30
0.0
 10
11.4853965392
 20
10.7516172128
 30
0.0
 10
11.4882034396
 20
10.7514520835
 30
0.0
 10
11.4895779727
 20
10.7514520835
 30
0.0
  0
SPLINE
  5
31D
100
AcDbEntity
  8
0
100
AcDbSpline
 62
7
  6
CONTINUOUS
 70
0
 71
3
 72
13
 73
9
 74
0
 42
0.0000001
 43
0.0000001
 44
0.0000000001
 40
0.0
 40
0.0
 40
0.0
 40
0.0
 40
0.3028164381
 40
0.5687547987
 40
0.6871501143
 40
0.7969352722
 40
0.9002057799
 40
1.0
 40
1.0
 40
1.0
 40
1.0
 10
11.1880538561
 20
11.1368502638
 30
0.0
 10
11.186880861
 20
11.1368502638
 30
0.0
 10
11.1846715039
 20
11.1366628079
 30
0.0
 10
11.1820987997
 20
11.1358569202
 30
0.0
 10
11.1804481123
 20
11.1348716886
 30
0.0
 10
11.179473118
 20
11.1340239242
 30
0.0
 10
11.1787364253
 20
11.133050142
 30
0.0
 10
11.1784126208
 20
11.1323240334
 30
0.0
 10
11.1782982577
 20
11.1319547729
 30
0.0
  0
SPLINE
  5
31E
100
AcDbEntity
  8
0
100
AcDbSpline
 62
7
  6
CONTINUOUS
 70
0
 71
3
 72
14
 73
10
 74
0
 42
0.0000001
 43
0.0000001
 44
0.0000000001
 40
0.0
 40
0.0
 40
0.0
 40
0.0
 40
0.1001240517
 40
0.2119527399
 40
0.3339891637
 40
0.4639388783
 40
0.7353668684
 40
0.8705271527
 40
1.0
 40
1.0
 40
1.0
 40
1.0
 10
18.7204609881
 20
11.1275261143
 30
0.0
 10
18.7201448862
 20
11.1281702622
 30
0.0
 10
18.7193050093
 20
11.1294517409
 30
0.0
 10
18.7176470411
 20
11.1311911826
 30
0.0
 10
18.7155739346
 20
11.132787656
 30
0.0
 10
18.7123255168
 20
11.1346773529
 30
0.0
 10
18.7086769431
 20
11.1360138098
 30
0.0
 10
18.7048955434
 20
11.1367201812
 30
0.0
 10
18.7029972986
 20
11.1368502638
 30
0.0
 10
18.7020694451
 20
11.1368502638
 30
0.0
  0
ENDSEC
  0
SECTION
  2
OBJECTS
  0
DICTIONARY
  5
C
100
AcDbDictionary
280
0
281
1
  3
ACAD_GROUP
350
D
  3
ACAD_MLINESTYLE
350
17
  3
ACAD_LAYOUT
350
1A
  3
ACAD_PLOTSETTINGS
350
19
  3
ACAD_PLOTSTYLENAME
350
E
  0
DICTIONARY
  5
D
102
{ACAD_REACTORS
330
C
102
}
100
AcDbDictionary
280
0
281
1
  0
ACDBDICTIONARYWDFLT
  5
E
102
{ACAD_REACTORS
330
C
102
}
100
AcDbDictionary
281
1
  3
Normal
350
F
100
AcDbDictionaryWithDefault
340
F
  0
DICTIONARY
  5
17
102
{ACAD_REACTORS
330
C
102
}
100
AcDbDictionary
280
0
281
1
  3
Standard
350
18
  0
DICTIONARY
  5
19
102
{ACAD_REACTORS
330
C
102
}
100
AcDbDictionary
281
1
  0
DICTIONARY
  5
1A
102
{ACAD_REACTORS
330
C
102
}
100
AcDbDictionary
281
1
  3
Model
350
31F
  3
Layout1
350
320
  0
ACDBPLACEHOLDER
  5
F
102
{ACAD_REACTORS
330
E
102
}
  0
MLINESTYLE
  5
18
102
{ACAD_REACTORS
330
17
102
}
100
AcDbMlineStyle
  2
STANDARD
 70
0
  3

 62
256
 51
90.0
 52
90.0
 71
2
 49
0.5
 62
256
  6
BYLAYER
 49
-0.5
 62
256
  6
BYLAYER
  0
LAYOUT
  5
31F
102
{ACAD_REACTORS
330
1A
102
}
100
AcDbPlotSettings
  1

  2
none_device
  4
ANSI_C_(22.00_x_17.00_Inches)
  6

 40
0.0
 41
0.0
 42
0.0
 43
0.0
 44
558.8
 45
431.8
 46
0.0
 47
0.0
 48
0.0
 49
0.0
140
0.0
141
0.0
142
1.0
143
1.0
 70
1024
 72
0
 73
0
 74
0
  7

 75
0
147
1.0
148
0.0
149
0.0
100
AcDbLayout
  1
Model
 70
0
 71
0
 10
0.0
 20
0.0
 11
22.0
 21
17.0
 12
0.0
 22
0.0
 32
0.0
 14
0.0
 24
0.0
 34
0.0
 15
0.0
 25
0.0
 35
0.0
146
0.0
 13
0.0
 23
0.0
 33
0.0
 16
1.0
 26
0.0
 36
0.0
 17
0.0
 27
1.0
 37
0.0
 76
0
330
21C
345
0
346
0
  0
LAYOUT
  5
320
102
{ACAD_REACTORS
330
1A
102
}
100
AcDbPlotSettings
  1

  2
none_device
  4
ANSI_C_(22.00_x_17.00_Inches)
  6

 40
0.0
 41
0.0
 42
0.0
 43
0.0
 44
558.8
 45
431.8
 46
0.0
 47
0.0
 48
0.0
 49
0.0
140
0.0
141
0.0
142
1.0
143
1.0
 70
0
 72
0
 73
0
 74
0
  7

 75
0
147
1.0
148
0.0
149
0.0
100
AcDbLayout
  1
Layout1
 70
0
 71
1
 10
0.0
 20
0.0
 11
22.0
 21
17.0
 12
0.0
 22
0.0
 32
0.0
 14
0.0
 24
0.0
 34
0.0
 15
0.0
 25
0.0
 35
0.0
146
0.0
 13
0.0
 23
0.0
 33
0.0
 16
1.0
 26
0.0
 36
0.0
 17
0.0
 27
1.0
 37
0.0
 76
0
330
21D
345
0
346
0
  0
ENDSEC
  0
EOF