999
DXF file: _cgs_temp_output.dxf
999
Pro/ENGINEER 2016360 by Parametric Technology Corporation
  0
SECTION
  2
HEADER
  9
$ACADVER
  1
AC1021
  9
$DWGCODEPAGE
  3
ANSI_1252
  9
$EXTMAX
 10
22.0
 20
17.0
 30
0.0
  9
$EXTMIN
 10
0.0
 20
0.0
 30
0.0
  9
$LIMMIN
 10
0.0
 20
0.0
  9
$LIMMAX
 10
22.0
 20
17.0
  9
$VIEWCTR
 10
11.0
 20
8.5
  9
$VIEWSIZE
 40
17.0
  9
$CLAYER
  8
0
  9
$LTSCALE
 40
1.21
  9
$CELTYPE
  6
BYLAYER
  9
$DIMSCALE
 40
1.0
  9
$DIMASZ
 40
0.1875
  9
$DIMEXO
 40
0.0625
  9
$DIMDLI
 40
0.836
  9
$DIMEXE
 40
0.125
  9
$DIMCEN
 40
0.198
  9
$DIMLFAC
 40
1.0
  9
$DIMBLK
  1
_CLOSED
  9
$DIMALT
 70
0
  9
$DIMALTF
 40
25.4
  9
$DIMTXT
 40
0.15625
  9
$DIMTOL
 70
0
  9
$DIMLIM
 70
0
  9
$DIMTFAC
 40
1.0
  9
$DIMGAP
 40
0.09
  9
$DIMDSEP
 70
46
  9
$AUNITS
 70
0
  9
$PDMODE
 70
3
  9
$PDSIZE
 40
0.3125
  9
$HANDSEED
  5
6FE
  9
$TILEMODE
 70
1
  9
$MEASUREMENT
 70
0
  9
$INSUNITS
 70
1
  0
ENDSEC
  0
SECTION
  2
CLASSES
  0
CLASS
  1
ACDBDICTIONARYWDFLT
  2
AcDbDictionaryWithDefault
  3
AutoCAD 2000
 90
0
 91
1
280
0
281
0
  0
CLASS
  1
ACDBPLACEHOLDER
  2
AcDbPlaceHolder
  3
AutoCAD 2000
 90
0
 91
1
280
0
281
0
  0
CLASS
  1
LAYOUT
  2
AcDbLayout
  3
AutoCAD 2000
 90
0
 91
0
280
0
281
0
  0
ENDSEC
  0
SECTION
  2
TABLES
  0
TABLE
  2
VPORT
  5
8
100
AcDbSymbolTable
 70
2
  0
VPORT
  5
1F4
100
AcDbSymbolTableRecord
100
AcDbViewportTableRecord
  2
*ACTIVE
 70
0
 10
0.0
 20
0.0
 11
1.0
 21
1.0
 12
11.0
 22
8.5
 13
0.0
 23
0.0
 14
1.0
 24
1.0
 15
0.0
 25
0.0
 16
0.0
 26
0.0
 36
1.0
 17
0.0
 27
0.0
 37
0.0
 40
17.0
 41
1.2941176471
 42
50.0
 43
0.0
 44
0.0
 50
0.0
 51
0.0
 71
0
 72
100
 73
1
 74
1
 75
0
 76
0
 77
0
 78
0
  0
ENDTAB
  0
TABLE
  2
LTYPE
  5
5
100
AcDbSymbolTable
 70
6
  0
LTYPE
  5
14
100
AcDbSymbolTableRecord
100
AcDbLinetypeTableRecord
  2
BYBLOCK
 70
0
  3

 72
65
 73
0
 40
0.0
  0
LTYPE
  5
15
100
AcDbSymbolTableRecord
100
AcDbLinetypeTableRecord
  2
BYLAYER
 70
0
  3

 72
65
 73
0
 40
0.0
  0
LTYPE
  5
16
100
AcDbSymbolTableRecord
100
AcDbLinetypeTableRecord
  2
CONTINUOUS
 70
64
  3
Solid line
 72
65
 73
0
 40
0.0
  0
LTYPE
  5
1F5
100
AcDbSymbolTableRecord
100
AcDbLinetypeTableRecord
  2
CENTER
 70
64
  3
____ _ ____ _ ____ _ ____ _ ____ _ ____ _ ____
 72
65
 73
4
 40
0.6
 49
0.375
 74
0
 49
-0.075
 74
0
 49
0.075
 74
0
 49
-0.075
 74
0
  0
LTYPE
  5
1F6
100
AcDbSymbolTableRecord
100
AcDbLinetypeTableRecord
  2
HIDDEN
 70
64
  3
- - - - - - - - - - - - - - - - - - - -
 72
65
 73
2
 40
0.2
 49
0.1
 74
0
 49
-0.1
 74
0
  0
LTYPE
  5
1F7
100
AcDbSymbolTableRecord
100
AcDbLinetypeTableRecord
  2
PHANTOM
 70
64
  3
_____ _ _ _____ _ _ _____ _ _ _____
 72
65
 73
6
 40
0.8
 49
0.45
 74
0
 49
-0.05
 74
0
 49
0.1
 74
0
 49
-0.05
 74
0
 49
0.1
 74
0
 49
-0.05
 74
0
  0
LTYPE
  5
1F8
100
AcDbSymbolTableRecord
100
AcDbLinetypeTableRecord
  2
DOT
 70
64
  3
. . . . . . . . . . . . . . . . . . . .
 72
65
 73
2
 40
0.2
 49
0.1
 74
0
 49
-0.1
 74
0
  0
LTYPE
  5
1F9
100
AcDbSymbolTableRecord
100
AcDbLinetypeTableRecord
  2
DASHED
 70
64
  3
- - - - - - - - - - - - - - - - - - - -
 72
65
 73
2
 40
0.2
 49
0.1
 74
0
 49
-0.1
 74
0
  0
ENDTAB
  0
TABLE
  2
LAYER
  5
2
100
AcDbSymbolTable
 70
36
  0
LAYER
  5
10
100
AcDbSymbolTableRecord
100
AcDbLayerTableRecord
  2
0
 70
0
 62
7
  6
CONTINUOUS
370
-3
390
F
  0
LAYER
  5
1FA
100
AcDbSymbolTableRecord
100
AcDbLayerTableRecord
  2
DEFAULT_1
 70
0
 62
7
  6
CENTER
370
-3
390
F
  0
LAYER
  5
1FB
100
AcDbSymbolTableRecord
100
AcDbLayerTableRecord
  2
DEFAULT_2
 70
0
 62
8
  6
HIDDEN
370
-3
390
F
  0
LAYER
  5
1FC
100
AcDbSymbolTableRecord
100
AcDbLayerTableRecord
  2
DEFAULT_3
 70
0
 62
7
  6
PHANTOM
370
-3
390
F
  0
LAYER
  5
1FD
100
AcDbSymbolTableRecord
100
AcDbLayerTableRecord
  2
01_ALL_DTM_PLN
 70
0
 62
7
  6
CONTINUOUS
370
-3
390
F
  0
LAYER
  5
1FE
100
AcDbSymbolTableRecord
100
AcDbLayerTableRecord
  2
01__ASM_ALL_DTM_PLN
 70
0
 62
7
  6
CONTINUOUS
370
-3
390
F
  0
LAYER
  5
1FF
100
AcDbSymbolTableRecord
100
AcDbLayerTableRecord
  2
01__ASM_DEF_DTM_PLN
 70
0
 62
7
  6
CONTINUOUS
370
-3
390
F
  0
LAYER
  5
200
100
AcDbSymbolTableRecord
100
AcDbLayerTableRecord
  2
01___PRT_ALL_DTM_PLN
 70
0
 62
7
  6
CONTINUOUS
370
-3
390
F
  0
LAYER
  5
201
100
AcDbSymbolTableRecord
100
AcDbLayerTableRecord
  2
01___PRT_DEF_DTM_PLN
 70
0
 62
7
  6
CONTINUOUS
370
-3
390
F
  0
LAYER
  5
202
100
AcDbSymbolTableRecord
100
AcDbLayerTableRecord
  2
02_ALL_AXES
 70
0
 62
7
  6
CONTINUOUS
370
-3
390
F
  0
LAYER
  5
203
100
AcDbSymbolTableRecord
100
AcDbLayerTableRecord
  2
02__ASM_ALL_AXES
 70
0
 62
7
  6
CONTINUOUS
370
-3
390
F
  0
LAYER
  5
204
100
AcDbSymbolTableRecord
100
AcDbLayerTableRecord
  2
02___PRT_ALL_AXES
 70
0
 62
7
  6
CONTINUOUS
370
-3
390
F
  0
LAYER
  5
205
100
AcDbSymbolTableRecord
100
AcDbLayerTableRecord
  2
03_ALL_CURVES
 70
0
 62
7
  6
CONTINUOUS
370
-3
390
F
  0
LAYER
  5
206
100
AcDbSymbolTableRecord
100
AcDbLayerTableRecord
  2
03__ASM_ALL_CURVES
 70
0
 62
7
  6
CONTINUOUS
370
-3
390
F
  0
LAYER
  5
207
100
AcDbSymbolTableRecord
100
AcDbLayerTableRecord
  2
03___PRT_ALL_CURVES
 70
0
 62
7
  6
CONTINUOUS
370
-3
390
F
  0
LAYER
  5
208
100
AcDbSymbolTableRecord
100
AcDbLayerTableRecord
  2
04_ALL_DTM_PNT
 70
0
 62
7
  6
CONTINUOUS
370
-3
390
F
  0
LAYER
  5
209
100
AcDbSymbolTableRecord
100
AcDbLayerTableRecord
  2
04__ASM_ALL_DTM_PNT
 70
0
 62
7
  6
CONTINUOUS
370
-3
390
F
  0
LAYER
  5
20A
100
AcDbSymbolTableRecord
100
AcDbLayerTableRecord
  2
04___PRT_ALL_DTM_PNT
 70
0
 62
7
  6
CONTINUOUS
370
-3
390
F
  0
LAYER
  5
20B
100
AcDbSymbolTableRecord
100
AcDbLayerTableRecord
  2
05_ALL_DTM_CSYS
 70
0
 62
7
  6
CONTINUOUS
370
-3
390
F
  0
LAYER
  5
20C
100
AcDbSymbolTableRecord
100
AcDbLayerTableRecord
  2
05__ASM_ALL_DTM_CSYS
 70
0
 62
7
  6
CONTINUOUS
370
-3
390
F
  0
LAYER
  5
20D
100
AcDbSymbolTableRecord
100
AcDbLayerTableRecord
  2
05__ASM_DEF_DTM_CSYS
 70
0
 62
7
  6
CONTINUOUS
370
-3
390
F
  0
LAYER
  5
20E
100
AcDbSymbolTableRecord
100
AcDbLayerTableRecord
  2
05___PRT_ALL_DTM_CSYS
 70
0
 62
7
  6
CONTINUOUS
370
-3
390
F
  0
LAYER
  5
20F
100
AcDbSymbolTableRecord
100
AcDbLayerTableRecord
  2
05___PRT_DEF_DTM_CSYS
 70
0
 62
7
  6
CONTINUOUS
370
-3
390
F
  0
LAYER
  5
210
100
AcDbSymbolTableRecord
100
AcDbLayerTableRecord
  2
06_ALL_SURFS
 70
0
 62
7
  6
CONTINUOUS
370
-3
390
F
  0
LAYER
  5
211
100
AcDbSymbolTableRecord
100
AcDbLayerTableRecord
  2
06__ASM_ALL_SURFS
 70
0
 62
7
  6
CONTINUOUS
370
-3
390
F
  0
LAYER
  5
212
100
AcDbSymbolTableRecord
100
AcDbLayerTableRecord
  2
06___PRT_ALL_SURFS
 70
0
 62
7
  6
CONTINUOUS
370
-3
390
F
  0
LAYER
  5
213
100
AcDbSymbolTableRecord
100
AcDbLayerTableRecord
  2
07__ASM_ALL_SKELETONS
 70
0
 62
7
  6
CONTINUOUS
370
-3
390
F
  0
LAYER
  5
214
100
AcDbSymbolTableRecord
100
AcDbLayerTableRecord
  2
DRAWING
 70
0
 62
7
  6
CONTINUOUS
370
-3
390
F
  0
ENDTAB
  0
TABLE
  2
STYLE
  5
3
100
AcDbSymbolTable
 70
1
  0
STYLE
  5
11
100
AcDbSymbolTableRecord
100
AcDbTextStyleTableRecord
  2
STANDARD
 70
0
 40
0.0
 41
0.8
 50
0.0
 71
0
 42
0.2
  3
txt
  4

  0
STYLE
  5
215
100
AcDbSymbolTableRecord
100
AcDbTextStyleTableRecord
  2
TEXTSTYLE_1
 70
0
 40
0.0
 41
0.8
 50
0.0
 71
0
 42
0.2
  3
gdt
  4

  0
ENDTAB
  0
TABLE
  2
VIEW
  5
6
100
AcDbSymbolTable
 70
0
  0
ENDTAB
  0
TABLE
  2
UCS
  5
7
100
AcDbSymbolTable
 70
0
  0
ENDTAB
  0
TABLE
  2
APPID
  5
9
100
AcDbSymbolTable
 70
1
  0
APPID
  5
216
100
AcDbSymbolTableRecord
100
AcDbRegAppTableRecord
  2
ACAD
 70
0
  0
ENDTAB
  0
TABLE
  2
BLOCK_RECORD
  5
1
100
AcDbSymbolTable
 70
0
  0
BLOCK_RECORD
  5
217
100
AcDbSymbolTableRecord
100
AcDbBlockTableRecord
  2
*Model_Space
  0
BLOCK_RECORD
  5
218
100
AcDbSymbolTableRecord
100
AcDbBlockTableRecord
  2
*Paper_Space
  0
ENDTAB
  0
TABLE
  2
DIMSTYLE
  5
A
100
AcDbSymbolTable
 70
1
100
AcDbDimStyleTable
 71
0
  0
DIMSTYLE
105
219
100
AcDbSymbolTableRecord
100
AcDbDimStyleTableRecord
  2
STANDARD
 70
0
  3

  4

 40
1.0
 41
0.1875
 42
0.0625
 43
0.38
 44
0.125
 45
0.0
 46
0.0
 47
0.0001
 48
0.0001
140
0.15625
141
0.09
142
0.0
143
25.4
144
1.0
145
0.0
146
1.0
147
0.09
 71
0.0
 72
0.0
 73
1
 74
1
 75
0
 76
0
 77
0
 78
4
 79
1
170
0
171
3
172
0
173
0
174
0
175
0
176
0
177
0
178
0
270
2
179
4
271
4
272
4
273
2
274
2
275
0
280
0
281
0
282
0
283
1
284
4
285
0
286
0
287
3
288
0
340
11
278
46
  0
ENDTAB
  0
ENDSEC
  0
SECTION
  2
BLOCKS
  0
BLOCK
  5
20
100
AcDbEntity
  8
0
100
AcDbBlockBegin
  2
*Model_Space
 70
0
 10
0.0
 20
0.0
 30
0.0
  3
*Model_Space
  1

  0
ENDBLK
  5
21
100
AcDbEntity
  8
0
100
AcDbBlockEnd
  0
BLOCK
  5
1C
100
AcDbEntity
  8
0
100
AcDbBlockBegin
  2
*Paper_Space
 70
0
 10
0.0
 20
0.0
 30
0.0
  3
*Paper_Space
  1

  0
ENDBLK
  5
1D
100
AcDbEntity
  8
0
100
AcDbBlockEnd
  0
ENDSEC
  0
SECTION
  2
ENTITIES
  0
MTEXT
  5
21A
100
AcDbEntity
  8
0
100
AcDbMText
 62
7
  6
CONTINUOUS
  7
STANDARD
 71
1
 72
1
 10
15.9560215477
 20
0.9479130325
 30
0.0
 11
1.0
 21
0.0
 31
0.0
 44
0.9
  1
SCALE: 1:1.000
 40
0.3
 41
3.36
  0
LINE
  5
21B
100
AcDbEntity
  8
0
100
AcDbLine
 62
7
  6
CONTINUOUS
 10
0.0
 20
0.0
 11
0.0
 21
17.0
  0
LINE
  5
21C
100
AcDbEntity
  8
0
100
AcDbLine
 62
7
  6
CONTINUOUS
 10
0.0
 20
0.0
 11
22.0
 21
0.0
  0
LINE
  5
21D
100
AcDbEntity
  8
0
100
AcDbLine
 62
7
  6
CONTINUOUS
 10
0.0
 20
17.0
 11
22.0
 21
17.0
  0
LINE
  5
21E
100
AcDbEntity
  8
0
100
AcDbLine
 62
7
  6
CONTINUOUS
 10
22.0
 20
0.0
 11
22.0
 21
17.0
  0
LINE
  5
21F
100
AcDbEntity
  8
0
100
AcDbLine
 62
7
  6
CONTINUOUS
 10
4.9735466646
 20
8.214965191
 11
4.9679122325
 21
7.9459802113
  0
LINE
  5
220
100
AcDbEntity
  8
0
100
AcDbLine
 62
7
  6
CONTINUOUS
 10
4.6730376199
 20
3.2590824605
 11
4.644914866
 21
2.9915123305
  0
LINE
  5
221
100
AcDbEntity
  8
0
100
AcDbLine
 62
7
  6
CONTINUOUS
 10
5.6800710835
 20
8.4179912579
 11
5.6077198232
 21
8.1588581623
  0
LINE
  5
222
100
AcDbEntity
  8
0
100
AcDbLine
 62
7
  6
CONTINUOUS
 10
4.156525166
 20
3.6925402571
 11
4.0627439547
 21
3.4403701792
  0
LINE
  5
223
100
AcDbEntity
  8
0
100
AcDbLine
 62
7
  6
CONTINUOUS
 10
6.4148892683
 20
8.4389334097
 11
6.2803672756
 21
8.2059344835
  0
LINE
  5
224
100
AcDbEntity
  8
0
100
AcDbLine
 62
7
  6
CONTINUOUS
 10
3.7640364712
 20
4.2408316038
 11
3.6104894208
 21
4.0199063515
  0
LINE
  5
225
100
AcDbEntity
  8
0
100
AcDbLine
 62
7
  6
CONTINUOUS
 10
7.1318298899
 20
8.2764757737
 11
6.9435896763
 21
8.0842511965
  0
LINE
  5
226
100
AcDbEntity
  8
0
100
AcDbLine
 62
7
  6
CONTINUOUS
 10
3.520233043
 20
4.8695053384
 11
3.3165680801
 21
4.6937064583
  0
LINE
  5
227
100
AcDbEntity
  8
0
100
AcDbLine
 62
7
  6
CONTINUOUS
 10
7.7858449323
 20
7.9408261608
 11
7.5557143228
 21
7.8014541097
  0
LINE
  5
228
100
AcDbEntity
  8
0
100
AcDbLine
 62
7
  6
CONTINUOUS
 10
3.4404339492
 20
5.5390595794
 11
3.1994480913
 21
5.4194331607
  0
LINE
  5
229
100
AcDbEntity
  8
0
100
AcDbLine
 62
7
  6
CONTINUOUS
 10
8.3358402252
 20
7.4530746707
 11
8.0782791723
 21
7.3753124041
  0
LINE
  5
22A
100
AcDbEntity
  8
0
100
AcDbLine
 62
7
  6
CONTINUOUS
 10
3.7000216679
 20
3.8788261048
 11
3.9652979713
 21
3.9236942331
  0
LINE
  5
22B
100
AcDbEntity
  8
0
100
AcDbLine
 62
7
  6
CONTINUOUS
 10
8.62443187
 20
4.5122797224
 11
8.892532276
 21
4.5347927425
  0
LINE
  5
22C
100
AcDbEntity
  8
0
100
AcDbLine
 62
7
  6
CONTINUOUS
 10
3.3682022763
 20
4.5347927425
 11
3.6363026867
 21
4.5122797221
  0
LINE
  5
22D
100
AcDbEntity
  8
0
100
AcDbLine
 62
7
  6
CONTINUOUS
 10
8.2954365853
 20
3.9236942324
 11
8.5607128844
 21
3.8788261048
  0
LINE
  5
22E
100
AcDbEntity
  8
0
100
AcDbLine
 62
7
  6
CONTINUOUS
 10
3.2099398703
 20
5.2526711091
 11
3.4640186527
 21
5.1641915158
  0
LINE
  5
22F
100
AcDbEntity
  8
0
100
AcDbLine
 62
7
  6
CONTINUOUS
 10
7.8304020333
 20
3.435418038
 11
8.0761859401
 21
3.3259879923
  0
LINE
  5
230
100
AcDbEntity
  8
0
100
AcDbLine
 62
7
  6
CONTINUOUS
 10
3.2351786587
 20
5.9873542666
 11
3.4592711089
 21
5.8384675987
  0
LINE
  5
231
100
AcDbEntity
  8
0
100
AcDbLine
 62
7
  6
CONTINUOUS
 10
7.2585480453
 20
3.0781313285
 11
7.469396053
 21
2.9110152568
  0
LINE
  5
232
100
AcDbEntity
  8
0
100
AcDbLine
 62
7
  6
CONTINUOUS
 10
3.4423327957
 20
6.6926793703
 11
3.6223583608
 21
6.4927407247
  0
LINE
  5
233
100
AcDbEntity
  8
0
100
AcDbLine
 62
7
  6
CONTINUOUS
 10
6.6158063103
 20
2.8742837417
 11
6.7784700631
 21
2.6599821615
  0
LINE
  5
234
100
AcDbEntity
  8
0
100
AcDbLine
 62
7
  6
CONTINUOUS
 10
3.818386025
 20
7.3243282499
 11
3.9430330368
 21
7.085900507
  0
LINE
  5
235
100
AcDbEntity
  8
0
100
AcDbLine
 62
7
  6
CONTINUOUS
 10
5.9425626555
 20
2.8366837713
 11
6.0468213917
 21
2.5886620389
  0
LINE
  5
236
100
AcDbEntity
  8
0
100
AcDbLine
 62
7
  6
CONTINUOUS
 10
4.3397095392
 20
7.8426120832
 11
4.4011459674
 21
7.5806765351
  0
LINE
  5
237
100
AcDbEntity
  8
0
100
AcDbLine
 62
7
  6
CONTINUOUS
 10
5.2811194558
 20
2.9676939615
 11
5.3204222154
 21
2.7015361947
  0
LINE
  5
238
100
AcDbEntity
  8
0
100
AcDbLine
 62
7
  6
CONTINUOUS
 10
6.4439515035
 20
7.1211670892
 11
6.4544043111
 21
7.1316198968
  0
LINE
  5
239
100
AcDbEntity
  8
0
100
AcDbLine
 62
7
  6
CONTINUOUS
 10
5.5253672762
 20
7.1066198968
 11
5.5253672762
 21
6.6567095325
  0
LINE
  5
23A
100
AcDbEntity
  8
0
100
AcDbLine
 62
7
  6
CONTINUOUS
 10
5.8803672762
 20
6.6501198968
 11
5.8803672762
 21
6.4883657333
  0
LINE
  5
23B
100
AcDbEntity
  8
0
100
AcDbLine
 62
7
  6
CONTINUOUS
 10
4.8650764005
 20
5.3201198968
 11
3.5280413934
 21
5.3201198968
  0
LINE
  5
23C
100
AcDbEntity
  8
0
100
AcDbLine
 62
7
  6
CONTINUOUS
 10
6.3803672762
 20
6.4883657333
 11
6.3803672762
 21
6.6501198968
  0
LINE
  5
23D
100
AcDbEntity
  8
0
100
AcDbLine
 62
7
  6
CONTINUOUS
 10
4.8650764005
 20
5.7201198968
 11
3.5280413934
 21
5.7201198968
  0
LINE
  5
23E
100
AcDbEntity
  8
0
100
AcDbLine
 62
7
  6
CONTINUOUS
 10
6.7353672762
 20
6.6567095325
 11
6.7353672762
 21
7.1066198968
  0
LINE
  5
23F
100
AcDbEntity
  8
0
100
AcDbLine
 62
7
  6
CONTINUOUS
 10
6.3803672762
 20
6.6501198968
 11
5.8803672762
 21
6.6501198968
  0
LINE
  5
240
100
AcDbEntity
  8
0
100
AcDbLine
 62
7
  6
CONTINUOUS
 10
5.8167830488
 20
7.1211670892
 11
5.8063302412
 21
7.1316198968
  0
LINE
  5
241
100
AcDbEntity
  8
0
100
AcDbLine
 62
7
  6
CONTINUOUS
 10
7.6158196863
 20
2.9915123305
 11
7.587696932
 21
3.2590824648
  0
LINE
  5
242
100
AcDbEntity
  8
0
100
AcDbLine
 62
7
  6
CONTINUOUS
 10
7.2928223197
 20
7.9459802157
 11
7.2871878877
 21
8.214965191
  0
LINE
  5
243
100
AcDbEntity
  8
0
100
AcDbLine
 62
7
  6
CONTINUOUS
 10
6.940312337
 20
2.7015361947
 11
6.9796150972
 21
2.9676939658
  0
LINE
  5
244
100
AcDbEntity
  8
0
100
AcDbLine
 62
7
  6
CONTINUOUS
 10
7.8595885859
 20
7.5806765393
 11
7.9210250131
 21
7.8426120832
  0
LINE
  5
245
100
AcDbEntity
  8
0
100
AcDbLine
 62
7
  6
CONTINUOUS
 10
6.2139131607
 20
2.5886620389
 11
6.3181718985
 21
2.8366837752
  0
LINE
  5
246
100
AcDbEntity
  8
0
100
AcDbLine
 62
7
  6
CONTINUOUS
 10
8.3177015176
 20
7.0859005109
 11
8.4423485273
 21
7.3243282499
  0
LINE
  5
247
100
AcDbEntity
  8
0
100
AcDbLine
 62
7
  6
CONTINUOUS
 10
5.4822644892
 20
2.6599821615
 11
5.6449282446
 21
2.8742837452
  0
LINE
  5
248
100
AcDbEntity
  8
0
100
AcDbLine
 62
7
  6
CONTINUOUS
 10
8.6383761944
 20
6.4927407279
 11
8.8184017566
 21
6.6926793703
  0
LINE
  5
249
100
AcDbEntity
  8
0
100
AcDbLine
 62
7
  6
CONTINUOUS
 10
4.7913384994
 20
2.9110152568
 11
5.0021865105
 21
3.0781313312
  0
LINE
  5
24A
100
AcDbEntity
  8
0
100
AcDbLine
 62
7
  6
CONTINUOUS
 10
8.8014634471
 20
5.8384676011
 11
9.0255558936
 21
5.9873542666
  0
LINE
  5
24B
100
AcDbEntity
  8
0
100
AcDbLine
 62
7
  6
CONTINUOUS
 10
4.1845486122
 20
3.3259879923
 11
4.430332523
 21
3.4354180398
  0
LINE
  5
24C
100
AcDbEntity
  8
0
100
AcDbLine
 62
7
  6
CONTINUOUS
 10
8.7967159037
 20
5.1641915172
 11
9.0507946821
 21
5.2526711091
  0
LINE
  5
24D
100
AcDbEntity
  8
0
100
AcDbLine
 62
7
  6
CONTINUOUS
 10
3.5296532586
 20
6.20742377
 11
3.266488534
 21
6.151486381
  0
LINE
  5
24E
100
AcDbEntity
  8
0
100
AcDbLine
 62
7
  6
CONTINUOUS
 10
8.7472575416
 20
6.8438685231
 11
8.4784495534
 21
6.8326021304
  0
LINE
  5
24F
100
AcDbEntity
  8
0
100
AcDbLine
 62
7
  6
CONTINUOUS
 10
3.7822849946
 20
6.8326021305
 11
3.5134770107
 21
6.8438685231
  0
LINE
  5
250
100
AcDbEntity
  8
0
100
AcDbLine
 62
7
  6
CONTINUOUS
 10
8.9942460183
 20
6.151486381
 11
8.7310812895
 21
6.2074237709
  0
LINE
  5
251
100
AcDbEntity
  8
0
100
AcDbLine
 62
7
  6
CONTINUOUS
 10
4.1824553759
 20
7.3753124053
 11
3.9248943271
 21
7.4530746707
  0
LINE
  5
252
100
AcDbEntity
  8
0
100
AcDbLine
 62
7
  6
CONTINUOUS
 10
9.061286461
 20
5.4194331607
 11
8.8203005993
 21
5.5390595813
  0
LINE
  5
253
100
AcDbEntity
  8
0
100
AcDbLine
 62
7
  6
CONTINUOUS
 10
4.7050202258
 20
7.8014541119
 11
4.47488962
 21
7.9408261608
  0
LINE
  5
254
100
AcDbEntity
  8
0
100
AcDbLine
 62
7
  6
CONTINUOUS
 10
8.9441664722
 20
4.6937064583
 11
8.7405015063
 21
4.869505341
  0
LINE
  5
255
100
AcDbEntity
  8
0
100
AcDbLine
 62
7
  6
CONTINUOUS
 10
5.317144873
 20
8.0842511996
 11
5.1289046624
 21
8.2764757737
  0
LINE
  5
256
100
AcDbEntity
  8
0
100
AcDbLine
 62
7
  6
CONTINUOUS
 10
8.6502451315
 20
4.0199063515
 11
8.4966980787
 21
4.2408316074
  0
LINE
  5
257
100
AcDbEntity
  8
0
100
AcDbLine
 62
7
  6
CONTINUOUS
 10
5.9803672746
 20
8.2059344873
 11
5.845845284
 21
8.4389334097
  0
LINE
  5
258
100
AcDbEntity
  8
0
100
AcDbLine
 62
7
  6
CONTINUOUS
 10
8.1979905977
 20
3.4403701792
 11
8.1042093848
 21
3.6925402612
  0
LINE
  5
259
100
AcDbEntity
  8
0
100
AcDbLine
 62
7
  6
CONTINUOUS
 10
6.6530147279
 20
8.1588581665
 11
6.5806634688
 21
8.4179912579
  0
LINE
  5
25A
100
AcDbEntity
  8
0
100
AcDbLine
 62
7
  6
CONTINUOUS
 10
6.7228672762
 20
7.1191198968
 11
5.5378672762
 21
7.1191198968
  0
LINE
  5
25B
100
AcDbEntity
  8
DRAWING
100
AcDbLine
 62
7
  6
CONTINUOUS
 10
3.1308720839
 20
12.6500477814
 11
3.1308720839
 21
12.5500477814
  0
LINE
  5
25C
100
AcDbEntity
  8
0
100
AcDbLine
 62
7
  6
CONTINUOUS
 10
3.1330199709
 20
12.5225477814
 11
3.1330199709
 21
12.5500477814
  0
LINE
  5
25D
100
AcDbEntity
  8
0
100
AcDbLine
 62
7
  6
CONTINUOUS
 10
3.1330199709
 20
12.6500477814
 11
3.1330199709
 21
12.6775477814
  0
LINE
  5
25E
100
AcDbEntity
  8
0
100
AcDbLine
 62
7
  6
CONTINUOUS
 10
3.1701008608
 20
12.6775477814
 11
3.1701008608
 21
12.5225477814
  0
LINE
  5
25F
100
AcDbEntity
  8
0
100
AcDbLine
 62
7
  6
CONTINUOUS
 10
3.3796269137
 20
12.6775477814
 11
3.3796269137
 21
12.6500477814
  0
LINE
  5
260
100
AcDbEntity
  8
0
100
AcDbLine
 62
7
  6
CONTINUOUS
 10
3.3796269137
 20
12.5500477814
 11
3.3796269137
 21
12.5225477814
  0
LINE
  5
261
100
AcDbEntity
  8
02___PRT_ALL_AXES
100
AcDbLine
 62
7
  6
CONTINUOUS
 10
3.3808720839
 20
12.9625477814
 11
3.3808720839
 21
12.7025477814
  0
LINE
  5
262
100
AcDbEntity
  8
02___PRT_ALL_AXES
100
AcDbLine
 62
7
  6
CONTINUOUS
 10
3.3808720839
 20
12.4975477814
 11
3.3808720839
 21
12.2375477814
  0
LINE
  5
263
100
AcDbEntity
  8
0
100
AcDbLine
 62
7
  6
CONTINUOUS
 10
3.4005287918
 20
12.7010272228
 11
3.4007005187
 21
12.7025477814
  0
LWPOLYLINE
  5
264
100
AcDbEntity
  8
0
100
AcDbPolyline
 62
7
  6
CONTINUOUS
 90
3
 70
0
 10
3.4005280057
 20
12.7010329384
 10
3.4003399475
 20
12.6997910101
 10
3.3986863682
 20
12.6954531546
  0
LINE
  5
265
100
AcDbEntity
  8
0
100
AcDbLine
 62
7
  6
CONTINUOUS
 10
3.4007005187
 20
12.4975477814
 11
3.4005288936
 21
12.4990694991
  0
LINE
  5
266
100
AcDbEntity
  8
0
100
AcDbLine
 62
7
  6
CONTINUOUS
 10
3.5642692256
 20
12.6978733056
 11
3.5656647515
 21
12.7025477814
  0
LINE
  5
267
100
AcDbEntity
  8
0
100
AcDbLine
 62
7
  6
CONTINUOUS
 10
3.5642680172
 20
12.6978755041
 11
3.5629888983
 21
12.6942819851
  0
LWPOLYLINE
  5
268
100
AcDbEntity
  8
0
100
AcDbPolyline
 62
7
  6
CONTINUOUS
 90
3
 70
0
 10
3.3984430767
 20
12.5050327774
 10
3.4002330483
 20
12.5007998047
 10
3.4005279849
 20
12.499062897
  0
LINE
  5
269
100
AcDbEntity
  8
0
100
AcDbLine
 62
7
  6
CONTINUOUS
 10
3.5656647515
 20
12.4975477814
 11
3.5642683152
 21
12.5022271637
  0
LINE
  5
26A
100
AcDbEntity
  8
0
100
AcDbLine
 62
7
  6
CONTINUOUS
 10
3.7227898
 20
12.6853169574
 11
3.7227898005
 21
12.6500477814
  0
LINE
  5
26B
100
AcDbEntity
  8
0
100
AcDbLine
 62
7
  6
CONTINUOUS
 10
3.7227898018
 20
12.5500477814
 11
3.7227898023
 21
12.5147786366
  0
LINE
  5
26C
100
AcDbEntity
  8
0
100
AcDbLine
 62
7
  6
CONTINUOUS
 10
3.7574683775
 20
12.6775477814
 11
3.7574683775
 21
12.6500477814
  0
LINE
  5
26D
100
AcDbEntity
  8
0
100
AcDbLine
 62
7
  6
CONTINUOUS
 10
3.7574683775
 20
12.5500477814
 11
3.7574683775
 21
12.5225477814
  0
LINE
  5
26E
100
AcDbEntity
  8
0
100
AcDbLine
 62
7
  6
CONTINUOUS
 10
3.8846955769
 20
12.6944266376
 11
3.8841929093
 21
12.6927617303
  0
LINE
  5
26F
100
AcDbEntity
  8
0
100
AcDbLine
 62
7
  6
CONTINUOUS
 10
3.8841929093
 20
12.6927617303
 11
3.8834793426
 21
12.6910001016
  0
LWPOLYLINE
  5
270
100
AcDbEntity
  8
0
100
AcDbPolyline
 62
7
  6
CONTINUOUS
 90
3
 70
0
 10
3.5629888983
 20
12.6942819851
 10
3.5608135858
 20
12.6912194916
 10
3.5591512753
 20
12.6901400017
  0
LWPOLYLINE
  5
271
100
AcDbEntity
  8
0
100
AcDbPolyline
 62
7
  6
CONTINUOUS
 90
3
 70
0
 10
3.3986863682
 20
12.6954531546
 10
3.3959568481
 20
12.69228551
 10
3.3927179904
 20
12.6905098701
  0
LINE
  5
272
100
AcDbEntity
  8
0
100
AcDbLine
 62
7
  6
CONTINUOUS
 10
3.882886663
 20
12.5100477814
 11
3.8841219261
 21
12.507535862
  0
LINE
  5
273
100
AcDbEntity
  8
0
100
AcDbLine
 62
7
  6
CONTINUOUS
 10
3.8841219261
 20
12.507535862
 11
3.8846962414
 21
12.5056663785
  0
LINE
  5
274
100
AcDbEntity
  8
0
100
AcDbLine
 62
7
  6
CONTINUOUS
 10
4.1229601814
 20
12.6853169574
 11
4.1229601819
 21
12.6500477814
  0
LINE
  5
275
100
AcDbEntity
  8
0
100
AcDbLine
 62
7
  6
CONTINUOUS
 10
4.1229601831
 20
12.5500477814
 11
4.1229601836
 21
12.5147786366
  0
LINE
  5
276
100
AcDbEntity
  8
0
100
AcDbLine
 62
7
  6
CONTINUOUS
 10
4.2798840832
 20
12.6775477814
 11
4.2798840832
 21
12.6500477814
  0
LINE
  5
277
100
AcDbEntity
  8
0
100
AcDbLine
 62
7
  6
CONTINUOUS
 10
4.2798840832
 20
12.5500477814
 11
4.2798840832
 21
12.5225477814
  0
LINE
  5
278
100
AcDbEntity
  8
0
100
AcDbLine
 62
7
  6
CONTINUOUS
 10
4.6455250316
 20
12.6853169574
 11
4.645525032
 21
12.6500477814
  0
LINE
  5
279
100
AcDbEntity
  8
0
100
AcDbLine
 62
7
  6
CONTINUOUS
 10
4.6455250331
 20
12.5500477814
 11
4.6455250335
 21
12.5147786366
  0
LINE
  5
27A
100
AcDbEntity
  8
02___PRT_ALL_AXES
100
AcDbLine
 62
7
  6
CONTINUOUS
 10
4.7898720839
 20
13.0875477814
 11
4.7898720839
 21
12.9750477814
  0
LINE
  5
27B
100
AcDbEntity
  8
02___PRT_ALL_AXES
100
AcDbLine
 62
7
  6
CONTINUOUS
 10
4.7898720839
 20
12.2250477814
 11
4.7898720839
 21
12.1125477814
  0
LINE
  5
27C
100
AcDbEntity
  8
0
100
AcDbLine
 62
7
  6
CONTINUOUS
 10
4.9084170403
 20
12.6853169408
 11
4.9084170403
 21
12.6500477814
  0
LINE
  5
27D
100
AcDbEntity
  8
0
100
AcDbLine
 62
7
  6
CONTINUOUS
 10
4.9084170402
 20
12.5500477814
 11
4.9084170402
 21
12.5147786512
  0
LINE
  5
27E
100
AcDbEntity
  8
0
100
AcDbLine
 62
7
  6
CONTINUOUS
 10
5.2576496791
 20
12.6853169574
 11
5.2576496794
 21
12.6500477814
  0
LINE
  5
27F
100
AcDbEntity
  8
0
100
AcDbLine
 62
7
  6
CONTINUOUS
 10
5.2576496804
 20
12.5500477814
 11
5.2576496807
 21
12.5147786366
  0
LINE
  5
280
100
AcDbEntity
  8
0
100
AcDbLine
 62
7
  6
CONTINUOUS
 10
5.4658720839
 20
12.1125477814
 11
5.4658720839
 21
12.2250477814
  0
LINE
  5
281
100
AcDbEntity
  8
0
100
AcDbLine
 62
7
  6
CONTINUOUS
 10
5.4658720839
 20
12.9750477814
 11
5.4658720839
 21
13.0875477814
  0
LWPOLYLINE
  5
282
100
AcDbEntity
  8
0
100
AcDbPolyline
 62
7
  6
CONTINUOUS
 90
5
 70
0
 10
3.5586277483
 20
12.510047785
 10
3.5594466929
 20
12.5098404022
 10
3.5612583567
 20
12.5084195553
 10
3.5633338885
 20
12.5050678781
 10
3.5642669293
 20
12.5022246401
  0
LINE
  5
283
100
AcDbEntity
  8
0
100
AcDbLine
 62
7
  6
CONTINUOUS
 10
5.5482246326
 20
12.6853169408
 11
5.5482246323
 21
12.6500477814
  0
LINE
  5
284
100
AcDbEntity
  8
0
100
AcDbLine
 62
7
  6
CONTINUOUS
 10
5.5482246313
 20
12.5500477814
 11
5.5482246309
 21
12.5147786512
  0
LINE
  5
285
100
AcDbEntity
  8
0
100
AcDbLine
 62
7
  6
CONTINUOUS
 10
7.2204061085
 20
12.5100477814
 11
7.2266820299
 21
12.5117382703
  0
LINE
  5
286
100
AcDbEntity
  8
0
100
AcDbLine
 62
7
  6
CONTINUOUS
 10
7.3393499554
 20
12.1000477814
 11
4.8023942125
 21
12.1000477814
  0
LINE
  5
287
100
AcDbEntity
  8
0
100
AcDbLine
 62
7
  6
CONTINUOUS
 10
8.7483720839
 20
12.2250477814
 11
3.3933720839
 21
12.2250477814
  0
LWPOLYLINE
  5
288
100
AcDbEntity
  8
0
100
AcDbPolyline
 62
7
  6
CONTINUOUS
 90
4
 70
0
 10
3.389839927
 20
12.5100477814
 10
3.3923911308
 20
12.5096859678
 10
3.3956494455
 20
12.5080490755
 10
3.3984430767
 20
12.5050327774
  0
LINE
  5
289
100
AcDbEntity
  8
0
100
AcDbLine
 62
7
  6
CONTINUOUS
 10
4.9213380592
 20
12.5100477814
 11
4.9147187587
 21
12.5119451574
  0
LINE
  5
28A
100
AcDbEntity
  8
0
100
AcDbLine
 62
7
  6
CONTINUOUS
 10
5.9208720811
 20
12.6853169574
 11
5.9208720814
 21
12.6500477814
  0
LINE
  5
28B
100
AcDbEntity
  8
0
100
AcDbLine
 62
7
  6
CONTINUOUS
 10
5.920872082
 20
12.5500477814
 11
5.9208720823
 21
12.5147786366
  0
LINE
  5
28C
100
AcDbEntity
  8
0
100
AcDbLine
 62
7
  6
CONTINUOUS
 10
6.0362310677
 20
12.6600477814
 11
6.030457565
 21
12.6500477814
  0
LINE
  5
28D
100
AcDbEntity
  8
0
100
AcDbLine
 62
7
  6
CONTINUOUS
 10
8.996233329
 20
12.5100477814
 11
8.43969461
 21
12.5100477814
  0
LINE
  5
28E
100
AcDbEntity
  8
0
100
AcDbLine
 62
7
  6
CONTINUOUS
 10
8.3717757902
 20
12.5100477814
 11
8.0417678089
 21
12.5100477814
  0
LINE
  5
28F
100
AcDbEntity
  8
0
100
AcDbLine
 62
7
  6
CONTINUOUS
 10
7.8493600845
 20
12.5100477814
 11
7.520002381
 21
12.5100477814
  0
LINE
  5
290
100
AcDbEntity
  8
0
100
AcDbLine
 62
7
  6
CONTINUOUS
 10
7.2204061084
 20
12.5100477814
 11
6.907182767
 21
12.5100477814
  0
LINE
  5
291
100
AcDbEntity
  8
0
100
AcDbLine
 62
7
  6
CONTINUOUS
 10
6.576038532
 20
12.5100477814
 11
6.241814677
 21
12.5100477814
  0
LINE
  5
292
100
AcDbEntity
  8
0
100
AcDbLine
 62
7
  6
CONTINUOUS
 10
5.8999294897
 20
12.5100477814
 11
5.5657056352
 21
12.5100477814
  0
LINE
  5
293
100
AcDbEntity
  8
0
100
AcDbLine
 62
7
  6
CONTINUOUS
 10
5.2345613994
 20
12.5100477814
 11
4.9213380593
 21
12.5100477814
  0
LINE
  5
294
100
AcDbEntity
  8
0
100
AcDbLine
 62
7
  6
CONTINUOUS
 10
4.621741785
 20
12.5100477814
 11
4.2923840832
 21
12.5100477814
  0
LINE
  5
295
100
AcDbEntity
  8
0
100
AcDbLine
 62
7
  6
CONTINUOUS
 10
4.0999763569
 20
12.5100477814
 11
3.7699683775
 21
12.5100477814
  0
LINE
  5
296
100
AcDbEntity
  8
0
100
AcDbLine
 62
7
  6
CONTINUOUS
 10
3.7020495558
 20
12.5100477814
 11
3.1455108387
 21
12.5100477814
  0
LINE
  5
297
100
AcDbEntity
  8
0
100
AcDbLine
 62
7
  6
CONTINUOUS
 10
6.0362310677
 20
12.5400477814
 11
6.1055131
 21
12.5400477814
  0
LINE
  5
298
100
AcDbEntity
  8
DRAWING
100
AcDbLine
 62
7
  6
CONTINUOUS
 10
9.0108720839
 20
12.5500477814
 11
3.1308720839
 21
12.5500477814
  0
LINE
  5
299
100
AcDbEntity
  8
0
100
AcDbLine
 62
7
  6
CONTINUOUS
 10
6.030457565
 20
12.5500477814
 11
6.0362310677
 21
12.5400477814
  0
LINE
  5
29A
100
AcDbEntity
  8
0
100
AcDbLine
 62
7
  6
CONTINUOUS
 10
6.2208720864
 20
12.6853169408
 11
6.2208720858
 21
12.6500477814
  0
LINE
  5
29B
100
AcDbEntity
  8
0
100
AcDbLine
 62
7
  6
CONTINUOUS
 10
6.2208720839
 20
12.5500477814
 11
6.2208720833
 21
12.5147786512
  0
LINE
  5
29C
100
AcDbEntity
  8
0
100
AcDbLine
 62
7
  6
CONTINUOUS
 10
6.1055131
 20
12.5400477814
 11
6.1112866027
 21
12.5500477814
  0
LINE
  5
29D
100
AcDbEntity
  8
DRAWING
100
AcDbLine
 62
7
  6
CONTINUOUS
 10
9.0108720839
 20
12.6500477814
 11
3.1308720839
 21
12.6500477814
  0
LINE
  5
29E
100
AcDbEntity
  8
0
100
AcDbLine
 62
7
  6
CONTINUOUS
 10
6.1055131
 20
12.6600477814
 11
6.0362310677
 21
12.6600477814
  0
LINE
  5
29F
100
AcDbEntity
  8
0
100
AcDbLine
 62
7
  6
CONTINUOUS
 10
3.1455108387
 20
12.6900477814
 11
3.7020495577
 21
12.6900477814
  0
LINE
  5
2A0
100
AcDbEntity
  8
0
100
AcDbLine
 62
7
  6
CONTINUOUS
 10
3.7699683775
 20
12.6900477814
 11
4.0999763588
 21
12.6900477814
  0
LINE
  5
2A1
100
AcDbEntity
  8
0
100
AcDbLine
 62
7
  6
CONTINUOUS
 10
4.2923840832
 20
12.6900477814
 11
4.6217417867
 21
12.6900477814
  0
LINE
  5
2A2
100
AcDbEntity
  8
0
100
AcDbLine
 62
7
  6
CONTINUOUS
 10
4.9213380593
 20
12.6900477814
 11
5.2345614007
 21
12.6900477814
  0
LINE
  5
2A3
100
AcDbEntity
  8
0
100
AcDbLine
 62
7
  6
CONTINUOUS
 10
5.5657056357
 20
12.6900477814
 11
5.8999294907
 21
12.6900477814
  0
LINE
  5
2A4
100
AcDbEntity
  8
0
100
AcDbLine
 62
7
  6
CONTINUOUS
 10
6.2418146779
 20
12.6900477814
 11
6.5760385325
 21
12.6900477814
  0
LINE
  5
2A5
100
AcDbEntity
  8
0
100
AcDbLine
 62
7
  6
CONTINUOUS
 10
6.9071827682
 20
12.6900477814
 11
7.2204061085
 21
12.6900477814
  0
LINE
  5
2A6
100
AcDbEntity
  8
0
100
AcDbLine
 62
7
  6
CONTINUOUS
 10
7.5200023825
 20
12.6900477814
 11
7.8493600845
 21
12.6900477814
  0
LINE
  5
2A7
100
AcDbEntity
  8
0
100
AcDbLine
 62
7
  6
CONTINUOUS
 10
8.0417678107
 20
12.6900477814
 11
8.3717757902
 21
12.6900477814
  0
LINE
  5
2A8
100
AcDbEntity
  8
0
100
AcDbLine
 62
7
  6
CONTINUOUS
 10
8.4396946118
 20
12.6900477814
 11
8.996233329
 21
12.6900477814
  0
LINE
  5
2A9
100
AcDbEntity
  8
0
100
AcDbLine
 62
7
  6
CONTINUOUS
 10
6.1112866027
 20
12.6500477814
 11
6.1055131
 21
12.6600477814
  0
LINE
  5
2AA
100
AcDbEntity
  8
0
100
AcDbLine
 62
7
  6
CONTINUOUS
 10
4.9213380592
 20
12.6900477814
 11
4.9151186059
 21
12.688389895
  0
LINE
  5
2AB
100
AcDbEntity
  8
0
100
AcDbLine
 62
7
  6
CONTINUOUS
 10
8.7483720839
 20
12.9750477814
 11
3.3933720839
 21
12.9750477814
  0
LINE
  5
2AC
100
AcDbEntity
  8
0
100
AcDbLine
 62
7
  6
CONTINUOUS
 10
7.2204061085
 20
12.6900477814
 11
7.2269985357
 21
12.6881671426
  0
LINE
  5
2AD
100
AcDbEntity
  8
0
100
AcDbLine
 62
7
  6
CONTINUOUS
 10
6.593519535
 20
12.6853169574
 11
6.5935195351
 21
12.6500477814
  0
LINE
  5
2AE
100
AcDbEntity
  8
0
100
AcDbLine
 62
7
  6
CONTINUOUS
 10
6.5935195355
 20
12.5500477814
 11
6.5935195356
 21
12.5147786366
  0
LINE
  5
2AF
100
AcDbEntity
  8
0
100
AcDbLine
 62
7
  6
CONTINUOUS
 10
6.6758720839
 20
12.1125477814
 11
6.6758720839
 21
12.2250477814
  0
LINE
  5
2B0
100
AcDbEntity
  8
0
100
AcDbLine
 62
7
  6
CONTINUOUS
 10
6.6758720839
 20
12.9750477814
 11
6.6758720839
 21
13.0875477814
  0
LINE
  5
2B1
100
AcDbEntity
  8
0
100
AcDbLine
 62
7
  6
CONTINUOUS
 10
4.8023942124
 20
13.1000477814
 11
7.3393499554
 21
13.1000477814
  0
LWPOLYLINE
  5
2B2
100
AcDbEntity
  8
0
100
AcDbPolyline
 62
7
  6
CONTINUOUS
 90
4
 70
0
 10
8.7519042417
 20
12.6900477814
 10
8.7493451702
 20
12.6904118591
 10
8.7460943773
 20
12.6920467443
 10
8.7433065075
 20
12.6950544377
  0
LINE
  5
2B3
100
AcDbEntity
  8
0
100
AcDbLine
 62
7
  6
CONTINUOUS
 10
6.8840944884
 20
12.6853169408
 11
6.8840944875
 21
12.6500477814
  0
LINE
  5
2B4
100
AcDbEntity
  8
0
100
AcDbLine
 62
7
  6
CONTINUOUS
 10
6.8840944849
 20
12.5500477814
 11
6.884094484
 21
12.5147786512
  0
LWPOLYLINE
  5
2B5
100
AcDbEntity
  8
0
100
AcDbPolyline
 62
7
  6
CONTINUOUS
 90
5
 70
0
 10
8.5831167666
 20
12.6900477779
 10
8.5822982535
 20
12.6902548075
 10
8.5804944187
 20
12.6916664902
 10
8.5784238684
 20
12.6949962618
 10
8.5774771425
 20
12.6978714445
  0
LINE
  5
2B6
100
AcDbEntity
  8
0
100
AcDbLine
 62
7
  6
CONTINUOUS
 10
7.2333271274
 20
12.6853169574
 11
7.2333271274
 21
12.6500477814
  0
LINE
  5
2B7
100
AcDbEntity
  8
0
100
AcDbLine
 62
7
  6
CONTINUOUS
 10
7.2333271274
 20
12.5500477814
 11
7.2333271274
 21
12.5147786366
  0
LINE
  5
2B8
100
AcDbEntity
  8
02___PRT_ALL_AXES
100
AcDbLine
 62
7
  6
CONTINUOUS
 10
7.3518720839
 20
13.0875477814
 11
7.3518720839
 21
12.9750477814
  0
LINE
  5
2B9
100
AcDbEntity
  8
02___PRT_ALL_AXES
100
AcDbLine
 62
7
  6
CONTINUOUS
 10
7.3518720839
 20
12.2250477814
 11
7.3518720839
 21
12.1125477814
  0
LINE
  5
2BA
100
AcDbEntity
  8
0
100
AcDbLine
 62
7
  6
CONTINUOUS
 10
7.4962191359
 20
12.6853169408
 11
7.4962191347
 21
12.6500477814
  0
LINE
  5
2BB
100
AcDbEntity
  8
0
100
AcDbLine
 62
7
  6
CONTINUOUS
 10
7.4962191316
 20
12.5500477814
 11
7.4962191305
 21
12.5147786512
  0
LINE
  5
2BC
100
AcDbEntity
  8
0
100
AcDbLine
 62
7
  6
CONTINUOUS
 10
7.8618600845
 20
12.5225477814
 11
7.8618600845
 21
12.5500477814
  0
LINE
  5
2BD
100
AcDbEntity
  8
0
100
AcDbLine
 62
7
  6
CONTINUOUS
 10
7.8618600845
 20
12.6500477814
 11
7.8618600845
 21
12.6775477814
  0
LINE
  5
2BE
100
AcDbEntity
  8
0
100
AcDbLine
 62
7
  6
CONTINUOUS
 10
8.018783986
 20
12.6853169408
 11
8.0187839847
 21
12.6500477814
  0
LINE
  5
2BF
100
AcDbEntity
  8
0
100
AcDbLine
 62
7
  6
CONTINUOUS
 10
8.0187839812
 20
12.5500477814
 11
8.01878398
 21
12.5147786512
  0
LINE
  5
2C0
100
AcDbEntity
  8
0
100
AcDbLine
 62
7
  6
CONTINUOUS
 10
8.2588576876
 20
12.6900477814
 11
8.2576319915
 21
12.6925324757
  0
LINE
  5
2C1
100
AcDbEntity
  8
0
100
AcDbLine
 62
7
  6
CONTINUOUS
 10
8.2570481473
 20
12.5056672703
 11
8.2575634477
 21
12.5073689999
  0
LINE
  5
2C2
100
AcDbEntity
  8
0
100
AcDbLine
 62
7
  6
CONTINUOUS
 10
8.2575634477
 20
12.5073689999
 11
8.2582728002
 21
12.5091121773
  0
LWPOLYLINE
  5
2C3
100
AcDbEntity
  8
0
100
AcDbPolyline
 62
7
  6
CONTINUOUS
 90
3
 70
0
 10
8.5787566418
 20
12.5058163458
 10
8.5809430893
 20
12.5088878757
 10
8.58260473
 20
12.5099593367
  0
LWPOLYLINE
  5
2C4
100
AcDbEntity
  8
0
100
AcDbPolyline
 62
7
  6
CONTINUOUS
 90
3
 70
0
 10
8.7430519415
 20
12.5046326299
 10
8.7457926303
 20
12.5078143334
 10
8.7490458453
 20
12.5095920938
  0
LINE
  5
2C5
100
AcDbEntity
  8
0
100
AcDbLine
 62
7
  6
CONTINUOUS
 10
8.2576319915
 20
12.6925324757
 11
8.2570477866
 21
12.6944297216
  0
LINE
  5
2C6
100
AcDbEntity
  8
0
100
AcDbLine
 62
7
  6
CONTINUOUS
 10
8.3842757902
 20
12.5225477814
 11
8.3842757902
 21
12.5500477814
  0
LINE
  5
2C7
100
AcDbEntity
  8
0
100
AcDbLine
 62
7
  6
CONTINUOUS
 10
8.3842757902
 20
12.6500477814
 11
8.3842757902
 21
12.6775477814
  0
LINE
  5
2C8
100
AcDbEntity
  8
0
100
AcDbLine
 62
7
  6
CONTINUOUS
 10
8.4189543674
 20
12.6853169408
 11
8.4189543661
 21
12.6500477814
  0
LINE
  5
2C9
100
AcDbEntity
  8
0
100
AcDbLine
 62
7
  6
CONTINUOUS
 10
8.4189543624
 20
12.5500477814
 11
8.4189543611
 21
12.5147786512
  0
LINE
  5
2CA
100
AcDbEntity
  8
0
100
AcDbLine
 62
7
  6
CONTINUOUS
 10
8.5774761466
 20
12.5022199899
 11
8.5787566418
 21
12.5058163458
  0
LINE
  5
2CB
100
AcDbEntity
  8
0
100
AcDbLine
 62
7
  6
CONTINUOUS
 10
8.5774749269
 20
12.5022222092
 11
8.5760794162
 21
12.4975477814
  0
LWPOLYLINE
  5
2CC
100
AcDbEntity
  8
0
100
AcDbPolyline
 62
7
  6
CONTINUOUS
 90
3
 70
0
 10
8.7433065075
 20
12.6950544377
 10
8.7415167288
 20
12.6992721106
 10
8.7412161645
 20
12.7010337995
  0
LINE
  5
2CD
100
AcDbEntity
  8
0
100
AcDbLine
 62
7
  6
CONTINUOUS
 10
8.5760794162
 20
12.7025477814
 11
8.5774757286
 21
12.6978688698
  0
LINE
  5
2CE
100
AcDbEntity
  8
02___PRT_ALL_AXES
100
AcDbLine
 62
7
  6
CONTINUOUS
 10
8.7608720839
 20
12.9625477814
 11
8.7608720839
 21
12.7025477814
  0
LINE
  5
2CF
100
AcDbEntity
  8
02___PRT_ALL_AXES
100
AcDbLine
 62
7
  6
CONTINUOUS
 10
8.7608720839
 20
12.4975477814
 11
8.7608720839
 21
12.2375477814
  0
LINE
  5
2D0
100
AcDbEntity
  8
0
100
AcDbLine
 62
7
  6
CONTINUOUS
 10
8.762117254
 20
12.5225477814
 11
8.762117254
 21
12.5500477814
  0
LINE
  5
2D1
100
AcDbEntity
  8
0
100
AcDbLine
 62
7
  6
CONTINUOUS
 10
8.762117254
 20
12.6500477814
 11
8.762117254
 21
12.6775477814
  0
LINE
  5
2D2
100
AcDbEntity
  8
0
100
AcDbLine
 62
7
  6
CONTINUOUS
 10
8.971643307
 20
12.5225477814
 11
8.971643307
 21
12.6775477814
  0
LINE
  5
2D3
100
AcDbEntity
  8
0
100
AcDbLine
 62
7
  6
CONTINUOUS
 10
9.0087241968
 20
12.6775477814
 11
9.0087241968
 21
12.6500477814
  0
LINE
  5
2D4
100
AcDbEntity
  8
0
100
AcDbLine
 62
7
  6
CONTINUOUS
 10
9.0087241968
 20
12.5500477814
 11
9.0087241968
 21
12.5225477814
  0
LINE
  5
2D5
100
AcDbEntity
  8
DRAWING
100
AcDbLine
 62
7
  6
CONTINUOUS
 10
9.0108720839
 20
12.6500477814
 11
9.0108720839
 21
12.5500477814
  0
LINE
  5
2D6
100
AcDbEntity
  8
0
100
AcDbLine
 62
7
  6
CONTINUOUS
 10
8.7412153791
 20
12.4990683651
 11
8.7410436491
 21
12.4975477814
  0
LWPOLYLINE
  5
2D7
100
AcDbEntity
  8
0
100
AcDbPolyline
 62
7
  6
CONTINUOUS
 90
3
 70
0
 10
8.7412161697
 20
12.4990626167
 10
8.7413978022
 20
12.5002718457
 10
8.7430519415
 20
12.5046326299
  0
LINE
  5
2D8
100
AcDbEntity
  8
0
100
AcDbLine
 62
7
  6
CONTINUOUS
 10
8.7410436491
 20
12.7025477814
 11
8.74121521
 21
12.7010268633
  0
LINE
  5
2D9
100
AcDbEntity
  8
DRAWING
100
AcDbLine
 62
7
  6
CONTINUOUS
 10
15.6103552569
 20
2.5206247044
 11
15.5103552569
 21
2.5206247044
  0
LINE
  5
2DA
100
AcDbEntity
  8
02___PRT_ALL_AXES
100
AcDbLine
 62
7
  6
CONTINUOUS
 10
15.6378552569
 20
2.5206247044
 11
15.4828552569
 21
2.5206247044
  0
LINE
  5
2DB
100
AcDbEntity
  8
0
100
AcDbLine
 62
7
  6
CONTINUOUS
 10
15.4828552569
 20
2.5955444581
 11
15.6378552569
 21
2.5955444581
  0
LINE
  5
2DC
100
AcDbEntity
  8
0
100
AcDbLine
 62
7
  6
CONTINUOUS
 10
15.6628552569
 20
2.8161925746
 11
15.6605505606
 21
2.815811392
  0
LINE
  5
2DD
100
AcDbEntity
  8
0
100
AcDbLine
 62
7
  6
CONTINUOUS
 10
15.1978552569
 20
2.7706247044
 11
15.4578552569
 21
2.7706247044
  0
LINE
  5
2DE
100
AcDbEntity
  8
0
100
AcDbLine
 62
7
  6
CONTINUOUS
 10
15.6628552569
 20
2.7706247044
 11
15.9228552569
 21
2.7706247044
  0
LINE
  5
2DF
100
AcDbEntity
  8
0
100
AcDbLine
 62
7
  6
CONTINUOUS
 10
15.4828552569
 20
2.8488162328
 11
15.5103552569
 21
2.8488162328
  0
LINE
  5
2E0
100
AcDbEntity
  8
0
100
AcDbLine
 62
7
  6
CONTINUOUS
 10
15.6103552569
 20
2.8488162328
 11
15.6378552569
 21
2.8488162328
  0
LINE
  5
2E1
100
AcDbEntity
  8
0
100
AcDbLine
 62
7
  6
CONTINUOUS
 10
15.4601614227
 20
2.8158108597
 11
15.4578552569
 21
2.8161925746
  0
LINE
  5
2E2
100
AcDbEntity
  8
0
100
AcDbLine
 62
7
  6
CONTINUOUS
 10
15.4601549404
 20
2.8158094185
 11
15.4615138771
 21
2.8155414369
  0
LWPOLYLINE
  5
2E3
100
AcDbEntity
  8
0
100
AcDbPolyline
 62
7
  6
CONTINUOUS
 90
3
 70
0
 10
15.4615138771
 20
2.8155414369
 10
15.4662440248
 20
2.8134022245
 10
15.4692663546
 20
2.8101418927
  0
LINE
  5
2E4
100
AcDbEntity
  8
0
100
AcDbLine
 62
7
  6
CONTINUOUS
 10
15.4671169624
 20
7.741331359
 11
15.4650684651
 21
7.740677078
  0
LINE
  5
2E5
100
AcDbEntity
  8
0
100
AcDbLine
 62
7
  6
CONTINUOUS
 10
15.6456244163
 20
3.1995872663
 11
15.6103552569
 21
3.1995872676
  0
LINE
  5
2E6
100
AcDbEntity
  8
0
100
AcDbLine
 62
7
  6
CONTINUOUS
 10
15.5103552569
 20
3.1995872712
 11
15.4750861268
 21
3.1995872725
  0
LINE
  5
2E7
100
AcDbEntity
  8
0
100
AcDbLine
 62
7
  6
CONTINUOUS
 10
15.4828552569
 20
3.2654121182
 11
15.5103552569
 21
3.2654121182
  0
LINE
  5
2E8
100
AcDbEntity
  8
0
100
AcDbLine
 62
7
  6
CONTINUOUS
 10
15.6103552569
 20
3.2654121182
 11
15.6378552569
 21
3.2654121182
  0
LINE
  5
2E9
100
AcDbEntity
  8
0
100
AcDbLine
 62
7
  6
CONTINUOUS
 10
15.4659453099
 20
3.0191877257
 11
15.4578552569
 21
3.0218838805
  0
LINE
  5
2EA
100
AcDbEntity
  8
0
100
AcDbLine
 62
7
  6
CONTINUOUS
 10
15.4668973277
 20
3.376933626
 11
15.4705650352
 21
3.3756691403
  0
LINE
  5
2EB
100
AcDbEntity
  8
0
100
AcDbLine
 62
7
  6
CONTINUOUS
 10
15.4659453099
 20
3.0191877257
 11
15.4692632738
 21
3.0171886984
  0
LINE
  5
2EC
100
AcDbEntity
  8
0
100
AcDbLine
 62
7
  6
CONTINUOUS
 10
15.4703552569
 20
7.3155765216
 11
15.4689613606
 21
7.3151741739
  0
LINE
  5
2ED
100
AcDbEntity
  8
0
100
AcDbLine
 62
7
  6
CONTINUOUS
 10
15.6456244163
 20
3.633045063
 11
15.6103552569
 21
3.6330450642
  0
LINE
  5
2EE
100
AcDbEntity
  8
0
100
AcDbLine
 62
7
  6
CONTINUOUS
 10
15.5103552569
 20
3.6330450676
 11
15.4750861268
 21
3.6330450689
  0
LINE
  5
2EF
100
AcDbEntity
  8
0
100
AcDbLine
 62
7
  6
CONTINUOUS
 10
15.4692632738
 20
3.0171886984
 11
15.4697732139
 21
3.0166833331
  0
LINE
  5
2F0
100
AcDbEntity
  8
0
100
AcDbLine
 62
7
  6
CONTINUOUS
 10
15.4828552569
 20
3.819155863
 11
15.5103552569
 21
3.819155863
  0
LINE
  5
2F1
100
AcDbEntity
  8
0
100
AcDbLine
 62
7
  6
CONTINUOUS
 10
15.6103552569
 20
3.819155863
 11
15.6378552569
 21
3.819155863
  0
LINE
  5
2F2
100
AcDbEntity
  8
02___PRT_ALL_AXES
100
AcDbLine
 62
7
  6
CONTINUOUS
 10
16.0478552569
 20
4.1796247044
 11
15.9353552569
 21
4.1796247044
  0
LINE
  5
2F3
100
AcDbEntity
  8
02___PRT_ALL_AXES
100
AcDbLine
 62
7
  6
CONTINUOUS
 10
15.1853552569
 20
4.1796247044
 11
15.0728552569
 21
4.1796247044
  0
LINE
  5
2F4
100
AcDbEntity
  8
0
100
AcDbLine
 62
7
  6
CONTINUOUS
 10
15.6456244163
 20
4.1813364099
 11
15.6103552569
 21
4.181336411
  0
LINE
  5
2F5
100
AcDbEntity
  8
0
100
AcDbLine
 62
7
  6
CONTINUOUS
 10
15.5103552569
 20
4.181336414
 11
15.4750861268
 21
4.1813364151
  0
LINE
  5
2F6
100
AcDbEntity
  8
0
100
AcDbLine
 62
7
  6
CONTINUOUS
 10
15.645624433
 20
4.4527845303
 11
15.6103552569
 21
4.4527845303
  0
LINE
  5
2F7
100
AcDbEntity
  8
0
100
AcDbLine
 62
7
  6
CONTINUOUS
 10
15.5103552569
 20
4.4527845302
 11
15.4750861122
 21
4.4527845301
  0
LINE
  5
2F8
100
AcDbEntity
  8
0
100
AcDbLine
 62
7
  6
CONTINUOUS
 10
15.6456243743
 20
4.8100101504
 11
15.6103552569
 21
4.8100101501
  0
LINE
  5
2F9
100
AcDbEntity
  8
0
100
AcDbLine
 62
7
  6
CONTINUOUS
 10
15.5103552569
 20
4.8100101491
 11
15.4750861315
 21
4.8100101487
  0
LINE
  5
2FA
100
AcDbEntity
  8
0
100
AcDbLine
 62
7
  6
CONTINUOUS
 10
15.0603552569
 20
4.1921247044
 11
15.0603552569
 21
7.0471247044
  0
LINE
  5
2FB
100
AcDbEntity
  8
0
100
AcDbLine
 62
7
  6
CONTINUOUS
 10
15.1853552569
 20
8.1381247044
 11
15.1853552569
 21
2.7831247044
  0
LWPOLYLINE
  5
2FC
100
AcDbEntity
  8
0
100
AcDbPolyline
 62
7
  6
CONTINUOUS
 90
5
 70
0
 10
15.4703552585
 20
8.0304584235
 10
15.4701463106
 20
8.0292631171
 10
15.4688856781
 20
8.0272093078
 10
15.4658885987
 20
8.0249180839
 10
15.461725388
 20
8.0234148623
  0
LINE
  5
2FD
100
AcDbEntity
  8
0
100
AcDbLine
 62
7
  6
CONTINUOUS
 10
15.645624433
 20
5.1046963256
 11
15.6103552569
 21
5.1046963255
  0
LINE
  5
2FE
100
AcDbEntity
  8
0
100
AcDbLine
 62
7
  6
CONTINUOUS
 10
15.5103552569
 20
5.1046963251
 11
15.4750861122
 21
5.1046963249
  0
LINE
  5
2FF
100
AcDbEntity
  8
0
100
AcDbLine
 62
7
  6
CONTINUOUS
 10
15.4703552569
 20
2.5340107914
 11
15.4703552569
 21
3.1781569614
  0
LINE
  5
300
100
AcDbEntity
  8
0
100
AcDbLine
 62
7
  6
CONTINUOUS
 10
15.4703552569
 20
3.2779121182
 11
15.4703552569
 21
3.6097224368
  0
LINE
  5
301
100
AcDbEntity
  8
0
100
AcDbLine
 62
7
  6
CONTINUOUS
 10
15.4703552569
 20
3.831655863
 11
15.4703552569
 21
4.1575869088
  0
LINE
  5
302
100
AcDbEntity
  8
0
100
AcDbLine
 62
7
  6
CONTINUOUS
 10
15.4703552569
 20
4.4669338744
 11
15.4703552569
 21
4.7873260376
  0
LINE
  5
303
100
AcDbEntity
  8
0
100
AcDbLine
 62
7
  6
CONTINUOUS
 10
15.4703552569
 20
5.1231554981
 11
15.4703552569
 21
5.4593709982
  0
LINE
  5
304
100
AcDbEntity
  8
0
100
AcDbLine
 62
7
  6
CONTINUOUS
 10
15.4703552569
 20
5.8005815532
 11
15.4703552569
 21
6.1314947336
  0
LINE
  5
305
100
AcDbEntity
  8
0
100
AcDbLine
 62
7
  6
CONTINUOUS
 10
15.4703552569
 20
6.4566468693
 11
15.4703552569
 21
6.7718842955
  0
LINE
  5
306
100
AcDbEntity
  8
0
100
AcDbLine
 62
7
  6
CONTINUOUS
 10
15.4703552569
 20
7.0501284496
 11
15.4703552569
 21
7.3816129846
  0
LINE
  5
307
100
AcDbEntity
  8
0
100
AcDbLine
 62
7
  6
CONTINUOUS
 10
15.4703552569
 20
7.5437356638
 11
15.4703552569
 21
7.8706389153
  0
LINE
  5
308
100
AcDbEntity
  8
0
100
AcDbLine
 62
7
  6
CONTINUOUS
 10
15.4703552569
 20
7.9064533553
 11
15.4703552569
 21
8.3731882173
  0
LINE
  5
309
100
AcDbEntity
  8
DRAWING
100
AcDbLine
 62
7
  6
CONTINUOUS
 10
15.5103552569
 20
2.520659153
 11
15.5103552569
 21
8.4005902559
  0
LINE
  5
30A
100
AcDbEntity
  8
0
100
AcDbLine
 62
7
  6
CONTINUOUS
 10
15.6456244163
 20
5.4795643862
 11
15.6103552569
 21
5.4795643868
  0
LINE
  5
30B
100
AcDbEntity
  8
0
100
AcDbLine
 62
7
  6
CONTINUOUS
 10
15.5103552569
 20
5.4795643885
 11
15.4750861268
 21
5.479564389
  0
LINE
  5
30C
100
AcDbEntity
  8
DRAWING
100
AcDbLine
 62
7
  6
CONTINUOUS
 10
15.6103552569
 20
2.520659153
 11
15.6103552569
 21
8.4005902559
  0
LINE
  5
30D
100
AcDbEntity
  8
0
100
AcDbLine
 62
7
  6
CONTINUOUS
 10
15.6503552569
 20
8.3731882173
 11
15.6503552569
 21
7.9064533534
  0
LINE
  5
30E
100
AcDbEntity
  8
0
100
AcDbLine
 62
7
  6
CONTINUOUS
 10
15.6503552569
 20
7.8706389153
 11
15.6503552569
 21
7.5437356619
  0
LINE
  5
30F
100
AcDbEntity
  8
0
100
AcDbLine
 62
7
  6
CONTINUOUS
 10
15.6503552569
 20
7.3816129846
 11
15.6503552569
 21
7.0501284479
  0
LINE
  5
310
100
AcDbEntity
  8
0
100
AcDbLine
 62
7
  6
CONTINUOUS
 10
15.6503552569
 20
6.7718842955
 11
15.6503552569
 21
6.4566468679
  0
LINE
  5
311
100
AcDbEntity
  8
0
100
AcDbLine
 62
7
  6
CONTINUOUS
 10
15.6503552569
 20
6.1314947332
 11
15.6503552569
 21
5.8005815522
  0
LINE
  5
312
100
AcDbEntity
  8
0
100
AcDbLine
 62
7
  6
CONTINUOUS
 10
15.6503552569
 20
5.4593709974
 11
15.6503552569
 21
5.1231554975
  0
LINE
  5
313
100
AcDbEntity
  8
0
100
AcDbLine
 62
7
  6
CONTINUOUS
 10
15.6503552569
 20
4.7873260373
 11
15.6503552569
 21
4.4669338742
  0
LINE
  5
314
100
AcDbEntity
  8
0
100
AcDbLine
 62
7
  6
CONTINUOUS
 10
15.6503552569
 20
4.1575869073
 11
15.6503552569
 21
3.831655863
  0
LINE
  5
315
100
AcDbEntity
  8
0
100
AcDbLine
 62
7
  6
CONTINUOUS
 10
15.6503552569
 20
3.6097224351
 11
15.6503552569
 21
3.2779121182
  0
LINE
  5
316
100
AcDbEntity
  8
0
100
AcDbLine
 62
7
  6
CONTINUOUS
 10
15.6503552569
 20
3.1781569596
 11
15.6503552569
 21
2.5340107914
  0
LINE
  5
317
100
AcDbEntity
  8
0
100
AcDbLine
 62
7
  6
CONTINUOUS
 10
15.9353552569
 20
8.1381247044
 11
15.9353552569
 21
2.7831247044
  0
LINE
  5
318
100
AcDbEntity
  8
0
100
AcDbLine
 62
7
  6
CONTINUOUS
 10
15.645624433
 20
5.77897241
 11
15.6103552569
 21
5.7789724098
  0
LINE
  5
319
100
AcDbEntity
  8
0
100
AcDbLine
 62
7
  6
CONTINUOUS
 10
15.5103552569
 20
5.778972409
 11
15.4750861122
 21
5.7789724088
  0
LINE
  5
31A
100
AcDbEntity
  8
0
100
AcDbLine
 62
7
  6
CONTINUOUS
 10
16.0603552569
 20
7.0471247044
 11
16.0603552569
 21
4.1921247044
  0
LWPOLYLINE
  5
31B
100
AcDbEntity
  8
0
100
AcDbPolyline
 62
7
  6
CONTINUOUS
 90
6
 70
0
 10
15.6503552568
 20
2.8062308628
 10
15.6506835813
 20
2.8084030653
 10
15.6522202477
 20
2.8112816446
 10
15.6552129936
 20
2.8138973278
 10
15.6595321939
 20
2.815619693
 10
15.6605579123
 20
2.8158097578
  0
LINE
  5
31C
100
AcDbEntity
  8
0
100
AcDbLine
 62
7
  6
CONTINUOUS
 10
15.6456244163
 20
6.1479285773
 11
15.6103552569
 21
6.1479285776
  0
LINE
  5
31D
100
AcDbEntity
  8
0
100
AcDbLine
 62
7
  6
CONTINUOUS
 10
15.5103552569
 20
6.1479285783
 11
15.4750861268
 21
6.1479285786
  0
LWPOLYLINE
  5
31E
100
AcDbEntity
  8
0
100
AcDbPolyline
 62
7
  6
CONTINUOUS
 90
5
 70
0
 10
15.6503526887
 20
3.0158047993
 10
15.6503886993
 20
3.0158978383
 10
15.6514874091
 20
3.0172242874
 10
15.6547732212
 20
3.0191910748
 10
15.6628552569
 20
3.0218838805
  0
LINE
  5
31F
100
AcDbEntity
  8
0
100
AcDbLine
 62
7
  6
CONTINUOUS
 10
15.645624433
 20
6.4332455373
 11
15.6103552569
 21
6.4332455369
  0
LINE
  5
320
100
AcDbEntity
  8
0
100
AcDbLine
 62
7
  6
CONTINUOUS
 10
15.5103552569
 20
6.433245536
 11
15.4750861122
 21
6.4332455356
  0
LINE
  5
321
100
AcDbEntity
  8
0
100
AcDbLine
 62
7
  6
CONTINUOUS
 10
15.6378552569
 20
6.7843733308
 11
15.6103552569
 21
6.7843733308
  0
LINE
  5
322
100
AcDbEntity
  8
0
100
AcDbLine
 62
7
  6
CONTINUOUS
 10
15.5103552569
 20
6.7843733308
 11
15.4828552569
 21
6.7843733308
  0
LINE
  5
323
100
AcDbEntity
  8
0
100
AcDbLine
 62
7
  6
CONTINUOUS
 10
15.645624433
 20
7.0264053206
 11
15.6103552569
 21
7.0264053202
  0
LINE
  5
324
100
AcDbEntity
  8
0
100
AcDbLine
 62
7
  6
CONTINUOUS
 10
15.5103552569
 20
7.026405319
 11
15.4750861122
 21
7.0264053186
  0
LINE
  5
325
100
AcDbEntity
  8
0
100
AcDbLine
 62
7
  6
CONTINUOUS
 10
15.0728552569
 20
7.0596247044
 11
15.1853552569
 21
7.0596247044
  0
LINE
  5
326
100
AcDbEntity
  8
0
100
AcDbLine
 62
7
  6
CONTINUOUS
 10
15.9353552569
 20
7.0596247044
 11
16.0478552569
 21
7.0596247044
  0
LINE
  5
327
100
AcDbEntity
  8
0
100
AcDbLine
 62
7
  6
CONTINUOUS
 10
15.6503552569
 20
3.3756615889
 11
15.6520053237
 21
3.3764081731
  0
LINE
  5
328
100
AcDbEntity
  8
0
100
AcDbLine
 62
7
  6
CONTINUOUS
 10
15.6378552569
 20
7.3941129846
 11
15.6103552569
 21
7.3941129846
  0
LINE
  5
329
100
AcDbEntity
  8
0
100
AcDbLine
 62
7
  6
CONTINUOUS
 10
15.5103552569
 20
7.3941129846
 11
15.4828552569
 21
7.3941129846
  0
LINE
  5
32A
100
AcDbEntity
  8
0
100
AcDbLine
 62
7
  6
CONTINUOUS
 10
15.6517541818
 20
7.3151730934
 11
15.6503552569
 21
7.315534073
  0
LINE
  5
32B
100
AcDbEntity
  8
0
100
AcDbLine
 62
7
  6
CONTINUOUS
 10
15.6520053237
 20
3.3764081731
 11
15.6537904929
 21
3.3769279191
  0
LINE
  5
32C
100
AcDbEntity
  8
0
100
AcDbLine
 62
7
  6
CONTINUOUS
 10
15.645624433
 20
7.5211813492
 11
15.6103552569
 21
7.5211813487
  0
LINE
  5
32D
100
AcDbEntity
  8
0
100
AcDbLine
 62
7
  6
CONTINUOUS
 10
15.5103552569
 20
7.5211813474
 11
15.4750861122
 21
7.521181347
  0
LWPOLYLINE
  5
32E
100
AcDbEntity
  8
0
100
AcDbPolyline
 62
7
  6
CONTINUOUS
 90
3
 70
0
 10
15.6556401861
 20
7.740677571
 10
15.6539294411
 20
7.741207595
 10
15.6505709751
 20
7.7429057513
  0
LWPOLYLINE
  5
32F
100
AcDbEntity
  8
0
100
AcDbPolyline
 62
7
  6
CONTINUOUS
 90
3
 70
0
 10
15.6546886101
 20
8.0249906555
 10
15.6516205709
 20
8.027447102
 10
15.6504492823
 20
8.0296636052
  0
LINE
  5
330
100
AcDbEntity
  8
0
100
AcDbLine
 62
7
  6
CONTINUOUS
 10
15.4578552569
 20
8.0224116365
 11
15.461730395
 21
8.0234127305
  0
LINE
  5
331
100
AcDbEntity
  8
0
100
AcDbLine
 62
7
  6
CONTINUOUS
 10
15.6378552569
 20
7.8831389153
 11
15.6103552569
 21
7.8831389153
  0
LINE
  5
332
100
AcDbEntity
  8
0
100
AcDbLine
 62
7
  6
CONTINUOUS
 10
15.5103552569
 20
7.8831389153
 11
15.4828552569
 21
7.8831389153
  0
LINE
  5
333
100
AcDbEntity
  8
0
100
AcDbLine
 62
7
  6
CONTINUOUS
 10
15.645624433
 20
7.8864850256
 11
15.6103552569
 21
7.8864850252
  0
LINE
  5
334
100
AcDbEntity
  8
0
100
AcDbLine
 62
7
  6
CONTINUOUS
 10
15.5103552569
 20
7.8864850238
 11
15.4750861122
 21
7.8864850234
  0
LINE
  5
335
100
AcDbEntity
  8
0
100
AcDbLine
 62
7
  6
CONTINUOUS
 10
15.6589809297
 20
8.0234129784
 11
15.6628552569
 21
8.0224116365
  0
LINE
  5
336
100
AcDbEntity
  8
0
100
AcDbLine
 62
7
  6
CONTINUOUS
 10
15.6589852754
 20
8.0234148303
 11
15.6546886101
 21
8.0249906555
  0
LINE
  5
337
100
AcDbEntity
  8
0
100
AcDbLine
 62
7
  6
CONTINUOUS
 10
15.6599727587
 20
8.150011
 11
15.6753552569
 21
8.1506247044
  0
LINE
  5
338
100
AcDbEntity
  8
0
100
AcDbLine
 62
7
  6
CONTINUOUS
 10
15.1978552569
 20
8.1506247044
 11
15.4453552569
 21
8.1506247044
  0
LINE
  5
339
100
AcDbEntity
  8
0
100
AcDbLine
 62
7
  6
CONTINUOUS
 10
15.6753552569
 20
8.1506247044
 11
15.9228552569
 21
8.1506247044
  0
LINE
  5
33A
100
AcDbEntity
  8
0
100
AcDbLine
 62
7
  6
CONTINUOUS
 10
15.6378552569
 20
8.2207347896
 11
15.4828552569
 21
8.2207347896
  0
LINE
  5
33B
100
AcDbEntity
  8
0
100
AcDbLine
 62
7
  6
CONTINUOUS
 10
15.6378552569
 20
8.3856882173
 11
15.4828552569
 21
8.3856882173
  0
LINE
  5
33C
100
AcDbEntity
  8
DRAWING
100
AcDbLine
 62
7
  6
CONTINUOUS
 10
15.6103552569
 20
8.4006247044
 11
15.5103552569
 21
8.4006247044
  0
LINE
  5
33D
100
AcDbEntity
  8
0
100
AcDbLine
 62
7
  6
CONTINUOUS
 10
15.4453552569
 20
8.1506247044
 11
15.4607378748
 21
8.1500109956
  0
LINE
  5
33E
100
AcDbEntity
  8
0
100
AcDbLine
 62
7
  6
CONTINUOUS
 10
12.6123274978
 20
12.8386896058
 11
12.6119307427
 21
12.8328906528
  0
LINE
  5
33F
100
AcDbEntity
  8
DRAWING
100
AcDbLine
 62
7
  6
CONTINUOUS
 10
12.6180020796
 20
13.1729361601
 11
12.6178838079
 21
13.1716337411
  0
LINE
  5
340
100
AcDbEntity
  8
DRAWING
100
AcDbLine
 62
7
  6
CONTINUOUS
 10
12.6106734176
 20
13.1747475484
 11
12.6105100616
 21
13.1734528149
  0
LINE
  5
341
100
AcDbEntity
  8
0
100
AcDbLine
 62
7
  6
CONTINUOUS
 10
12.6256239742
 20
13.2682311615
 11
12.6086765582
 21
13.1861674692
  0
LINE
  5
342
100
AcDbEntity
  8
DRAWING
100
AcDbLine
 62
7
  6
CONTINUOUS
 10
12.6704611027
 20
13.4179986116
 11
12.6619599967
 21
13.3904890226
  0
LINE
  5
343
100
AcDbEntity
  8
0
100
AcDbLine
 62
7
  6
CONTINUOUS
 10
12.6257465294
 20
13.2686695159
 11
12.6376437029
 21
13.3071687834
  0
LINE
  5
344
100
AcDbEntity
  8
0
100
AcDbLine
 62
7
  6
CONTINUOUS
 10
12.8027141508
 20
13.7003171866
 11
12.7651938706
 21
13.5789015157
  0
LINE
  5
345
100
AcDbEntity
  8
0
100
AcDbLine
 62
7
  6
CONTINUOUS
 10
12.6123153976
 20
12.8386511221
 11
12.6139255535
 21
12.8438615885
  0
LINE
  5
346
100
AcDbEntity
  8
DRAWING
100
AcDbLine
 62
7
  6
CONTINUOUS
 10
12.7590131595
 20
13.5812280157
 11
12.7581139644
 21
13.5798238824
  0
LINE
  5
347
100
AcDbEntity
  8
DRAWING
100
AcDbLine
 62
7
  6
CONTINUOUS
 10
12.8166821381
 20
13.6950579911
 11
12.8146283763
 21
13.6920854673
  0
LINE
  5
348
100
AcDbEntity
  8
DRAWING
100
AcDbLine
 62
7
  6
CONTINUOUS
 10
12.765971342
 20
13.5783643489
 11
12.7650193531
 21
13.5769864822
  0
LINE
  5
349
100
AcDbEntity
  8
DRAWING
100
AcDbLine
 62
7
  6
CONTINUOUS
 10
12.8092705915
 20
13.6982452535
 11
12.8071824381
 21
13.695276756
  0
LINE
  5
34A
100
AcDbEntity
  8
0
100
AcDbLine
 62
7
  6
CONTINUOUS
 10
12.8555979518
 20
13.7734122832
 11
12.853814523
 21
13.7709860454
  0
LINE
  5
34B
100
AcDbEntity
  8
0
100
AcDbLine
 62
7
  6
CONTINUOUS
 10
12.8556013346
 20
13.7734120889
 11
12.8537106657
 21
13.771035494
  0
LINE
  5
34C
100
AcDbEntity
  8
02___PRT_ALL_AXES
100
AcDbLine
 62
7
  6
CONTINUOUS
 10
12.9367936784
 20
13.4331035535
 11
12.9273806475
 21
13.4026429744
  0
LINE
  5
34D
100
AcDbEntity
  8
02___PRT_ALL_AXES
100
AcDbLine
 62
7
  6
CONTINUOUS
 10
12.8724011994
 20
13.224729415
 11
12.8094639553
 21
13.0210644185
  0
LINE
  5
34E
100
AcDbEntity
  8
0
100
AcDbLine
 62
7
  6
CONTINUOUS
 10
12.9248468316
 20
13.3934506738
 11
12.8835652494
 21
13.259863418
  0
LINE
  5
34F
100
AcDbEntity
  8
0
100
AcDbLine
 62
7
  6
CONTINUOUS
 10
13.1266884634
 20
14.0206620306
 11
13.1191221747
 21
13.9961775114
  0
LINE
  5
350
100
AcDbEntity
  8
0
100
AcDbLine
 62
7
  6
CONTINUOUS
 10
13.0900354573
 20
13.9020528595
 11
13.0891681833
 21
13.8992463596
  0
LINE
  5
351
100
AcDbEntity
  8
0
100
AcDbLine
 62
7
  6
CONTINUOUS
 10
13.1278788054
 20
13.7308047909
 11
13.0865972233
 21
13.5972175347
  0
LINE
  5
352
100
AcDbEntity
  8
0
100
AcDbLine
 62
7
  6
CONTINUOUS
 10
12.7762850715
 20
12.3842400798
 11
12.7842859298
 21
12.4101308668
  0
LWPOLYLINE
  5
353
100
AcDbEntity
  8
0
100
AcDbPolyline
 62
7
  6
CONTINUOUS
 90
3
 70
0
 10
12.9275606379
 20
13.4025873531
 10
12.9258634925
 20
13.3998243951
 10
12.9214018503
 20
13.3961997694
  0
LINE
  5
354
100
AcDbEntity
  8
0
100
AcDbLine
 62
7
  6
CONTINUOUS
 10
13.1267875454
 20
13.737382705
 11
13.1267912252
 21
13.7373867413
  0
LINE
  5
355
100
AcDbEntity
  8
0
100
AcDbLine
 62
7
  6
CONTINUOUS
 10
13.2136834225
 20
14.0803051399
 11
13.2094492167
 21
14.0775710862
  0
LINE
  5
356
100
AcDbEntity
  8
0
100
AcDbLine
 62
7
  6
CONTINUOUS
 10
12.8032936909
 20
12.5088844814
 11
12.8047685686
 21
12.5032783339
  0
LINE
  5
357
100
AcDbEntity
  8
0
100
AcDbLine
 62
7
  6
CONTINUOUS
 10
12.7976978249
 20
12.5094568358
 11
12.7990165349
 21
12.5038545255
  0
LINE
  5
358
100
AcDbEntity
  8
0
100
AcDbLine
 62
7
  6
CONTINUOUS
 10
12.9519669421
 20
13.4134955789
 11
12.952384232
 21
13.4088587303
  0
LINE
  5
359
100
AcDbEntity
  8
0
100
AcDbLine
 62
7
  6
CONTINUOUS
 10
12.9524206209
 20
13.4077168312
 11
12.9523881513
 21
13.4088678143
  0
LINE
  5
35A
100
AcDbEntity
  8
0
100
AcDbLine
 62
7
  6
CONTINUOUS
 10
12.9579467373
 20
12.4686700193
 11
12.9307142759
 21
12.380545742
  0
LINE
  5
35B
100
AcDbEntity
  8
0
100
AcDbLine
 62
7
  6
CONTINUOUS
 10
13.479201844
 20
13.9956987239
 11
13.4379202618
 21
13.8621114674
  0
LINE
  5
35C
100
AcDbEntity
  8
0
100
AcDbLine
 62
7
  6
CONTINUOUS
 10
13.5981600582
 20
14.2501833942
 11
13.590759421
 21
14.2262349234
  0
LINE
  5
35D
100
AcDbEntity
  8
0
100
AcDbLine
 62
7
  6
CONTINUOUS
 10
13.5619589877
 20
14.133036687
 11
13.5606397781
 21
14.1287677232
  0
LINE
  5
35E
100
AcDbEntity
  8
0
100
AcDbLine
 62
7
  6
CONTINUOUS
 10
13.1267870809
 20
13.7373823076
 11
13.1258170458
 21
13.7364715113
  0
LINE
  5
35F
100
AcDbEntity
  8
0
100
AcDbLine
 62
7
  6
CONTINUOUS
 10
13.2136853839
 20
14.0803043987
 11
13.2093168397
 21
14.0776602994
  0
LINE
  5
360
100
AcDbEntity
  8
0
100
AcDbLine
 62
7
  6
CONTINUOUS
 10
13.7223394786
 20
14.2921756495
 11
13.720503037
 21
14.2914144042
  0
LINE
  5
361
100
AcDbEntity
  8
0
100
AcDbLine
 62
7
  6
CONTINUOUS
 10
13.7182672223
 20
14.2955322124
 11
13.7164111818
 21
14.294782076
  0
LINE
  5
362
100
AcDbEntity
  8
0
100
AcDbLine
 62
7
  6
CONTINUOUS
 10
13.2237756821
 20
13.7225054566
 11
13.2241866623
 21
13.7180330042
  0
LINE
  5
363
100
AcDbEntity
  8
0
100
AcDbLine
 62
7
  6
CONTINUOUS
 10
13.1258170458
 20
13.7364715113
 11
13.1215583927
 21
13.7341316715
  0
LINE
  5
364
100
AcDbEntity
  8
DRAWING
100
AcDbLine
 62
7
  6
CONTINUOUS
 10
13.5633603523
 20
14.1143347441
 11
13.5658486546
 21
14.1152969182
  0
LINE
  5
365
100
AcDbEntity
  8
DRAWING
100
AcDbLine
 62
7
  6
CONTINUOUS
 10
13.558867708
 20
14.1182356119
 11
13.56143154
 21
14.1191395021
  0
LINE
  5
366
100
AcDbEntity
  8
0
100
AcDbLine
 62
7
  6
CONTINUOUS
 10
13.7138862595
 20
14.2914837082
 11
13.7087794344
 21
14.2899760218
  0
LINE
  5
367
100
AcDbEntity
  8
0
100
AcDbLine
 62
7
  6
CONTINUOUS
 10
17.044844344
 20
10.6688764906
 11
17.049465938
 21
10.670113272
  0
LINE
  5
368
100
AcDbEntity
  8
0
100
AcDbLine
 62
7
  6
CONTINUOUS
 10
13.1760426357
 20
11.8211086971
 11
13.179019765
 21
11.8177493151
  0
LINE
  5
369
100
AcDbEntity
  8
0
100
AcDbLine
 62
7
  6
CONTINUOUS
 10
13.1712105185
 20
11.8202061316
 11
13.174111795
 21
11.8168239055
  0
LINE
  5
36A
100
AcDbEntity
  8
0
100
AcDbLine
 62
7
  6
CONTINUOUS
 10
13.6351219799
 20
13.9481387557
 11
13.6350981513
 21
13.9470874595
  0
LINE
  5
36B
100
AcDbEntity
  8
0
100
AcDbLine
 62
7
  6
CONTINUOUS
 10
13.9567410287
 20
14.1714882129
 11
13.9154594463
 21
14.0379009561
  0
LINE
  5
36C
100
AcDbEntity
  8
0
100
AcDbLine
 62
7
  6
CONTINUOUS
 10
13.4737376639
 20
14.0014517058
 11
13.4698544599
 21
14.0002263879
  0
LINE
  5
36D
100
AcDbEntity
  8
0
100
AcDbLine
 62
7
  6
CONTINUOUS
 10
16.1932218405
 20
10.549989591
 11
16.1962956243
 21
10.5499882992
  0
LINE
  5
36E
100
AcDbEntity
  8
0
100
AcDbLine
 62
7
  6
CONTINUOUS
 10
16.1931529294
 20
10.5501314723
 11
16.1962956243
 21
10.5499882992
  0
LINE
  5
36F
100
AcDbEntity
  8
0
100
AcDbLine
 62
7
  6
CONTINUOUS
 10
13.2222237734
 20
13.7286323323
 11
13.2237756821
 21
13.7225054566
  0
LINE
  5
370
100
AcDbEntity
  8
0
100
AcDbLine
 62
7
  6
CONTINUOUS
 10
13.6348301999
 20
13.9546070178
 11
13.6351219799
 21
13.9481387557
  0
LINE
  5
371
100
AcDbEntity
  8
0
100
AcDbLine
 62
7
  6
CONTINUOUS
 10
14.187504641
 20
14.3744596059
 11
14.1801646823
 21
14.3507074908
  0
LINE
  5
372
100
AcDbEntity
  8
0
100
AcDbLine
 62
7
  6
CONTINUOUS
 10
14.1516726152
 20
14.258507128
 11
14.1499843609
 21
14.253043935
  0
LINE
  5
373
100
AcDbEntity
  8
0
100
AcDbLine
 62
7
  6
CONTINUOUS
 10
12.9214018503
 20
13.3961997694
 11
12.9148296894
 21
13.393473163
  0
LWPOLYLINE
  5
374
100
AcDbEntity
  8
0
100
AcDbPolyline
 62
7
  6
CONTINUOUS
 90
3
 70
0
 10
12.9462742821
 20
13.4249363991
 10
12.949896112
 20
13.419334606
 10
12.9519669421
 20
13.4134955789
  0
LINE
  5
375
100
AcDbEntity
  8
0
100
AcDbLine
 62
7
  6
CONTINUOUS
 10
14.5304908162
 20
14.2471277577
 11
14.4892092335
 21
14.1135405007
  0
LINE
  5
376
100
AcDbEntity
  8
0
100
AcDbLine
 62
7
  6
CONTINUOUS
 10
13.2197128442
 20
13.7341322361
 11
13.2222237734
 21
13.7286323323
  0
LINE
  5
377
100
AcDbEntity
  8
0
100
AcDbLine
 62
7
  6
CONTINUOUS
 10
13.6338351052
 20
13.9605706435
 11
13.6348301999
 21
13.9546070178
  0
LINE
  5
378
100
AcDbEntity
  8
0
100
AcDbLine
 62
7
  6
CONTINUOUS
 10
14.1494640337
 20
14.2483934234
 11
14.1609374702
 21
14.0994283659
  0
LWPOLYLINE
  5
379
100
AcDbEntity
  8
0
100
AcDbPolyline
 62
7
  6
CONTINUOUS
 90
5
 70
0
 10
14.1609362712
 20
14.0994441371
 10
14.1610235595
 20
14.097607798
 10
14.1609270917
 20
14.0927162009
 10
14.1603013983
 20
14.0856975218
 10
14.159774541
 20
14.0818435902
  0
LINE
  5
37A
100
AcDbEntity
  8
0
100
AcDbLine
 62
7
  6
CONTINUOUS
 10
14.307667415
 20
13.1188079323
 11
14.374235654
 21
13.3342228324
  0
LINE
  5
37B
100
AcDbEntity
  8
02___PRT_ALL_AXES
100
AcDbLine
 62
7
  6
CONTINUOUS
 10
14.1919618734
 20
12.7225599085
 11
14.1253936344
 21
12.5071450084
  0
LINE
  5
37C
100
AcDbEntity
  8
0
100
AcDbLine
 62
7
  6
CONTINUOUS
 10
14.8068091153
 20
14.2471277445
 11
14.7655275373
 21
14.1135405098
  0
LINE
  5
37D
100
AcDbEntity
  8
0
100
AcDbLine
 62
7
  6
CONTINUOUS
 10
14.8506073742
 20
14.3662750375
 11
14.8577569952
 21
14.3858764046
  0
LWPOLYLINE
  5
37E
100
AcDbEntity
  8
0
100
AcDbPolyline
 62
7
  6
CONTINUOUS
 90
5
 70
0
 10
14.8142649892
 20
14.2666389274
 10
14.8086234147
 20
14.2512125852
 10
14.8080765728
 20
14.2497678123
 10
14.8077260402
 20
14.2488878221
 10
14.8076310388
 20
14.2486642389
  0
LINE
  5
37F
100
AcDbEntity
  8
0
100
AcDbLine
 62
7
  6
CONTINUOUS
 10
15.4634147156
 20
14.1776021935
 11
15.4661514958
 21
14.180452149
  0
LINE
  5
380
100
AcDbEntity
  8
0
100
AcDbLine
 62
7
  6
CONTINUOUS
 10
15.5493905433
 20
14.2671330349
 11
15.5695371397
 21
14.2881126698
  0
LINE
  5
381
100
AcDbEntity
  8
0
100
AcDbLine
 62
7
  6
CONTINUOUS
 10
15.4634147156
 20
14.1776021935
 11
15.4631508046
 21
14.1773333369
  0
LINE
  5
382
100
AcDbEntity
  8
0
100
AcDbLine
 62
7
  6
CONTINUOUS
 10
15.4631508046
 20
14.1773333369
 11
15.4627061517
 21
14.176910529
  0
LINE
  5
383
100
AcDbEntity
  8
0
100
AcDbLine
 62
7
  6
CONTINUOUS
 10
15.4627061517
 20
14.176910529
 11
15.4624335736
 21
14.1766787612
  0
LINE
  5
384
100
AcDbEntity
  8
0
100
AcDbLine
 62
7
  6
CONTINUOUS
 10
18.061849929
 20
11.8189716717
 11
18.067180999
 21
11.8199306494
  0
LINE
  5
385
100
AcDbEntity
  8
0
100
AcDbLine
 62
7
  6
CONTINUOUS
 10
13.2177774331
 20
13.7369221824
 11
13.2197128442
 21
13.7341322361
  0
LINE
  5
386
100
AcDbEntity
  8
0
100
AcDbLine
 62
7
  6
CONTINUOUS
 10
16.2417030961
 20
14.0632118155
 11
16.2759697433
 21
14.0807313942
  0
LINE
  5
387
100
AcDbEntity
  8
0
100
AcDbLine
 62
7
  6
CONTINUOUS
 10
16.1192666591
 20
14.0006134875
 11
16.1186133276
 21
14.0003026766
  0
LINE
  5
388
100
AcDbEntity
  8
0
100
AcDbLine
 62
7
  6
CONTINUOUS
 10
18.0243705442
 20
12.2282419711
 11
18.215831927
 21
12.279105284
  0
LINE
  5
389
100
AcDbEntity
  8
0
100
AcDbLine
 62
7
  6
CONTINUOUS
 10
12.9428106633
 20
13.4283484314
 11
12.9462742821
 21
13.4249363991
  0
LINE
  5
38A
100
AcDbEntity
  8
0
100
AcDbLine
 62
7
  6
CONTINUOUS
 10
13.0915314593
 20
13.8875256071
 11
13.2177543276
 21
13.7369495338
  0
LINE
  5
38B
100
AcDbEntity
  8
0
100
AcDbLine
 62
7
  6
CONTINUOUS
 10
13.5612250751
 20
14.1198562095
 11
13.6323063773
 21
13.9652277052
  0
LWPOLYLINE
  5
38C
100
AcDbEntity
  8
0
100
AcDbPolyline
 62
7
  6
CONTINUOUS
 90
3
 70
0
 10
13.6323111498
 20
13.9652173467
 10
13.6324692874
 20
13.9648603629
 10
13.6338351052
 20
13.9605706435
  0
LINE
  5
38D
100
AcDbEntity
  8
0
100
AcDbLine
 62
7
  6
CONTINUOUS
 10
15.1644003974
 20
14.2178646476
 11
15.1231188143
 21
14.0842773904
  0
LINE
  5
38E
100
AcDbEntity
  8
0
100
AcDbLine
 62
7
  6
CONTINUOUS
 10
14.8517128232
 20
12.8215608033
 11
14.820641141
 21
12.7210128029
  0
LINE
  5
38F
100
AcDbEntity
  8
0
100
AcDbLine
 62
7
  6
CONTINUOUS
 10
18.0671737571
 20
11.8199302168
 11
18.2891877728
 21
11.8328720349
  0
LINE
  5
390
100
AcDbEntity
  8
0
100
AcDbLine
 62
7
  6
CONTINUOUS
 10
17.954963496
 20
11.4498989162
 11
18.1845118779
 21
11.4250862808
  0
LINE
  5
391
100
AcDbEntity
  8
0
100
AcDbLine
 62
7
  6
CONTINUOUS
 10
12.8378342656
 20
12.2789548473
 11
12.8855076769
 21
12.2689092265
  0
LINE
  5
392
100
AcDbEntity
  8
0
100
AcDbLine
 62
7
  6
CONTINUOUS
 10
17.7720461833
 20
11.116833507
 11
17.9080876443
 21
11.0812089869
  0
LINE
  5
393
100
AcDbEntity
  8
0
100
AcDbLine
 62
7
  6
CONTINUOUS
 10
12.6382469347
 20
12.7352738986
 11
12.7773460871
 21
12.6841517689
  0
LINE
  5
394
100
AcDbEntity
  8
0
100
AcDbLine
 62
7
  6
CONTINUOUS
 10
17.4378056366
 20
10.8394526454
 11
17.4770349596
 21
10.8228315476
  0
LINE
  5
395
100
AcDbEntity
  8
0
100
AcDbLine
 62
7
  6
CONTINUOUS
 10
12.615009133
 20
13.1732090016
 11
12.8215114529
 21
13.0600501348
  0
LINE
  5
396
100
AcDbEntity
  8
0
100
AcDbLine
 62
7
  6
CONTINUOUS
 10
12.7693861564
 20
13.5654037761
 11
12.9428195437
 21
13.4283413821
  0
LINE
  5
397
100
AcDbEntity
  8
0
100
AcDbLine
 62
7
  6
CONTINUOUS
 10
14.3083885299
 20
13.1096105563
 11
14.4456300272
 21
12.829941789
  0
LINE
  5
398
100
AcDbEntity
  8
0
100
AcDbLine
 62
7
  6
CONTINUOUS
 10
15.4547958974
 20
14.1714881997
 11
15.413514318
 21
14.0379009656
  0
LINE
  5
399
100
AcDbEntity
  8
0
100
AcDbLine
 62
7
  6
CONTINUOUS
 10
14.7712993491
 20
12.8215608033
 11
14.820641141
 21
12.7210128029
  0
LINE
  5
39A
100
AcDbEntity
  8
0
100
AcDbLine
 62
7
  6
CONTINUOUS
 10
14.1763029779
 20
12.1129822531
 11
13.0362033495
 21
12.1129822531
  0
LINE
  5
39B
100
AcDbEntity
  8
0
100
AcDbLine
 62
7
  6
CONTINUOUS
 10
14.8014170491
 20
12.7157634725
 11
14.8023640375
 21
12.714775664
  0
LINE
  5
39C
100
AcDbEntity
  8
0
100
AcDbLine
 62
7
  6
CONTINUOUS
 10
14.801534653
 20
12.7157913751
 11
14.8023640375
 21
12.714775664
  0
LINE
  5
39D
100
AcDbEntity
  8
0
100
AcDbLine
 62
7
  6
CONTINUOUS
 10
14.6428518412
 20
13.3396208485
 11
14.6435044408
 21
13.3383023649
  0
LINE
  5
39E
100
AcDbEntity
  8
02___PRT_ALL_AXES
100
AcDbLine
 62
7
  6
CONTINUOUS
 10
14.642852382
 20
13.3396197464
 11
14.3991858691
 21
13.8361598936
  0
LINE
  5
39F
100
AcDbEntity
  8
0
100
AcDbLine
 62
7
  6
CONTINUOUS
 10
14.3992438538
 20
13.8361625813
 11
14.6402986762
 21
13.3449444997
  0
LINE
  5
3A0
100
AcDbEntity
  8
0
100
AcDbLine
 62
7
  6
CONTINUOUS
 10
15.8186389018
 20
14.0855375914
 11
15.7773573182
 21
13.9519503341
  0
LINE
  5
3A1
100
AcDbEntity
  8
0
100
AcDbLine
 62
7
  6
CONTINUOUS
 10
15.281171638
 20
12.7210128029
 11
15.2318298461
 21
12.8215608033
  0
LINE
  5
3A2
100
AcDbEntity
  8
0
100
AcDbLine
 62
7
  6
CONTINUOUS
 10
16.1048649853
 20
13.9956987108
 11
16.0635834046
 21
13.8621114774
  0
LINE
  5
3A3
100
AcDbEntity
  8
0
100
AcDbLine
 62
7
  6
CONTINUOUS
 10
15.2318298461
 20
12.8215608033
 11
14.7712993491
 21
12.8215608033
  0
LINE
  5
3A4
100
AcDbEntity
  8
0
100
AcDbLine
 62
7
  6
CONTINUOUS
 10
16.4520981182
 20
13.8584611846
 11
16.4108165341
 21
13.7248739275
  0
LINE
  5
3A5
100
AcDbEntity
  8
0
100
AcDbLine
 62
7
  6
CONTINUOUS
 10
16.7161701474
 20
13.7308047778
 11
16.6748885656
 21
13.5972175453
  0
LINE
  5
3A6
100
AcDbEntity
  8
0
100
AcDbLine
 62
7
  6
CONTINUOUS
 10
16.7345651494
 20
13.7331073978
 11
16.7371871341
 21
13.7337010081
  0
LINE
  5
3A7
100
AcDbEntity
  8
0
100
AcDbLine
 62
7
  6
CONTINUOUS
 10
16.8941905416
 20
13.769246162
 11
16.9320160488
 21
13.7778097562
  0
LINE
  5
3A8
100
AcDbEntity
  8
0
100
AcDbLine
 62
7
  6
CONTINUOUS
 10
12.68241478
 20
12.9722086366
 11
12.8039654241
 21
12.9909656287
  0
LINE
  5
3A9
100
AcDbEntity
  8
0
100
AcDbLine
 62
7
  6
CONTINUOUS
 10
17.270713691
 20
13.3926230651
 11
17.2907796619
 21
13.3931986429
  0
LINE
  5
3AA
100
AcDbEntity
  8
0
100
AcDbLine
 62
7
  6
CONTINUOUS
 10
17.4559530196
 20
13.3979365099
 11
17.4965054046
 21
13.399099723
  0
LINE
  5
3AB
100
AcDbEntity
  8
0
100
AcDbLine
 62
7
  6
CONTINUOUS
 10
12.7079969936
 20
13.3981966393
 11
12.9077629536
 21
13.3926234103
  0
LWPOLYLINE
  5
3AC
100
AcDbEntity
  8
0
100
AcDbPolyline
 62
7
  6
CONTINUOUS
 90
3
 70
0
 10
17.270713691
 20
13.3926230651
 10
17.2681301526
 20
13.3927253368
 10
17.2651706966
 20
13.3934183968
  0
LINE
  5
3AD
100
AcDbEntity
  8
0
100
AcDbLine
 62
7
  6
CONTINUOUS
 10
17.6943246103
 20
13.0009215635
 11
17.7558719222
 21
12.9926731796
  0
LINE
  5
3AE
100
AcDbEntity
  8
0
100
AcDbLine
 62
7
  6
CONTINUOUS
 10
17.8980142628
 20
12.9736236946
 11
17.9342653243
 21
12.9687654373
  0
LINE
  5
3AF
100
AcDbEntity
  8
0
100
AcDbLine
 62
7
  6
CONTINUOUS
 10
12.9637471894
 20
13.7601078834
 11
13.1089716535
 21
13.7332068445
  0
LWPOLYLINE
  5
3B0
100
AcDbEntity
  8
0
100
AcDbPolyline
 62
7
  6
CONTINUOUS
 90
3
 70
0
 10
17.6943243888
 20
13.0009215931
 10
17.6915231646
 20
13.0014749248
 10
17.6865833729
 20
13.0035963287
  0
LINE
  5
3B1
100
AcDbEntity
  8
0
100
AcDbLine
 62
7
  6
CONTINUOUS
 10
17.9790609363
 20
12.5827461941
 11
18.076788378
 21
12.5546285596
  0
LINE
  5
3B2
100
AcDbEntity
  8
0
100
AcDbLine
 62
7
  6
CONTINUOUS
 10
18.1988877861
 20
12.5194987489
 11
18.2180766111
 21
12.5139778394
  0
LINE
  5
3B3
100
AcDbEntity
  8
0
100
AcDbLine
 62
7
  6
CONTINUOUS
 10
13.2241683641
 20
14.0814347532
 11
13.2485867309
 21
14.073121731
  0
LINE
  5
3B4
100
AcDbEntity
  8
0
100
AcDbLine
 62
7
  6
CONTINUOUS
 10
13.3593019928
 20
14.0354296756
 11
13.4595078975
 21
14.0013154401
  0
LINE
  5
3B5
100
AcDbEntity
  8
0
100
AcDbLine
 62
7
  6
CONTINUOUS
 10
13.9407790125
 20
14.178715257
 11
13.9375762558
 21
14.1800651105
  0
LINE
  5
3B6
100
AcDbEntity
  8
0
100
AcDbLine
 62
7
  6
CONTINUOUS
 10
18.1072759062
 20
12.1643697175
 11
18.2440933854
 21
12.1023866052
  0
LINE
  5
3B7
100
AcDbEntity
  8
0
100
AcDbLine
 62
7
  6
CONTINUOUS
 10
13.7230081576
 20
14.2905675181
 11
13.7547198406
 21
14.2742360255
  0
LINE
  5
3B8
100
AcDbEntity
  8
0
100
AcDbLine
 62
7
  6
CONTINUOUS
 10
13.8902993311
 20
14.2044126911
 11
13.937575614
 21
14.1800654414
  0
LINE
  5
3B9
100
AcDbEntity
  8
0
100
AcDbLine
 62
7
  6
CONTINUOUS
 10
14.5153466007
 20
14.2567805076
 11
14.5133377895
 21
14.2580826305
  0
LINE
  5
3BA
100
AcDbEntity
  8
0
100
AcDbLine
 62
7
  6
CONTINUOUS
 10
18.0711221564
 20
11.7719754246
 11
18.2387178057
 21
11.6617558155
  0
LINE
  5
3BB
100
AcDbEntity
  8
0
100
AcDbLine
 62
7
  6
CONTINUOUS
 10
14.333022366
 20
14.3920257855
 11
14.3623816346
 21
14.37021693
  0
LINE
  5
3BC
100
AcDbEntity
  8
0
100
AcDbLine
 62
7
  6
CONTINUOUS
 10
14.4978641555
 20
14.2695768645
 11
14.5133356831
 21
14.2580841971
  0
LINE
  5
3BD
100
AcDbEntity
  8
0
100
AcDbLine
 62
7
  6
CONTINUOUS
 10
17.9260003649
 20
11.3791629102
 11
18.0108757148
 21
11.2976915072
  0
LINE
  5
3BE
100
AcDbEntity
  8
0
100
AcDbLine
 62
7
  6
CONTINUOUS
 10
15.0160403305
 20
14.3791537712
 11
15.0446957778
 21
14.3474705643
  0
LINE
  5
3BF
100
AcDbEntity
  8
0
100
AcDbLine
 62
7
  6
CONTINUOUS
 10
15.1480510608
 20
14.2331946721
 11
15.1507697592
 21
14.2301887136
  0
LINE
  5
3C0
100
AcDbEntity
  8
0
100
AcDbLine
 62
7
  6
CONTINUOUS
 10
17.0249754742
 20
13.5509034732
 11
16.9836938896
 21
13.4173162161
  0
LINE
  5
3C1
100
AcDbEntity
  8
0
100
AcDbLine
 62
7
  6
CONTINUOUS
 10
17.4682055357
 20
13.0611753569
 11
17.5651466217
 21
13.1761119371
  0
LINE
  5
3C2
100
AcDbEntity
  8
0
100
AcDbLine
 62
7
  6
CONTINUOUS
 10
17.8194980778
 20
12.6499830084
 11
17.8204361681
 21
12.650568176
  0
LINE
  5
3C3
100
AcDbEntity
  8
0
100
AcDbLine
 62
7
  6
CONTINUOUS
 10
17.8204583714
 20
12.6505808829
 11
17.9693368985
 21
12.7361697614
  0
LINE
  5
3C4
100
AcDbEntity
  8
0
100
AcDbLine
 62
7
  6
CONTINUOUS
 10
18.0210171697
 20
12.2270084331
 11
18.0243420418
 21
12.2282344974
  0
LWPOLYLINE
  5
3C5
100
AcDbEntity
  8
0
100
AcDbPolyline
 62
7
  6
CONTINUOUS
 90
3
 70
0
 10
16.7345649358
 20
13.7331073494
 10
16.7321562313
 20
13.7327853098
 10
16.7314477745
 20
13.7328102011
  0
LINE
  5
3C6
100
AcDbEntity
  8
0
100
AcDbLine
 62
7
  6
CONTINUOUS
 10
12.9148296894
 20
13.393473163
 11
12.9077590991
 21
13.3926235132
  0
LINE
  5
3C7
100
AcDbEntity
  8
0
100
AcDbLine
 62
7
  6
CONTINUOUS
 10
13.1152566693
 20
13.7328379098
 11
13.1089697307
 21
13.7332071949
  0
LINE
  5
3C8
100
AcDbEntity
  8
0
100
AcDbLine
 62
7
  6
CONTINUOUS
 10
13.4639784819
 20
14.0002402344
 11
13.4595077732
 21
14.001315482
  0
LINE
  5
3C9
100
AcDbEntity
  8
0
100
AcDbLine
 62
7
  6
CONTINUOUS
 10
17.9790609082
 20
12.5827462021
 11
17.973252864
 21
12.5852577335
  0
LWPOLYLINE
  5
3CA
100
AcDbEntity
  8
0
100
AcDbPolyline
 62
7
  6
CONTINUOUS
 90
4
 70
0
 10
18.107276844
 20
12.1643692912
 10
18.1020878581
 20
12.1675191854
 10
18.097571973
 20
12.1721773743
 10
18.0953696631
 20
12.1763841039
  0
LINE
  5
3CB
100
AcDbEntity
  8
0
100
AcDbLine
 62
7
  6
CONTINUOUS
 10
15.1519726604
 20
14.2290069445
 11
15.1507692711
 21
14.2301892533
  0
LINE
  5
3CC
100
AcDbEntity
  8
0
100
AcDbLine
 62
7
  6
CONTINUOUS
 10
15.810560695
 20
14.0964721825
 11
15.8098451076
 21
14.0976525494
  0
LINE
  5
3CD
100
AcDbEntity
  8
0
100
AcDbLine
 62
7
  6
CONTINUOUS
 10
15.7291682143
 20
14.2522751168
 11
15.7461639631
 21
14.219701649
  0
LINE
  5
3CE
100
AcDbEntity
  8
0
100
AcDbLine
 62
7
  6
CONTINUOUS
 10
16.4488530679
 20
13.8675725585
 11
16.4487598527
 21
13.8681542024
  0
LINE
  5
3CF
100
AcDbEntity
  8
0
100
AcDbLine
 62
7
  6
CONTINUOUS
 10
16.427196865
 20
14.018743254
 11
16.4310042446
 21
13.9921537384
  0
LINE
  5
3D0
100
AcDbEntity
  8
0
100
AcDbLine
 62
7
  6
CONTINUOUS
 10
16.4481703149
 20
13.872271422
 11
16.4487580054
 21
13.8681671806
  0
LWPOLYLINE
  5
3D1
100
AcDbEntity
  8
0
100
AcDbPolyline
 62
7
  6
CONTINUOUS
 90
5
 70
0
 10
17.0251447922
 20
13.5519020443
 10
17.0251269535
 20
13.5518202615
 10
17.0251920352
 20
13.5520812141
 10
17.0253628379
 20
13.5527297608
 10
17.0256310514
 20
13.5537136024
  0
LINE
  5
3D2
100
AcDbEntity
  8
0
100
AcDbLine
 62
7
  6
CONTINUOUS
 10
17.0256310514
 20
13.5537136024
 11
17.0263144118
 21
13.5561499222
  0
LINE
  5
3D3
100
AcDbEntity
  8
0
100
AcDbLine
 62
7
  6
CONTINUOUS
 10
17.0651718741
 20
13.6930267266
 11
17.0588569256
 21
13.6707834266
  0
LINE
  5
3D4
100
AcDbEntity
  8
0
100
AcDbLine
 62
7
  6
CONTINUOUS
 10
17.0304740582
 20
13.5708097484
 11
17.0262593942
 21
13.5559643326
  0
LINE
  5
3D5
100
AcDbEntity
  8
02___PRT_ALL_AXES
100
AcDbLine
 62
7
  6
CONTINUOUS
 10
16.6397500764
 20
11.9661361428
 11
16.5731818374
 21
11.7507212426
  0
LINE
  5
3D6
100
AcDbEntity
  8
0
100
AcDbLine
 62
7
  6
CONTINUOUS
 10
17.4638241385
 20
13.0548995368
 11
17.4666137709
 21
13.0591181114
  0
LINE
  5
3D7
100
AcDbEntity
  8
0
100
AcDbLine
 62
7
  6
CONTINUOUS
 10
17.4666137709
 20
13.0591181114
 11
17.4682137976
 21
13.0611851685
  0
LINE
  5
3D8
100
AcDbEntity
  8
0
100
AcDbLine
 62
7
  6
CONTINUOUS
 10
14.5795737311
 20
13.844521131
 11
14.5766796587
 21
13.8443869866
  0
LINE
  5
3D9
100
AcDbEntity
  8
0
100
AcDbLine
 62
7
  6
CONTINUOUS
 10
14.5830849375
 20
13.8445193981
 11
14.5766136294
 21
13.8445198985
  0
LINE
  5
3DA
100
AcDbEntity
  8
0
100
AcDbLine
 62
7
  6
CONTINUOUS
 10
14.583164355
 20
13.8443579305
 11
14.5795737311
 21
13.844521131
  0
LINE
  5
3DB
100
AcDbEntity
  8
0
100
AcDbLine
 62
7
  6
CONTINUOUS
 10
16.7314477745
 20
13.7328102011
 11
16.7310919148
 21
13.7328659272
  0
LINE
  5
3DC
100
AcDbEntity
  8
0
100
AcDbLine
 62
7
  6
CONTINUOUS
 10
15.1533181289
 20
14.2280900054
 11
15.1519726604
 21
14.2290069445
  0
LWPOLYLINE
  5
3DD
100
AcDbEntity
  8
0
100
AcDbPolyline
 62
7
  6
CONTINUOUS
 90
3
 70
0
 10
18.0711230083
 20
11.7719748639
 10
18.0655710984
 20
11.7770175987
 10
18.0617769527
 20
11.7831964088
  0
LINE
  5
3DE
100
AcDbEntity
  8
0
100
AcDbLine
 62
7
  6
CONTINUOUS
 10
15.8106976253
 20
14.0963010869
 11
15.810560695
 21
14.0964721825
  0
LINE
  5
3DF
100
AcDbEntity
  8
0
100
AcDbLine
 62
7
  6
CONTINUOUS
 10
17.250300832
 20
13.3934506608
 11
17.2090192496
 21
13.2598634293
  0
LWPOLYLINE
  5
3E0
100
AcDbEntity
  8
0
100
AcDbPolyline
 62
7
  6
CONTINUOUS
 90
3
 70
0
 10
17.4590171083
 20
13.0461279354
 10
17.4604219774
 20
13.0488920022
 10
17.4638241385
 20
13.0548995368
  0
LINE
  5
3E1
100
AcDbEntity
  8
0
100
AcDbLine
 62
7
  6
CONTINUOUS
 10
13.4698544599
 20
14.0002263879
 11
13.4639784819
 21
14.0002402344
  0
LWPOLYLINE
  5
3E2
100
AcDbEntity
  8
0
100
AcDbPolyline
 62
7
  6
CONTINUOUS
 90
3
 70
0
 10
14.5195825163
 20
14.2554478556
 10
14.5181220393
 20
14.2556367304
 10
14.5153466007
 20
14.2567805076
  0
LINE
  5
3E3
100
AcDbEntity
  8
DRAWING
100
AcDbLine
 62
7
  6
CONTINUOUS
 10
15.4631390294
 20
14.1772709941
 11
15.4687892752
 21
14.1762037812
  0
LINE
  5
3E4
100
AcDbEntity
  8
DRAWING
100
AcDbLine
 62
7
  6
CONTINUOUS
 10
15.4631589735
 20
14.1815816914
 11
15.4688228226
 21
14.1804277343
  0
LINE
  5
3E5
100
AcDbEntity
  8
DRAWING
100
AcDbLine
 62
7
  6
CONTINUOUS
 10
15.8083734143
 20
14.0985234049
 11
15.8108476196
 21
14.0978340212
  0
LINE
  5
3E6
100
AcDbEntity
  8
DRAWING
100
AcDbLine
 62
7
  6
CONTINUOUS
 10
15.807388034
 20
14.0939844919
 11
15.8098544919
 21
14.0932931392
  0
LINE
  5
3E7
100
AcDbEntity
  8
DRAWING
100
AcDbLine
 62
7
  6
CONTINUOUS
 10
16.119587864
 20
14.0009905636
 11
16.1206606122
 21
14.0006158304
  0
LINE
  5
3E8
100
AcDbEntity
  8
DRAWING
100
AcDbLine
 62
7
  6
CONTINUOUS
 10
16.1182673755
 20
13.9979513618
 11
16.1193275572
 21
13.9975534009
  0
LINE
  5
3E9
100
AcDbEntity
  8
0
100
AcDbLine
 62
7
  6
CONTINUOUS
 10
15.153359605
 20
14.2280727679
 11
15.1533181289
 21
14.2280900054
  0
LINE
  5
3EA
100
AcDbEntity
  8
DRAWING
100
AcDbLine
 62
7
  6
CONTINUOUS
 10
16.4453552655
 20
13.8743197782
 11
16.4507756189
 21
13.8719850145
  0
LINE
  5
3EB
100
AcDbEntity
  8
DRAWING
100
AcDbLine
 62
7
  6
CONTINUOUS
 10
16.4449175571
 20
13.8736997348
 11
16.4501968217
 21
13.8711709382
  0
LINE
  5
3EC
100
AcDbEntity
  8
DRAWING
100
AcDbLine
 62
7
  6
CONTINUOUS
 10
16.7328659543
 20
13.7357708769
 11
16.7352856012
 21
13.7346118528
  0
LINE
  5
3ED
100
AcDbEntity
  8
0
100
AcDbLine
 62
7
  6
CONTINUOUS
 10
17.2651706966
 20
13.3934183968
 11
17.2638738738
 21
13.3941109196
  0
LWPOLYLINE
  5
3EE
100
AcDbEntity
  8
0
100
AcDbPolyline
 62
7
  6
CONTINUOUS
 90
3
 70
0
 10
16.4487476734
 20
13.8673987996
 10
16.4489983252
 20
13.8668621019
 10
16.4488530679
 20
13.8675725585
  0
LINE
  5
3EF
100
AcDbEntity
  8
0
100
AcDbLine
 62
7
  6
CONTINUOUS
 10
17.567534237
 20
13.1804804516
 11
17.569202665
 21
13.1858794867
  0
LINE
  5
3F0
100
AcDbEntity
  8
0
100
AcDbLine
 62
7
  6
CONTINUOUS
 10
17.5981088659
 20
13.2794199869
 11
17.6050545171
 21
13.3018961226
  0
LINE
  5
3F1
100
AcDbEntity
  8
0
100
AcDbLine
 62
7
  6
CONTINUOUS
 10
17.8077071138
 20
12.6372770056
 11
17.8094014712
 21
12.6397483655
  0
LWPOLYLINE
  5
3F2
100
AcDbEntity
  8
0
100
AcDbPolyline
 62
7
  6
CONTINUOUS
 90
3
 70
0
 10
17.8094014712
 20
12.6397483655
 10
17.8146798463
 20
12.6459417579
 10
17.8194980778
 20
12.6499830084
  0
LINE
  5
3F3
100
AcDbEntity
  8
0
100
AcDbLine
 62
7
  6
CONTINUOUS
 10
18.0554910195
 20
11.8162022685
 11
18.061849929
 21
11.8189716717
  0
LINE
  5
3F4
100
AcDbEntity
  8
0
100
AcDbLine
 62
7
  6
CONTINUOUS
 10
13.1215583927
 20
13.7341316715
 11
13.1152566693
 21
13.7328379098
  0
LWPOLYLINE
  5
3F5
100
AcDbEntity
  8
0
100
AcDbPolyline
 62
7
  6
CONTINUOUS
 90
3
 70
0
 10
13.9477642728
 20
14.1780792926
 10
13.9463813606
 20
14.1778789282
 10
13.9407790125
 20
14.178715257
  0
LINE
  5
3F6
100
AcDbEntity
  8
DRAWING
100
AcDbLine
 62
7
  6
CONTINUOUS
 10
14.146233905
 20
14.250437428
 11
14.1472359683
 21
14.2505556302
  0
LINE
  5
3F7
100
AcDbEntity
  8
DRAWING
100
AcDbLine
 62
7
  6
CONTINUOUS
 10
14.1497578443
 20
14.2456484678
 11
14.1507646309
 21
14.2457562615
  0
LINE
  5
3F8
100
AcDbEntity
  8
0
100
AcDbLine
 62
7
  6
CONTINUOUS
 10
14.5195823846
 20
14.255447843
 11
14.5195867605
 21
14.2554480245
  0
LINE
  5
3F9
100
AcDbEntity
  8
0
100
AcDbLine
 62
7
  6
CONTINUOUS
 10
15.0079799853
 20
14.3832102776
 11
15.005131649
 21
14.3834433674
  0
LINE
  5
3FA
100
AcDbEntity
  8
DRAWING
100
AcDbLine
 62
7
  6
CONTINUOUS
 10
15.1510330036
 20
14.2329057632
 11
15.1538018641
 21
14.232637499
  0
LINE
  5
3FB
100
AcDbEntity
  8
DRAWING
100
AcDbLine
 62
7
  6
CONTINUOUS
 10
15.0150189945
 20
14.269667855
 11
15.0118199644
 21
14.2699777967
  0
LINE
  5
3FC
100
AcDbEntity
  8
0
100
AcDbLine
 62
7
  6
CONTINUOUS
 10
15.0079808217
 20
14.3832071935
 11
15.0051206922
 21
14.3834846484
  0
LINE
  5
3FD
100
AcDbEntity
  8
DRAWING
100
AcDbLine
 62
7
  6
CONTINUOUS
 10
15.013833957
 20
14.2745081227
 11
15.0106190758
 21
14.2748482883
  0
LINE
  5
3FE
100
AcDbEntity
  8
0
100
AcDbLine
 62
7
  6
CONTINUOUS
 10
15.1531035652
 20
14.228119518
 11
15.153118403
 21
14.2281176915
  0
LINE
  5
3FF
100
AcDbEntity
  8
DRAWING
100
AcDbLine
 62
7
  6
CONTINUOUS
 10
15.1507629572
 20
14.2344692414
 11
15.153553049
 21
14.2340910789
  0
LINE
  5
400
100
AcDbEntity
  8
0
100
AcDbLine
 62
7
  6
CONTINUOUS
 10
16.4195832786
 20
14.0285295726
 11
16.2860887443
 21
14.081290856
  0
LINE
  5
401
100
AcDbEntity
  8
DRAWING
100
AcDbLine
 62
7
  6
CONTINUOUS
 10
16.7352074133
 20
13.7380877024
 11
16.737577541
 21
13.7368733176
  0
LINE
  5
402
100
AcDbEntity
  8
0
100
AcDbLine
 62
7
  6
CONTINUOUS
 10
16.7310919148
 20
13.7328659272
 11
16.7312290538
 21
13.732794109
  0
LINE
  5
403
100
AcDbEntity
  8
0
100
AcDbLine
 62
7
  6
CONTINUOUS
 10
16.9435042238
 20
13.7750487746
 11
16.9408992907
 21
13.7765140106
  0
LINE
  5
404
100
AcDbEntity
  8
0
100
AcDbLine
 62
7
  6
CONTINUOUS
 10
16.9434683776
 20
13.7750192248
 11
16.9409006162
 21
13.7765151314
  0
LINE
  5
405
100
AcDbEntity
  8
DRAWING
100
AcDbLine
 62
7
  6
CONTINUOUS
 10
17.277618596
 20
13.4087751622
 11
17.2828485483
 21
13.4050118705
  0
LINE
  5
406
100
AcDbEntity
  8
DRAWING
100
AcDbLine
 62
7
  6
CONTINUOUS
 10
17.2730044353
 20
13.4064025599
 11
17.2781243459
 21
13.4025993524
  0
LINE
  5
407
100
AcDbEntity
  8
0
100
AcDbLine
 62
7
  6
CONTINUOUS
 10
17.263869948
 20
13.3941139064
 11
17.2638737529
 21
13.3941110029
  0
LINE
  5
408
100
AcDbEntity
  8
0
100
AcDbLine
 62
7
  6
CONTINUOUS
 10
17.973252864
 20
12.5852577335
 11
17.9687650224
 21
12.588985841
  0
LINE
  5
409
100
AcDbEntity
  8
0
100
AcDbLine
 62
7
  6
CONTINUOUS
 10
17.6865833729
 20
13.0035963287
 11
17.6846161432
 21
13.0052590838
  0
LINE
  5
40A
100
AcDbEntity
  8
0
100
AcDbLine
 62
7
  6
CONTINUOUS
 10
17.673695644
 20
13.0048335597
 11
17.6324140612
 21
12.8712463291
  0
LWPOLYLINE
  5
40B
100
AcDbEntity
  8
0
100
AcDbPolyline
 62
7
  6
CONTINUOUS
 90
3
 70
0
 10
18.0107461102
 20
12.2194588496
 10
18.0155366287
 20
12.2237273373
 10
18.0210171697
 20
12.2270084331
  0
LINE
  5
40C
100
AcDbEntity
  8
0
100
AcDbLine
 62
7
  6
CONTINUOUS
 10
13.9477646127
 20
14.1780793691
 11
13.9477951333
 21
14.1780867556
  0
LINE
  5
40D
100
AcDbEntity
  8
0
100
AcDbLine
 62
7
  6
CONTINUOUS
 10
14.3246855397
 20
14.3944601177
 11
14.3202270836
 21
14.3940633997
  0
LINE
  5
40E
100
AcDbEntity
  8
0
100
AcDbLine
 62
7
  6
CONTINUOUS
 10
14.3246855397
 20
14.3944601177
 11
14.3201793587
 21
14.3941381542
  0
LINE
  5
40F
100
AcDbEntity
  8
0
100
AcDbLine
 62
7
  6
CONTINUOUS
 10
14.7382945129
 20
14.4716216887
 11
14.7342697422
 21
14.4714340649
  0
LINE
  5
410
100
AcDbEntity
  8
0
100
AcDbLine
 62
7
  6
CONTINUOUS
 10
14.7382945129
 20
14.4716216887
 11
14.73417911
 21
14.4716193711
  0
LINE
  5
411
100
AcDbEntity
  8
0
100
AcDbLine
 62
7
  6
CONTINUOUS
 10
17.5083062017
 20
13.3934137961
 11
17.5047363076
 21
13.3963129482
  0
LINE
  5
412
100
AcDbEntity
  8
0
100
AcDbLine
 62
7
  6
CONTINUOUS
 10
17.5082227785
 20
13.3933795791
 11
17.5047376557
 21
13.3963132375
  0
LINE
  5
413
100
AcDbEntity
  8
DRAWING
100
AcDbLine
 62
7
  6
CONTINUOUS
 10
17.5677313801
 20
13.1769320552
 11
17.568661665
 21
13.1761014845
  0
LINE
  5
414
100
AcDbEntity
  8
DRAWING
100
AcDbLine
 62
7
  6
CONTINUOUS
 10
17.5626482748
 20
13.1752351749
 11
17.5635471518
 21
13.1743968788
  0
LINE
  5
415
100
AcDbEntity
  8
0
100
AcDbLine
 62
7
  6
CONTINUOUS
 10
17.6846135218
 20
13.0052620705
 11
17.6846161987
 21
13.0052590141
  0
LINE
  5
416
100
AcDbEntity
  8
0
100
AcDbLine
 62
7
  6
CONTINUOUS
 10
17.9750496603
 20
12.7433160099
 11
17.9763432198
 21
12.7475019699
  0
LINE
  5
417
100
AcDbEntity
  8
0
100
AcDbLine
 62
7
  6
CONTINUOUS
 10
18.0059730598
 20
12.8433841674
 11
18.0125699404
 21
12.8647316809
  0
LINE
  5
418
100
AcDbEntity
  8
0
100
AcDbLine
 62
7
  6
CONTINUOUS
 10
18.0081862179
 20
12.2163362637
 11
18.0107461102
 21
12.2194588496
  0
LINE
  5
419
100
AcDbEntity
  8
0
100
AcDbLine
 62
7
  6
CONTINUOUS
 10
17.0473936776
 20
10.6664777998
 11
17.0518755388
 21
10.6678540847
  0
LINE
  5
41A
100
AcDbEntity
  8
0
100
AcDbLine
 62
7
  6
CONTINUOUS
 10
13.7138854165
 20
14.2914837233
 11
13.7087319353
 21
14.2900214632
  0
LINE
  5
41B
100
AcDbEntity
  8
0
100
AcDbLine
 62
7
  6
CONTINUOUS
 10
17.9457404058
 20
12.960016294
 11
17.9423116931
 21
12.9642518907
  0
LINE
  5
41C
100
AcDbEntity
  8
0
100
AcDbLine
 62
7
  6
CONTINUOUS
 10
17.9456046721
 20
12.95999419
 11
17.9423120036
 21
12.9642516841
  0
LINE
  5
41D
100
AcDbEntity
  8
0
100
AcDbLine
 62
7
  6
CONTINUOUS
 10
17.9325861019
 20
12.9676340016
 11
17.9315814022
 21
12.9691251284
  0
LINE
  5
41E
100
AcDbEntity
  8
0
100
AcDbLine
 62
7
  6
CONTINUOUS
 10
17.9687650224
 20
12.588985841
 11
17.9672941872
 21
12.5911818564
  0
LINE
  5
41F
100
AcDbEntity
  8
0
100
AcDbLine
 62
7
  6
CONTINUOUS
 10
17.9376195483
 20
12.9680216606
 11
17.936660229
 21
12.9695196059
  0
LINE
  5
420
100
AcDbEntity
  8
0
100
AcDbLine
 62
7
  6
CONTINUOUS
 10
17.9672942064
 20
12.5911818132
 11
17.9672959522
 21
12.5911782902
  0
LINE
  5
421
100
AcDbEntity
  8
0
100
AcDbLine
 62
7
  6
CONTINUOUS
 10
18.0617769527
 20
11.7831964088
 11
18.0603477284
 21
11.7885027692
  0
LINE
  5
422
100
AcDbEntity
  8
0
100
AcDbLine
 62
7
  6
CONTINUOUS
 10
17.9597511302
 20
12.589371716
 11
17.9184695474
 21
12.4557844864
  0
LINE
  5
423
100
AcDbEntity
  8
0
100
AcDbLine
 62
7
  6
CONTINUOUS
 10
17.5953923404
 20
10.8946356971
 11
17.5889495124
 21
10.8737866981
  0
LINE
  5
424
100
AcDbEntity
  8
0
100
AcDbLine
 62
7
  6
CONTINUOUS
 10
18.0481462601
 20
11.8093199626
 11
18.0475722663
 21
11.8084822647
  0
LWPOLYLINE
  5
425
100
AcDbEntity
  8
0
100
AcDbPolyline
 62
7
  6
CONTINUOUS
 90
3
 70
0
 10
18.0481443626
 20
11.8093108931
 10
18.050689748
 20
11.8125354858
 10
18.0554910195
 20
11.8162022685
  0
LINE
  5
426
100
AcDbEntity
  8
0
100
AcDbLine
 62
7
  6
CONTINUOUS
 10
18.0112663396
 20
12.8417932385
 11
18.0099610714
 21
12.8442630647
  0
LINE
  5
427
100
AcDbEntity
  8
0
100
AcDbLine
 62
7
  6
CONTINUOUS
 10
18.0073721725
 20
12.8416963032
 11
18.0062146702
 21
12.8441660188
  0
LINE
  5
428
100
AcDbEntity
  8
0
100
AcDbLine
 62
7
  6
CONTINUOUS
 10
18.2280509723
 20
12.5023971109
 11
18.2260863602
 21
12.506942285
  0
LINE
  5
429
100
AcDbEntity
  8
0
100
AcDbLine
 62
7
  6
CONTINUOUS
 10
18.228002458
 20
12.5023981504
 11
18.2260867329
 21
12.5069423926
  0
LINE
  5
42A
100
AcDbEntity
  8
DRAWING
100
AcDbLine
 62
7
  6
CONTINUOUS
 10
18.2012978043
 20
12.275244173
 11
18.2018477831
 21
12.2737956714
  0
LINE
  5
42B
100
AcDbEntity
  8
DRAWING
100
AcDbLine
 62
7
  6
CONTINUOUS
 10
18.2336457399
 20
12.2858686146
 11
18.2319536351
 21
12.2903251802
  0
LINE
  5
42C
100
AcDbEntity
  8
DRAWING
100
AcDbLine
 62
7
  6
CONTINUOUS
 10
18.2403932346
 20
12.2854176412
 11
18.238874506
 21
12.2898734284
  0
LINE
  5
42D
100
AcDbEntity
  8
DRAWING
100
AcDbLine
 62
7
  6
CONTINUOUS
 10
18.2073450195
 20
12.2748118816
 11
18.2078185705
 21
12.2733657836
  0
LINE
  5
42E
100
AcDbEntity
  8
0
100
AcDbLine
 62
7
  6
CONTINUOUS
 10
18.0953696631
 20
12.1763841039
 11
18.0949494307
 21
12.1782341548
  0
LINE
  5
42F
100
AcDbEntity
  8
0
100
AcDbLine
 62
7
  6
CONTINUOUS
 10
18.0949488196
 20
12.1782390715
 11
18.0949494172
 21
12.178233936
  0
LINE
  5
430
100
AcDbEntity
  8
0
100
AcDbLine
 62
7
  6
CONTINUOUS
 10
18.090493355
 20
12.1731700958
 11
18.0492117919
 21
12.0395829001
  0
LINE
  5
431
100
AcDbEntity
  8
02___PRT_ALL_AXES
100
AcDbLine
 62
7
  6
CONTINUOUS
 10
18.069126193
 20
11.819329539
 11
17.9496280974
 21
11.4326335599
  0
LINE
  5
432
100
AcDbEntity
  8
0
100
AcDbLine
 62
7
  6
CONTINUOUS
 10
18.2245652787
 20
12.287495656
 11
18.2254026905
 21
12.2902055216
  0
LINE
  5
433
100
AcDbEntity
  8
0
100
AcDbLine
 62
7
  6
CONTINUOUS
 10
18.2525691036
 20
12.3781160663
 11
18.2620855589
 21
12.408911327
  0
LINE
  5
434
100
AcDbEntity
  8
0
100
AcDbLine
 62
7
  6
CONTINUOUS
 10
17.9997373732
 20
11.1829537244
 11
17.9898335566
 21
11.1509049621
  0
LINE
  5
435
100
AcDbEntity
  8
0
100
AcDbLine
 62
7
  6
CONTINUOUS
 10
17.6382303394
 20
10.9819309352
 11
17.6399662288
 21
10.9834692022
  0
LINE
  5
436
100
AcDbEntity
  8
0
100
AcDbLine
 62
7
  6
CONTINUOUS
 10
17.643228492
 20
10.9791295965
 11
17.6449947234
 21
10.9806564461
  0
LINE
  5
437
100
AcDbEntity
  8
0
100
AcDbLine
 62
7
  6
CONTINUOUS
 10
18.3378097008
 20
12.0496922422
 11
18.3376730184
 21
12.0525392896
  0
LINE
  5
438
100
AcDbEntity
  8
0
100
AcDbLine
 62
7
  6
CONTINUOUS
 10
18.3377012534
 20
12.0497090889
 11
18.3376750178
 21
12.0525364428
  0
LINE
  5
439
100
AcDbEntity
  8
DRAWING
100
AcDbLine
 62
7
  6
CONTINUOUS
 10
18.3318870241
 20
11.9630698843
 11
18.3319214805
 21
11.9664527937
  0
LINE
  5
43A
100
AcDbEntity
  8
DRAWING
100
AcDbLine
 62
7
  6
CONTINUOUS
 10
18.3060025888
 20
11.8367093275
 11
18.3061991769
 21
11.8401834229
  0
LINE
  5
43B
100
AcDbEntity
  8
DRAWING
100
AcDbLine
 62
7
  6
CONTINUOUS
 10
18.2840597134
 20
11.678701664
 11
18.2843871893
 21
11.68230786
  0
LINE
  5
43C
100
AcDbEntity
  8
DRAWING
100
AcDbLine
 62
7
  6
CONTINUOUS
 10
18.2985588282
 20
11.8383672784
 11
18.2988711471
 21
11.8418065641
  0
LINE
  5
43D
100
AcDbEntity
  8
DRAWING
100
AcDbLine
 62
7
  6
CONTINUOUS
 10
18.3270663573
 20
11.9640618488
 11
18.3273680714
 21
11.9673843529
  0
LINE
  5
43E
100
AcDbEntity
  8
DRAWING
100
AcDbLine
 62
7
  6
CONTINUOUS
 10
18.2840597134
 20
11.678701664
 11
18.2848290574
 21
11.6821845843
  0
LINE
  5
43F
100
AcDbEntity
  8
0
100
AcDbLine
 62
7
  6
CONTINUOUS
 10
18.3004031083
 20
11.8416602589
 11
18.3379233884
 21
11.9630759299
  0
LINE
  5
440
100
AcDbEntity
  8
0
100
AcDbLine
 62
7
  6
CONTINUOUS
 10
18.2336616034
 20
11.5155292138
 11
18.2316792051
 21
11.5091141706
  0
LINE
  5
441
100
AcDbEntity
  8
DRAWING
100
AcDbLine
 62
7
  6
CONTINUOUS
 10
18.2883356669
 20
11.6819440673
 11
18.2641290345
 21
11.6036113763
  0
LINE
  5
442
100
AcDbEntity
  8
DRAWING
100
AcDbLine
 62
7
  6
CONTINUOUS
 10
18.1878375407
 20
11.4235038041
 11
18.1882923952
 21
11.4243367459
  0
LINE
  5
443
100
AcDbEntity
  8
DRAWING
100
AcDbLine
 62
7
  6
CONTINUOUS
 10
18.1855102469
 20
11.4243964925
 11
18.186060016
 21
11.425192204
  0
ARC
  5
444
100
AcDbEntity
  8
0
100
AcDbCircle
 62
7
  6
CONTINUOUS
 10
5.4723078652
 20
2.6675396504
 40
0.0125
100
AcDbArc
 50
257.0097377015
 51
322.8
  0
ARC
  5
445
100
AcDbEntity
  8
0
100
AcDbCircle
 62
7
  6
CONTINUOUS
 10
6.0583446811
 20
2.5935059837
 40
0.0125
100
AcDbArc
 50
202.8
 51
268.5902622985
  0
ARC
  5
446
100
AcDbEntity
  8
0
100
AcDbCircle
 62
7
  6
CONTINUOUS
 10
4.7835741521
 20
2.9208114251
 40
0.0125
100
AcDbArc
 50
242.6097377015
 51
308.4
  0
ARC
  5
447
100
AcDbEntity
  8
0
100
AcDbCircle
 62
7
  6
CONTINUOUS
 10
5.3327881195
 20
2.7033622325
 40
0.0125
100
AcDbArc
 50
188.4
 51
254.1902622985
  0
ARC
  5
448
100
AcDbEntity
  8
0
100
AcDbCircle
 62
7
  6
CONTINUOUS
 10
4.1794644041
 20
3.3374073106
 40
0.0125
100
AcDbArc
 50
228.2097377015
 51
294.0
  0
ARC
  5
449
100
AcDbEntity
  8
0
100
AcDbCircle
 62
7
  6
CONTINUOUS
 10
4.6573463897
 20
2.9902057247
 40
0.0125
100
AcDbArc
 50
174.0
 51
239.7902622985
  0
ARC
  5
44A
100
AcDbEntity
  8
0
100
AcDbCircle
 62
7
  6
CONTINUOUS
 10
3.6979370586
 20
3.8911510553
 40
0.0125
100
AcDbArc
 50
213.8097377015
 51
279.6
  0
ARC
  5
44B
100
AcDbEntity
  8
0
100
AcDbCircle
 62
7
  6
CONTINUOUS
 10
4.0744599795
 20
3.4360130286
 40
0.0125
100
AcDbArc
 50
159.6
 51
225.3902622985
  0
ARC
  5
44C
100
AcDbEntity
  8
0
100
AcDbCircle
 62
7
  6
CONTINUOUS
 10
3.3692482494
 20
4.5472489033
 40
0.0125
100
AcDbArc
 50
199.4097377015
 51
265.2
  0
ARC
  5
44D
100
AcDbEntity
  8
0
100
AcDbCircle
 62
7
  6
CONTINUOUS
 10
3.620753786
 20
4.0127724319
 40
0.0125
100
AcDbArc
 50
145.2
 51
210.9902622985
  0
ARC
  5
44E
100
AcDbEntity
  8
0
100
AcDbCircle
 62
7
  6
CONTINUOUS
 10
3.2140507034
 20
5.2644758137
 40
0.0125
100
AcDbArc
 50
185.0097377015
 51
250.8
  0
ARC
  5
44F
100
AcDbEntity
  8
0
100
AcDbCircle
 62
7
  6
CONTINUOUS
 10
3.3247358377
 20
4.6842440201
 40
0.0125
100
AcDbArc
 50
130.8
 51
196.5902622985
  0
ARC
  5
450
100
AcDbEntity
  8
0
100
AcDbCircle
 62
7
  6
CONTINUOUS
 10
3.205006031
 20
5.4082367637
 40
0.0125
100
AcDbArc
 50
116.4
 51
182.1902622985
  0
ARC
  5
451
100
AcDbEntity
  8
0
100
AcDbCircle
 62
7
  6
CONTINUOUS
 10
5.5378672762
 20
7.1066198968
 40
0.0125
100
AcDbArc
 50
90.0
 51
180.0
  0
ARC
  5
452
100
AcDbEntity
  8
0
100
AcDbCircle
 62
7
  6
CONTINUOUS
 10
5.5128672762
 20
6.6567095325
 40
0.0125
100
AcDbArc
 50
298.5148772168
 51
360.0
  0
ARC
  5
453
100
AcDbEntity
  8
0
100
AcDbCircle
 62
7
  6
CONTINUOUS
 10
3.2420960531
 20
5.9977657821
 40
0.0125
100
AcDbArc
 50
170.6097377015
 51
236.4
  0
ARC
  5
454
100
AcDbEntity
  8
0
100
AcDbCircle
 62
7
  6
CONTINUOUS
 10
3.451622106
 20
6.7010435029
 40
0.0125
100
AcDbArc
 50
156.2097377015
 51
222.0
  0
ARC
  5
455
100
AcDbEntity
  8
0
100
AcDbCircle
 62
7
  6
CONTINUOUS
 10
3.2690874302
 20
6.139259536
 40
0.0125
100
AcDbArc
 50
102.0
 51
167.7902622985
  0
ARC
  5
456
100
AcDbEntity
  8
0
100
AcDbCircle
 62
7
  6
CONTINUOUS
 10
3.8294635698
 20
7.3301194503
 40
0.0125
100
AcDbArc
 50
141.8097377015
 51
207.6
  0
ARC
  5
457
100
AcDbEntity
  8
0
100
AcDbCircle
 62
7
  6
CONTINUOUS
 10
3.5129535651
 20
6.8313794878
 40
0.0125
100
AcDbArc
 50
87.6
 51
153.3902622985
  0
ARC
  5
458
100
AcDbEntity
  8
0
100
AcDbCircle
 62
7
  6
CONTINUOUS
 10
4.3518792755
 20
7.8454664691
 40
0.0125
100
AcDbArc
 50
127.4097377015
 51
193.2
  0
ARC
  5
459
100
AcDbEntity
  8
0
100
AcDbCircle
 62
7
  6
CONTINUOUS
 10
3.9212814296
 20
7.4411081769
 40
0.0125
100
AcDbArc
 50
73.2
 51
138.9902622985
  0
ARC
  5
45A
100
AcDbEntity
  8
0
100
AcDbCircle
 62
7
  6
CONTINUOUS
 10
4.9860439232
 20
8.2147034107
 40
0.0125
100
AcDbArc
 50
113.0097377015
 51
178.8
  0
ARC
  5
45B
100
AcDbEntity
  8
0
100
AcDbCircle
 62
7
  6
CONTINUOUS
 10
4.4684142824
 20
7.9301341076
 40
0.0125
100
AcDbArc
 50
58.8
 51
124.5902622985
  0
ARC
  5
45C
100
AcDbEntity
  8
0
100
AcDbCircle
 62
7
  6
CONTINUOUS
 10
5.6921106156
 20
8.4146297602
 40
0.0125
100
AcDbArc
 50
98.6097377015
 51
164.4
  0
ARC
  5
45D
100
AcDbEntity
  8
0
100
AcDbCircle
 62
7
  6
CONTINUOUS
 10
5.1199737539
 20
8.2677299819
 40
0.0125
100
AcDbArc
 50
44.4
 51
110.1902622985
  0
ARC
  5
45E
100
AcDbEntity
  8
0
100
AcDbCircle
 62
7
  6
CONTINUOUS
 10
5.8350199665
 20
8.4326834097
 40
0.0125
100
AcDbArc
 50
30.0
 51
95.7902622985
  0
ARC
  5
45F
100
AcDbEntity
  8
0
100
AcDbCircle
 62
7
  6
CONTINUOUS
 10
6.9279464328
 20
2.7033622325
 40
0.0125
100
AcDbArc
 50
285.8097377015
 51
351.6
  0
ARC
  5
460
100
AcDbEntity
  8
0
100
AcDbCircle
 62
7
  6
CONTINUOUS
 10
7.4771604002
 20
2.9208114251
 40
0.0125
100
AcDbArc
 50
231.6
 51
297.3902622985
  0
ARC
  5
461
100
AcDbEntity
  8
0
100
AcDbCircle
 62
7
  6
CONTINUOUS
 10
6.2023898713
 20
2.5935059837
 40
0.0125
100
AcDbArc
 50
271.4097377015
 51
337.2
  0
ARC
  5
462
100
AcDbEntity
  8
0
100
AcDbCircle
 62
7
  6
CONTINUOUS
 10
6.7884266871
 20
2.6675396504
 40
0.0125
100
AcDbArc
 50
217.2
 51
282.9902622985
  0
ARC
  5
463
100
AcDbEntity
  8
DRAWING
100
AcDbCircle
 62
7
  6
CONTINUOUS
 10
6.1303672762
 20
5.5201198968
 40
2.94
100
AcDbArc
 50
185.0213591713
 51
196.5927796479
  0
ARC
  5
464
100
AcDbEntity
  8
DRAWING
100
AcDbCircle
 62
7
  6
CONTINUOUS
 10
6.1303672762
 20
5.5201198968
 40
2.94
100
AcDbArc
 50
199.4053370617
 51
210.9928901981
  0
ARC
  5
465
100
AcDbEntity
  8
DRAWING
100
AcDbCircle
 62
7
  6
CONTINUOUS
 10
6.1303672762
 20
5.5201198968
 40
2.94
100
AcDbArc
 50
213.8119713666
 51
225.3861726583
  0
ARC
  5
466
100
AcDbEntity
  8
DRAWING
100
AcDbCircle
 62
7
  6
CONTINUOUS
 10
6.1303672762
 20
5.5201198968
 40
2.94
100
AcDbArc
 50
228.212543159
 51
239.7913494513
  0
ARC
  5
467
100
AcDbEntity
  8
DRAWING
100
AcDbCircle
 62
7
  6
CONTINUOUS
 10
6.1303672762
 20
5.5201198968
 40
2.94
100
AcDbArc
 50
242.6057594434
 51
254.1936373505
  0
ARC
  5
468
100
AcDbEntity
  8
DRAWING
100
AcDbCircle
 62
7
  6
CONTINUOUS
 10
6.1303672762
 20
5.5201198968
 40
2.94
100
AcDbArc
 50
257.0104470217
 51
268.5867386522
  0
ARC
  5
469
100
AcDbEntity
  8
DRAWING
100
AcDbCircle
 62
7
  6
CONTINUOUS
 10
6.1303672762
 20
5.5201198968
 40
2.94
100
AcDbArc
 50
271.4132613478
 51
282.9895529783
  0
ARC
  5
46A
100
AcDbEntity
  8
DRAWING
100
AcDbCircle
 62
7
  6
CONTINUOUS
 10
6.1303672762
 20
5.5201198968
 40
2.94
100
AcDbArc
 50
285.8063626495
 51
297.3942405566
  0
ARC
  5
46B
100
AcDbEntity
  8
DRAWING
100
AcDbCircle
 62
7
  6
CONTINUOUS
 10
6.1303672762
 20
5.5201198968
 40
2.94
100
AcDbArc
 50
300.2086505487
 51
311.787456841
  0
ARC
  5
46C
100
AcDbEntity
  8
DRAWING
100
AcDbCircle
 62
7
  6
CONTINUOUS
 10
6.1303672762
 20
5.5201198968
 40
2.94
100
AcDbArc
 50
314.6138273417
 51
326.1880286334
  0
ARC
  5
46D
100
AcDbEntity
  8
DRAWING
100
AcDbCircle
 62
7
  6
CONTINUOUS
 10
6.1303672762
 20
5.5201198968
 40
2.94
100
AcDbArc
 50
329.0071098019
 51
340.5946629383
  0
ARC
  5
46E
100
AcDbEntity
  8
DRAWING
100
AcDbCircle
 62
7
  6
CONTINUOUS
 10
6.1303672762
 20
5.5201198968
 40
2.94
100
AcDbArc
 50
343.4072203521
 51
354.9786408287
  0
ARC
  5
46F
100
AcDbEntity
  8
DRAWING
100
AcDbCircle
 62
7
  6
CONTINUOUS
 10
6.1303672762
 20
5.5201198968
 40
2.94
100
AcDbArc
 50
357.8006702209
 51
9.3869116772
  0
ARC
  5
470
100
AcDbEntity
  8
DRAWING
100
AcDbCircle
 62
7
  6
CONTINUOUS
 10
6.1303672762
 20
5.5201198968
 40
2.94
100
AcDbArc
 50
12.2079639452
 51
23.7948677148
  0
ARC
  5
471
100
AcDbEntity
  8
DRAWING
100
AcDbCircle
 62
7
  6
CONTINUOUS
 10
6.1303672762
 20
5.5201198968
 40
2.94
100
AcDbArc
 50
26.6061895265
 51
38.1892019814
  0
ARC
  5
472
100
AcDbEntity
  8
DRAWING
100
AcDbCircle
 62
7
  6
CONTINUOUS
 10
6.1303672762
 20
5.5201198968
 40
2.94
100
AcDbArc
 50
41.0143554142
 51
52.5861661509
  0
ARC
  5
473
100
AcDbEntity
  8
DRAWING
100
AcDbCircle
 62
7
  6
CONTINUOUS
 10
6.1303672762
 20
5.5201198968
 40
2.94
100
AcDbArc
 50
55.4088880659
 51
66.994818222
  0
ARC
  5
474
100
AcDbEntity
  8
DRAWING
100
AcDbCircle
 62
7
  6
CONTINUOUS
 10
6.1303672762
 20
5.5201198968
 40
2.94
100
AcDbArc
 50
69.8055220677
 51
81.3901548867
  0
ARC
  5
475
100
AcDbEntity
  8
DRAWING
100
AcDbCircle
 62
7
  6
CONTINUOUS
 10
6.1303672762
 20
5.5201198968
 40
2.94
100
AcDbArc
 50
84.2142441012
 51
95.7857558988
  0
ARC
  5
476
100
AcDbEntity
  8
DRAWING
100
AcDbCircle
 62
7
  6
CONTINUOUS
 10
6.1303672762
 20
5.5201198968
 40
2.94
100
AcDbArc
 50
98.6098451133
 51
110.1944779323
  0
ARC
  5
477
100
AcDbEntity
  8
DRAWING
100
AcDbCircle
 62
7
  6
CONTINUOUS
 10
6.1303672762
 20
5.5201198968
 40
2.94
100
AcDbArc
 50
111.400342816
 51
111.4505607283
  0
ARC
  5
478
100
AcDbEntity
  8
DRAWING
100
AcDbCircle
 62
7
  6
CONTINUOUS
 10
6.1303672762
 20
5.5201198968
 40
2.94
100
AcDbArc
 50
113.005181778
 51
124.5911119341
  0
ARC
  5
479
100
AcDbEntity
  8
DRAWING
100
AcDbCircle
 62
7
  6
CONTINUOUS
 10
6.1303672762
 20
5.5201198968
 40
2.94
100
AcDbArc
 50
127.4138338491
 51
138.9856445858
  0
ARC
  5
47A
100
AcDbEntity
  8
DRAWING
100
AcDbCircle
 62
7
  6
CONTINUOUS
 10
6.1303672762
 20
5.5201198968
 40
2.94
100
AcDbArc
 50
141.8107980186
 51
153.3938104735
  0
ARC
  5
47B
100
AcDbEntity
  8
DRAWING
100
AcDbCircle
 62
7
  6
CONTINUOUS
 10
6.1303672762
 20
5.5201198968
 40
2.94
100
AcDbArc
 50
156.2051322852
 51
167.7920360548
  0
ARC
  5
47C
100
AcDbEntity
  8
DRAWING
100
AcDbCircle
 62
7
  6
CONTINUOUS
 10
6.1303672762
 20
5.5201198968
 40
2.94
100
AcDbArc
 50
170.6130883228
 51
182.1993297791
  0
ARC
  5
47D
100
AcDbEntity
  8
0
100
AcDbCircle
 62
7
  6
CONTINUOUS
 10
6.1303672762
 20
5.5201198968
 40
2.94
100
AcDbArc
 50
95.7902622985
 51
98.6097377015
  0
ARC
  5
47E
100
AcDbEntity
  8
0
100
AcDbCircle
 62
7
  6
CONTINUOUS
 10
6.1303672762
 20
5.5201198968
 40
2.94
100
AcDbArc
 50
110.1902622985
 51
113.0097377015
  0
ARC
  5
47F
100
AcDbEntity
  8
0
100
AcDbCircle
 62
7
  6
CONTINUOUS
 10
6.1303672762
 20
5.5201198968
 40
2.94
100
AcDbArc
 50
124.5902622985
 51
127.4097377015
  0
ARC
  5
480
100
AcDbEntity
  8
0
100
AcDbCircle
 62
7
  6
CONTINUOUS
 10
6.1303672762
 20
5.5201198968
 40
2.94
100
AcDbArc
 50
138.9902622985
 51
141.8097377015
  0
ARC
  5
481
100
AcDbEntity
  8
0
100
AcDbCircle
 62
7
  6
CONTINUOUS
 10
6.1303672762
 20
5.5201198968
 40
2.94
100
AcDbArc
 50
153.3902622985
 51
156.2097377015
  0
ARC
  5
482
100
AcDbEntity
  8
0
100
AcDbCircle
 62
7
  6
CONTINUOUS
 10
6.1303672762
 20
5.5201198968
 40
2.94
100
AcDbArc
 50
167.7902622985
 51
170.6097377015
  0
ARC
  5
483
100
AcDbEntity
  8
0
100
AcDbCircle
 62
7
  6
CONTINUOUS
 10
6.1303672762
 20
5.5201198968
 40
2.94
100
AcDbArc
 50
182.1902622985
 51
185.0097377015
  0
ARC
  5
484
100
AcDbEntity
  8
0
100
AcDbCircle
 62
7
  6
CONTINUOUS
 10
6.1303672762
 20
5.5201198968
 40
2.94
100
AcDbArc
 50
196.5902622985
 51
199.4097377015
  0
ARC
  5
485
100
AcDbEntity
  8
0
100
AcDbCircle
 62
7
  6
CONTINUOUS
 10
6.1303672762
 20
5.5201198968
 40
2.94
100
AcDbArc
 50
210.9902622985
 51
213.8097377015
  0
ARC
  5
486
100
AcDbEntity
  8
0
100
AcDbCircle
 62
7
  6
CONTINUOUS
 10
6.1303672762
 20
5.5201198968
 40
2.94
100
AcDbArc
 50
225.3902622985
 51
228.2097377015
  0
ARC
  5
487
100
AcDbEntity
  8
0
100
AcDbCircle
 62
7
  6
CONTINUOUS
 10
6.1303672762
 20
5.5201198968
 40
2.94
100
AcDbArc
 50
239.7902622985
 51
242.6097377015
  0
ARC
  5
488
100
AcDbEntity
  8
0
100
AcDbCircle
 62
7
  6
CONTINUOUS
 10
6.1303672762
 20
5.5201198968
 40
2.94
100
AcDbArc
 50
254.1902622985
 51
257.0097377015
  0
ARC
  5
489
100
AcDbEntity
  8
0
100
AcDbCircle
 62
7
  6
CONTINUOUS
 10
6.1303672762
 20
5.5201198968
 40
2.94
100
AcDbArc
 50
268.5902622985
 51
271.4097377015
  0
ARC
  5
48A
100
AcDbEntity
  8
0
100
AcDbCircle
 62
7
  6
CONTINUOUS
 10
6.1303672762
 20
5.5201198968
 40
2.94
100
AcDbArc
 50
282.9902622985
 51
285.8097377015
  0
ARC
  5
48B
100
AcDbEntity
  8
0
100
AcDbCircle
 62
7
  6
CONTINUOUS
 10
6.1303672762
 20
5.5201198968
 40
2.94
100
AcDbArc
 50
297.3902622985
 51
300.2097377015
  0
ARC
  5
48C
100
AcDbEntity
  8
0
100
AcDbCircle
 62
7
  6
CONTINUOUS
 10
6.1303672762
 20
5.5201198968
 40
2.94
100
AcDbArc
 50
311.7902622985
 51
314.6097377015
  0
ARC
  5
48D
100
AcDbEntity
  8
0
100
AcDbCircle
 62
7
  6
CONTINUOUS
 10
6.1303672762
 20
5.5201198968
 40
2.94
100
AcDbArc
 50
326.1902622985
 51
329.0097377015
  0
ARC
  5
48E
100
AcDbEntity
  8
0
100
AcDbCircle
 62
7
  6
CONTINUOUS
 10
6.1303672762
 20
5.5201198968
 40
2.94
100
AcDbArc
 50
340.5902622985
 51
343.4097377015
  0
ARC
  5
48F
100
AcDbEntity
  8
0
100
AcDbCircle
 62
7
  6
CONTINUOUS
 10
6.1303672762
 20
5.5201198968
 40
2.94
100
AcDbArc
 50
354.9902622985
 51
357.8097377015
  0
ARC
  5
490
100
AcDbEntity
  8
0
100
AcDbCircle
 62
7
  6
CONTINUOUS
 10
6.1303672762
 20
5.5201198968
 40
2.94
100
AcDbArc
 50
9.3902622985
 51
12.2097377015
  0
ARC
  5
491
100
AcDbEntity
  8
0
100
AcDbCircle
 62
7
  6
CONTINUOUS
 10
6.1303672762
 20
5.5201198968
 40
2.94
100
AcDbArc
 50
23.7902622985
 51
26.6097377015
  0
ARC
  5
492
100
AcDbEntity
  8
0
100
AcDbCircle
 62
7
  6
CONTINUOUS
 10
6.1303672762
 20
5.5201198968
 40
2.94
100
AcDbArc
 50
38.1902622985
 51
41.0097377015
  0
ARC
  5
493
100
AcDbEntity
  8
0
100
AcDbCircle
 62
7
  6
CONTINUOUS
 10
6.1303672762
 20
5.5201198968
 40
2.94
100
AcDbArc
 50
52.5902622985
 51
55.4097377015
  0
ARC
  5
494
100
AcDbEntity
  8
0
100
AcDbCircle
 62
7
  6
CONTINUOUS
 10
6.1303672762
 20
5.5201198968
 40
2.94
100
AcDbArc
 50
81.3902622985
 51
84.2097377015
  0
ARC
  5
495
100
AcDbEntity
  8
0
100
AcDbCircle
 62
7
  6
CONTINUOUS
 10
6.1303672762
 20
5.5201198968
 40
2.94
100
AcDbArc
 50
66.9902622985
 51
69.8097377015
  0
ARC
  5
496
100
AcDbEntity
  8
DRAWING
100
AcDbCircle
 62
7
  6
CONTINUOUS
 10
6.1303672762
 20
5.5201198968
 40
2.9005
100
AcDbArc
 50
156.7823992062
 51
167.2047149088
  0
ARC
  5
497
100
AcDbEntity
  8
DRAWING
100
AcDbCircle
 62
7
  6
CONTINUOUS
 10
6.1303672762
 20
5.5201198968
 40
2.9005
100
AcDbArc
 50
142.3915621305
 51
152.8371388551
  0
ARC
  5
498
100
AcDbEntity
  8
DRAWING
100
AcDbCircle
 62
7
  6
CONTINUOUS
 10
6.1303672762
 20
5.5201198968
 40
2.9005
100
AcDbArc
 50
127.9414530198
 51
138.440676571
  0
ARC
  5
499
100
AcDbEntity
  8
DRAWING
100
AcDbCircle
 62
7
  6
CONTINUOUS
 10
6.1303672762
 20
5.5201198968
 40
2.9005
100
AcDbArc
 50
113.5768866328
 51
124.0050171203
  0
ARC
  5
49A
100
AcDbEntity
  8
DRAWING
100
AcDbCircle
 62
7
  6
CONTINUOUS
 10
6.1303672762
 20
5.5201198968
 40
2.9005
100
AcDbArc
 50
99.1937392961
 51
109.6296233183
  0
ARC
  5
49B
100
AcDbEntity
  8
DRAWING
100
AcDbCircle
 62
7
  6
CONTINUOUS
 10
6.1303672762
 20
5.5201198968
 40
2.9005
100
AcDbArc
 50
84.7508248193
 51
95.2491751807
  0
ARC
  5
49C
100
AcDbEntity
  8
DRAWING
100
AcDbCircle
 62
7
  6
CONTINUOUS
 10
6.1303672762
 20
5.5201198968
 40
2.9005
100
AcDbArc
 50
70.3703766817
 51
80.8062607039
  0
ARC
  5
49D
100
AcDbEntity
  8
DRAWING
100
AcDbCircle
 62
7
  6
CONTINUOUS
 10
6.1303672762
 20
5.5201198968
 40
2.9005
100
AcDbArc
 50
55.9949828797
 51
66.4231133672
  0
ARC
  5
49E
100
AcDbEntity
  8
DRAWING
100
AcDbCircle
 62
7
  6
CONTINUOUS
 10
6.1303672762
 20
5.5201198968
 40
2.9005
100
AcDbArc
 50
41.559323429
 51
52.0585469802
  0
ARC
  5
49F
100
AcDbEntity
  8
DRAWING
100
AcDbCircle
 62
7
  6
CONTINUOUS
 10
6.1303672762
 20
5.5201198968
 40
2.9005
100
AcDbArc
 50
27.1628611449
 51
37.6084378695
  0
ARC
  5
4A0
100
AcDbEntity
  8
DRAWING
100
AcDbCircle
 62
7
  6
CONTINUOUS
 10
6.1303672762
 20
5.5201198968
 40
2.9005
100
AcDbArc
 50
12.7952850912
 51
23.2176007938
  0
ARC
  5
4A1
100
AcDbEntity
  8
DRAWING
100
AcDbCircle
 62
7
  6
CONTINUOUS
 10
6.1303672762
 20
5.5201198968
 40
2.9005
100
AcDbArc
 50
358.3550017171
 51
8.8687846627
  0
ARC
  5
4A2
100
AcDbEntity
  8
DRAWING
100
AcDbCircle
 62
7
  6
CONTINUOUS
 10
6.1303672762
 20
5.5201198968
 40
2.9005
100
AcDbArc
 50
343.9543317634
 51
354.4039819452
  0
ARC
  5
4A3
100
AcDbEntity
  8
DRAWING
100
AcDbCircle
 62
7
  6
CONTINUOUS
 10
6.1303672762
 20
5.5201198968
 40
2.9005
100
AcDbArc
 50
329.5946380874
 51
340.0130774411
  0
ARC
  5
4A4
100
AcDbEntity
  8
DRAWING
100
AcDbCircle
 62
7
  6
CONTINUOUS
 10
6.1303672762
 20
5.5201198968
 40
2.9005
100
AcDbArc
 50
315.1736715823
 51
325.6774227903
  0
ARC
  5
4A5
100
AcDbEntity
  8
DRAWING
100
AcDbCircle
 62
7
  6
CONTINUOUS
 10
6.1303672762
 20
5.5201198968
 40
2.9005
100
AcDbArc
 50
300.7447802281
 51
311.2155620527
  0
ARC
  5
4A6
100
AcDbEntity
  8
DRAWING
100
AcDbCircle
 62
7
  6
CONTINUOUS
 10
6.1303672762
 20
5.5201198968
 40
2.9005
100
AcDbArc
 50
286.3930339721
 51
296.8095352036
  0
ARC
  5
4A7
100
AcDbEntity
  8
DRAWING
100
AcDbCircle
 62
7
  6
CONTINUOUS
 10
6.1303672762
 20
5.5201198968
 40
2.9005
100
AcDbArc
 50
271.9795062428
 51
282.4658018203
  0
ARC
  5
4A8
100
AcDbEntity
  8
DRAWING
100
AcDbCircle
 62
7
  6
CONTINUOUS
 10
6.1303672762
 20
5.5201198968
 40
2.9005
100
AcDbArc
 50
257.5341981797
 51
268.0204937572
  0
ARC
  5
4A9
100
AcDbEntity
  8
DRAWING
100
AcDbCircle
 62
7
  6
CONTINUOUS
 10
6.1303672762
 20
5.5201198968
 40
2.9005
100
AcDbArc
 50
243.1904647964
 51
253.6069660279
  0
ARC
  5
4AA
100
AcDbEntity
  8
DRAWING
100
AcDbCircle
 62
7
  6
CONTINUOUS
 10
6.1303672762
 20
5.5201198968
 40
2.9005
100
AcDbArc
 50
228.7844379473
 51
239.2552197719
  0
ARC
  5
4AB
100
AcDbEntity
  8
DRAWING
100
AcDbCircle
 62
7
  6
CONTINUOUS
 10
6.1303672762
 20
5.5201198968
 40
2.9005
100
AcDbArc
 50
214.3225772097
 51
224.8263284177
  0
ARC
  5
4AC
100
AcDbEntity
  8
DRAWING
100
AcDbCircle
 62
7
  6
CONTINUOUS
 10
6.1303672762
 20
5.5201198968
 40
2.9005
100
AcDbArc
 50
199.9869225589
 51
210.4053619126
  0
ARC
  5
4AD
100
AcDbEntity
  8
DRAWING
100
AcDbCircle
 62
7
  6
CONTINUOUS
 10
6.1303672762
 20
5.5201198968
 40
2.9005
100
AcDbArc
 50
185.5960180548
 51
196.0456682366
  0
ARC
  5
4AE
100
AcDbEntity
  8
DRAWING
100
AcDbCircle
 62
7
  6
CONTINUOUS
 10
6.1303672762
 20
5.5201198968
 40
2.9005
100
AcDbArc
 50
171.1312153373
 51
181.6449982829
  0
CIRCLE
  5
4AF
100
AcDbEntity
  8
0
100
AcDbCircle
 62
7
  6
CONTINUOUS
 10
6.1303672762
 20
5.5201198968
 40
2.69
  0
ARC
  5
4B0
100
AcDbEntity
  8
0
100
AcDbCircle
 62
7
  6
CONTINUOUS
 10
6.1303672762
 20
5.5201198968
 40
2.61
100
AcDbArc
 50
92.108221058
 51
270.0
  0
ARC
  5
4B1
100
AcDbEntity
  8
02___PRT_ALL_AXES
100
AcDbCircle
 62
7
  6
CONTINUOUS
 10
6.1303672762
 20
5.5201198968
 40
2.61
100
AcDbArc
 50
270.0
 51
92.108221058
  0
ARC
  5
4B2
100
AcDbEntity
  8
0
100
AcDbCircle
 62
7
  6
CONTINUOUS
 10
6.1303672762
 20
5.5201198968
 40
1.281
100
AcDbArc
 50
118.5148772168
 51
61.4851227832
  0
ARC
  5
4B3
100
AcDbEntity
  8
0
100
AcDbCircle
 62
7
  6
CONTINUOUS
 10
6.1303672762
 20
5.5201198968
 40
1.0
100
AcDbArc
 50
104.4775121859
 51
75.5224878141
  0
ARC
  5
4B4
100
AcDbEntity
  8
0
100
AcDbCircle
 62
7
  6
CONTINUOUS
 10
8.3460836017
 20
0.5175979362
 40
7.0908226179
100
AcDbArc
 50
132.6538339131
 51
132.7902260989
  0
ARC
  5
4B5
100
AcDbEntity
  8
0
100
AcDbCircle
 62
7
  6
CONTINUOUS
 10
7.8894779448
 20
2.7362648722
 40
3.9778526228
100
AcDbArc
 50
139.4915436683
 51
139.7279339925
  0
ARC
  5
4B6
100
AcDbEntity
  8
0
100
AcDbCircle
 62
7
  6
CONTINUOUS
 10
7.6033881626
 20
2.9902057247
 40
0.0125
100
AcDbArc
 50
300.2097377015
 51
6.0
  0
ARC
  5
4B7
100
AcDbEntity
  8
0
100
AcDbCircle
 62
7
  6
CONTINUOUS
 10
9.0557285213
 20
5.4082367637
 40
0.0125
100
AcDbArc
 50
357.8097377015
 51
63.6
  0
ARC
  5
4B8
100
AcDbEntity
  8
0
100
AcDbCircle
 62
7
  6
CONTINUOUS
 10
8.9359987147
 20
4.6842440201
 40
0.0125
100
AcDbArc
 50
343.4097377015
 51
49.2
  0
ARC
  5
4B9
100
AcDbEntity
  8
0
100
AcDbCircle
 62
7
  6
CONTINUOUS
 10
9.046683849
 20
5.2644758137
 40
0.0125
100
AcDbArc
 50
289.2
 51
354.9902622985
  0
ARC
  5
4BA
100
AcDbEntity
  8
0
100
AcDbCircle
 62
7
  6
CONTINUOUS
 10
8.6399807664
 20
4.0127724319
 40
0.0125
100
AcDbArc
 50
329.0097377015
 51
34.8
  0
ARC
  5
4BB
100
AcDbEntity
  8
0
100
AcDbCircle
 62
7
  6
CONTINUOUS
 10
8.8914863029
 20
4.5472489033
 40
0.0125
100
AcDbArc
 50
274.8
 51
340.5902622985
  0
ARC
  5
4BC
100
AcDbEntity
  8
0
100
AcDbCircle
 62
7
  6
CONTINUOUS
 10
8.1862745728
 20
3.4360130286
 40
0.0125
100
AcDbArc
 50
314.6097377015
 51
20.4
  0
ARC
  5
4BD
100
AcDbEntity
  8
0
100
AcDbCircle
 62
7
  6
CONTINUOUS
 10
8.5627974938
 20
3.8911510553
 40
0.0125
100
AcDbArc
 50
260.4
 51
326.1902622985
  0
ARC
  5
4BE
100
AcDbEntity
  8
0
100
AcDbCircle
 62
7
  6
CONTINUOUS
 10
8.0812701482
 20
3.3374073106
 40
0.0125
100
AcDbArc
 50
246.0
 51
311.7902622985
  0
ARC
  5
4BF
100
AcDbEntity
  8
0
100
AcDbCircle
 62
7
  6
CONTINUOUS
 10
8.3514892171
 20
10.5284963492
 40
7.0987910353
100
AcDbArc
 50
227.2097911467
 51
227.3460950121
  0
ARC
  5
4C0
100
AcDbEntity
  8
0
100
AcDbCircle
 62
7
  6
CONTINUOUS
 10
7.8871823521
 20
8.3020218914
 40
3.9748386499
100
AcDbArc
 50
220.2719763844
 51
220.5085459548
  0
ARC
  5
4C1
100
AcDbEntity
  8
0
100
AcDbCircle
 62
7
  6
CONTINUOUS
 10
6.7228672762
 20
7.1066198968
 40
0.0125
100
AcDbArc
 50
0.0
 51
90.0
  0
ARC
  5
4C2
100
AcDbEntity
  8
0
100
AcDbCircle
 62
7
  6
CONTINUOUS
 10
6.7478672762
 20
6.6567095325
 40
0.0125
100
AcDbArc
 50
180.0
 51
241.4851227832
  0
ARC
  5
4C3
100
AcDbEntity
  8
0
100
AcDbCircle
 62
7
  6
CONTINUOUS
 10
7.1407607984
 20
8.2677299819
 40
0.0125
100
AcDbArc
 50
69.8097377015
 51
135.6
  0
ARC
  5
4C4
100
AcDbEntity
  8
0
100
AcDbCircle
 62
7
  6
CONTINUOUS
 10
6.5686239367
 20
8.4146297602
 40
0.0125
100
AcDbArc
 50
15.6
 51
81.3902622985
  0
ARC
  5
4C5
100
AcDbEntity
  8
0
100
AcDbCircle
 62
7
  6
CONTINUOUS
 10
7.79232027
 20
7.9301341076
 40
0.0125
100
AcDbArc
 50
55.4097377015
 51
121.2
  0
ARC
  5
4C6
100
AcDbEntity
  8
0
100
AcDbCircle
 62
7
  6
CONTINUOUS
 10
7.2746906292
 20
8.2147034107
 40
0.0125
100
AcDbArc
 50
1.2
 51
66.9902622985
  0
ARC
  5
4C7
100
AcDbEntity
  8
0
100
AcDbCircle
 62
7
  6
CONTINUOUS
 10
8.3394531227
 20
7.4411081769
 40
0.0125
100
AcDbArc
 50
41.0097377015
 51
106.8
  0
ARC
  5
4C8
100
AcDbEntity
  8
0
100
AcDbCircle
 62
7
  6
CONTINUOUS
 10
7.9088552768
 20
7.8454664691
 40
0.0125
100
AcDbArc
 50
346.8
 51
52.5902622985
  0
ARC
  5
4C9
100
AcDbEntity
  8
0
100
AcDbCircle
 62
7
  6
CONTINUOUS
 10
8.7477809873
 20
6.8313794878
 40
0.0125
100
AcDbArc
 50
26.6097377015
 51
92.4
  0
ARC
  5
4CA
100
AcDbEntity
  8
0
100
AcDbCircle
 62
7
  6
CONTINUOUS
 10
8.4312709826
 20
7.3301194503
 40
0.0125
100
AcDbArc
 50
332.4
 51
38.1902622985
  0
ARC
  5
4CB
100
AcDbEntity
  8
0
100
AcDbCircle
 62
7
  6
CONTINUOUS
 10
8.9916471222
 20
6.139259536
 40
0.0125
100
AcDbArc
 50
12.2097377015
 51
78.0
  0
ARC
  5
4CC
100
AcDbEntity
  8
0
100
AcDbCircle
 62
7
  6
CONTINUOUS
 10
8.8091124463
 20
6.7010435029
 40
0.0125
100
AcDbArc
 50
318.0
 51
23.7902622985
  0
ARC
  5
4CD
100
AcDbEntity
  8
0
100
AcDbCircle
 62
7
  6
CONTINUOUS
 10
9.0186384993
 20
5.9977657821
 40
0.0125
100
AcDbArc
 50
303.6
 51
9.3902622985
  0
ARC
  5
4CE
100
AcDbEntity
  8
0
100
AcDbCircle
 62
7
  6
CONTINUOUS
 10
6.4257145858
 20
8.4326834097
 40
0.0125
100
AcDbArc
 50
84.2097377015
 51
150.0
  0
ARC
  5
4CF
100
AcDbEntity
  8
0
100
AcDbCircle
 62
7
  6
CONTINUOUS
 10
-0.0970438328
 20
12.5154277962
 40
3.477983078
100
AcDbArc
 50
359.795625975
 51
359.9109015143
  0
ARC
  5
4D0
100
AcDbEntity
  8
0
100
AcDbCircle
 62
7
  6
CONTINUOUS
 10
4.3698604255
 20
12.5148068675
 40
0.0282087306
100
AcDbArc
 50
190.2610193656
 51
192.2035040445
  0
ARC
  5
4D1
100
AcDbEntity
  8
0
100
AcDbCircle
 62
7
  6
CONTINUOUS
 10
4.9328980871
 20
12.5148860442
 40
0.0244867075
100
AcDbArc
 50
188.7251296972
 51
194.2848436193
  0
ARC
  5
4D2
100
AcDbEntity
  8
0
100
AcDbCircle
 62
7
  6
CONTINUOUS
 10
4.9322406557
 20
12.5147986074
 40
0.0238236243
100
AcDbArc
 50
180.0479756642
 51
188.7571250123
  0
ARC
  5
4D3
100
AcDbEntity
  8
0
100
AcDbCircle
 62
7
  6
CONTINUOUS
 10
3.3921338798
 20
12.5225571807
 40
0.0125114424
100
AcDbArc
 50
221.4341609797
 51
245.4801725649
  0
ARC
  5
4D4
100
AcDbEntity
  8
0
100
AcDbCircle
 62
7
  6
CONTINUOUS
 10
4.8023720839
 20
12.1125477814
 40
0.0125
100
AcDbArc
 50
180.0
 51
270.0
  0
ARC
  5
4D5
100
AcDbEntity
  8
0
100
AcDbCircle
 62
7
  6
CONTINUOUS
 10
3.3933720839
 20
12.2375477814
 40
0.0125
100
AcDbArc
 50
180.0
 51
270.0
  0
ARC
  5
4D6
100
AcDbEntity
  8
0
100
AcDbCircle
 62
7
  6
CONTINUOUS
 10
3.3683720839
 20
12.4975477814
 40
0.0125
100
AcDbArc
 50
0.0
 51
74.3268585626
  0
ARC
  5
4D7
100
AcDbEntity
  8
0
100
AcDbCircle
 62
7
  6
CONTINUOUS
 10
5.4783720839
 20
12.1125477814
 40
0.0125
100
AcDbArc
 50
180.0
 51
270.0
  0
ARC
  5
4D8
100
AcDbEntity
  8
0
100
AcDbCircle
 62
7
  6
CONTINUOUS
 10
3.1825995638
 20
12.5225470986
 40
0.0124980632
100
AcDbArc
 50
179.9968753953
 51
270.0059429929
  0
ARC
  5
4D9
100
AcDbEntity
  8
0
100
AcDbCircle
 62
7
  6
CONTINUOUS
 10
4.2923626745
 20
12.5225363217
 40
0.0124759488
100
AcDbArc
 50
179.9467499876
 51
216.0884991931
  0
ARC
  5
4DA
100
AcDbEntity
  8
0
100
AcDbCircle
 62
7
  6
CONTINUOUS
 10
3.7699417883
 20
12.5225342084
 40
0.0124705329
100
AcDbArc
 50
179.936778523
 51
216.2780447727
  0
ARC
  5
4DB
100
AcDbEntity
  8
0
100
AcDbCircle
 62
7
  6
CONTINUOUS
 10
4.9264262687
 20
12.5225630682
 40
0.0123748058
100
AcDbArc
 50
180.0707785576
 51
189.2134715785
  0
ARC
  5
4DC
100
AcDbEntity
  8
0
100
AcDbCircle
 62
7
  6
CONTINUOUS
 10
3.1453181928
 20
12.5225571645
 40
0.0122982255
100
AcDbArc
 50
180.0437145971
 51
188.3707723475
  0
ARC
  5
4DD
100
AcDbEntity
  8
0
100
AcDbCircle
 62
7
  6
CONTINUOUS
 10
6.0708720839
 20
12.6000477814
 40
0.115
100
AcDbArc
 50
205.9465057488
 51
334.0407053106
  0
ARC
  5
4DE
100
AcDbEntity
  8
0
100
AcDbCircle
 62
7
  6
CONTINUOUS
 10
6.0708720839
 20
12.6000477814
 40
0.115
100
AcDbArc
 50
25.9597137136
 51
154.0631156097
  0
ARC
  5
4DF
100
AcDbEntity
  8
0
100
AcDbCircle
 62
7
  6
CONTINUOUS
 10
6.0708720839
 20
12.6000477814
 40
0.1025
100
AcDbArc
 50
209.3023666469
 51
330.6976333978
  0
ARC
  5
4E0
100
AcDbEntity
  8
0
100
AcDbCircle
 62
7
  6
CONTINUOUS
 10
6.0708720839
 20
12.6000477814
 40
0.1025
100
AcDbArc
 50
29.3023666469
 51
150.6976333978
  0
ARC
  5
4E1
100
AcDbEntity
  8
0
100
AcDbCircle
 62
7
  6
CONTINUOUS
 10
3.9170140155
 20
12.6860063488
 40
0.0333975215
100
AcDbArc
 50
160.6477956405
 51
165.3966141916
  0
ARC
  5
4E2
100
AcDbEntity
  8
0
100
AcDbCircle
 62
7
  6
CONTINUOUS
 10
3.9153558642
 20
12.6865643646
 40
0.0316481531
100
AcDbArc
 50
149.6663414697
 51
160.6061909724
  0
ARC
  5
4E3
100
AcDbEntity
  8
0
100
AcDbCircle
 62
7
  6
CONTINUOUS
 10
4.369678743
 20
12.6853257927
 40
0.0280233521
100
AcDbArc
 50
155.2198298618
 51
169.7551606933
  0
ARC
  5
4E4
100
AcDbEntity
  8
0
100
AcDbCircle
 62
7
  6
CONTINUOUS
 10
3.3921271232
 20
12.6775473172
 40
0.0125004642
100
AcDbArc
 50
90.0009600995
 51
138.5760561784
  0
ARC
  5
4E5
100
AcDbEntity
  8
0
100
AcDbCircle
 62
7
  6
CONTINUOUS
 10
4.8023720839
 20
13.0875477814
 40
0.0125
100
AcDbArc
 50
90.0
 51
180.0
  0
ARC
  5
4E6
100
AcDbEntity
  8
0
100
AcDbCircle
 62
7
  6
CONTINUOUS
 10
3.3933720839
 20
12.9625477814
 40
0.0125
100
AcDbArc
 50
90.0
 51
180.0
  0
ARC
  5
4E7
100
AcDbEntity
  8
0
100
AcDbCircle
 62
7
  6
CONTINUOUS
 10
3.3683720839
 20
12.7025477814
 40
0.0125
100
AcDbArc
 50
275.79784597
 51
360.0
  0
ARC
  5
4E8
100
AcDbEntity
  8
0
100
AcDbCircle
 62
7
  6
CONTINUOUS
 10
5.4783720839
 20
13.0875477814
 40
0.0125
100
AcDbArc
 50
90.0
 51
180.0
  0
ARC
  5
4E9
100
AcDbEntity
  8
0
100
AcDbCircle
 62
7
  6
CONTINUOUS
 10
3.1825995637
 20
12.677548464
 40
0.0124980631
100
AcDbArc
 50
89.9940542437
 51
180.0031240959
  0
ARC
  5
4EA
100
AcDbEntity
  8
0
100
AcDbCircle
 62
7
  6
CONTINUOUS
 10
4.2923626745
 20
12.6775592411
 40
0.0124759488
100
AcDbArc
 50
90.0180481111
 51
180.0532500223
  0
ARC
  5
4EB
100
AcDbEntity
  8
0
100
AcDbCircle
 62
7
  6
CONTINUOUS
 10
3.7699417883
 20
12.6775613544
 40
0.0124705329
100
AcDbArc
 50
90.0187335719
 51
180.0632214982
  0
ARC
  5
4EC
100
AcDbEntity
  8
0
100
AcDbCircle
 62
7
  6
CONTINUOUS
 10
4.9264262448
 20
12.6775324896
 40
0.0123747819
100
AcDbArc
 50
170.7855475376
 51
179.9291983078
  0
ARC
  5
4ED
100
AcDbEntity
  8
0
100
AcDbCircle
 62
7
  6
CONTINUOUS
 10
8.2247578881
 20
12.514081598
 40
0.0333688274
100
AcDbArc
 50
340.6450711246
 51
345.3942606152
  0
ARC
  5
4EE
100
AcDbEntity
  8
0
100
AcDbCircle
 62
7
  6
CONTINUOUS
 10
8.2263499271
 20
12.5135489711
 40
0.0316902518
100
AcDbArc
 50
329.6736486468
 51
340.5996774329
  0
ARC
  5
4EF
100
AcDbEntity
  8
0
100
AcDbCircle
 62
7
  6
CONTINUOUS
 10
7.7720711235
 20
12.5147679877
 40
0.028017427
100
AcDbArc
 50
335.2114563624
 51
349.7571112572
  0
ARC
  5
4F0
100
AcDbEntity
  8
0
100
AcDbCircle
 62
7
  6
CONTINUOUS
 10
8.7496170445
 20
12.5225482455
 40
0.0125004642
100
AcDbArc
 50
270.0009600975
 51
318.576056896
  0
ARC
  5
4F1
100
AcDbEntity
  8
0
100
AcDbCircle
 62
7
  6
CONTINUOUS
 10
7.3393720839
 20
12.1125477814
 40
0.0125
100
AcDbArc
 50
270.0
 51
360.0
  0
ARC
  5
4F2
100
AcDbEntity
  8
0
100
AcDbCircle
 62
7
  6
CONTINUOUS
 10
8.7483720839
 20
12.2375477814
 40
0.0125
100
AcDbArc
 50
270.0
 51
360.0
  0
ARC
  5
4F3
100
AcDbEntity
  8
0
100
AcDbCircle
 62
7
  6
CONTINUOUS
 10
8.7733720839
 20
12.4975477814
 40
0.0125
100
AcDbArc
 50
109.1381634591
 51
180.0
  0
ARC
  5
4F4
100
AcDbEntity
  8
0
100
AcDbCircle
 62
7
  6
CONTINUOUS
 10
6.6633720839
 20
12.1125477814
 40
0.0125
100
AcDbArc
 50
270.0
 51
360.0
  0
ARC
  5
4F5
100
AcDbEntity
  8
0
100
AcDbCircle
 62
7
  6
CONTINUOUS
 10
8.9591446038
 20
12.5225470972
 40
0.0124980624
100
AcDbArc
 50
269.9940554085
 51
0.0031311678
  0
ARC
  5
4F6
100
AcDbEntity
  8
0
100
AcDbCircle
 62
7
  6
CONTINUOUS
 10
7.8493814932
 20
12.5225363217
 40
0.0124759488
100
AcDbArc
 50
270.018047807
 51
0.0532500219
  0
ARC
  5
4F7
100
AcDbEntity
  8
0
100
AcDbCircle
 62
7
  6
CONTINUOUS
 10
8.3718023795
 20
12.5225342084
 40
0.0124705329
100
AcDbArc
 50
270.0187332166
 51
0.0632215018
  0
ARC
  5
4F8
100
AcDbEntity
  8
0
100
AcDbCircle
 62
7
  6
CONTINUOUS
 10
7.2153179229
 20
12.5225630732
 40
0.0123747819
100
AcDbArc
 50
350.7855474991
 51
359.9291983069
  0
ARC
  5
4F9
100
AcDbEntity
  8
0
100
AcDbCircle
 62
7
  6
CONTINUOUS
 10
12.2423191634
 20
12.6846584124
 40
3.4815142517
100
AcDbArc
 50
179.7956864778
 51
179.9108381257
  0
ARC
  5
4FA
100
AcDbEntity
  8
0
100
AcDbCircle
 62
7
  6
CONTINUOUS
 10
7.7719170557
 20
12.6852938842
 40
0.0281750493
100
AcDbArc
 50
10.2636524919
 51
12.1967355952
  0
ARC
  5
4FB
100
AcDbEntity
  8
0
100
AcDbCircle
 62
7
  6
CONTINUOUS
 10
7.2088674768
 20
12.6852131103
 40
0.0244650576
100
AcDbArc
 50
8.7713040389
 51
14.2864289881
  0
ARC
  5
4FC
100
AcDbEntity
  8
0
100
AcDbCircle
 62
7
  6
CONTINUOUS
 10
7.2094981725
 20
12.6852969222
 40
0.0238289612
100
AcDbArc
 50
0.0480956741
 51
8.803388277
  0
ARC
  5
4FD
100
AcDbEntity
  8
0
100
AcDbCircle
 62
7
  6
CONTINUOUS
 10
8.749610288
 20
12.677538382
 40
0.0125114424
100
AcDbArc
 50
41.4341605408
 51
65.4801721313
  0
ARC
  5
4FE
100
AcDbEntity
  8
0
100
AcDbCircle
 62
7
  6
CONTINUOUS
 10
7.3393720839
 20
13.0875477814
 40
0.0125
100
AcDbArc
 50
0.0
 51
90.0
  0
ARC
  5
4FF
100
AcDbEntity
  8
0
100
AcDbCircle
 62
7
  6
CONTINUOUS
 10
8.7483720839
 20
12.9625477814
 40
0.0125
100
AcDbArc
 50
0.0
 51
90.0
  0
ARC
  5
500
100
AcDbEntity
  8
0
100
AcDbCircle
 62
7
  6
CONTINUOUS
 10
8.7733720839
 20
12.7025477814
 40
0.0125
100
AcDbArc
 50
180.0
 51
264.1999235691
  0
ARC
  5
501
100
AcDbEntity
  8
0
100
AcDbCircle
 62
7
  6
CONTINUOUS
 10
6.6633720839
 20
13.0875477814
 40
0.0125
100
AcDbArc
 50
0.0
 51
90.0
  0
ARC
  5
502
100
AcDbEntity
  8
0
100
AcDbCircle
 62
7
  6
CONTINUOUS
 10
8.9591446037
 20
12.6775484655
 40
0.0124980625
100
AcDbArc
 50
359.9968688669
 51
90.0059409295
  0
ARC
  5
503
100
AcDbEntity
  8
0
100
AcDbCircle
 62
7
  6
CONTINUOUS
 10
7.8493814932
 20
12.6775592411
 40
0.0124759488
100
AcDbArc
 50
359.9467499888
 51
36.0884991666
  0
ARC
  5
504
100
AcDbEntity
  8
0
100
AcDbCircle
 62
7
  6
CONTINUOUS
 10
8.3718023794
 20
12.6775613544
 40
0.0124705329
100
AcDbArc
 50
359.9367785196
 51
36.2780441967
  0
ARC
  5
505
100
AcDbEntity
  8
0
100
AcDbCircle
 62
7
  6
CONTINUOUS
 10
7.215317899
 20
12.6775324945
 40
0.0123748058
100
AcDbArc
 50
0.0707785584
 51
9.2134716086
  0
ARC
  5
506
100
AcDbEntity
  8
0
100
AcDbCircle
 62
7
  6
CONTINUOUS
 10
8.9964259749
 20
12.6775383981
 40
0.0122982255
100
AcDbArc
 50
0.0437152607
 51
8.3707802294
  0
ARC
  5
507
100
AcDbEntity
  8
0
100
AcDbCircle
 62
7
  6
CONTINUOUS
 10
15.4746383021
 20
3.4077438243
 40
0.0317680115
100
AcDbArc
 50
249.1471418059
 51
255.8963754285
  0
ARC
  5
508
100
AcDbEntity
  8
0
100
AcDbCircle
 62
7
  6
CONTINUOUS
 10
15.4742365129
 20
3.4065603813
 40
0.0305190965
100
AcDbArc
 50
237.5370384295
 51
249.0611612171
  0
ARC
  5
509
100
AcDbEntity
  8
0
100
AcDbCircle
 62
7
  6
CONTINUOUS
 10
15.4751366031
 20
3.8912051223
 40
0.0270068965
100
AcDbArc
 50
244.0761921138
 51
259.7921059791
  0
ARC
  5
50A
100
AcDbEntity
  8
0
100
AcDbCircle
 62
7
  6
CONTINUOUS
 10
15.4828558375
 20
2.8613165011
 40
0.0125005806
100
AcDbArc
 50
180.0012301099
 51
229.6190184619
  0
ARC
  5
50B
100
AcDbEntity
  8
0
100
AcDbCircle
 62
7
  6
CONTINUOUS
 10
15.0728552569
 20
4.1921247044
 40
0.0125
100
AcDbArc
 50
180.0
 51
270.0
  0
ARC
  5
50C
100
AcDbEntity
  8
0
100
AcDbCircle
 62
7
  6
CONTINUOUS
 10
15.1978552569
 20
2.7831247044
 40
0.0125
100
AcDbArc
 50
180.0
 51
270.0
  0
ARC
  5
50D
100
AcDbEntity
  8
0
100
AcDbCircle
 62
7
  6
CONTINUOUS
 10
15.4828552569
 20
2.5331247044
 40
0.0125
100
AcDbArc
 50
180.0
 51
270.0
  0
ARC
  5
50E
100
AcDbEntity
  8
0
100
AcDbCircle
 62
7
  6
CONTINUOUS
 10
15.4578552569
 20
2.7581247044
 40
0.0125
100
AcDbArc
 50
23.5313347985
 51
90.0
  0
ARC
  5
50F
100
AcDbEntity
  8
0
100
AcDbCircle
 62
7
  6
CONTINUOUS
 10
15.4828541882
 20
2.6080426374
 40
0.0124974908
100
AcDbArc
 50
179.9916538745
 51
270.0048678507
  0
ARC
  5
510
100
AcDbEntity
  8
0
100
AcDbCircle
 62
7
  6
CONTINUOUS
 10
15.4828460919
 20
3.8316392108
 40
0.012481243
100
AcDbArc
 50
179.9997715836
 51
270.0421870474
  0
ARC
  5
511
100
AcDbEntity
  8
0
100
AcDbCircle
 62
7
  6
CONTINUOUS
 10
15.4828420098
 20
3.2778855757
 40
0.0124706258
100
AcDbArc
 50
180.020744515
 51
270.0623426115
  0
ARC
  5
512
100
AcDbEntity
  8
0
100
AcDbCircle
 62
7
  6
CONTINUOUS
 10
15.5593271784
 20
10.8675391213
 40
2.7193912229
100
AcDbArc
 50
272.0031716213
 51
272.1210204001
  0
ARC
  5
513
100
AcDbEntity
  8
0
100
AcDbCircle
 62
7
  6
CONTINUOUS
 10
15.4753257634
 20
6.7474314204
 40
0.0257007934
100
AcDbArc
 50
103.8955402744
 51
117.8056999592
  0
ARC
  5
514
100
AcDbEntity
  8
0
100
AcDbCircle
 62
7
  6
CONTINUOUS
 10
15.4751785889
 20
6.7479231339
 40
0.0251881378
100
AcDbArc
 50
101.309162299
 51
103.8391700785
  0
ARC
  5
515
100
AcDbEntity
  8
0
100
AcDbCircle
 62
7
  6
CONTINUOUS
 10
15.4578672077
 20
8.1591875378
 40
0.0131897855
100
AcDbArc
 50
269.9480866381
 51
290.12864747
  0
ARC
  5
516
100
AcDbEntity
  8
0
100
AcDbCircle
 62
7
  6
CONTINUOUS
 10
15.457963786
 20
8.1589143546
 40
0.0129000527
100
AcDbArc
 50
290.1434412842
 51
296.4659513134
  0
ARC
  5
517
100
AcDbEntity
  8
0
100
AcDbCircle
 62
7
  6
CONTINUOUS
 10
15.1978552569
 20
8.1381247044
 40
0.0125
100
AcDbArc
 50
90.0
 51
180.0
  0
ARC
  5
518
100
AcDbEntity
  8
0
100
AcDbCircle
 62
7
  6
CONTINUOUS
 10
15.0728552569
 20
7.0471247044
 40
0.0125
100
AcDbArc
 50
90.0
 51
180.0
  0
ARC
  5
519
100
AcDbEntity
  8
0
100
AcDbCircle
 62
7
  6
CONTINUOUS
 10
15.48285473
 20
8.2082351326
 40
0.0124993203
100
AcDbArc
 50
89.997669883
 51
180.0015710241
  0
ARC
  5
51A
100
AcDbEntity
  8
0
100
AcDbCircle
 62
7
  6
CONTINUOUS
 10
15.4828447044
 20
7.3816326645
 40
0.0124777863
100
AcDbArc
 50
89.9502648948
 51
124.0702974398
  0
ARC
  5
51B
100
AcDbEntity
  8
0
100
AcDbCircle
 62
7
  6
CONTINUOUS
 10
15.4828645937
 20
6.7720750789
 40
0.0122982555
100
AcDbArc
 50
90.0434987721
 51
98.3465484323
  0
ARC
  5
51C
100
AcDbEntity
  8
0
100
AcDbCircle
 62
7
  6
CONTINUOUS
 10
15.6460771809
 20
2.4985791171
 40
0.2786054228
100
AcDbArc
 50
87.6747454862
 51
89.1143183708
  0
ARC
  5
51D
100
AcDbEntity
  8
0
100
AcDbCircle
 62
7
  6
CONTINUOUS
 10
15.6484065893
 20
2.55908523
 40
0.218054658
100
AcDbArc
 50
86.20070181
 51
87.641276279
  0
ARC
  5
51E
100
AcDbEntity
  8
0
100
AcDbCircle
 62
7
  6
CONTINUOUS
 10
15.6455742635
 20
3.891199439
 40
0.0270012638
100
AcDbArc
 50
280.2098862175
 51
282.8134523162
  0
ARC
  5
51F
100
AcDbEntity
  8
0
100
AcDbCircle
 62
7
  6
CONTINUOUS
 10
15.6642087388
 20
2.7634204962
 40
0.0138489823
100
AcDbArc
 50
156.8527961103
 51
168.9369242332
  0
ARC
  5
520
100
AcDbEntity
  8
0
100
AcDbCircle
 62
7
  6
CONTINUOUS
 10
15.6378473029
 20
2.8613223015
 40
0.0125097762
100
AcDbArc
 50
310.3895025352
 51
334.9249804878
  0
ARC
  5
521
100
AcDbEntity
  8
0
100
AcDbCircle
 62
7
  6
CONTINUOUS
 10
16.0478552569
 20
4.1921247044
 40
0.0125
100
AcDbArc
 50
270.0
 51
360.0
  0
ARC
  5
522
100
AcDbEntity
  8
0
100
AcDbCircle
 62
7
  6
CONTINUOUS
 10
15.6378552569
 20
2.5331247044
 40
0.0125
100
AcDbArc
 50
270.0
 51
360.0
  0
ARC
  5
523
100
AcDbEntity
  8
0
100
AcDbCircle
 62
7
  6
CONTINUOUS
 10
15.6628552569
 20
2.7581247044
 40
0.0125
100
AcDbArc
 50
90.0
 51
180.0
  0
ARC
  5
524
100
AcDbEntity
  8
0
100
AcDbCircle
 62
7
  6
CONTINUOUS
 10
15.9228552569
 20
2.7831247044
 40
0.0125
100
AcDbArc
 50
270.0
 51
360.0
  0
ARC
  5
525
100
AcDbEntity
  8
0
100
AcDbCircle
 62
7
  6
CONTINUOUS
 10
15.6378563319
 20
2.6080426359
 40
0.0124974858
100
AcDbArc
 50
269.9951038327
 51
0.0083506824
  0
ARC
  5
526
100
AcDbEntity
  8
0
100
AcDbCircle
 62
7
  6
CONTINUOUS
 10
15.6378644219
 20
3.8316392108
 40
0.012481243
100
AcDbArc
 50
269.9578129741
 51
308.1494643098
  0
ARC
  5
527
100
AcDbEntity
  8
0
100
AcDbCircle
 62
7
  6
CONTINUOUS
 10
15.6378685041
 20
3.2778855757
 40
0.0124706258
100
AcDbArc
 50
269.9376573746
 51
304.5579180509
  0
ARC
  5
528
100
AcDbEntity
  8
0
100
AcDbCircle
 62
7
  6
CONTINUOUS
 10
15.5618857391
 20
10.8814895597
 40
2.7333506978
100
AcDbArc
 50
267.8792808322
 51
267.9960311658
  0
ARC
  5
529
100
AcDbEntity
  8
0
100
AcDbCircle
 62
7
  6
CONTINUOUS
 10
15.6466182727
 20
7.7065553337
 40
0.0352949947
100
AcDbArc
 50
72.2508268307
 51
75.1897410217
  0
ARC
  5
52A
100
AcDbEntity
  8
0
100
AcDbCircle
 62
7
  6
CONTINUOUS
 10
15.6472361411
 20
7.7084903407
 40
0.0332637362
100
AcDbArc
 50
61.9946592597
 51
72.2483637483
  0
ARC
  5
52B
100
AcDbEntity
  8
0
100
AcDbCircle
 62
7
  6
CONTINUOUS
 10
15.6454689522
 20
6.7476501705
 40
0.0254680546
100
AcDbArc
 50
62.1201087618
 51
79.3098939185
  0
ARC
  5
52C
100
AcDbEntity
  8
0
100
AcDbCircle
 62
7
  6
CONTINUOUS
 10
15.6378542718
 20
7.8706384326
 40
0.0125009852
100
AcDbArc
 50
0.002212421
 51
52.2063222457
  0
ARC
  5
52D
100
AcDbEntity
  8
0
100
AcDbCircle
 62
7
  6
CONTINUOUS
 10
16.0478552569
 20
7.0471247044
 40
0.0125
100
AcDbArc
 50
0.0
 51
90.0
  0
ARC
  5
52E
100
AcDbEntity
  8
0
100
AcDbCircle
 62
7
  6
CONTINUOUS
 10
15.9228552569
 20
8.1381247044
 40
0.0125
100
AcDbArc
 50
0.0
 51
90.0
  0
ARC
  5
52F
100
AcDbEntity
  8
0
100
AcDbCircle
 62
7
  6
CONTINUOUS
 10
15.6378557839
 20
8.2082351326
 40
0.0124993203
100
AcDbArc
 50
359.998427925
 51
90.0023301425
  0
ARC
  5
530
100
AcDbEntity
  8
0
100
AcDbCircle
 62
7
  6
CONTINUOUS
 10
15.6378658094
 20
7.3816326645
 40
0.0124777863
100
AcDbArc
 50
0.0205623041
 51
90.0497351032
  0
ARC
  5
531
100
AcDbEntity
  8
0
100
AcDbCircle
 62
7
  6
CONTINUOUS
 10
15.6378459171
 20
6.7720751216
 40
0.0122982128
100
AcDbArc
 50
81.652558947
 51
89.9564870888
  0
ARC
  5
532
100
AcDbEntity
  8
DRAWING
100
AcDbCircle
 62
7
  6
CONTINUOUS
 10
14.4383935722
 20
9.1811872496
 40
5.1272432373
100
AcDbArc
 50
70.7648263863
 51
74.4161894375
  0
ARC
  5
533
100
AcDbEntity
  8
DRAWING
100
AcDbCircle
 62
7
  6
CONTINUOUS
 10
14.4507929704
 20
9.2275189864
 40
5.0792836797
100
AcDbArc
 50
74.4105116769
 51
78.4518508079
  0
ARC
  5
534
100
AcDbEntity
  8
DRAWING
100
AcDbCircle
 62
7
  6
CONTINUOUS
 10
14.4520701183
 20
9.2254460822
 40
5.0583041156
100
AcDbArc
 50
70.7518932815
 51
74.4176483129
  0
ARC
  5
535
100
AcDbEntity
  8
DRAWING
100
AcDbCircle
 62
7
  6
CONTINUOUS
 10
14.4628952163
 20
9.2491489874
 40
5.0550035889
100
AcDbArc
 50
66.7214331732
 51
70.7732601086
  0
ARC
  5
536
100
AcDbEntity
  8
0
100
AcDbCircle
 62
7
  6
CONTINUOUS
 10
14.4891442064
 20
9.356177832
 40
5.0548673218
100
AcDbArc
 50
75.8936157512
 51
77.5228057211
  0
ARC
  5
537
100
AcDbEntity
  8
DRAWING
100
AcDbCircle
 62
7
  6
CONTINUOUS
 10
14.5125041272
 20
9.3795663261
 40
4.8927213407
100
AcDbArc
 50
66.7311424293
 51
66.9378870027
  0
ARC
  5
538
100
AcDbEntity
  8
DRAWING
100
AcDbCircle
 62
7
  6
CONTINUOUS
 10
14.5551406962
 20
9.4613903654
 40
4.8235843597
100
AcDbArc
 50
62.9638652943
 51
66.7316244098
  0
ARC
  5
539
100
AcDbEntity
  8
DRAWING
100
AcDbCircle
 62
7
  6
CONTINUOUS
 10
14.5023520869
 20
9.4883122609
 40
4.8134482995
100
AcDbArc
 50
78.431696627
 51
83.9001764937
  0
ARC
  5
53A
100
AcDbEntity
  8
DRAWING
100
AcDbCircle
 62
7
  6
CONTINUOUS
 10
14.551133941
 20
9.467613858
 40
4.7965741721
100
AcDbArc
 50
62.9131688082
 51
66.6690641918
  0
ARC
  5
53B
100
AcDbEntity
  8
DRAWING
100
AcDbCircle
 62
7
  6
CONTINUOUS
 10
14.5899985697
 20
9.5655172769
 40
4.7957209287
100
AcDbArc
 50
60.9229869762
 51
67.5677785462
  0
ARC
  5
53C
100
AcDbEntity
  8
DRAWING
100
AcDbCircle
 62
7
  6
CONTINUOUS
 10
14.5087275099
 20
9.4930656879
 40
4.7846757187
100
AcDbArc
 50
78.4936387317
 51
82.2547426145
  0
ARC
  5
53D
100
AcDbEntity
  8
DRAWING
100
AcDbCircle
 62
7
  6
CONTINUOUS
 10
14.5464081051
 20
9.7823016949
 40
4.4929990706
100
AcDbArc
 50
82.2696935641
 51
86.6410221318
  0
ARC
  5
53E
100
AcDbEntity
  8
0
100
AcDbCircle
 62
7
  6
CONTINUOUS
 10
14.5738737128
 20
9.9255881617
 40
4.4787068495
100
AcDbArc
 50
84.4745272251
 51
86.2030123026
  0
ARC
  5
53F
100
AcDbEntity
  8
DRAWING
100
AcDbCircle
 62
7
  6
CONTINUOUS
 10
14.695145566
 20
9.7510126902
 40
4.4786843284
100
AcDbArc
 50
58.6122433237
 51
62.8685217255
  0
ARC
  5
540
100
AcDbEntity
  8
DRAWING
100
AcDbCircle
 62
7
  6
CONTINUOUS
 10
14.7710967302
 20
9.8995053445
 40
4.4158171859
100
AcDbArc
 50
58.8082715825
 51
60.8705771378
  0
ARC
  5
541
100
AcDbEntity
  8
0
100
AcDbCircle
 62
7
  6
CONTINUOUS
 10
14.7840596273
 20
9.9376330688
 40
4.4032897093
100
AcDbArc
 50
58.8824207371
 51
60.6320592907
  0
ARC
  5
542
100
AcDbEntity
  8
DRAWING
100
AcDbCircle
 62
7
  6
CONTINUOUS
 10
14.813655764
 20
9.9517374037
 40
4.2456112496
100
AcDbArc
 50
58.4291354493
 51
58.5666935875
  0
ARC
  5
543
100
AcDbEntity
  8
DRAWING
100
AcDbCircle
 62
7
  6
CONTINUOUS
 10
14.909409466
 20
10.1052264389
 40
4.0647076956
100
AcDbArc
 50
54.3644634716
 51
58.4463593517
  0
ARC
  5
544
100
AcDbEntity
  8
DRAWING
100
AcDbCircle
 62
7
  6
CONTINUOUS
 10
14.5711091634
 20
10.2243558218
 40
4.0502572926
100
AcDbArc
 50
86.6234517379
 51
90.8513133883
  0
ARC
  5
545
100
AcDbEntity
  8
0
100
AcDbCircle
 62
7
  6
CONTINUOUS
 10
14.5790670586
 20
10.2014882747
 40
3.6430333391
100
AcDbArc
 50
88.5591800573
 51
89.9368088265
  0
ARC
  5
546
100
AcDbEntity
  8
DRAWING
100
AcDbCircle
 62
7
  6
CONTINUOUS
 10
15.263536597
 20
10.6122392592
 40
3.5487440061
100
AcDbArc
 50
51.1266046837
 51
51.2573880003
  0
ARC
  5
547
100
AcDbEntity
  8
0
100
AcDbCircle
 62
7
  6
CONTINUOUS
 10
14.5794255211
 20
10.3385876084
 40
3.5059334177
100
AcDbArc
 50
90.0459533953
 51
91.3916595891
  0
ARC
  5
548
100
AcDbEntity
  8
0
100
AcDbCircle
 62
7
  6
CONTINUOUS
 10
14.5711967864
 20
10.9081099888
 40
3.4950539507
100
AcDbArc
 50
94.1185723156
 51
96.127769597
  0
ARC
  5
549
100
AcDbEntity
  8
DRAWING
100
AcDbCircle
 62
7
  6
CONTINUOUS
 10
15.3457549955
 20
10.7127710026
 40
3.4188762827
100
AcDbArc
 50
49.0668760431
 51
51.1419553997
  0
ARC
  5
54A
100
AcDbEntity
  8
0
100
AcDbCircle
 62
7
  6
CONTINUOUS
 10
15.3636090224
 20
10.7546362784
 40
3.4004224412
100
AcDbArc
 50
48.84689433
 51
50.8971120001
  0
ARC
  5
54B
100
AcDbEntity
  8
DRAWING
100
AcDbCircle
 62
7
  6
CONTINUOUS
 10
14.5223700487
 20
10.938373077
 40
3.359468598
100
AcDbArc
 50
96.323829447
 51
96.460227869
  0
ARC
  5
54C
100
AcDbEntity
  8
DRAWING
100
AcDbCircle
 62
7
  6
CONTINUOUS
 10
15.4072758352
 20
10.7841468592
 40
3.3246465515
100
AcDbArc
 50
48.8569439284
 51
49.0619399372
  0
ARC
  5
54D
100
AcDbEntity
  8
DRAWING
100
AcDbCircle
 62
7
  6
CONTINUOUS
 10
15.4182937428
 20
10.7967552974
 40
3.3079023883
100
AcDbArc
 50
48.6760335964
 51
48.8569722285
  0
ARC
  5
54E
100
AcDbEntity
  8
DRAWING
100
AcDbCircle
 62
7
  6
CONTINUOUS
 10
15.4050121497
 20
10.7308488572
 40
3.2913564465
100
AcDbArc
 50
48.5095360541
 51
48.6760218083
  0
ARC
  5
54F
100
AcDbEntity
  8
0
100
AcDbCircle
 62
7
  6
CONTINUOUS
 10
13.8069226504
 20
13.0361733735
 40
1.2121586892
100
AcDbArc
 50
189.6555726261
 51
190.096540207
  0
ARC
  5
550
100
AcDbEntity
  8
DRAWING
100
AcDbCircle
 62
7
  6
CONTINUOUS
 10
13.7323161989
 20
13.0429905636
 40
1.1320586442
100
AcDbArc
 50
139.6443404362
 51
140.18489697
  0
ARC
  5
551
100
AcDbEntity
  8
DRAWING
100
AcDbCircle
 62
7
  6
CONTINUOUS
 10
13.7079576124
 20
13.0630360208
 40
1.1005131217
100
AcDbArc
 50
140.1744902286
 51
144.7465969586
  0
ARC
  5
552
100
AcDbEntity
  8
0
100
AcDbCircle
 62
7
  6
CONTINUOUS
 10
13.7083610879
 20
13.0927876787
 40
1.0910762774
100
AcDbArc
 50
141.5645976389
 51
145.9550892708
  0
ARC
  5
553
100
AcDbEntity
  8
DRAWING
100
AcDbCircle
 62
7
  6
CONTINUOUS
 10
13.7316450996
 20
13.0402829211
 40
1.0907346812
100
AcDbArc
 50
183.8292615119
 51
184.1914554039
  0
ARC
  5
554
100
AcDbEntity
  8
DRAWING
100
AcDbCircle
 62
7
  6
CONTINUOUS
 10
13.6688001898
 20
13.0913133898
 40
1.0522152336
100
AcDbArc
 50
144.9709121892
 51
147.4758382008
  0
ARC
  5
555
100
AcDbEntity
  8
DRAWING
100
AcDbCircle
 62
7
  6
CONTINUOUS
 10
13.630629865
 20
13.0220574144
 40
1.0355614079
100
AcDbArc
 50
147.4107546318
 51
147.798630372
  0
ARC
  5
556
100
AcDbEntity
  8
DRAWING
100
AcDbCircle
 62
7
  6
CONTINUOUS
 10
13.6421023552
 20
13.1083705968
 40
1.0205336635
100
AcDbArc
 50
147.4773993232
 51
151.6475677139
  0
ARC
  5
557
100
AcDbEntity
  8
DRAWING
100
AcDbCircle
 62
7
  6
CONTINUOUS
 10
13.5950875717
 20
13.0431907077
 40
0.9942249195
100
AcDbArc
 50
147.7376717251
 51
157.9491543987
  0
ARC
  5
558
100
AcDbEntity
  8
DRAWING
100
AcDbCircle
 62
7
  6
CONTINUOUS
 10
13.6017704255
 20
13.1297057067
 40
0.9749079882
100
AcDbArc
 50
151.6253780931
 51
162.7997467876
  0
ARC
  5
559
100
AcDbEntity
  8
DRAWING
100
AcDbCircle
 62
7
  6
CONTINUOUS
 10
13.570300288
 20
13.0540046991
 40
0.9671911767
100
AcDbArc
 50
157.9916342303
 51
162.8214330774
  0
ARC
  5
55A
100
AcDbEntity
  8
DRAWING
100
AcDbCircle
 62
7
  6
CONTINUOUS
 10
13.5678964864
 20
13.054825084
 40
0.9646523129
100
AcDbArc
 50
162.8258177646
 51
167.2150053684
  0
ARC
  5
55B
100
AcDbEntity
  8
DRAWING
100
AcDbCircle
 62
7
  6
CONTINUOUS
 10
13.6011547522
 20
13.0449341873
 40
0.9598483033
100
AcDbArc
 50
162.8478619101
 51
173.5277407713
  0
ARC
  5
55C
100
AcDbEntity
  8
0
100
AcDbCircle
 62
7
  6
CONTINUOUS
 10
12.7883108563
 20
12.380580734
 40
0.012587119
100
AcDbArc
 50
189.7964396327
 51
208.7013323523
  0
ARC
  5
55D
100
AcDbEntity
  8
0
100
AcDbCircle
 62
7
  6
CONTINUOUS
 10
12.642573142
 20
12.7470222656
 40
0.0125200769
100
AcDbArc
 50
193.6839289661
 51
249.7913663091
  0
ARC
  5
55E
100
AcDbEntity
  8
0
100
AcDbCircle
 62
7
  6
CONTINUOUS
 10
12.7881982167
 20
12.3805497149
 40
0.0124708493
100
AcDbArc
 50
162.7303362616
 51
189.7440575361
  0
ARC
  5
55F
100
AcDbEntity
  8
0
100
AcDbCircle
 62
7
  6
CONTINUOUS
 10
12.8403809102
 20
12.2910913611
 40
0.0124026535
100
AcDbArc
 50
239.4363009722
 51
258.1366275499
  0
ARC
  5
560
100
AcDbEntity
  8
0
100
AcDbCircle
 62
7
  6
CONTINUOUS
 10
12.8653725574
 20
13.7655866266
 40
0.0125310236
100
AcDbArc
 50
79.5334966353
 51
105.7223012804
  0
ARC
  5
561
100
AcDbEntity
  8
0
100
AcDbCircle
 62
7
  6
CONTINUOUS
 10
12.621035789
 20
13.1841931123
 40
0.0125290114
100
AcDbArc
 50
217.0588899764
 51
241.2594994398
  0
ARC
  5
562
100
AcDbEntity
  8
0
100
AcDbCircle
 62
7
  6
CONTINUOUS
 10
13.2201434329
 20
14.0695766802
 40
0.0125239464
100
AcDbArc
 50
71.2565225363
 51
115.542030115
  0
ARC
  5
563
100
AcDbEntity
  8
0
100
AcDbCircle
 62
7
  6
CONTINUOUS
 10
12.8146663615
 20
13.696620917
 40
0.0125110093
100
AcDbArc
 50
145.9882800087
 51
162.8196146256
  0
ARC
  5
564
100
AcDbEntity
  8
0
100
AcDbCircle
 62
7
  6
CONTINUOUS
 10
12.7771464295
 20
13.5752142667
 40
0.0125101213
100
AcDbArc
 50
186.7028712213
 51
231.6885046029
  0
ARC
  5
565
100
AcDbEntity
  8
0
100
AcDbCircle
 62
7
  6
CONTINUOUS
 10
13.138610643
 20
14.0169920673
 40
0.0124716249
100
AcDbArc
 50
124.5936031771
 51
147.6939834399
  0
ARC
  5
566
100
AcDbEntity
  8
0
100
AcDbCircle
 62
7
  6
CONTINUOUS
 10
13.5725367825
 20
14.1250624279
 40
0.0124537921
100
AcDbArc
 50
181.8233656192
 51
204.7310384333
  0
ARC
  5
567
100
AcDbEntity
  8
0
100
AcDbCircle
 62
7
  6
CONTINUOUS
 10
13.1010533663
 20
13.895530151
 40
0.0124391594
100
AcDbArc
 50
188.8384501842
 51
220.043307756
  0
ARC
  5
568
100
AcDbEntity
  8
0
100
AcDbCircle
 62
7
  6
CONTINUOUS
 10
13.6100467716
 20
14.2465321244
 40
0.0124329356
100
AcDbArc
 50
133.3036141524
 51
163.0056914183
  0
ARC
  5
569
100
AcDbEntity
  8
0
100
AcDbCircle
 62
7
  6
CONTINUOUS
 10
13.7173155219
 20
14.2795307789
 40
0.0124197126
100
AcDbArc
 50
62.7293282671
 51
79.9738725692
  0
ARC
  5
56A
100
AcDbEntity
  8
0
100
AcDbCircle
 62
7
  6
CONTINUOUS
 10
12.8653121205
 20
13.7657231558
 40
0.0123844818
100
AcDbArc
 50
134.9848939606
 51
141.1798698835
  0
ARC
  5
56B
100
AcDbEntity
  8
0
100
AcDbCircle
 62
7
  6
CONTINUOUS
 10
13.2200763153
 20
14.0697147201
 40
0.0123705956
100
AcDbArc
 50
115.5372179382
 51
121.0127582078
  0
ARC
  5
56C
100
AcDbEntity
  8
DRAWING
100
AcDbCircle
 62
7
  6
CONTINUOUS
 10
14.3755435678
 20
11.8861185965
 40
2.4723003597
100
AcDbArc
 50
105.2568755866
 51
107.9754935002
  0
ARC
  5
56D
100
AcDbEntity
  8
0
100
AcDbCircle
 62
7
  6
CONTINUOUS
 10
14.3751784427
 20
11.9494777349
 40
2.4335767691
100
AcDbArc
 50
105.8937751392
 51
108.4216641974
  0
ARC
  5
56E
100
AcDbEntity
  8
DRAWING
100
AcDbCircle
 62
7
  6
CONTINUOUS
 10
14.3383386714
 20
12.004602913
 40
2.3481179133
100
AcDbArc
 50
108.0042032227
 51
108.2655103087
  0
ARC
  5
56F
100
AcDbEntity
  8
DRAWING
100
AcDbCircle
 62
7
  6
CONTINUOUS
 10
14.3315947925
 20
12.0250437268
 40
2.3265933515
100
AcDbArc
 50
108.2655717271
 51
108.6587453553
  0
ARC
  5
570
100
AcDbEntity
  8
DRAWING
100
AcDbCircle
 62
7
  6
CONTINUOUS
 10
14.2996010755
 20
11.9698272751
 40
2.3022007525
100
AcDbArc
 50
108.6591882671
 51
108.9757102212
  0
ARC
  5
571
100
AcDbEntity
  8
0
100
AcDbCircle
 62
7
  6
CONTINUOUS
 10
14.4346027256
 20
12.5204374974
 40
1.9141833186
100
AcDbArc
 50
112.0363504777
 51
112.2196028265
  0
ARC
  5
572
100
AcDbEntity
  8
0
100
AcDbCircle
 62
7
  6
CONTINUOUS
 10
14.4309548434
 20
12.5293685676
 40
1.9045359843
100
AcDbArc
 50
112.2196135498
 51
112.3903101686
  0
ARC
  5
573
100
AcDbEntity
  8
0
100
AcDbCircle
 62
7
  6
CONTINUOUS
 10
14.3438165489
 20
12.7220126719
 40
1.6930545093
100
AcDbArc
 50
116.2898696352
 51
116.7355659489
  0
ARC
  5
574
100
AcDbEntity
  8
DRAWING
100
AcDbCircle
 62
7
  6
CONTINUOUS
 10
14.0682174964
 20
12.6208111615
 40
1.6740779047
100
AcDbArc
 50
120.1263359898
 51
120.4566732267
  0
ARC
  5
575
100
AcDbEntity
  8
0
100
AcDbCircle
 62
7
  6
CONTINUOUS
 10
14.321307637
 20
12.7664367143
 40
1.6432535808
100
AcDbArc
 50
116.7314746883
 51
118.8489951574
  0
ARC
  5
576
100
AcDbEntity
  8
DRAWING
100
AcDbCircle
 62
7
  6
CONTINUOUS
 10
14.034325482
 20
12.6777903505
 40
1.6077817441
100
AcDbArc
 50
120.4447935529
 51
123.894095102
  0
ARC
  5
577
100
AcDbEntity
  8
0
100
AcDbCircle
 62
7
  6
CONTINUOUS
 10
14.0303746942
 20
12.7252681402
 40
1.5821190071
100
AcDbArc
 50
121.2625744114
 51
124.6200197829
  0
ARC
  5
578
100
AcDbEntity
  8
DRAWING
100
AcDbCircle
 62
7
  6
CONTINUOUS
 10
13.9886356311
 20
12.7475717125
 40
1.5243792836
100
AcDbArc
 50
123.9312484261
 51
124.2066866177
  0
ARC
  5
579
100
AcDbEntity
  8
DRAWING
100
AcDbCircle
 62
7
  6
CONTINUOUS
 10
13.9798912737
 20
12.760419756
 40
1.5088378574
100
AcDbArc
 50
124.2063523475
 51
124.9064569616
  0
ARC
  5
57A
100
AcDbEntity
  8
DRAWING
100
AcDbCircle
 62
7
  6
CONTINUOUS
 10
13.942858154
 20
12.7005224507
 40
1.4863794231
100
AcDbArc
 50
124.9076362414
 51
125.4444144932
  0
ARC
  5
57B
100
AcDbEntity
  8
0
100
AcDbCircle
 62
7
  6
CONTINUOUS
 10
13.8454957617
 20
13.0432611555
 40
1.2513770067
100
AcDbArc
 50
190.1064241586
 51
193.8350061709
  0
ARC
  5
57C
100
AcDbEntity
  8
0
100
AcDbCircle
 62
7
  6
CONTINUOUS
 10
13.9202741373
 20
12.7709697957
 40
1.1526346366
100
AcDbArc
 50
191.2232654411
 51
193.1136176108
  0
ARC
  5
57D
100
AcDbEntity
  8
0
100
AcDbCircle
 62
7
  6
CONTINUOUS
 10
14.319538057
 20
13.1150907001
 40
0.0124244597
100
AcDbArc
 50
189.5227606799
 51
206.2933637913
  0
ARC
  5
57E
100
AcDbEntity
  8
0
100
AcDbCircle
 62
7
  6
CONTINUOUS
 10
14.8792621409
 20
13.2839918961
 40
2.2494686282
100
AcDbArc
 50
217.9129306555
 51
220.5962958694
  0
ARC
  5
57F
100
AcDbEntity
  8
0
100
AcDbCircle
 62
7
  6
CONTINUOUS
 10
14.8077527613
 20
13.227872794
 40
2.158568529
100
AcDbArc
 50
217.5304084417
 51
217.9040380206
  0
ARC
  5
580
100
AcDbEntity
  8
DRAWING
100
AcDbCircle
 62
7
  6
CONTINUOUS
 10
14.6532998988
 20
13.4434143054
 40
2.140777521
100
AcDbArc
 50
213.1620706396
 51
216.1789454829
  0
ARC
  5
581
100
AcDbEntity
  8
0
100
AcDbCircle
 62
7
  6
CONTINUOUS
 10
14.4435595437
 20
13.287326689
 40
1.8999252109
100
AcDbArc
 50
208.9299554811
 51
211.8552034034
  0
ARC
  5
582
100
AcDbEntity
  8
0
100
AcDbCircle
 62
7
  6
CONTINUOUS
 10
14.3843081459
 20
13.2542196709
 40
1.832052529
100
AcDbArc
 50
208.6956339352
 51
208.9201548707
  0
ARC
  5
583
100
AcDbEntity
  8
DRAWING
100
AcDbCircle
 62
7
  6
CONTINUOUS
 10
14.3690380478
 20
13.2508831427
 40
1.7665399754
100
AcDbArc
 50
206.1749434582
 51
209.3692842785
  0
ARC
  5
584
100
AcDbEntity
  8
DRAWING
100
AcDbCircle
 62
7
  6
CONTINUOUS
 10
14.3128783719
 20
13.2401316956
 40
1.7440480294
100
AcDbArc
 50
206.1445662755
 51
208.4227819637
  0
ARC
  5
585
100
AcDbEntity
  8
DRAWING
100
AcDbCircle
 62
7
  6
CONTINUOUS
 10
14.1753255069
 20
13.226499553
 40
1.5255512854
100
AcDbArc
 50
200.4584189911
 51
203.3230730085
  0
ARC
  5
586
100
AcDbEntity
  8
0
100
AcDbCircle
 62
7
  6
CONTINUOUS
 10
13.8886386612
 20
13.2994974374
 40
0.9497412476
100
AcDbArc
 50
144.3401540127
 51
152.0353441987
  0
ARC
  5
587
100
AcDbEntity
  8
02___PRT_ALL_AXES
100
AcDbCircle
 62
7
  6
CONTINUOUS
 10
14.5801940456
 20
14.3185868988
 40
0.4791278049
100
AcDbArc
 50
269.8777195484
 51
275.5003060794
  0
ARC
  5
588
100
AcDbEntity
  8
0
100
AcDbCircle
 62
7
  6
CONTINUOUS
 10
14.615397449
 20
13.3293452577
 40
0.0297353481
100
AcDbArc
 50
51.8397920161
 51
63.1038680143
  0
ARC
  5
589
100
AcDbEntity
  8
0
100
AcDbCircle
 62
7
  6
CONTINUOUS
 10
14.1619715899
 20
14.2493122349
 40
0.0125495
100
AcDbArc
 50
162.7552453034
 51
172.3442912188
  0
ARC
  5
58A
100
AcDbEntity
  8
0
100
AcDbCircle
 62
7
  6
CONTINUOUS
 10
14.8696268843
 20
14.3819993526
 40
0.0124889652
100
AcDbArc
 50
105.4233961368
 51
159.9411896508
  0
ARC
  5
58B
100
AcDbEntity
  8
0
100
AcDbCircle
 62
7
  6
CONTINUOUS
 10
15.0068002737
 20
14.3708044228
 40
0.012454166
100
AcDbArc
 50
42.1033299082
 51
60.9657138768
  0
ARC
  5
58C
100
AcDbEntity
  8
0
100
AcDbCircle
 62
7
  6
CONTINUOUS
 10
14.3256001959
 20
14.3820436947
 40
0.0124399692
100
AcDbArc
 50
53.3751355184
 51
70.0327179668
  0
ARC
  5
58D
100
AcDbEntity
  8
0
100
AcDbCircle
 62
7
  6
CONTINUOUS
 10
14.1618428895
 20
14.2493476899
 40
0.0124172365
100
AcDbArc
 50
172.4273167168
 51
184.4211121749
  0
ARC
  5
58E
100
AcDbEntity
  8
0
100
AcDbCircle
 62
7
  6
CONTINUOUS
 10
13.9472645593
 20
14.1765333543
 40
0.0103201866
100
AcDbArc
 50
37.1210598434
 51
42.671353574
  0
ARC
  5
58F
100
AcDbEntity
  8
DRAWING
100
AcDbCircle
 62
7
  6
CONTINUOUS
 10
16.0012333371
 20
11.3661990909
 40
2.4921129614
100
AcDbArc
 50
39.3818777552
 51
39.5800356472
  0
ARC
  5
590
100
AcDbEntity
  8
DRAWING
100
AcDbCircle
 62
7
  6
CONTINUOUS
 10
16.0956868796
 20
11.4423137133
 40
2.3708131655
100
AcDbArc
 50
36.7466908515
 51
39.4084097752
  0
ARC
  5
591
100
AcDbEntity
  8
0
100
AcDbCircle
 62
7
  6
CONTINUOUS
 10
16.1222181069
 20
11.4859497479
 40
2.3448039912
100
AcDbArc
 50
36.3523311306
 51
38.9507654141
  0
ARC
  5
592
100
AcDbEntity
  8
DRAWING
100
AcDbCircle
 62
7
  6
CONTINUOUS
 10
16.1672603691
 20
11.4961967648
 40
2.2812251269
100
AcDbArc
 50
36.500559452
 51
36.7377747107
  0
ARC
  5
593
100
AcDbEntity
  8
DRAWING
100
AcDbCircle
 62
7
  6
CONTINUOUS
 10
16.1825827243
 20
11.5075216386
 40
2.2621718537
100
AcDbArc
 50
36.2015620751
 51
36.500830323
  0
ARC
  5
594
100
AcDbEntity
  8
DRAWING
100
AcDbCircle
 62
7
  6
CONTINUOUS
 10
16.1752902816
 20
11.4415571109
 40
2.2412180669
100
AcDbArc
 50
35.8953779313
 51
36.2018067457
  0
ARC
  5
595
100
AcDbEntity
  8
0
100
AcDbCircle
 62
7
  6
CONTINUOUS
 10
17.977880045
 20
11.1546015476
 40
0.0125122543
100
AcDbArc
 50
314.6925513848
 51
342.8480998341
  0
ARC
  5
596
100
AcDbEntity
  8
0
100
AcDbCircle
 62
7
  6
CONTINUOUS
 10
18.1858505113
 20
11.4375234911
 40
0.0125104547
100
AcDbArc
 50
263.827731294
 51
308.2623685104
  0
ARC
  5
597
100
AcDbEntity
  8
0
100
AcDbCircle
 62
7
  6
CONTINUOUS
 10
18.2198413536
 20
11.5131166296
 40
0.0125050395
100
AcDbArc
 50
338.2368409061
 51
342.8267351841
  0
ARC
  5
598
100
AcDbEntity
  8
0
100
AcDbCircle
 62
7
  6
CONTINUOUS
 10
17.5770577384
 20
10.8774499698
 40
0.0124434253
100
AcDbArc
 50
319.7590366736
 51
342.8654992452
  0
ARC
  5
599
100
AcDbEntity
  8
0
100
AcDbCircle
 62
7
  6
CONTINUOUS
 10
17.9112477042
 20
11.0932070472
 40
0.0124086381
100
AcDbArc
 50
255.2379870654
 51
280.7690234505
  0
ARC
  5
59A
100
AcDbEntity
  8
0
100
AcDbCircle
 62
7
  6
CONTINUOUS
 10
17.4818829574
 20
10.8342479474
 40
0.0124048814
100
AcDbArc
 50
247.0045489844
 51
265.5054005857
  0
ARC
  5
59B
100
AcDbEntity
  8
DRAWING
100
AcDbCircle
 62
7
  6
CONTINUOUS
 10
16.655598406
 20
12.8487244265
 40
2.1696622989
100
AcDbArc
 50
290.293333069
 51
291.559763866
  0
ARC
  5
59C
100
AcDbEntity
  8
0
100
AcDbCircle
 62
7
  6
CONTINUOUS
 10
16.7172893152
 20
12.6466430281
 40
1.9794971918
100
AcDbArc
 50
292.8752342502
 51
295.7135433287
  0
ARC
  5
59D
100
AcDbEntity
  8
0
100
AcDbCircle
 62
7
  6
CONTINUOUS
 10
16.7588975059
 20
12.5580377474
 40
1.8816137051
100
AcDbArc
 50
295.742636736
 51
295.9571637612
  0
ARC
  5
59E
100
AcDbEntity
  8
DRAWING
100
AcDbCircle
 62
7
  6
CONTINUOUS
 10
16.6955440096
 20
11.817675943
 40
1.6618198796
100
AcDbArc
 50
24.5539560233
 51
26.1459166715
  0
ARC
  5
59F
100
AcDbEntity
  8
DRAWING
100
AcDbCircle
 62
7
  6
CONTINUOUS
 10
16.7259102596
 20
11.8316164492
 40
1.6284066631
100
AcDbArc
 50
24.2106190628
 51
24.551803517
  0
ARC
  5
5A0
100
AcDbEntity
  8
DRAWING
100
AcDbCircle
 62
7
  6
CONTINUOUS
 10
16.8014654554
 20
11.8644775722
 40
1.5460212369
100
AcDbArc
 50
20.6016057551
 51
24.2481903854
  0
ARC
  5
5A1
100
AcDbEntity
  8
0
100
AcDbCircle
 62
7
  6
CONTINUOUS
 10
16.8326723355
 20
11.9008492348
 40
1.5195201174
100
AcDbArc
 50
19.8511559917
 51
23.3208790635
  0
ARC
  5
5A2
100
AcDbEntity
  8
DRAWING
100
AcDbCircle
 62
7
  6
CONTINUOUS
 10
16.8557584605
 20
11.885237888
 40
1.487895435
100
AcDbArc
 50
20.300807284
 51
20.5889473426
  0
ARC
  5
5A3
100
AcDbEntity
  8
DRAWING
100
AcDbCircle
 62
7
  6
CONTINUOUS
 10
16.8782598373
 20
11.8934912733
 40
1.4639282515
100
AcDbArc
 50
19.3135746563
 51
20.3033946748
  0
ARC
  5
5A4
100
AcDbEntity
  8
DRAWING
100
AcDbCircle
 62
7
  6
CONTINUOUS
 10
16.8738752574
 20
11.8221182077
 40
1.4429199198
100
AcDbArc
 50
18.9154597357
 51
19.3130961715
  0
ARC
  5
5A5
100
AcDbEntity
  8
0
100
AcDbCircle
 62
7
  6
CONTINUOUS
 10
15.5039696732
 20
13.3883526879
 40
0.9726029381
100
AcDbArc
 50
223.8323741345
 51
224.3638676558
  0
ARC
  5
5A6
100
AcDbEntity
  8
0
100
AcDbCircle
 62
7
  6
CONTINUOUS
 10
16.4274222433
 20
13.8617624719
 40
0.0255313725
100
AcDbArc
 50
16.4837162219
 51
20.5544677994
  0
ARC
  5
5A7
100
AcDbEntity
  8
0
100
AcDbCircle
 62
7
  6
CONTINUOUS
 10
15.5785554318
 20
14.2793069377
 40
0.0126449924
100
AcDbArc
 50
88.0838603812
 51
101.8578794934
  0
ARC
  5
5A8
100
AcDbEntity
  8
0
100
AcDbCircle
 62
7
  6
CONTINUOUS
 10
16.4147411067
 20
14.016856541
 40
0.0126383891
100
AcDbArc
 50
43.2293756406
 51
56.4876520605
  0
ARC
  5
5A9
100
AcDbEntity
  8
0
100
AcDbCircle
 62
7
  6
CONTINUOUS
 10
16.4147305882
 20
14.016965078
 40
0.0125896976
100
AcDbArc
 50
8.1889120957
 51
18.5162928645
  0
ARC
  5
5AA
100
AcDbEntity
  8
0
100
AcDbCircle
 62
7
  6
CONTINUOUS
 10
16.4147994609
 20
14.0169563471
 40
0.0125229573
100
AcDbArc
 50
56.4581376241
 51
67.5421306238
  0
ARC
  5
5AB
100
AcDbEntity
  8
0
100
AcDbCircle
 62
7
  6
CONTINUOUS
 10
15.5785657418
 20
14.2794429654
 40
0.0125086973
100
AcDbArc
 50
77.5929223383
 51
88.1102252404
  0
ARC
  5
5AC
100
AcDbEntity
  8
0
100
AcDbCircle
 62
7
  6
CONTINUOUS
 10
16.2816509572
 20
14.069636161
 40
0.0124650988
100
AcDbArc
 50
92.9682797319
 51
117.1137514033
  0
ARC
  5
5AD
100
AcDbEntity
  8
0
100
AcDbCircle
 62
7
  6
CONTINUOUS
 10
15.7181141573
 20
14.2465168367
 40
0.0124637593
100
AcDbArc
 50
27.5175992491
 51
52.1442869572
  0
ARC
  5
5AE
100
AcDbEntity
  8
0
100
AcDbCircle
 62
7
  6
CONTINUOUS
 10
16.4148549935
 20
14.0169905133
 40
0.0124636642
100
AcDbArc
 50
18.5870385187
 51
43.1392227821
  0
ARC
  5
5AF
100
AcDbEntity
  8
0
100
AcDbCircle
 62
7
  6
CONTINUOUS
 10
15.578533556
 20
14.2794993252
 40
0.0124522284
100
AcDbArc
 50
101.941271647
 51
136.1806476709
  0
ARC
  5
5B0
100
AcDbEntity
  8
DRAWING
100
AcDbCircle
 62
7
  6
CONTINUOUS
 10
16.9372108424
 20
12.3742317597
 40
1.5270465708
100
AcDbArc
 50
302.4962445361
 51
304.1052195647
  0
ARC
  5
5B1
100
AcDbEntity
  8
0
100
AcDbCircle
 62
7
  6
CONTINUOUS
 10
17.076589735
 20
12.0677507673
 40
1.2955467393
100
AcDbArc
 50
310.5817286868
 51
314.2189671203
  0
ARC
  5
5B2
100
AcDbEntity
  8
0
100
AcDbCircle
 62
7
  6
CONTINUOUS
 10
17.1136598382
 20
12.0286949364
 40
1.2417036173
100
AcDbArc
 50
314.2498937612
 51
314.6747211758
  0
ARC
  5
5B3
100
AcDbEntity
  8
DRAWING
100
AcDbCircle
 62
7
  6
CONTINUOUS
 10
17.1287717576
 20
12.0470224083
 40
1.2324991056
100
AcDbArc
 50
313.9895301174
 51
315.31240075
  0
ARC
  5
5B4
100
AcDbEntity
  8
DRAWING
100
AcDbCircle
 62
7
  6
CONTINUOUS
 10
17.183224367
 20
11.9815418139
 40
1.1110814218
100
AcDbArc
 50
320.0322506776
 51
320.4851881323
  0
ARC
  5
5B5
100
AcDbEntity
  8
DRAWING
100
AcDbCircle
 62
7
  6
CONTINUOUS
 10
17.2234619676
 20
11.9733735043
 40
1.1085510153
100
AcDbArc
 50
3.9613184907
 51
4.5561392419
  0
ARC
  5
5B6
100
AcDbEntity
  8
DRAWING
100
AcDbCircle
 62
7
  6
CONTINUOUS
 10
17.2614396649
 20
11.9754643178
 40
1.0705197453
100
AcDbArc
 50
359.5176843778
 51
3.9901020216
  0
ARC
  5
5B7
100
AcDbEntity
  8
0
100
AcDbCircle
 62
7
  6
CONTINUOUS
 10
17.2757309837
 20
11.9995593055
 40
1.0632612626
100
AcDbArc
 50
358.2115022524
 51
2.7025070379
  0
ARC
  5
5B8
100
AcDbEntity
  8
DRAWING
100
AcDbCircle
 62
7
  6
CONTINUOUS
 10
17.2999939399
 20
11.9750775623
 40
1.0319629458
100
AcDbArc
 50
356.4521778325
 51
359.3333047504
  0
ARC
  5
5B9
100
AcDbEntity
  8
DRAWING
100
AcDbCircle
 62
7
  6
CONTINUOUS
 10
17.286069246
 20
11.8961617064
 40
1.0216646265
100
AcDbArc
 50
356.3070840205
 51
356.6639778648
  0
ARC
  5
5BA
100
AcDbEntity
  8
DRAWING
100
AcDbCircle
 62
7
  6
CONTINUOUS
 10
17.3289752362
 20
11.973056366
 40
1.0029121423
100
AcDbArc
 50
352.2901553006
 51
356.4649698639
  0
ARC
  5
5BB
100
AcDbEntity
  8
0
100
AcDbCircle
 62
7
  6
CONTINUOUS
 10
17.3108421357
 20
11.8764028508
 40
0.9914089452
100
AcDbArc
 50
333.3622444779
 51
337.5989032112
  0
ARC
  5
5BC
100
AcDbEntity
  8
DRAWING
100
AcDbCircle
 62
7
  6
CONTINUOUS
 10
17.3171829291
 20
11.8934552109
 40
0.9904414709
100
AcDbArc
 50
347.6836286819
 51
356.3473974589
  0
ARC
  5
5BD
100
AcDbEntity
  8
0
100
AcDbCircle
 62
7
  6
CONTINUOUS
 10
17.3210481998
 20
11.8720180705
 40
0.9803020699
100
AcDbArc
 50
337.6085171646
 51
338.2319681781
  0
ARC
  5
5BE
100
AcDbEntity
  8
DRAWING
100
AcDbCircle
 62
7
  6
CONTINUOUS
 10
17.3609251431
 20
11.9683126165
 40
0.9706147413
100
AcDbArc
 50
342.8402044578
 51
352.3146281496
  0
ARC
  5
5BF
100
AcDbEntity
  8
DRAWING
100
AcDbCircle
 62
7
  6
CONTINUOUS
 10
17.3388724733
 20
11.8897006541
 40
0.9684743356
100
AcDbArc
 50
336.9235748714
 51
342.8183942045
  0
ARC
  5
5C0
100
AcDbEntity
  8
DRAWING
100
AcDbCircle
 62
7
  6
CONTINUOUS
 10
17.3042529316
 20
11.8994445443
 40
0.96493509
100
AcDbArc
 50
342.8725021755
 51
355.8339280734
  0
ARC
  5
5C1
100
AcDbEntity
  8
DRAWING
100
AcDbCircle
 62
7
  6
CONTINUOUS
 10
17.3424068462
 20
11.8884758118
 40
0.9647358785
100
AcDbArc
 50
342.8258846615
 51
347.4411633898
  0
ARC
  5
5C2
100
AcDbEntity
  8
DRAWING
100
AcDbCircle
 62
7
  6
CONTINUOUS
 10
17.3059187575
 20
11.9003339799
 40
0.9635986591
100
AcDbArc
 50
330.6701833346
 51
342.792791287
  0
ARC
  5
5C3
100
AcDbEntity
  8
0
100
AcDbCircle
 62
7
  6
CONTINUOUS
 10
17.2283608395
 20
12.2705761424
 40
0.9370474708
100
AcDbArc
 50
352.1797210577
 51
359.5728428167
  0
ARC
  5
5C4
100
AcDbEntity
  8
0
100
AcDbCircle
 62
7
  6
CONTINUOUS
 10
18.288454432
 20
11.8453588521
 40
0.0125097258
100
AcDbArc
 50
273.3292197246
 51
318.6724563195
  0
ARC
  5
5C5
100
AcDbEntity
  8
0
100
AcDbCircle
 62
7
  6
CONTINUOUS
 10
18.3259716065
 20
11.9667672368
 40
0.0125090394
100
AcDbArc
 50
342.8339787605
 51
358.202074987
  0
ARC
  5
5C6
100
AcDbEntity
  8
0
100
AcDbCircle
 62
7
  6
CONTINUOUS
 10
18.250166633
 20
12.4126005088
 40
0.0124763437
100
AcDbArc
 50
342.7406704476
 51
19.7962323258
  0
ARC
  5
5C7
100
AcDbEntity
  8
0
100
AcDbCircle
 62
7
  6
CONTINUOUS
 10
18.2126566852
 20
12.2911302465
 40
0.0124366363
100
AcDbArc
 50
284.8066257931
 51
316.4351577093
  0
ARC
  5
5C8
100
AcDbEntity
  8
0
100
AcDbCircle
 62
7
  6
CONTINUOUS
 10
18.0006951287
 20
12.8684222443
 40
0.0124334338
100
AcDbArc
 50
342.662745351
 51
11.5852238016
  0
ARC
  5
5C9
100
AcDbEntity
  8
0
100
AcDbCircle
 62
7
  6
CONTINUOUS
 10
17.9326239199
 20
12.9564576503
 40
0.0124181478
100
AcDbArc
 50
65.0261770161
 51
82.3899864259
  0
ARC
  5
5CA
100
AcDbEntity
  8
0
100
AcDbCircle
 62
7
  6
CONTINUOUS
 10
18.3252617286
 20
12.052006394
 40
0.0123944257
100
AcDbArc
 50
34.113388301
 51
65.7602507714
  0
ARC
  5
5CB
100
AcDbEntity
  8
0
100
AcDbCircle
 62
7
  6
CONTINUOUS
 10
18.2146687097
 20
12.5020789644
 40
0.0123798675
100
AcDbArc
 50
53.2432728089
 51
74.0135905934
  0
ARC
  5
5CC
100
AcDbEntity
  8
0
100
AcDbCircle
 62
7
  6
CONTINUOUS
 10
17.684267193
 20
13.0037755555
 40
0.0101811178
100
AcDbArc
 50
103.1492953177
 51
109.338061263
  0
ARC
  5
5CD
100
AcDbEntity
  8
0
100
AcDbCircle
 62
7
  6
CONTINUOUS
 10
17.0095380936
 20
13.5556671555
 40
0.0161556591
100
AcDbArc
 50
342.8506648662
 51
346.3105926509
  0
ARC
  5
5CE
100
AcDbEntity
  8
0
100
AcDbCircle
 62
7
  6
CONTINUOUS
 10
17.5555177998
 20
13.1841688295
 40
0.0125644449
100
AcDbArc
 50
332.7657825164
 51
342.8920153544
  0
ARC
  5
5CF
100
AcDbEntity
  8
0
100
AcDbCircle
 62
7
  6
CONTINUOUS
 10
17.0532108957
 20
13.696628435
 40
0.0124909228
100
AcDbArc
 50
344.1527023365
 51
39.1970615541
  0
ARC
  5
5D0
100
AcDbEntity
  8
0
100
AcDbCircle
 62
7
  6
CONTINUOUS
 10
16.9347712602
 20
13.7656655671
 40
0.0124534692
100
AcDbArc
 50
84.145018087
 51
102.7799900447
  0
ARC
  5
5D1
100
AcDbEntity
  8
0
100
AcDbCircle
 62
7
  6
CONTINUOUS
 10
17.4968678712
 20
13.3866670064
 40
0.012438907
100
AcDbArc
 50
75.0439689229
 51
91.6617992178
  0
ARC
  5
5D2
100
AcDbEntity
  8
0
100
AcDbCircle
 62
7
  6
CONTINUOUS
 10
17.555646553
 20
13.1841253214
 40
0.0124300707
100
AcDbArc
 50
319.8442854119
 51
332.6725046467
  0
LINE
  5
5D3
100
AcDbEntity
  8
0
100
AcDbLine
 62
7
  6
CONTINUOUS
 10
5.8167830488
 20
8.1091511401
 11
5.8135316467
 21
8.1054795623
  0
LINE
  5
5D4
100
AcDbEntity
  8
0
100
AcDbLine
 62
7
  6
CONTINUOUS
 10
5.8135316467
 20
8.1054795623
 11
5.8104557816
 21
8.1020013983
  0
LINE
  5
5D5
100
AcDbEntity
  8
0
100
AcDbLine
 62
7
  6
CONTINUOUS
 10
5.8104557816
 20
8.1020013983
 11
5.8063302412
 21
8.0973289007
  0
LINE
  5
5D6
100
AcDbEntity
  8
0
100
AcDbLine
 62
7
  6
CONTINUOUS
 10
6.4439515035
 20
8.1091511401
 11
6.4474049332
 21
8.1052512546
  0
LINE
  5
5D7
100
AcDbEntity
  8
0
100
AcDbLine
 62
7
  6
CONTINUOUS
 10
6.4474049332
 20
8.1052512546
 11
6.4502787707
 21
8.1020013983
  0
LINE
  5
5D8
100
AcDbEntity
  8
0
100
AcDbLine
 62
7
  6
CONTINUOUS
 10
6.4502787707
 20
8.1020013983
 11
6.4544043111
 21
8.0973289007
  0
SPLINE
  5
5D9
100
AcDbEntity
  8
0
100
AcDbSpline
 62
7
  6
CONTINUOUS
 70
0
 71
3
 72
9
 73
5
 74
0
 42
0.0000001
 43
0.0000001
 44
0.0000000001
 40
0.0
 40
0.0
 40
0.0
 40
0.0
 40
0.4718577411
 40
1.0
 40
1.0
 40
1.0
 40
1.0
 10
5.8213870988
 20
8.1117663329
 30
0.0
 10
5.8205460785
 20
8.1116660651
 30
0.0
 10
5.8187988296
 20
8.1110567315
 30
0.0
 10
5.8174117985
 20
8.1098606393
 30
0.0
 10
5.8167830488
 20
8.1091511401
 30
0.0
  0
SPLINE
  5
5DA
100
AcDbEntity
  8
0
100
AcDbSpline
 62
7
  6
CONTINUOUS
 70
0
 71
3
 72
9
 73
5
 74
0
 42
0.0000001
 43
0.0000001
 44
0.0000000001
 40
0.0
 40
0.0
 40
0.0
 40
0.0
 40
0.5281422625
 40
1.0
 40
1.0
 40
1.0
 40
1.0
 10
6.4439515035
 20
8.1091511401
 30
0.0
 10
6.4433227538
 20
8.1098606393
 30
0.0
 10
6.4419357228
 20
8.1110567315
 30
0.0
 10
6.4401884738
 20
8.1116660651
 30
0.0
 10
6.4393474535
 20
8.1117663329
 30
0.0
  0
SPLINE
  5
5DB
100
AcDbEntity
  8
0
100
AcDbSpline
 62
7
  6
CONTINUOUS
 70
0
 71
3
 72
9
 73
5
 74
0
 42
0.0000001
 43
0.0000001
 44
0.0000000001
 40
0.0
 40
0.0
 40
0.0
 40
0.0
 40
0.4994465471
 40
1.0
 40
1.0
 40
1.0
 40
1.0
 10
7.859463409
 20
12.6849080011
 30
0.0
 10
7.8588913355
 20
12.6856934366
 30
0.0
 10
7.8575565184
 20
12.687135896
 30
0.0
 10
7.855924325
 20
12.6882316525
 30
0.0
 10
7.8550568415
 20
12.6886741896
 30
0.0
  0
SPLINE
  5
5DC
100
AcDbEntity
  8
0
100
AcDbSpline
 62
7
  6
CONTINUOUS
 70
0
 71
3
 72
9
 73
5
 74
0
 42
0.0000001
 43
0.0000001
 44
0.0000000001
 40
0.0
 40
0.0
 40
0.0
 40
0.0
 40
0.2519298232
 40
1.0
 40
1.0
 40
1.0
 40
1.0
 10
7.8550568415
 20
12.6886741896
 30
0.0
 10
7.8546162184
 20
12.6888989685
 30
0.0
 10
7.852814865
 20
12.6896844439
 30
0.0
 10
7.8508288653
 20
12.6900477814
 30
0.0
 10
7.8493600846
 20
12.6900477814
 30
0.0
  0
SPLINE
  5
5DD
100
AcDbEntity
  8
0
100
AcDbSpline
 62
7
  6
CONTINUOUS
 70
0
 71
3
 72
9
 73
5
 74
0
 42
0.0000001
 43
0.0000001
 44
0.0000000001
 40
0.0
 40
0.0
 40
0.0
 40
0.0
 40
0.4994284179
 40
1.0
 40
1.0
 40
1.0
 40
1.0
 10
8.3818555629
 20
12.6849402223
 30
0.0
 10
8.3812888
 20
12.6857131545
 30
0.0
 10
8.3799703422
 20
12.6871336626
 30
0.0
 10
8.3783624046
 20
12.6882167295
 30
0.0
 10
8.3775080377
 20
12.6886559468
 30
0.0
  0
SPLINE
  5
5DE
100
AcDbEntity
  8
0
100
AcDbSpline
 62
7
  6
CONTINUOUS
 70
0
 71
3
 72
9
 73
5
 74
0
 42
0.0000001
 43
0.0000001
 44
0.0000000001
 40
0.0
 40
0.0
 40
0.0
 40
0.0
 40
0.2519047661
 40
1.0
 40
1.0
 40
1.0
 40
1.0
 10
8.3775080377
 20
12.6886559468
 30
0.0
 10
8.3770652223
 20
12.6888835916
 30
0.0
 10
8.3752539758
 20
12.6896792754
 30
0.0
 10
8.3732544404
 20
12.6900477813
 30
0.0
 10
8.3717757904
 20
12.6900477814
 30
0.0
  0
SPLINE
  5
5DF
100
AcDbEntity
  8
0
100
AcDbSpline
 62
7
  6
CONTINUOUS
 70
0
 71
3
 72
9
 73
5
 74
0
 42
0.0000001
 43
0.0000001
 44
0.0000000001
 40
0.0
 40
0.0
 40
0.0
 40
0.0
 40
0.5003563593
 40
1.0
 40
1.0
 40
1.0
 40
1.0
 10
8.7621163534
 20
12.5225477511
 30
0.0
 10
8.7621145586
 20
12.5210487108
 30
0.0
 10
8.7615707069
 20
12.5180272228
 30
0.0
 10
8.7599806672
 20
12.5154000983
 30
0.0
 10
8.7589903257
 20
12.5142776226
 30
0.0
  0
SPLINE
  5
5E0
100
AcDbEntity
  8
0
100
AcDbSpline
 62
7
  6
CONTINUOUS
 70
0
 71
3
 72
9
 73
5
 74
0
 42
0.0000001
 43
0.0000001
 44
0.0000000001
 40
0.0
 40
0.0
 40
0.0
 40
0.0
 40
0.5003563585
 40
1.0
 40
1.0
 40
1.0
 40
1.0
 10
8.7621163534
 20
12.6775478116
 30
0.0
 10
8.7621145586
 20
12.6790468522
 30
0.0
 10
8.7615707067
 20
12.6820683407
 30
0.0
 10
8.7599806665
 20
12.6846954655
 30
0.0
 10
8.7589903247
 20
12.6858179413
 30
0.0
  0
SPLINE
  5
5E1
100
AcDbEntity
  8
0
100
AcDbSpline
 62
7
  6
CONTINUOUS
 70
0
 71
3
 72
9
 73
5
 74
0
 42
0.0000001
 43
0.0000001
 44
0.0000000001
 40
0.0
 40
0.0
 40
0.0
 40
0.0
 40
0.2514217846
 40
1.0
 40
1.0
 40
1.0
 40
1.0
 10
8.7548026382
 20
12.6889215139
 30
0.0
 10
8.7543961164
 20
12.6891064029
 30
0.0
 10
8.752740448
 20
12.6897532956
 30
0.0
 10
8.7509469265
 20
12.6900477813
 30
0.0
 10
8.7496172543
 20
12.6900477814
 30
0.0
  0
SPLINE
  5
5E2
100
AcDbEntity
  8
0
100
AcDbSpline
 62
7
  6
CONTINUOUS
 70
0
 71
3
 72
9
 73
5
 74
0
 42
0.0000001
 43
0.0000001
 44
0.0000000001
 40
0.0
 40
0.0
 40
0.0
 40
0.0
 40
0.5003563592
 40
1.0
 40
1.0
 40
1.0
 40
1.0
 10
3.3796278143
 20
12.6775478116
 30
0.0
 10
3.3796296091
 20
12.679046852
 30
0.0
 10
3.3801734608
 20
12.68206834
 30
0.0
 10
3.3817635006
 20
12.6846954645
 30
0.0
 10
3.3827538421
 20
12.6858179403
 30
0.0
  0
SPLINE
  5
5E3
100
AcDbEntity
  8
0
100
AcDbSpline
 62
7
  6
CONTINUOUS
 70
0
 71
3
 72
9
 73
5
 74
0
 42
0.0000001
 43
0.0000001
 44
0.0000000001
 40
0.0
 40
0.0
 40
0.0
 40
0.0
 40
0.5003563585
 40
1.0
 40
1.0
 40
1.0
 40
1.0
 10
3.3796278143
 20
12.5225477511
 30
0.0
 10
3.3796296091
 20
12.5210487105
 30
0.0
 10
3.380173461
 20
12.518027222
 30
0.0
 10
3.3817635013
 20
12.5154000971
 30
0.0
 10
3.3827538431
 20
12.5142776213
 30
0.0
  0
SPLINE
  5
5E4
100
AcDbEntity
  8
0
100
AcDbSpline
 62
7
  6
CONTINUOUS
 70
0
 71
3
 72
9
 73
5
 74
0
 42
0.0000001
 43
0.0000001
 44
0.0000000001
 40
0.0
 40
0.0
 40
0.0
 40
0.0
 40
0.2514217846
 40
1.0
 40
1.0
 40
1.0
 40
1.0
 10
3.3869415296
 20
12.5111740488
 30
0.0
 10
3.3873480514
 20
12.5109891598
 30
0.0
 10
3.3890037198
 20
12.5103422671
 30
0.0
 10
3.3907972413
 20
12.5100477814
 30
0.0
 10
3.3921269135
 20
12.5100477814
 30
0.0
  0
SPLINE
  5
5E5
100
AcDbEntity
  8
0
100
AcDbSpline
 62
7
  6
CONTINUOUS
 70
0
 71
3
 72
12
 73
8
 74
0
 42
0.0000001
 43
0.0000001
 44
0.0000000001
 40
0.0
 40
0.0
 40
0.0
 40
0.0
 40
0.2491139667
 40
0.3747568635
 40
0.5000829815
 40
0.749732107
 40
1.0
 40
1.0
 40
1.0
 40
1.0
 10
3.1455108387
 20
12.5100477814
 30
0.0
 10
3.1440359482
 20
12.5100477814
 30
0.0
 10
3.1417944967
 20
12.510462485
 30
0.0
 10
3.1391090107
 20
12.5117353117
 30
0.0
 10
3.1366917287
 20
12.5134762014
 30
0.0
 10
3.1343127012
 20
12.5164202086
 30
0.0
 10
3.1333658538
 20
12.5193007488
 30
0.0
 10
3.1331509837
 20
12.5207668089
 30
0.0
  0
SPLINE
  5
5E6
100
AcDbEntity
  8
0
100
AcDbSpline
 62
7
  6
CONTINUOUS
 70
0
 71
3
 72
9
 73
5
 74
0
 42
0.0000001
 43
0.0000001
 44
0.0000000001
 40
0.0
 40
0.0
 40
0.0
 40
0.0
 40
0.4994284179
 40
1.0
 40
1.0
 40
1.0
 40
1.0
 10
3.7598886049
 20
12.5151553403
 30
0.0
 10
3.7604553678
 20
12.5143824081
 30
0.0
 10
3.7617738256
 20
12.5129619
 30
0.0
 10
3.7633817632
 20
12.5118788331
 30
0.0
 10
3.7642361301
 20
12.5114396159
 30
0.0
  0
SPLINE
  5
5E7
100
AcDbEntity
  8
0
100
AcDbSpline
 62
7
  6
CONTINUOUS
 70
0
 71
3
 72
9
 73
5
 74
0
 42
0.0000001
 43
0.0000001
 44
0.0000000001
 40
0.0
 40
0.0
 40
0.0
 40
0.0
 40
0.2519047661
 40
1.0
 40
1.0
 40
1.0
 40
1.0
 10
3.7642361301
 20
12.5114396159
 30
0.0
 10
3.7646789455
 20
12.5112119711
 30
0.0
 10
3.766490192
 20
12.5104162873
 30
0.0
 10
3.7684897274
 20
12.5100477814
 30
0.0
 10
3.7699683773
 20
12.5100477814
 30
0.0
  0
SPLINE
  5
5E8
100
AcDbEntity
  8
0
100
AcDbSpline
 62
7
  6
CONTINUOUS
 70
0
 71
3
 72
9
 73
5
 74
0
 42
0.0000001
 43
0.0000001
 44
0.0000000001
 40
0.0
 40
0.0
 40
0.0
 40
0.0
 40
0.4994465471
 40
1.0
 40
1.0
 40
1.0
 40
1.0
 10
4.2822807588
 20
12.5151875616
 30
0.0
 10
4.2828528322
 20
12.5144021262
 30
0.0
 10
4.2841876493
 20
12.5129596667
 30
0.0
 10
4.2858198427
 20
12.5118639102
 30
0.0
 10
4.2866873262
 20
12.5114213732
 30
0.0
  0
SPLINE
  5
5E9
100
AcDbEntity
  8
0
100
AcDbSpline
 62
7
  6
CONTINUOUS
 70
0
 71
3
 72
9
 73
5
 74
0
 42
0.0000001
 43
0.0000001
 44
0.0000000001
 40
0.0
 40
0.0
 40
0.0
 40
0.0
 40
0.2519298232
 40
1.0
 40
1.0
 40
1.0
 40
1.0
 10
4.2866873262
 20
12.5114213732
 30
0.0
 10
4.2871279493
 20
12.5111965942
 30
0.0
 10
4.2889293027
 20
12.5104111188
 30
0.0
 10
4.2909153024
 20
12.5100477814
 30
0.0
 10
4.2923840831
 20
12.5100477814
 30
0.0
  0
SPLINE
  5
5EA
100
AcDbEntity
  8
0
100
AcDbSpline
 62
7
  6
CONTINUOUS
 70
0
 71
3
 72
9
 73
5
 74
0
 42
0.0000001
 43
0.0000001
 44
0.0000000001
 40
0.0
 40
0.0
 40
0.0
 40
0.0
 40
0.4983804475
 40
1.0
 40
1.0
 40
1.0
 40
1.0
 10
9.0087241968
 20
12.5225477814
 30
0.0
 10
9.0087241968
 20
12.5214639123
 30
0.0
 10
9.0084281955
 20
12.5192815842
 30
0.0
 10
9.007593915
 20
12.5172438359
 30
0.0
 10
9.0070507307
 20
12.5162977689
 30
0.0
  0
SPLINE
  5
5EB
100
AcDbEntity
  8
0
100
AcDbSpline
 62
7
  6
CONTINUOUS
 70
0
 71
3
 72
11
 73
7
 74
0
 42
0.0000001
 43
0.0000001
 44
0.0000000001
 40
0.0
 40
0.0
 40
0.0
 40
0.0
 40
0.2501004913
 40
0.5001534982
 40
0.7509095451
 40
1.0
 40
1.0
 40
1.0
 40
1.0
 10
9.0070507307
 20
12.5162977689
 30
0.0
 10
9.0065092494
 20
12.5153546681
 30
0.0
 10
9.0051676966
 20
12.5136056393
 30
0.0
 10
9.0025486975
 20
12.5115941405
 30
0.0
 10
8.9994984031
 20
12.5103447691
 30
0.0
 10
8.9973164302
 20
12.5100477813
 30
0.0
 10
8.996233329
 20
12.5100477814
 30
0.0
  0
SPLINE
  5
5EC
100
AcDbEntity
  8
0
100
AcDbSpline
 62
7
  6
CONTINUOUS
 70
0
 71
3
 72
9
 73
5
 74
0
 42
0.0000001
 43
0.0000001
 44
0.0000000001
 40
0.0
 40
0.0
 40
0.0
 40
0.0
 40
0.4983804483
 40
1.0
 40
1.0
 40
1.0
 40
1.0
 10
3.1330199709
 20
12.6775477814
 30
0.0
 10
3.1330199709
 20
12.6786316501
 30
0.0
 10
3.133315972
 20
12.6808139777
 30
0.0
 10
3.1341502522
 20
12.6828517256
 30
0.0
 10
3.1346934363
 20
12.6837977924
 30
0.0
  0
SPLINE
  5
5ED
100
AcDbEntity
  8
0
100
AcDbSpline
 62
7
  6
CONTINUOUS
 70
0
 71
3
 72
11
 73
7
 74
0
 42
0.0000001
 43
0.0000001
 44
0.0000000001
 40
0.0
 40
0.0
 40
0.0
 40
0.0
 40
0.2501004886
 40
0.5001534948
 40
0.7509095442
 40
1.0
 40
1.0
 40
1.0
 40
1.0
 10
3.1346934363
 20
12.6837977924
 30
0.0
 10
3.1352349175
 20
12.6847408934
 30
0.0
 10
3.1365764702
 20
12.6864899226
 30
0.0
 10
3.1391954695
 20
12.6885014218
 30
0.0
 10
3.1422457642
 20
12.6897507936
 30
0.0
 10
3.1444277374
 20
12.6900477814
 30
0.0
 10
3.1455108387
 20
12.6900477814
 30
0.0
  0
SPLINE
  5
5EE
100
AcDbEntity
  8
0
100
AcDbSpline
 62
7
  6
CONTINUOUS
 70
0
 71
3
 72
12
 73
8
 74
0
 42
0.0000001
 43
0.0000001
 44
0.0000000001
 40
0.0
 40
0.0
 40
0.0
 40
0.0
 40
0.2491139655
 40
0.3747568606
 40
0.5000829766
 40
0.749732101
 40
1.0
 40
1.0
 40
1.0
 40
1.0
 10
8.996233329
 20
12.6900477814
 30
0.0
 10
8.9977082194
 20
12.6900477814
 30
0.0
 10
8.9999496707
 20
12.6896330778
 30
0.0
 10
9.0026351564
 20
12.6883602513
 30
0.0
 10
9.0050524383
 20
12.686619362
 30
0.0
 10
9.0074314658
 20
12.6836753552
 30
0.0
 10
9.0083783135
 20
12.6807948153
 30
0.0
 10
9.0085931838
 20
12.6793287553
 30
0.0
  0
SPLINE
  5
5EF
100
AcDbEntity
  8
0
100
AcDbSpline
 62
7
  6
CONTINUOUS
 70
0
 71
3
 72
12
 73
8
 74
0
 42
0.0000001
 43
0.0000001
 44
0.0000000001
 40
0.0
 40
0.0
 40
0.0
 40
0.0
 40
0.2491145042
 40
0.3747436036
 40
0.5000739198
 40
0.7497259826
 40
1.0
 40
1.0
 40
1.0
 40
1.0
 10
7.2151954368
 20
12.5100477814
 30
0.0
 10
7.2166553726
 20
12.5100477814
 30
0.0
 10
7.2188736072
 20
12.5104531612
 30
0.0
 10
7.2215377217
 20
12.5117000211
 30
0.0
 10
7.2239418292
 20
12.5134066617
 30
0.0
 10
7.2263248399
 20
12.5162958822
 30
0.0
 10
7.2272986411
 20
12.5191336135
 30
0.0
 10
7.2275330195
 20
12.5205814971
 30
0.0
  0
SPLINE
  5
5F0
100
AcDbEntity
  8
0
100
AcDbSpline
 62
7
  6
CONTINUOUS
 70
0
 71
3
 72
12
 73
8
 74
0
 42
0.0000001
 43
0.0000001
 44
0.0000000001
 40
0.0
 40
0.0
 40
0.0
 40
0.0
 40
0.249115026
 40
0.374744563
 40
0.5000750263
 40
0.7497267122
 40
1.0
 40
1.0
 40
1.0
 40
1.0
 10
7.2151954368
 20
12.6900477814
 30
0.0
 10
7.2166553923
 20
12.6900477814
 30
0.0
 10
7.2188736569
 20
12.6896423836
 30
0.0
 10
7.2215378024
 20
12.6883954956
 30
0.0
 10
7.223941926
 20
12.6866888162
 30
0.0
 10
7.2263249264
 20
12.6837995373
 30
0.0
 10
7.2272986973
 20
12.6809617652
 30
0.0
 10
7.2275330531
 20
12.6795138653
 30
0.0
  0
SPLINE
  5
5F1
100
AcDbEntity
  8
0
100
AcDbSpline
 62
7
  6
CONTINUOUS
 70
0
 71
3
 72
12
 73
8
 74
0
 42
0.0000001
 43
0.0000001
 44
0.0000000001
 40
0.0
 40
0.0
 40
0.0
 40
0.0
 40
0.2491150261
 40
0.374744563
 40
0.5000750263
 40
0.7497267122
 40
1.0
 40
1.0
 40
1.0
 40
1.0
 10
4.9265487309
 20
12.5100477814
 30
0.0
 10
4.9250887754
 20
12.5100477814
 30
0.0
 10
4.9228705108
 20
12.5104531791
 30
0.0
 10
4.9202063654
 20
12.5117000671
 30
0.0
 10
4.9178022417
 20
12.5134067466
 30
0.0
 10
4.9154192414
 20
12.5162960254
 30
0.0
 10
4.9144454704
 20
12.5191337975
 30
0.0
 10
4.9142111146
 20
12.5205816974
 30
0.0
  0
SPLINE
  5
5F2
100
AcDbEntity
  8
0
100
AcDbSpline
 62
7
  6
CONTINUOUS
 70
0
 71
3
 72
12
 73
8
 74
0
 42
0.0000001
 43
0.0000001
 44
0.0000000001
 40
0.0
 40
0.0
 40
0.0
 40
0.0
 40
0.2491145042
 40
0.3747436036
 40
0.5000739198
 40
0.7497259826
 40
1.0
 40
1.0
 40
1.0
 40
1.0
 10
4.9265487309
 20
12.6900477814
 30
0.0
 10
4.9250887951
 20
12.6900477814
 30
0.0
 10
4.9228705605
 20
12.6896424015
 30
0.0
 10
4.920206446
 20
12.6883955416
 30
0.0
 10
4.9178023385
 20
12.686688901
 30
0.0
 10
4.9154193278
 20
12.6837996805
 30
0.0
 10
4.9144455267
 20
12.6809619492
 30
0.0
 10
4.9142111482
 20
12.6795140656
 30
0.0
  0
SPLINE
  5
5F3
100
AcDbEntity
  8
0
100
AcDbSpline
 62
7
  6
CONTINUOUS
 70
0
 71
3
 72
9
 73
5
 74
0
 42
0.0000001
 43
0.0000001
 44
0.0000000001
 40
0.0
 40
0.0
 40
0.0
 40
0.0
 40
0.2556753716
 40
1.0
 40
1.0
 40
1.0
 40
1.0
 10
4.3442357085
 20
12.6970714411
 30
0.0
 10
4.3444655909
 20
12.6975679444
 30
0.0
 10
4.3454231085
 20
12.6994825557
 30
0.0
 10
4.3465999109
 20
12.7012854608
 30
0.0
 10
4.3475713417
 20
12.7025477814
 30
0.0
  0
SPLINE
  5
5F4
100
AcDbEntity
  8
0
100
AcDbSpline
 62
7
  6
CONTINUOUS
 70
0
 71
3
 72
9
 73
5
 74
0
 42
0.0000001
 43
0.0000001
 44
0.0000000001
 40
0.0
 40
0.0
 40
0.0
 40
0.0
 40
0.2556590327
 40
1.0
 40
1.0
 40
1.0
 40
1.0
 10
7.7975070621
 20
12.5030211053
 30
0.0
 10
7.7972772118
 20
12.5025249389
 30
0.0
 10
7.7963197489
 20
12.5006115308
 30
0.0
 10
7.7951432934
 20
12.4988098429
 30
0.0
 10
7.794172826
 20
12.4975477814
 30
0.0
  0
SPLINE
  5
5F5
100
AcDbEntity
  8
0
100
AcDbSpline
 62
7
  6
CONTINUOUS
 70
0
 71
3
 72
11
 73
7
 74
0
 42
0.0000001
 43
0.0000001
 44
0.0000000001
 40
0.0
 40
0.0
 40
0.0
 40
0.0
 40
0.2520957432
 40
0.5033025873
 40
0.7526565233
 40
1.0
 40
1.0
 40
1.0
 40
1.0
 10
6.884094487
 20
12.6853169239
 30
0.0
 10
6.8840945207
 20
12.6869284968
 30
0.0
 10
6.8844505758
 20
12.69015535
 30
0.0
 10
6.8859593098
 20
12.6947573355
 30
0.0
 10
6.8883251253
 20
12.6989446954
 30
0.0
 10
6.8903580228
 20
12.7014039756
 30
0.0
 10
6.8914497553
 20
12.7025477814
 30
0.0
  0
SPLINE
  5
5F6
100
AcDbEntity
  8
0
100
AcDbSpline
 62
7
  6
CONTINUOUS
 70
0
 71
3
 72
11
 73
7
 74
0
 42
0.0000001
 43
0.0000001
 44
0.0000000001
 40
0.0
 40
0.0
 40
0.0
 40
0.0
 40
0.2473472459
 40
0.4966920123
 40
0.7478998682
 40
1.0
 40
1.0
 40
1.0
 40
1.0
 10
6.8914497553
 20
12.4975477814
 30
0.0
 10
6.8903583503
 20
12.4986919326
 30
0.0
 10
6.8883253627
 20
12.5011509906
 30
0.0
 10
6.8859590998
 20
12.5053381317
 30
0.0
 10
6.8844506761
 20
12.5099401959
 30
0.0
 10
6.884094481
 20
12.5131670584
 30
0.0
 10
6.8840944843
 20
12.5147786591
 30
0.0
  0
SPLINE
  5
5F7
100
AcDbEntity
  8
0
100
AcDbSpline
 62
7
  6
CONTINUOUS
 70
0
 71
3
 72
11
 73
7
 74
0
 42
0.0000001
 43
0.0000001
 44
0.0000000001
 40
0.0
 40
0.0
 40
0.0
 40
0.0
 40
0.2507708604
 40
0.5012897798
 40
0.7510276519
 40
1.0
 40
1.0
 40
1.0
 40
1.0
 10
6.5935195351
 20
12.5147786452
 30
0.0
 10
6.5935194841
 20
12.51316652
 30
0.0
 10
6.5931519292
 20
12.5099340107
 30
0.0
 10
6.5915961675
 20
12.5053284161
 30
0.0
 10
6.5891567912
 20
12.5011410108
 30
0.0
 10
6.587066627
 20
12.4986892639
 30
0.0
 10
6.5859446556
 20
12.4975477814
 30
0.0
  0
SPLINE
  5
5F8
100
AcDbEntity
  8
0
100
AcDbSpline
 62
7
  6
CONTINUOUS
 70
0
 71
3
 72
11
 73
7
 74
0
 42
0.0000001
 43
0.0000001
 44
0.0000000001
 40
0.0
 40
0.0
 40
0.0
 40
0.0
 40
0.2489659437
 40
0.4987213799
 40
0.7492240515
 40
1.0
 40
1.0
 40
1.0
 40
1.0
 10
6.5859446556
 20
12.7025477814
 30
0.0
 10
6.5870686761
 20
12.7014083588
 30
0.0
 10
6.5891579203
 20
12.6989551072
 30
0.0
 10
6.5915951318
 20
12.694766843
 30
0.0
 10
6.5931522413
 20
12.6901616668
 30
0.0
 10
6.5935195258
 20
12.6869290939
 30
0.0
 10
6.5935195341
 20
12.6853169249
 30
0.0
  0
SPLINE
  5
5F9
100
AcDbEntity
  8
0
100
AcDbSpline
 62
7
  6
CONTINUOUS
 70
0
 71
3
 72
11
 73
7
 74
0
 42
0.0000001
 43
0.0000001
 44
0.0000000001
 40
0.0
 40
0.0
 40
0.0
 40
0.0
 40
0.2568654654
 40
0.510550402
 40
0.7584896623
 40
1.0
 40
1.0
 40
1.0
 40
1.0
 10
7.4962191334
 20
12.6853169239
 30
0.0
 10
7.4962191634
 20
12.6869265475
 30
0.0
 10
7.4965326025
 20
12.6901334002
 30
0.0
 10
7.4978649069
 20
12.694722472
 30
0.0
 10
7.4999599692
 20
12.6989083416
 30
0.0
 10
7.5017811829
 20
12.7013937831
 30
0.0
 10
7.5027603019
 20
12.7025477814
 30
0.0
  0
SPLINE
  5
5FA
100
AcDbEntity
  8
0
100
AcDbSpline
 62
7
  6
CONTINUOUS
 70
0
 71
3
 72
11
 73
7
 74
0
 42
0.0000001
 43
0.0000001
 44
0.0000000001
 40
0.0
 40
0.0
 40
0.0
 40
0.0
 40
0.2415152246
 40
0.4894439685
 40
0.7431301637
 40
1.0
 40
1.0
 40
1.0
 40
1.0
 10
7.5027603019
 20
12.4975477814
 30
0.0
 10
7.5017815122
 20
12.4987020989
 30
0.0
 10
7.4999601856
 20
12.501187324
 30
0.0
 10
7.4978647092
 20
12.505373015
 30
0.0
 10
7.4965326955
 20
12.5099621409
 30
0.0
 10
7.4962191281
 20
12.5131690082
 30
0.0
 10
7.496219131
 20
12.5147786591
 30
0.0
  0
SPLINE
  5
5FB
100
AcDbEntity
  8
0
100
AcDbSpline
 62
7
  6
CONTINUOUS
 70
0
 71
3
 72
9
 73
5
 74
0
 42
0.0000001
 43
0.0000001
 44
0.0000000001
 40
0.0
 40
0.0
 40
0.0
 40
0.0
 40
0.5033009232
 40
1.0
 40
1.0
 40
1.0
 40
1.0
 10
7.2333271262
 20
12.5147786452
 30
0.0
 10
7.2333270663
 20
12.5127182136
 30
0.0
 10
7.2327813364
 20
12.5086084437
 30
0.0
 10
7.2312391034
 20
12.5047681605
 30
0.0
 10
7.2302629199
 20
12.5029844003
 30
0.0
  0
SPLINE
  5
5FC
100
AcDbEntity
  8
0
100
AcDbSpline
 62
7
  6
CONTINUOUS
 70
0
 71
3
 72
9
 73
5
 74
0
 42
0.0000001
 43
0.0000001
 44
0.0000000001
 40
0.0
 40
0.0
 40
0.0
 40
0.0
 40
0.2524557466
 40
1.0
 40
1.0
 40
1.0
 40
1.0
 10
7.2302629199
 20
12.5029844003
 30
0.0
 10
7.2299921972
 20
12.5024897143
 30
0.0
 10
7.2288550706
 20
12.5005658781
 30
0.0
 10
7.2274805513
 20
12.4987862683
 30
0.0
 10
7.2263605353
 20
12.4975477814
 30
0.0
  0
SPLINE
  5
5FD
100
AcDbEntity
  8
0
100
AcDbSpline
 62
7
  6
CONTINUOUS
 70
0
 71
3
 72
9
 73
5
 74
0
 42
0.0000001
 43
0.0000001
 44
0.0000000001
 40
0.0
 40
0.0
 40
0.0
 40
0.0
 40
0.2477826395
 40
1.0
 40
1.0
 40
1.0
 40
1.0
 10
7.2263605353
 20
12.7025477814
 30
0.0
 10
7.2267352626
 20
12.7021349151
 30
0.0
 10
7.2282026441
 20
12.7004289023
 30
0.0
 10
7.229477917
 20
12.6985538706
 30
0.0
 10
7.2302869784
 20
12.6970670963
 30
0.0
  0
SPLINE
  5
5FE
100
AcDbEntity
  8
0
100
AcDbSpline
 62
7
  6
CONTINUOUS
 70
0
 71
3
 72
9
 73
5
 74
0
 42
0.0000001
 43
0.0000001
 44
0.0000000001
 40
0.0
 40
0.0
 40
0.0
 40
0.0
 40
0.2484233337
 40
1.0
 40
1.0
 40
1.0
 40
1.0
 10
7.2302869784
 20
12.6970670963
 30
0.0
 10
7.2305347492
 20
12.6966117796
 30
0.0
 10
7.2314764736
 20
12.694749319
 30
0.0
 10
7.2321889275
 20
12.692770097
 30
0.0
 10
7.2325759331
 20
12.69125034
 30
0.0
  0
SPLINE
  5
5FF
100
AcDbEntity
  8
0
100
AcDbSpline
 62
7
  6
CONTINUOUS
 70
0
 71
3
 72
11
 73
7
 74
0
 42
0.0000001
 43
0.0000001
 44
0.0000000001
 40
0.0
 40
0.0
 40
0.0
 40
0.0
 40
0.2635596296
 40
0.5208073993
 40
0.766843832
 40
1.0
 40
1.0
 40
1.0
 40
1.0
 10
8.0187839827
 20
12.6853169239
 30
0.0
 10
8.018784007
 20
12.6869240389
 30
0.0
 10
8.0190354208
 20
12.6901048383
 30
0.0
 10
8.0201075072
 20
12.6946741821
 30
0.0
 10
8.0217979384
 20
12.6988533527
 30
0.0
 10
8.0232933029
 20
12.7013771138
 30
0.0
 10
8.0241000456
 20
12.7025477814
 30
0.0
  0
SPLINE
  5
600
100
AcDbEntity
  8
0
100
AcDbSpline
 62
7
  6
CONTINUOUS
 70
0
 71
3
 72
11
 73
7
 74
0
 42
0.0000001
 43
0.0000001
 44
0.0000000001
 40
0.0
 40
0.0
 40
0.0
 40
0.0
 40
0.233163334
 40
0.4791873315
 40
0.7364363278
 40
1.0
 40
1.0
 40
1.0
 40
1.0
 10
8.0241000456
 20
12.4975477814
 30
0.0
 10
8.0232936217
 20
12.4987187218
 30
0.0
 10
8.0217981184
 20
12.5012422943
 30
0.0
 10
8.0201073295
 20
12.5054213414
 30
0.0
 10
8.0190354996
 20
12.5099907016
 30
0.0
 10
8.0187839784
 20
12.5131715192
 30
0.0
 10
8.0187839807
 20
12.5147786591
 30
0.0
  0
SPLINE
  5
601
100
AcDbEntity
  8
0
100
AcDbSpline
 62
7
  6
CONTINUOUS
 70
0
 71
3
 72
9
 73
5
 74
0
 42
0.0000001
 43
0.0000001
 44
0.0000000001
 40
0.0
 40
0.0
 40
0.0
 40
0.0
 40
0.4869518161
 40
1.0
 40
1.0
 40
1.0
 40
1.0
 10
7.794172826
 20
12.7025477814
 30
0.0
 10
7.7954178075
 20
12.7009345587
 30
0.0
 10
7.7976450077
 20
12.6973498389
 30
0.0
 10
7.7990024887
 20
12.6933448937
 30
0.0
 10
7.7994561359
 20
12.6912464018
 30
0.0
  0
SPLINE
  5
602
100
AcDbEntity
  8
0
100
AcDbSpline
 62
7
  6
CONTINUOUS
 70
0
 71
3
 72
11
 73
7
 74
0
 42
0.0000001
 43
0.0000001
 44
0.0000000001
 40
0.0
 40
0.0
 40
0.0
 40
0.0
 40
0.2708171466
 40
0.5320400938
 40
0.7761358209
 40
1.0
 40
1.0
 40
1.0
 40
1.0
 10
8.4189543634
 20
12.6853169239
 30
0.0
 10
8.4189543806
 20
12.6869215878
 30
0.0
 10
8.4191298698
 20
12.6900766263
 30
0.0
 10
8.4198797439
 20
12.6946229757
 30
0.0
 10
8.4210631434
 20
12.6987882658
 30
0.0
 10
8.422130999
 20
12.7013549939
 30
0.0
 10
8.422711293
 20
12.7025477814
 30
0.0
  0
SPLINE
  5
603
100
AcDbEntity
  8
0
100
AcDbSpline
 62
7
  6
CONTINUOUS
 70
0
 71
3
 72
11
 73
7
 74
0
 42
0.0000001
 43
0.0000001
 44
0.0000000001
 40
0.0
 40
0.0
 40
0.0
 40
0.0
 40
0.223873038
 40
0.4679535488
 40
0.7291784473
 40
1.0
 40
1.0
 40
1.0
 40
1.0
 10
8.422711293
 20
12.4975477814
 30
0.0
 10
8.4221312831
 20
12.4987407661
 30
0.0
 10
8.421063269
 20
12.5013073466
 30
0.0
 10
8.4198796115
 20
12.5054725689
 30
0.0
 10
8.4191299311
 20
12.5100188979
 30
0.0
 10
8.4189543604
 20
12.5131739682
 30
0.0
 10
8.418954362
 20
12.5147786591
 30
0.0
  0
SPLINE
  5
604
100
AcDbEntity
  8
0
100
AcDbSpline
 62
7
  6
CONTINUOUS
 70
0
 71
3
 72
9
 73
5
 74
0
 42
0.0000001
 43
0.0000001
 44
0.0000000001
 40
0.0
 40
0.0
 40
0.0
 40
0.0
 40
0.4817560311
 40
1.0
 40
1.0
 40
1.0
 40
1.0
 10
8.2537037932
 20
12.7025477814
 30
0.0
 10
8.2544195675
 20
12.7013291447
 30
0.0
 10
8.2557318196
 20
12.6986938715
 30
0.0
 10
8.2566639107
 20
12.6959007797
 30
0.0
 10
8.2570477669
 20
12.6944296965
 30
0.0
  0
SPLINE
  5
605
100
AcDbEntity
  8
0
100
AcDbSpline
 62
7
  6
CONTINUOUS
 70
0
 71
3
 72
9
 73
5
 74
0
 42
0.0000001
 43
0.0000001
 44
0.0000000001
 40
0.0
 40
0.0
 40
0.0
 40
0.0
 40
0.276852697
 40
1.0
 40
1.0
 40
1.0
 40
1.0
 10
8.67172284
 20
12.6900762111
 30
0.0
 10
8.6717895639
 20
12.6912384552
 30
0.0
 10
8.672119879
 20
12.6954300765
 30
0.0
 10
8.6728011604
 20
12.6996000652
 30
0.0
 10
8.6735478335
 20
12.7025477814
 30
0.0
  0
SPLINE
  5
606
100
AcDbEntity
  8
0
100
AcDbSpline
 62
7
  6
CONTINUOUS
 70
0
 71
3
 72
9
 73
5
 74
0
 42
0.0000001
 43
0.0000001
 44
0.0000000001
 40
0.0
 40
0.0
 40
0.0
 40
0.0
 40
0.220777935
 40
1.0
 40
1.0
 40
1.0
 40
1.0
 10
8.6735478335
 20
12.4975477814
 30
0.0
 10
8.673320036
 20
12.498447735
 30
0.0
 10
8.6723958988
 20
12.5025511391
 30
0.0
 10
8.6719106799
 20
12.5067477365
 30
0.0
 10
8.6717228721
 20
12.510018855
 30
0.0
  0
SPLINE
  5
607
100
AcDbEntity
  8
0
100
AcDbSpline
 62
7
  6
CONTINUOUS
 70
0
 71
3
 72
11
 73
7
 74
0
 42
0.0000001
 43
0.0000001
 44
0.0000000001
 40
0.0
 40
0.0
 40
0.0
 40
0.0
 40
0.2499076779
 40
0.4999126033
 40
0.7500185363
 40
1.0
 40
1.0
 40
1.0
 40
1.0
 10
5.9131648719
 20
12.7025477814
 30
0.0
 10
5.9143066721
 20
12.7014098014
 30
0.0
 10
5.9164294091
 20
12.698960654
 30
0.0
 10
5.9189107966
 20
12.6947726875
 30
0.0
 10
5.9204974997
 20
12.6901656257
 30
0.0
 10
5.920872073
 20
12.6869294511
 30
0.0
 10
5.9208720814
 20
12.6853169249
 30
0.0
  0
SPLINE
  5
608
100
AcDbEntity
  8
0
100
AcDbSpline
 62
7
  6
CONTINUOUS
 70
0
 71
3
 72
11
 73
7
 74
0
 42
0.0000001
 43
0.0000001
 44
0.0000000001
 40
0.0
 40
0.0
 40
0.0
 40
0.0
 40
0.249976086
 40
0.5000976351
 40
0.7500867483
 40
1.0
 40
1.0
 40
1.0
 40
1.0
 10
5.9208720824
 20
12.5147786452
 30
0.0
 10
5.9208720306
 20
12.5131661649
 30
0.0
 10
5.9204971862
 20
12.5099300637
 30
0.0
 10
5.9189118514
 20
12.5053225598
 30
0.0
 10
5.9164282574
 20
12.5011354911
 30
0.0
 10
5.9143046172
 20
12.4986878544
 30
0.0
 10
5.9131648719
 20
12.4975477814
 30
0.0
  0
SPLINE
  5
609
100
AcDbEntity
  8
0
100
AcDbSpline
 62
7
  6
CONTINUOUS
 70
0
 71
3
 72
11
 73
7
 74
0
 42
0.0000001
 43
0.0000001
 44
0.0000000001
 40
0.0
 40
0.0
 40
0.0
 40
0.0
 40
0.249888234
 40
0.4999443498
 40
0.7500109604
 40
1.0
 40
1.0
 40
1.0
 40
1.0
 10
6.2285540112
 20
12.4975477814
 30
0.0
 10
6.2274143994
 20
12.4986859287
 30
0.0
 10
6.2253043992
 20
12.5011434393
 30
0.0
 10
6.2228341217
 20
12.5053316811
 30
0.0
 10
6.221244359
 20
12.509933578
 30
0.0
 10
6.2208720799
 20
12.5131673901
 30
0.0
 10
6.2208720833
 20
12.5147786591
 30
0.0
  0
SPLINE
  5
60A
100
AcDbEntity
  8
0
100
AcDbSpline
 62
7
  6
CONTINUOUS
 70
0
 71
3
 72
11
 73
7
 74
0
 42
0.0000001
 43
0.0000001
 44
0.0000000001
 40
0.0
 40
0.0
 40
0.0
 40
0.0
 40
0.2499802735
 40
0.50007367
 40
0.7501009567
 40
1.0
 40
1.0
 40
1.0
 40
1.0
 10
6.2208720862
 20
12.6853169239
 30
0.0
 10
6.2208721214
 20
12.6869288128
 30
0.0
 10
6.2212456538
 20
12.6901638205
 30
0.0
 10
6.2228333997
 20
12.6947685506
 30
0.0
 10
6.2253101764
 20
12.6989563938
 30
0.0
 10
6.2274271783
 20
12.7014090082
 30
0.0
 10
6.2285672192
 20
12.7025477814
 30
0.0
  0
SPLINE
  5
60B
100
AcDbEntity
  8
0
100
AcDbSpline
 62
7
  6
CONTINUOUS
 70
0
 71
3
 72
11
 73
7
 74
0
 42
0.0000001
 43
0.0000001
 44
0.0000000001
 40
0.0
 40
0.0
 40
0.0
 40
0.0
 40
0.2473365815
 40
0.4967041462
 40
0.7478984101
 40
1.0
 40
1.0
 40
1.0
 40
1.0
 10
5.2502944124
 20
12.7025477814
 30
0.0
 10
5.2513877413
 20
12.70140555
 30
0.0
 10
5.2534198848
 20
12.6989451172
 30
0.0
 10
5.2557840659
 20
12.694757152
 30
0.0
 10
5.257293831
 20
12.6901554557
 30
0.0
 10
5.2576496725
 20
12.6869285443
 30
0.0
 10
5.2576496806
 20
12.6853169249
 30
0.0
  0
SPLINE
  5
60C
100
AcDbEntity
  8
0
100
AcDbSpline
 62
7
  6
CONTINUOUS
 70
0
 71
3
 72
11
 73
7
 74
0
 42
0.0000001
 43
0.0000001
 44
0.0000000001
 40
0.0
 40
0.0
 40
0.0
 40
0.0
 40
0.2520959124
 40
0.5033062768
 40
0.7526547648
 40
1.0
 40
1.0
 40
1.0
 40
1.0
 10
5.2576496815
 20
12.5147786452
 30
0.0
 10
5.2576496321
 20
12.513167073
 30
0.0
 10
5.2572935256
 20
12.5099402249
 30
0.0
 10
5.2557850958
 20
12.5053381454
 30
0.0
 10
5.2534187843
 20
12.5011509874
 30
0.0
 10
5.2513856894
 20
12.4986920348
 30
0.0
 10
5.2502944124
 20
12.4975477814
 30
0.0
  0
SPLINE
  5
60D
100
AcDbEntity
  8
0
100
AcDbSpline
 62
7
  6
CONTINUOUS
 70
0
 71
3
 72
11
 73
7
 74
0
 42
0.0000001
 43
0.0000001
 44
0.0000000001
 40
0.0
 40
0.0
 40
0.0
 40
0.0
 40
0.2489742884
 40
0.4987082568
 40
0.749224958
 40
1.0
 40
1.0
 40
1.0
 40
1.0
 10
5.5557995121
 20
12.4975477814
 30
0.0
 10
5.5546774078
 20
12.498689153
 30
0.0
 10
5.5525873478
 20
12.5011410062
 30
0.0
 10
5.5501480367
 20
12.5053284038
 30
0.0
 10
5.5485922708
 20
12.5099339789
 30
0.0
 10
5.5482246273
 20
12.5131665055
 30
0.0
 10
5.5482246307
 20
12.5147786591
 30
0.0
  0
SPLINE
  5
60E
100
AcDbEntity
  8
0
100
AcDbSpline
 62
7
  6
CONTINUOUS
 70
0
 71
3
 72
11
 73
7
 74
0
 42
0.0000001
 43
0.0000001
 44
0.0000000001
 40
0.0
 40
0.0
 40
0.0
 40
0.0
 40
0.2507707889
 40
0.5012864865
 40
0.7510294185
 40
1.0
 40
1.0
 40
1.0
 40
1.0
 10
5.5482246335
 20
12.6853169238
 30
0.0
 10
5.5482246682
 20
12.6869290504
 30
0.0
 10
5.5485921729
 20
12.6901615684
 30
0.0
 10
5.5501482432
 20
12.6947670634
 30
0.0
 10
5.5525871136
 20
12.6989546831
 30
0.0
 10
5.5546770915
 20
12.7014067538
 30
0.0
 10
5.5557995121
 20
12.7025477814
 30
0.0
  0
SPLINE
  5
60F
100
AcDbEntity
  8
0
100
AcDbSpline
 62
7
  6
CONTINUOUS
 70
0
 71
3
 72
11
 73
7
 74
0
 42
0.0000001
 43
0.0000001
 44
0.0000000001
 40
0.0
 40
0.0
 40
0.0
 40
0.0
 40
0.2414977203
 40
0.489456698
 40
0.7431281931
 40
1.0
 40
1.0
 40
1.0
 40
1.0
 10
4.6389838658
 20
12.7025477814
 30
0.0
 10
4.6399645564
 20
12.7013952118
 30
0.0
 10
4.6417849398
 20
12.698908695
 30
0.0
 10
4.6438785254
 20
12.6947223757
 30
0.0
 10
4.6452117867
 20
12.6901334883
 30
0.0
 10
4.645525027
 20
12.6869265966
 30
0.0
 10
4.6455250341
 20
12.6853169249
 30
0.0
  0
SPLINE
  5
610
100
AcDbEntity
  8
0
100
AcDbSpline
 62
7
  6
CONTINUOUS
 70
0
 71
3
 72
11
 73
7
 74
0
 42
0.0000001
 43
0.0000001
 44
0.0000000001
 40
0.0
 40
0.0
 40
0.0
 40
0.0
 40
0.2568657562
 40
0.5105547855
 40
0.7584867086
 40
1.0
 40
1.0
 40
1.0
 40
1.0
 10
4.645525035
 20
12.5147786452
 30
0.0
 10
4.645524991
 20
12.5131690214
 30
0.0
 10
4.6452115019
 20
12.5099621647
 30
0.0
 10
4.6438794786
 20
12.5053730284
 30
0.0
 10
4.6417839697
 20
12.5011873126
 30
0.0
 10
4.6399625321
 20
12.4987021858
 30
0.0
 10
4.6389838658
 20
12.4975477814
 30
0.0
  0
SPLINE
  5
611
100
AcDbEntity
  8
0
100
AcDbSpline
 62
7
  6
CONTINUOUS
 70
0
 71
3
 72
9
 73
5
 74
0
 42
0.0000001
 43
0.0000001
 44
0.0000000001
 40
0.0
 40
0.0
 40
0.0
 40
0.0
 40
0.2478251169
 40
1.0
 40
1.0
 40
1.0
 40
1.0
 10
4.9153836324
 20
12.4975477814
 30
0.0
 10
4.9150096743
 20
12.4979612042
 30
0.0
 10
4.913544448
 20
12.4996679102
 30
0.0
 10
4.9122677059
 20
12.5015407494
 30
0.0
 10
4.9114582596
 20
12.5030265157
 30
0.0
  0
SPLINE
  5
612
100
AcDbEntity
  8
0
100
AcDbSpline
 62
7
  6
CONTINUOUS
 70
0
 71
3
 72
9
 73
5
 74
0
 42
0.0000001
 43
0.0000001
 44
0.0000000001
 40
0.0
 40
0.0
 40
0.0
 40
0.0
 40
0.2483978387
 40
1.0
 40
1.0
 40
1.0
 40
1.0
 10
4.9114582596
 20
12.5030265157
 30
0.0
 10
4.9112102483
 20
12.5034817489
 30
0.0
 10
4.9102677845
 20
12.5053442841
 30
0.0
 10
4.9095555182
 20
12.5073240276
 30
0.0
 10
4.9091684832
 20
12.5088441286
 30
0.0
  0
SPLINE
  5
613
100
AcDbEntity
  8
0
100
AcDbSpline
 62
7
  6
CONTINUOUS
 70
0
 71
3
 72
9
 73
5
 74
0
 42
0.0000001
 43
0.0000001
 44
0.0000000001
 40
0.0
 40
0.0
 40
0.0
 40
0.0
 40
0.5032790315
 40
1.0
 40
1.0
 40
1.0
 40
1.0
 10
4.9084170423
 20
12.6853169238
 30
0.0
 10
4.9084170829
 20
12.6873701073
 30
0.0
 10
4.9089589724
 20
12.6914655301
 30
0.0
 10
4.9104909738
 20
12.6952940677
 30
0.0
 10
4.9114606414
 20
12.6970734382
 30
0.0
  0
SPLINE
  5
614
100
AcDbEntity
  8
0
100
AcDbSpline
 62
7
  6
CONTINUOUS
 70
0
 71
3
 72
9
 73
5
 74
0
 42
0.0000001
 43
0.0000001
 44
0.0000000001
 40
0.0
 40
0.0
 40
0.0
 40
0.0
 40
0.252481422
 40
1.0
 40
1.0
 40
1.0
 40
1.0
 10
4.9114606414
 20
12.6970734382
 30
0.0
 10
4.9117322371
 20
12.6975718249
 30
0.0
 10
4.9128736103
 20
12.699509765
 30
0.0
 10
4.914255996
 20
12.7013018573
 30
0.0
 10
4.9153836324
 20
12.7025477814
 30
0.0
  0
SPLINE
  5
615
100
AcDbEntity
  8
0
100
AcDbSpline
 62
7
  6
CONTINUOUS
 70
0
 71
3
 72
11
 73
7
 74
0
 42
0.0000001
 43
0.0000001
 44
0.0000000001
 40
0.0
 40
0.0
 40
0.0
 40
0.0
 40
0.2331357132
 40
0.4792010169
 40
0.7364336862
 40
1.0
 40
1.0
 40
1.0
 40
1.0
 10
4.1176441221
 20
12.7025477814
 30
0.0
 10
4.1184523552
 20
12.7013782866
 30
0.0
 10
4.1199468045
 20
12.6988536099
 30
0.0
 10
4.1216360389
 20
12.6946741948
 30
0.0
 10
4.1227089376
 20
12.6901048927
 30
0.0
 10
4.1229601791
 20
12.6869240875
 30
0.0
 10
4.1229601849
 20
12.6853169249
 30
0.0
  0
SPLINE
  5
616
100
AcDbEntity
  8
0
100
AcDbSpline
 62
7
  6
CONTINUOUS
 70
0
 71
3
 72
11
 73
7
 74
0
 42
0.0000001
 43
0.0000001
 44
0.0000000001
 40
0.0
 40
0.0
 40
0.0
 40
0.0
 40
0.2635597382
 40
0.5208119499
 40
0.7668384783
 40
1.0
 40
1.0
 40
1.0
 40
1.0
 10
4.1229601856
 20
12.5147786452
 30
0.0
 10
4.1229601499
 20
12.5131715307
 30
0.0
 10
4.122708692
 20
12.5099907196
 30
0.0
 10
4.1216368488
 20
12.5054213538
 30
0.0
 10
4.1199460479
 20
12.5012422759
 30
0.0
 10
4.1184504328
 20
12.4987187847
 30
0.0
 10
4.1176441221
 20
12.4975477814
 30
0.0
  0
SPLINE
  5
617
100
AcDbEntity
  8
0
100
AcDbSpline
 62
7
  6
CONTINUOUS
 70
0
 71
3
 72
9
 73
5
 74
0
 42
0.0000001
 43
0.0000001
 44
0.0000000001
 40
0.0
 40
0.0
 40
0.0
 40
0.0
 40
0.4869591172
 40
1.0
 40
1.0
 40
1.0
 40
1.0
 10
4.3475713417
 20
12.4975477814
 30
0.0
 10
4.3463295064
 20
12.4991623824
 30
0.0
 10
4.3440993744
 20
12.5027425027
 30
0.0
 10
4.3427428241
 20
12.5067464525
 30
0.0
 10
4.3422891285
 20
12.5088439771
 30
0.0
  0
LINE
  5
618
100
AcDbEntity
  8
0
100
AcDbLine
 62
7
  6
CONTINUOUS
 10
8.760827047
 20
12.6970732698
 11
8.7608486846
 21
12.7025477814
  0
SPLINE
  5
619
100
AcDbEntity
  8
0
100
AcDbSpline
 62
7
  6
CONTINUOUS
 70
0
 71
3
 72
10
 73
6
 74
0
 42
0.0000001
 43
0.0000001
 44
0.0000000001
 40
0.0
 40
0.0
 40
0.0
 40
0.0
 40
0.2239480749
 40
0.5968183517
 40
1.0
 40
1.0
 40
1.0
 40
1.0
 10
3.7190328747
 20
12.7025477814
 30
0.0
 10
3.7196144345
 20
12.7013558031
 30
0.0
 10
3.7209744361
 20
12.698083592
 30
0.0
 10
3.7224149545
 20
12.6923093287
 30
0.0
 10
3.7227897981
 20
12.6877046774
 30
0.0
 10
3.7227898042
 20
12.6853169249
 30
0.0
  0
SPLINE
  5
61A
100
AcDbEntity
  8
0
100
AcDbSpline
 62
7
  6
CONTINUOUS
 70
0
 71
3
 72
11
 73
7
 74
0
 42
0.0000001
 43
0.0000001
 44
0.0000000001
 40
0.0
 40
0.0
 40
0.0
 40
0.0
 40
0.2708172285
 40
0.5320451317
 40
0.7761278517
 40
1.0
 40
1.0
 40
1.0
 40
1.0
 10
3.7227898047
 20
12.5147786452
 30
0.0
 10
3.7227897795
 20
12.5131739813
 30
0.0
 10
3.7226142557
 20
12.5100189207
 30
0.0
 10
3.7218645632
 20
12.5054725925
 30
0.0
 10
3.7206809054
 20
12.5013073388
 30
0.0
 10
3.7196127968
 20
12.4987408017
 30
0.0
 10
3.7190328747
 20
12.4975477814
 30
0.0
  0
SPLINE
  5
61B
100
AcDbEntity
  8
0
100
AcDbSpline
 62
7
  6
CONTINUOUS
 70
0
 71
3
 72
9
 73
5
 74
0
 42
0.0000001
 43
0.0000001
 44
0.0000000001
 40
0.0
 40
0.0
 40
0.0
 40
0.0
 40
0.481832687
 40
1.0
 40
1.0
 40
1.0
 40
1.0
 10
3.8880403745
 20
12.4975477814
 30
0.0
 10
3.8873262437
 20
12.498767709
 30
0.0
 10
3.8860127005
 20
12.5014021593
 30
0.0
 10
3.88507978
 20
12.5041952843
 30
0.0
 10
3.8846960423
 20
12.5056662299
 30
0.0
  0
LINE
  5
61C
100
AcDbEntity
  8
0
100
AcDbLine
 62
7
  6
CONTINUOUS
 10
8.7608486846
 20
12.4975477814
 11
8.7608270294
 21
12.5030273519
  0
LINE
  5
61D
100
AcDbEntity
  8
0
100
AcDbLine
 62
7
  6
CONTINUOUS
 10
8.7608270294
 20
12.5030273519
 11
8.7608091293
 21
12.5100188545
  0
SPLINE
  5
61E
100
AcDbEntity
  8
0
100
AcDbSpline
 62
7
  6
CONTINUOUS
 70
0
 71
3
 72
9
 73
5
 74
0
 42
0.0000001
 43
0.0000001
 44
0.0000000001
 40
0.0
 40
0.0
 40
0.0
 40
0.0
 40
0.4621945305
 40
1.0
 40
1.0
 40
1.0
 40
1.0
 10
3.4681963342
 20
12.7025477814
 30
0.0
 10
3.4686749773
 20
12.7006636349
 30
0.0
 10
3.4694802519
 20
12.6965272311
 30
0.0
 10
3.4698916208
 20
12.6923351125
 30
0.0
 10
3.4700212996
 20
12.6900768203
 30
0.0
  0
SPLINE
  5
61F
100
AcDbEntity
  8
0
100
AcDbSpline
 62
7
  6
CONTINUOUS
 70
0
 71
3
 72
9
 73
5
 74
0
 42
0.0000001
 43
0.0000001
 44
0.0000000001
 40
0.0
 40
0.0
 40
0.0
 40
0.0
 40
0.2768582069
 40
1.0
 40
1.0
 40
1.0
 40
1.0
 10
3.470021325
 20
12.5100193268
 30
0.0
 10
3.4699546041
 20
12.5088570613
 30
0.0
 10
3.4696244661
 20
12.5046654123
 30
0.0
 10
3.4689423871
 20
12.5004956251
 30
0.0
 10
3.4681963342
 20
12.4975477814
 30
0.0
  0
LINE
  5
620
100
AcDbEntity
  8
0
100
AcDbLine
 62
7
  6
CONTINUOUS
 10
3.3808954831
 20
12.7025477814
 11
3.3809171273
 21
12.6970713827
  0
LINE
  5
621
100
AcDbEntity
  8
0
100
AcDbLine
 62
7
  6
CONTINUOUS
 10
3.3809171273
 20
12.6970713827
 11
3.38093504
 21
12.6900767983
  0
LINE
  5
622
100
AcDbEntity
  8
0
100
AcDbLine
 62
7
  6
CONTINUOUS
 10
3.3809171192
 20
12.5030218581
 11
3.3808954831
 21
12.4975477814
  0
SPLINE
  5
623
100
AcDbEntity
  8
0
100
AcDbSpline
 62
7
  6
CONTINUOUS
 70
0
 71
3
 72
9
 73
5
 74
0
 42
0.0000001
 43
0.0000001
 44
0.0000000001
 40
0.0
 40
0.0
 40
0.0
 40
0.0
 40
0.5006084085
 40
1.0
 40
1.0
 40
1.0
 40
1.0
 10
15.6378551907
 20
7.883136386
 30
0.0
 10
15.6392247202
 20
7.8831357346
 30
0.0
 10
15.6419802564
 20
7.8826846236
 30
0.0
 10
15.6444354282
 20
7.8813541093
 30
0.0
 10
15.6455151238
 20
7.880516994
 30
0.0
  0
SPLINE
  5
624
100
AcDbEntity
  8
0
100
AcDbSpline
 62
7
  6
CONTINUOUS
 70
0
 71
3
 72
9
 73
5
 74
0
 42
0.0000001
 43
0.0000001
 44
0.0000000001
 40
0.0
 40
0.0
 40
0.0
 40
0.0
 40
0.5006084083
 40
1.0
 40
1.0
 40
1.0
 40
1.0
 10
15.4828553232
 20
7.883136386
 30
0.0
 10
15.4814857934
 20
7.8831357346
 30
0.0
 10
15.4787302568
 20
7.8826846234
 30
0.0
 10
15.4762750847
 20
7.8813541087
 30
0.0
 10
15.475195389
 20
7.8805169932
 30
0.0
  0
SPLINE
  5
625
100
AcDbEntity
  8
0
100
AcDbSpline
 62
7
  6
CONTINUOUS
 70
0
 71
3
 72
9
 73
5
 74
0
 42
0.0000001
 43
0.0000001
 44
0.0000000001
 40
0.0
 40
0.0
 40
0.0
 40
0.0
 40
0.4994766691
 40
1.0
 40
1.0
 40
1.0
 40
1.0
 10
15.475195389
 20
7.8805169932
 30
0.0
 10
15.4744580888
 20
7.8799453456
 30
0.0
 10
15.4731070854
 20
7.8786302975
 30
0.0
 10
15.472081191
 20
7.8770478999
 30
0.0
 10
15.4716656137
 20
7.8762104397
 30
0.0
  0
SPLINE
  5
626
100
AcDbEntity
  8
0
100
AcDbSpline
 62
7
  6
CONTINUOUS
 70
0
 71
3
 72
9
 73
5
 74
0
 42
0.0000001
 43
0.0000001
 44
0.0000000001
 40
0.0
 40
0.0
 40
0.0
 40
0.0
 40
0.2517630724
 40
1.0
 40
1.0
 40
1.0
 40
1.0
 10
15.4716656137
 20
7.8762104397
 30
0.0
 10
15.4714510504
 20
7.8757780576
 30
0.0
 10
15.4707008872
 20
7.8740119097
 30
0.0
 10
15.470355257
 20
7.8720734708
 30
0.0
 10
15.4703552569
 20
7.8706389154
 30
0.0
  0
SPLINE
  5
627
100
AcDbEntity
  8
0
100
AcDbSpline
 62
7
  6
CONTINUOUS
 70
0
 71
3
 72
9
 73
5
 74
0
 42
0.0000001
 43
0.0000001
 44
0.0000000001
 40
0.0
 40
0.0
 40
0.0
 40
0.0
 40
0.4993926622
 40
1.0
 40
1.0
 40
1.0
 40
1.0
 10
15.4758545282
 20
7.3919686496
 30
0.0
 10
15.4750232549
 20
7.3914068219
 30
0.0
 10
15.473490154
 20
7.3900749098
 30
0.0
 10
15.4723181147
 20
7.3884154858
 30
0.0
 10
15.4718436767
 20
7.3875286503
 30
0.0
  0
SPLINE
  5
628
100
AcDbEntity
  8
0
100
AcDbSpline
 62
7
  6
CONTINUOUS
 70
0
 71
3
 72
9
 73
5
 74
0
 42
0.0000001
 43
0.0000001
 44
0.0000000001
 40
0.0
 40
0.0
 40
0.0
 40
0.0
 40
0.2520980515
 40
1.0
 40
1.0
 40
1.0
 40
1.0
 10
15.4718436767
 20
7.3875286503
 30
0.0
 10
15.4716005207
 20
7.3870741349
 30
0.0
 10
15.4707509891
 20
7.3852121071
 30
0.0
 10
15.4703552569
 20
7.3831422344
 30
0.0
 10
15.4703552569
 20
7.3816129847
 30
0.0
  0
SPLINE
  5
629
100
AcDbEntity
  8
0
100
AcDbSpline
 62
7
  6
CONTINUOUS
 70
0
 71
3
 72
9
 73
5
 74
0
 42
0.0000001
 43
0.0000001
 44
0.0000000001
 40
0.0
 40
0.0
 40
0.0
 40
0.0
 40
0.4995171212
 40
1.0
 40
1.0
 40
1.0
 40
1.0
 10
15.6455742732
 20
3.821823936
 30
0.0
 10
15.6463149553
 20
3.8224053755
 30
0.0
 10
15.6476690777
 20
3.8237425885
 30
0.0
 10
15.6486900815
 20
3.8253491557
 30
0.0
 10
15.6491009871
 20
3.826198432
 30
0.0
  0
SPLINE
  5
62A
100
AcDbEntity
  8
0
100
AcDbSpline
 62
7
  6
CONTINUOUS
 70
0
 71
3
 72
9
 73
5
 74
0
 42
0.0000001
 43
0.0000001
 44
0.0000000001
 40
0.0
 40
0.0
 40
0.0
 40
0.0
 40
0.2517426799
 40
1.0
 40
1.0
 40
1.0
 40
1.0
 10
15.6491009871
 20
3.826198432
 30
0.0
 10
15.6493066071
 20
3.8266234158
 30
0.0
 10
15.6500253332
 20
3.8283572489
 30
0.0
 10
15.6503552569
 20
3.8302525964
 30
0.0
 10
15.6503552569
 20
3.8316558628
 30
0.0
  0
SPLINE
  5
62B
100
AcDbEntity
  8
0
100
AcDbSpline
 62
7
  6
CONTINUOUS
 70
0
 71
3
 72
9
 73
5
 74
0
 42
0.0000001
 43
0.0000001
 44
0.0000000001
 40
0.0
 40
0.0
 40
0.0
 40
0.0
 40
0.4993865926
 40
1.0
 40
1.0
 40
1.0
 40
1.0
 10
15.6449423297
 20
3.2676153518
 30
0.0
 10
15.6457576295
 20
3.268176417
 30
0.0
 10
15.6472606822
 20
3.26949993
 30
0.0
 10
15.6484108221
 20
3.2711403301
 30
0.0
 10
15.6488772952
 20
3.2720159608
 30
0.0
  0
SPLINE
  5
62C
100
AcDbEntity
  8
0
100
AcDbSpline
 62
7
  6
CONTINUOUS
 70
0
 71
3
 72
9
 73
5
 74
0
 42
0.0000001
 43
0.0000001
 44
0.0000000001
 40
0.0
 40
0.0
 40
0.0
 40
0.0
 40
0.252052693
 40
1.0
 40
1.0
 40
1.0
 40
1.0
 10
15.6488772952
 20
3.2720159608
 30
0.0
 10
15.649118749
 20
3.2724692009
 30
0.0
 10
15.649962476
 20
3.2743258529
 30
0.0
 10
15.6503552569
 20
3.2763882178
 30
0.0
 10
15.6503552569
 20
3.2779121181
 30
0.0
  0
SPLINE
  5
62D
100
AcDbEntity
  8
0
100
AcDbSpline
 62
7
  6
CONTINUOUS
 70
0
 71
3
 72
9
 73
5
 74
0
 42
0.0000001
 43
0.0000001
 44
0.0000000001
 40
0.0
 40
0.0
 40
0.0
 40
0.0
 40
0.5004591416
 40
1.0
 40
1.0
 40
1.0
 40
1.0
 10
15.4828552247
 20
2.8488176531
 30
0.0
 10
15.4813932555
 20
2.8488193906
 30
0.0
 10
15.4784481829
 20
2.8493352273
 30
0.0
 10
15.4758687906
 20
2.8508487762
 30
0.0
 10
15.4747571228
 20
2.8517941414
 30
0.0
  0
SPLINE
  5
62E
100
AcDbEntity
  8
0
100
AcDbSpline
 62
7
  6
CONTINUOUS
 70
0
 71
3
 72
9
 73
5
 74
0
 42
0.0000001
 43
0.0000001
 44
0.0000000001
 40
0.0
 40
0.0
 40
0.0
 40
0.0
 40
0.5004591409
 40
1.0
 40
1.0
 40
1.0
 40
1.0
 10
15.6378552892
 20
2.8488176531
 30
0.0
 10
15.6393172587
 20
2.8488193906
 30
0.0
 10
15.6422623318
 20
2.8493352275
 30
0.0
 10
15.6448417244
 20
2.8508487769
 30
0.0
 10
15.6459533922
 20
2.8517941424
 30
0.0
  0
SPLINE
  5
62F
100
AcDbEntity
  8
0
100
AcDbSpline
 62
7
  6
CONTINUOUS
 70
0
 71
3
 72
9
 73
5
 74
0
 42
0.0000001
 43
0.0000001
 44
0.0000000001
 40
0.0
 40
0.0
 40
0.0
 40
0.0
 40
0.2515205779
 40
1.0
 40
1.0
 40
1.0
 40
1.0
 10
15.6491780785
 20
2.8560206013
 30
0.0
 10
15.6493711932
 20
2.8564346168
 30
0.0
 10
15.6500467096
 20
2.8581221218
 30
0.0
 10
15.6503552569
 20
2.8599567618
 30
0.0
 10
15.6503552569
 20
2.8613162325
 30
0.0
  0
SPLINE
  5
630
100
AcDbEntity
  8
0
100
AcDbSpline
 62
7
  6
CONTINUOUS
 70
0
 71
3
 72
11
 73
7
 74
0
 42
0.0000001
 43
0.0000001
 44
0.0000000001
 40
0.0
 40
0.0
 40
0.0
 40
0.0
 40
0.2263207731
 40
0.4615670962
 40
0.7158255016
 40
1.0
 40
1.0
 40
1.0
 40
1.0
 10
15.4703552569
 20
8.157712927
 30
0.0
 10
15.4703552498
 20
8.1567390186
 30
0.0
 10
15.4700862602
 20
8.1547430147
 30
0.0
 10
15.4688608378
 20
8.1518772222
 30
0.0
 10
15.4667462268
 20
8.1492523075
 30
0.0
 10
15.464807565
 20
8.1479113122
 30
0.0
 10
15.4637128997
 20
8.1473662357
 30
0.0
  0
SPLINE
  5
631
100
AcDbEntity
  8
0
100
AcDbSpline
 62
7
  6
CONTINUOUS
 70
0
 71
3
 72
11
 73
7
 74
0
 42
0.0000001
 43
0.0000001
 44
0.0000000001
 40
0.0
 40
0.0
 40
0.0
 40
0.0
 40
0.2962834098
 40
0.5589000952
 40
0.7892042628
 40
1.0
 40
1.0
 40
1.0
 40
1.0
 10
15.6628552569
 20
8.1459977577
 30
0.0
 10
15.661221832
 20
8.1459971491
 30
0.0
 10
15.6581078459
 20
8.1465763183
 30
0.0
 10
15.6543096951
 20
8.1488645418
 30
0.0
 10
15.6517806522
 20
8.1518928129
 30
0.0
 10
15.6508691517
 20
8.1541970464
 30
0.0
 10
15.6506171177
 20
8.1553315149
 30
0.0
  0
SPLINE
  5
632
100
AcDbEntity
  8
0
100
AcDbSpline
 62
7
  6
CONTINUOUS
 70
0
 71
3
 72
11
 73
7
 74
0
 42
0.0000001
 43
0.0000001
 44
0.0000000001
 40
0.0
 40
0.0
 40
0.0
 40
0.0
 40
0.2491486224
 40
0.4998690292
 40
0.7498988433
 40
1.0
 40
1.0
 40
1.0
 40
1.0
 10
15.637855257
 20
8.3856882096
 30
0.0
 10
15.6389282586
 20
8.3856879508
 30
0.0
 10
15.6410893167
 20
8.3853975934
 30
0.0
 10
15.6441149975
 20
8.3841731169
 30
0.0
 10
15.6467221112
 20
8.3821998562
 30
0.0
 10
15.6480672883
 20
8.3804810584
 30
0.0
 10
15.6486136126
 20
8.3795527899
 30
0.0
  0
SPLINE
  5
633
100
AcDbEntity
  8
0
100
AcDbSpline
 62
7
  6
CONTINUOUS
 70
0
 71
3
 72
9
 73
5
 74
0
 42
0.0000001
 43
0.0000001
 44
0.0000000001
 40
0.0
 40
0.0
 40
0.0
 40
0.0
 40
0.5017213461
 40
1.0
 40
1.0
 40
1.0
 40
1.0
 10
15.6486136126
 20
8.3795527899
 30
0.0
 10
15.6491782274
 20
8.3785934438
 30
0.0
 10
15.6500462408
 20
8.3765203496
 30
0.0
 10
15.6503552569
 20
8.3742937434
 30
0.0
 10
15.6503552569
 20
8.3731882173
 30
0.0
  0
SPLINE
  5
634
100
AcDbEntity
  8
0
100
AcDbSpline
 62
7
  6
CONTINUOUS
 70
0
 71
3
 72
11
 73
7
 74
0
 42
0.0000001
 43
0.0000001
 44
0.0000000001
 40
0.0
 40
0.0
 40
0.0
 40
0.0
 40
0.2491486204
 40
0.4998690278
 40
0.7498988427
 40
1.0
 40
1.0
 40
1.0
 40
1.0
 10
15.4828552569
 20
8.3856882096
 30
0.0
 10
15.4817822553
 20
8.3856879508
 30
0.0
 10
15.479621197
 20
8.3853975934
 30
0.0
 10
15.4765955161
 20
8.3841731167
 30
0.0
 10
15.4739884024
 20
8.3821998559
 30
0.0
 10
15.4726432253
 20
8.3804810579
 30
0.0
 10
15.472096901
 20
8.3795527893
 30
0.0
  0
SPLINE
  5
635
100
AcDbEntity
  8
0
100
AcDbSpline
 62
7
  6
CONTINUOUS
 70
0
 71
3
 72
9
 73
5
 74
0
 42
0.0000001
 43
0.0000001
 44
0.0000000001
 40
0.0
 40
0.0
 40
0.0
 40
0.0
 40
0.5017213454
 40
1.0
 40
1.0
 40
1.0
 40
1.0
 10
15.472096901
 20
8.3795527893
 30
0.0
 10
15.4715322863
 20
8.3785934434
 30
0.0
 10
15.4706642732
 20
8.3765203497
 30
0.0
 10
15.470355257
 20
8.3742937439
 30
0.0
 10
15.4703552569
 20
8.3731882181
 30
0.0
  0
SPLINE
  5
636
100
AcDbEntity
  8
0
100
AcDbSpline
 62
7
  6
CONTINUOUS
 70
0
 71
3
 72
12
 73
8
 74
0
 42
0.0000001
 43
0.0000001
 44
0.0000000001
 40
0.0
 40
0.0
 40
0.0
 40
0.0
 40
0.2490616108
 40
0.3746725192
 40
0.4999971328
 40
0.7496929758
 40
1.0
 40
1.0
 40
1.0
 40
1.0
 10
15.6503552569
 20
6.7718842955
 30
0.0
 10
15.6503552569
 20
6.7733591663
 30
0.0
 10
15.6499410003
 20
6.7756006955
 30
0.0
 10
15.6486673833
 20
6.7782859479
 30
0.0
 10
15.6469254207
 20
6.7807032408
 30
0.0
 10
15.6439800265
 20
6.7830826
 30
0.0
 10
15.641097981
 20
6.7840286944
 30
0.0
 10
15.6396313161
 20
6.7842430462
 30
0.0
  0
SPLINE
  5
637
100
AcDbEntity
  8
0
100
AcDbSpline
 62
7
  6
CONTINUOUS
 70
0
 71
3
 72
12
 73
8
 74
0
 42
0.0000001
 43
0.0000001
 44
0.0000000001
 40
0.0
 40
0.0
 40
0.0
 40
0.0
 40
0.2490621393
 40
0.374673484
 40
0.4999982344
 40
0.7496936864
 40
1.0
 40
1.0
 40
1.0
 40
1.0
 10
15.4703552569
 20
6.7718842955
 30
0.0
 10
15.4703552569
 20
6.7733591844
 30
0.0
 10
15.4707695308
 20
6.775600741
 30
0.0
 10
15.4720431732
 20
6.7782860218
 30
0.0
 10
15.4737851715
 20
6.7807033285
 30
0.0
 10
15.4767306177
 20
6.7830826771
 30
0.0
 10
15.4796126992
 20
6.7840287427
 30
0.0
 10
15.4810793781
 20
6.7842430735
 30
0.0
  0
SPLINE
  5
638
100
AcDbEntity
  8
0
100
AcDbSpline
 62
7
  6
CONTINUOUS
 70
0
 71
3
 72
9
 73
5
 74
0
 42
0.0000001
 43
0.0000001
 44
0.0000000001
 40
0.0
 40
0.0
 40
0.0
 40
0.0
 40
0.2531527191
 40
1.0
 40
1.0
 40
1.0
 40
1.0
 10
15.6573783141
 20
6.770162143
 30
0.0
 10
15.6578765057
 20
6.7698994021
 30
0.0
 10
15.6598103178
 20
6.7687972558
 30
0.0
 10
15.6616055209
 20
6.7674580085
 30
0.0
 10
15.6628552569
 20
6.7663629378
 30
0.0
  0
SPLINE
  5
639
100
AcDbEntity
  8
0
100
AcDbSpline
 62
7
  6
CONTINUOUS
 70
0
 71
3
 72
9
 73
5
 74
0
 42
0.0000001
 43
0.0000001
 44
0.0000000001
 40
0.0
 40
0.0
 40
0.0
 40
0.0
 40
0.2547387752
 40
1.0
 40
1.0
 40
1.0
 40
1.0
 10
15.4633298485
 20
3.8669157623
 30
0.0
 10
15.4628329721
 20
3.8671575534
 30
0.0
 10
15.4609122092
 20
3.8681673786
 30
0.0
 10
15.4591128864
 20
3.8694031819
 30
0.0
 10
15.4578552569
 20
3.8704189941
 30
0.0
  0
SPLINE
  5
63A
100
AcDbEntity
  8
0
100
AcDbSpline
 62
7
  6
CONTINUOUS
 70
0
 71
3
 72
9
 73
5
 74
0
 42
0.0000001
 43
0.0000001
 44
0.0000000001
 40
0.0
 40
0.0
 40
0.0
 40
0.0
 40
0.27782545
 40
1.0
 40
1.0
 40
1.0
 40
1.0
 10
15.4703267904
 20
8.0994669443
 30
0.0
 10
15.4691652593
 20
8.0995176351
 30
0.0
 10
15.4649882107
 20
8.0997678214
 30
0.0
 10
15.4608233241
 20
8.1002829007
 30
0.0
 10
15.4578552569
 20
8.1008520139
 30
0.0
  0
SPLINE
  5
63B
100
AcDbEntity
  8
0
100
AcDbSpline
 62
7
  6
CONTINUOUS
 70
0
 71
3
 72
9
 73
5
 74
0
 42
0.0000001
 43
0.0000001
 44
0.0000000001
 40
0.0
 40
0.0
 40
0.0
 40
0.0
 40
0.46070424
 40
1.0
 40
1.0
 40
1.0
 40
1.0
 10
15.6628552569
 20
8.1008520139
 30
0.0
 10
15.6609618155
 20
8.1004875735
 30
0.0
 10
15.656816553
 20
8.0998765426
 30
0.0
 10
15.6526392217
 20
8.0995653995
 30
0.0
 10
15.6503842432
 20
8.0994669602
 30
0.0
  0
SPLINE
  5
63C
100
AcDbEntity
  8
0
100
AcDbSpline
 62
7
  6
CONTINUOUS
 70
0
 71
3
 72
9
 73
5
 74
0
 42
0.0000001
 43
0.0000001
 44
0.0000000001
 40
0.0
 40
0.0
 40
0.0
 40
0.0
 40
0.2362684151
 40
1.0
 40
1.0
 40
1.0
 40
1.0
 10
15.4578552569
 20
7.7378590207
 30
0.0
 10
15.4583940879
 20
7.738146324
 30
0.0
 10
15.4607086329
 20
7.7392977267
 30
0.0
 10
15.4631600657
 20
7.7401723608
 30
0.0
 10
15.4650682717
 20
7.7406772902
 30
0.0
  0
SPLINE
  5
63D
100
AcDbEntity
  8
0
100
AcDbSpline
 62
7
  6
CONTINUOUS
 70
0
 71
3
 72
9
 73
5
 74
0
 42
0.0000001
 43
0.0000001
 44
0.0000000001
 40
0.0
 40
0.0
 40
0.0
 40
0.0
 40
0.5155782215
 40
1.0
 40
1.0
 40
1.0
 40
1.0
 10
15.4750861207
 20
7.8864850208
 30
0.0
 10
15.4730461609
 20
7.8864850492
 30
0.0
 10
15.4690859803
 20
7.8867306407
 30
0.0
 10
15.4651842709
 20
7.8874582745
 30
0.0
 10
15.4633294206
 20
7.8879411939
 30
0.0
  0
SPLINE
  5
63E
100
AcDbEntity
  8
0
100
AcDbSpline
 62
7
  6
CONTINUOUS
 70
0
 71
3
 72
9
 73
5
 74
0
 42
0.0000001
 43
0.0000001
 44
0.0000000001
 40
0.0
 40
0.0
 40
0.0
 40
0.0
 40
0.2633540931
 40
1.0
 40
1.0
 40
1.0
 40
1.0
 10
15.4633294206
 20
7.8879411939
 30
0.0
 10
15.462837725
 20
7.8880692093
 30
0.0
 10
15.4609801083
 20
7.8885907443
 30
0.0
 10
15.4591607988
 20
7.8892494858
 30
0.0
 10
15.4578552569
 20
7.8898110782
 30
0.0
  0
SPLINE
  5
63F
100
AcDbEntity
  8
0
100
AcDbSpline
 62
7
  6
CONTINUOUS
 70
0
 71
3
 72
9
 73
5
 74
0
 42
0.0000001
 43
0.0000001
 44
0.0000000001
 40
0.0
 40
0.0
 40
0.0
 40
0.0
 40
0.2365462115
 40
1.0
 40
1.0
 40
1.0
 40
1.0
 10
15.6628552569
 20
7.8898110782
 30
0.0
 10
15.6624357895
 20
7.8896299705
 30
0.0
 10
15.6606475633
 20
7.8888992604
 30
0.0
 10
15.658801782
 20
7.8883104483
 30
0.0
 10
15.6573745718
 20
7.887939497
 30
0.0
  0
SPLINE
  5
640
100
AcDbEntity
  8
0
100
AcDbSpline
 62
7
  6
CONTINUOUS
 70
0
 71
3
 72
9
 73
5
 74
0
 42
0.0000001
 43
0.0000001
 44
0.0000000001
 40
0.0
 40
0.0
 40
0.0
 40
0.0
 40
0.4844312799
 40
1.0
 40
1.0
 40
1.0
 40
1.0
 10
15.6573745718
 20
7.887939497
 30
0.0
 10
15.6555205381
 20
7.8874576085
 30
0.0
 10
15.6516211533
 20
7.8867301839
 30
0.0
 10
15.6476631653
 20
7.8864850259
 30
0.0
 10
15.6456244004
 20
7.8864850213
 30
0.0
  0
SPLINE
  5
641
100
AcDbEntity
  8
0
100
AcDbSpline
 62
7
  6
CONTINUOUS
 70
0
 71
3
 72
9
 73
5
 74
0
 42
0.0000001
 43
0.0000001
 44
0.0000000001
 40
0.0
 40
0.0
 40
0.0
 40
0.0
 40
0.4848209064
 40
1.0
 40
1.0
 40
1.0
 40
1.0
 10
15.4578552569
 20
7.3102193977
 30
0.0
 10
15.4594537011
 20
7.3113819778
 30
0.0
 10
15.4629926569
 20
7.3134684535
 30
0.0
 10
15.466906461
 20
7.3147399039
 30
0.0
 10
15.4689613449
 20
7.315174219
 30
0.0
  0
SPLINE
  5
642
100
AcDbEntity
  8
0
100
AcDbSpline
 62
7
  6
CONTINUOUS
 70
0
 71
3
 72
11
 73
7
 74
0
 42
0.0000001
 43
0.0000001
 44
0.0000000001
 40
0.0
 40
0.0
 40
0.0
 40
0.0
 40
0.2653905087
 40
0.5236347024
 40
0.7691582631
 40
1.0
 40
1.0
 40
1.0
 40
1.0
 10
15.4750861207
 20
7.5211813448
 30
0.0
 10
15.4734796476
 20
7.5211813781
 30
0.0
 10
15.4703055635
 20
7.5214149386
 30
0.0
 10
15.4657418726
 20
7.5224111301
 30
0.0
 10
15.4615656141
 20
7.5239832873
 30
0.0
 10
15.4590313706
 20
7.5253808966
 30
0.0
 10
15.4578552569
 20
7.5261354287
 30
0.0
  0
SPLINE
  5
643
100
AcDbEntity
  8
0
100
AcDbSpline
 62
7
  6
CONTINUOUS
 70
0
 71
3
 72
11
 73
7
 74
0
 42
0.0000001
 43
0.0000001
 44
0.0000000001
 40
0.0
 40
0.0
 40
0.0
 40
0.0
 40
0.2308157403
 40
0.4763827499
 40
0.73460473
 40
1.0
 40
1.0
 40
1.0
 40
1.0
 10
15.6628552569
 20
7.5261354287
 30
0.0
 10
15.6616805331
 20
7.5253790136
 30
0.0
 10
15.6591451467
 20
7.5239825975
 30
0.0
 10
15.654968616
 20
7.5224118679
 30
0.0
 10
15.6504049514
 20
7.5214146983
 30
0.0
 10
15.6472309097
 20
7.5211813509
 30
0.0
 10
15.6456244005
 20
7.5211813455
 30
0.0
  0
SPLINE
  5
644
100
AcDbEntity
  8
0
100
AcDbSpline
 62
7
  6
CONTINUOUS
 70
0
 71
3
 72
9
 73
5
 74
0
 42
0.0000001
 43
0.0000001
 44
0.0000000001
 40
0.0
 40
0.0
 40
0.0
 40
0.0
 40
0.2471616502
 40
1.0
 40
1.0
 40
1.0
 40
1.0
 10
15.4578552569
 20
6.7663629378
 30
0.0
 10
15.4582692341
 20
6.7667254749
 30
0.0
 10
15.459981524
 20
6.7681484958
 30
0.0
 10
15.4618543175
 20
6.76938296
 30
0.0
 10
15.463336995
 20
6.7701646608
 30
0.0
  0
SPLINE
  5
645
100
AcDbEntity
  8
0
100
AcDbSpline
 62
7
  6
CONTINUOUS
 70
0
 71
3
 72
10
 73
6
 74
0
 42
0.0000001
 43
0.0000001
 44
0.0000000001
 40
0.0
 40
0.0
 40
0.0
 40
0.0
 40
0.511892283
 40
0.759888844
 40
1.0
 40
1.0
 40
1.0
 40
1.0
 10
15.4750861207
 20
7.0264053169
 30
0.0
 10
15.4719051872
 20
7.0264054002
 30
0.0
 10
15.467128233
 20
7.0272874729
 30
0.0
 10
15.4615088404
 20
7.0299845143
 30
0.0
 10
15.4590132016
 20
7.031735172
 30
0.0
 10
15.4578552569
 20
7.032676144
 30
0.0
  0
SPLINE
  5
646
100
AcDbEntity
  8
0
100
AcDbSpline
 62
7
  6
CONTINUOUS
 70
0
 71
3
 72
10
 73
6
 74
0
 42
0.0000001
 43
0.0000001
 44
0.0000000001
 40
0.0
 40
0.0
 40
0.0
 40
0.0
 40
0.240095737
 40
0.4881236697
 40
1.0
 40
1.0
 40
1.0
 40
1.0
 10
15.6628552569
 20
7.032676144
 30
0.0
 10
15.6616990699
 20
7.0317331553
 30
0.0
 10
15.6592020344
 20
7.0299836364
 30
0.0
 10
15.6535819948
 20
7.0272887462
 30
0.0
 10
15.6488052477
 20
7.0264053313
 30
0.0
 10
15.6456244004
 20
7.0264053177
 30
0.0
  0
SPLINE
  5
647
100
AcDbEntity
  8
0
100
AcDbSpline
 62
7
  6
CONTINUOUS
 70
0
 71
3
 72
11
 73
7
 74
0
 42
0.0000001
 43
0.0000001
 44
0.0000000001
 40
0.0
 40
0.0
 40
0.0
 40
0.0
 40
0.2514214151
 40
0.5022674391
 40
0.7518102518
 40
1.0
 40
1.0
 40
1.0
 40
1.0
 10
15.6456243994
 20
6.1479285761
 30
0.0
 10
15.6472362421
 20
6.147928542
 30
0.0
 10
15.6504658821
 20
6.1475668935
 30
0.0
 10
15.6550697495
 20
6.1460347604
 30
0.0
 10
15.6592574801
 20
6.1436320645
 30
0.0
 10
15.6617129903
 20
6.1415697998
 30
0.0
 10
15.6628552569
 20
6.1404621426
 30
0.0
  0
SPLINE
  5
648
100
AcDbEntity
  8
0
100
AcDbSpline
 62
7
  6
CONTINUOUS
 70
0
 71
3
 72
11
 73
7
 74
0
 42
0.0000001
 43
0.0000001
 44
0.0000000001
 40
0.0
 40
0.0
 40
0.0
 40
0.0
 40
0.2481937003
 40
0.49772719
 40
0.7485742274
 40
1.0
 40
1.0
 40
1.0
 40
1.0
 10
15.4578552569
 20
6.1404621426
 30
0.0
 10
15.4589978632
 20
6.1415694856
 30
0.0
 10
15.4614531576
 20
6.1436318332
 30
0.0
 10
15.4656406709
 20
6.1460349651
 30
0.0
 10
15.4702446146
 20
6.1475667957
 30
0.0
 10
15.4734742643
 20
6.1479285822
 30
0.0
 10
15.4750861347
 20
6.1479285789
 30
0.0
  0
SPLINE
  5
649
100
AcDbEntity
  8
0
100
AcDbSpline
 62
7
  6
CONTINUOUS
 70
0
 71
3
 72
11
 73
7
 74
0
 42
0.0000001
 43
0.0000001
 44
0.0000000001
 40
0.0
 40
0.0
 40
0.0
 40
0.0
 40
0.2530592369
 40
0.5047663299
 40
0.7538251209
 40
1.0
 40
1.0
 40
1.0
 40
1.0
 10
15.4750861207
 20
6.4332455346
 30
0.0
 10
15.4734749524
 20
6.433245583
 30
0.0
 10
15.4702522379
 20
6.4335931315
 30
0.0
 10
15.4656526858
 20
6.43506631
 30
0.0
 10
15.4614656157
 20
6.4373787537
 30
0.0
 10
15.4590014644
 20
6.4393700887
 30
0.0
 10
15.4578552569
 20
6.4404390857
 30
0.0
  0
SPLINE
  5
64A
100
AcDbEntity
  8
0
100
AcDbSpline
 62
7
  6
CONTINUOUS
 70
0
 71
3
 72
11
 73
7
 74
0
 42
0.0000001
 43
0.0000001
 44
0.0000000001
 40
0.0
 40
0.0
 40
0.0
 40
0.0
 40
0.2461659385
 40
0.4952459298
 40
0.7469357248
 40
1.0
 40
1.0
 40
1.0
 40
1.0
 10
15.6628552569
 20
6.4404390857
 30
0.0
 10
15.6617110314
 20
6.4393680355
 30
0.0
 10
15.6592453984
 20
6.4373776783
 30
0.0
 10
15.6550575662
 20
6.4350673117
 30
0.0
 10
15.650458373
 20
6.4335928256
 30
0.0
 10
15.6472356117
 20
6.4332455434
 30
0.0
 10
15.6456244004
 20
6.4332455355
 30
0.0
  0
SPLINE
  5
64B
100
AcDbEntity
  8
0
100
AcDbSpline
 62
7
  6
CONTINUOUS
 70
0
 71
3
 72
11
 73
7
 74
0
 42
0.0000001
 43
0.0000001
 44
0.0000000001
 40
0.0
 40
0.0
 40
0.0
 40
0.0
 40
0.2498992725
 40
0.499976895
 40
0.74999242
 40
1.0
 40
1.0
 40
1.0
 40
1.0
 10
15.6456243994
 20
5.4795643862
 30
0.0
 10
15.6472369129
 20
5.4795643509
 30
0.0
 10
15.6504733493
 20
5.4791889199
 30
0.0
 10
15.6550809544
 20
5.4776006207
 30
0.0
 10
15.6592682736
 20
5.4751133859
 30
0.0
 10
15.6617158151
 20
5.4729866444
 30
0.0
 10
15.6628552569
 20
5.4718446608
 30
0.0
  0
SPLINE
  5
64C
100
AcDbEntity
  8
0
100
AcDbSpline
 62
7
  6
CONTINUOUS
 70
0
 71
3
 72
11
 73
7
 74
0
 42
0.0000001
 43
0.0000001
 44
0.0000000001
 40
0.0
 40
0.0
 40
0.0
 40
0.0
 40
0.2500110371
 40
0.500018063
 40
0.7500965505
 40
1.0
 40
1.0
 40
1.0
 40
1.0
 10
15.4578552569
 20
5.4718446608
 30
0.0
 10
15.4589950513
 20
5.4729863236
 30
0.0
 10
15.4614423738
 20
5.4751131445
 30
0.0
 10
15.4656294603
 20
5.4776008333
 30
0.0
 10
15.4702371521
 20
5.4791888201
 30
0.0
 10
15.4734735945
 20
5.4795643925
 30
0.0
 10
15.4750861347
 20
5.479564389
 30
0.0
  0
SPLINE
  5
64D
100
AcDbEntity
  8
0
100
AcDbSpline
 62
7
  6
CONTINUOUS
 70
0
 71
3
 72
11
 73
7
 74
0
 42
0.0000001
 43
0.0000001
 44
0.0000000001
 40
0.0
 40
0.0
 40
0.0
 40
0.0
 40
0.2502367233
 40
0.5004925168
 40
0.750403293
 40
1.0
 40
1.0
 40
1.0
 40
1.0
 10
15.4750861207
 20
5.7789724084
 30
0.0
 10
15.4734737523
 20
5.77897246
 30
0.0
 10
15.4702387929
 20
5.7793450257
 30
0.0
 10
15.4656319519
 20
5.7809210067
 30
0.0
 10
15.4614448689
 20
5.7833902973
 30
0.0
 10
15.4589958442
 20
5.7855028824
 30
0.0
 10
15.4578552569
 20
5.7866366864
 30
0.0
  0
SPLINE
  5
64E
100
AcDbEntity
  8
0
100
AcDbSpline
 62
7
  6
CONTINUOUS
 70
0
 71
3
 72
11
 73
7
 74
0
 42
0.0000001
 43
0.0000001
 44
0.0000000001
 40
0.0
 40
0.0
 40
0.0
 40
0.0
 40
0.2495910547
 40
0.4995182257
 40
0.7497581031
 40
1.0
 40
1.0
 40
1.0
 40
1.0
 10
15.6628552569
 20
5.7866366864
 30
0.0
 10
15.6617167535
 20
5.7855008256
 30
0.0
 10
15.6592662165
 20
5.7833891509
 30
0.0
 10
15.6550782469
 20
5.7809220551
 30
0.0
 10
15.650471842
 20
5.7793447112
 30
0.0
 10
15.6472368135
 20
5.7789724179
 30
0.0
 10
15.6456244004
 20
5.7789724095
 30
0.0
  0
SPLINE
  5
64F
100
AcDbEntity
  8
0
100
AcDbSpline
 62
7
  6
CONTINUOUS
 70
0
 71
3
 72
11
 73
7
 74
0
 42
0.0000001
 43
0.0000001
 44
0.0000000001
 40
0.0
 40
0.0
 40
0.0
 40
0.0
 40
0.2513005859
 40
0.5020968122
 40
0.7516937419
 40
1.0
 40
1.0
 40
1.0
 40
1.0
 10
15.6456243742
 20
4.8100101498
 30
0.0
 10
15.6472362911
 20
4.8100101331
 30
0.0
 10
15.6504666142
 20
4.8096470897
 30
0.0
 10
15.6550706028
 20
4.8081091636
 30
0.0
 10
15.659258076
 20
4.8056993859
 30
0.0
 10
15.6617132838
 20
4.8036324238
 30
0.0
 10
15.6628552569
 20
4.8025221879
 30
0.0
  0
SPLINE
  5
650
100
AcDbEntity
  8
0
100
AcDbSpline
 62
7
  6
CONTINUOUS
 70
0
 71
3
 72
11
 73
7
 74
0
 42
0.0000001
 43
0.0000001
 44
0.0000000001
 40
0.0
 40
0.0
 40
0.0
 40
0.0
 40
0.2483098289
 40
0.497896806
 40
0.7486949458
 40
1.0
 40
1.0
 40
1.0
 40
1.0
 10
15.4578552569
 20
4.8025221879
 30
0.0
 10
15.458997642
 20
4.8036320275
 30
0.0
 10
15.4614525569
 20
4.8056991166
 30
0.0
 10
15.4656397838
 20
4.8081093898
 30
0.0
 10
15.4702438697
 20
4.8096469247
 30
0.0
 10
15.4734741895
 20
4.8100101403
 30
0.0
 10
15.4750861313
 20
4.8100101487
 30
0.0
  0
SPLINE
  5
651
100
AcDbEntity
  8
0
100
AcDbSpline
 62
7
  6
CONTINUOUS
 70
0
 71
3
 72
11
 73
7
 74
0
 42
0.0000001
 43
0.0000001
 44
0.0000000001
 40
0.0
 40
0.0
 40
0.0
 40
0.0
 40
0.2502980811
 40
0.500577952
 40
0.750462595
 40
1.0
 40
1.0
 40
1.0
 40
1.0
 10
15.4750861207
 20
5.1046963253
 30
0.0
 10
15.4734737881
 20
5.1046963768
 30
0.0
 10
15.4702391712
 20
5.1050681994
 30
0.0
 10
15.4656324116
 20
5.1066413568
 30
0.0
 10
15.4614451358
 20
5.1091069543
 30
0.0
 10
15.4589958643
 20
5.1112171236
 30
0.0
 10
15.4578552569
 20
5.1123497552
 30
0.0
  0
SPLINE
  5
652
100
AcDbEntity
  8
0
100
AcDbSpline
 62
7
  6
CONTINUOUS
 70
0
 71
3
 72
11
 73
7
 74
0
 42
0.0000001
 43
0.0000001
 44
0.0000000001
 40
0.0
 40
0.0
 40
0.0
 40
0.0
 40
0.249531215
 40
0.4994322616
 40
0.7496964572
 40
1.0
 40
1.0
 40
1.0
 40
1.0
 10
15.6628552569
 20
5.1123497552
 30
0.0
 10
15.6617167292
 20
5.1112150738
 30
0.0
 10
15.6592659541
 20
5.1091058131
 30
0.0
 10
15.6550777968
 20
5.1066424062
 30
0.0
 10
15.6504714682
 20
5.1050678884
 30
0.0
 10
15.6472367795
 20
5.1046963347
 30
0.0
 10
15.6456244004
 20
5.1046963263
 30
0.0
  0
SPLINE
  5
653
100
AcDbEntity
  8
0
100
AcDbSpline
 62
7
  6
CONTINUOUS
 70
0
 71
3
 72
11
 73
7
 74
0
 42
0.0000001
 43
0.0000001
 44
0.0000000001
 40
0.0
 40
0.0
 40
0.0
 40
0.0
 40
0.2554550982
 40
0.5084024969
 40
0.7567552083
 40
1.0
 40
1.0
 40
1.0
 40
1.0
 10
15.6456243994
 20
4.1813364121
 30
0.0
 10
15.6472345873
 20
4.181336381
 30
0.0
 10
15.6504472345
 20
4.1810102636
 30
0.0
 10
15.6550402359
 20
4.1796252431
 30
0.0
 10
15.6592268196
 20
4.1774489774
 30
0.0
 10
15.6617044057
 20
4.1755637893
 30
0.0
 10
15.6628552569
 20
4.1745507165
 30
0.0
  0
SPLINE
  5
654
100
AcDbEntity
  8
0
100
AcDbSpline
 62
7
  6
CONTINUOUS
 70
0
 71
3
 72
11
 73
7
 74
0
 42
0.0000001
 43
0.0000001
 44
0.0000000001
 40
0.0
 40
0.0
 40
0.0
 40
0.0
 40
0.2432492316
 40
0.4915918527
 40
0.7445405183
 40
1.0
 40
1.0
 40
1.0
 40
1.0
 10
15.4578552569
 20
4.1745507165
 30
0.0
 10
15.4590064354
 20
4.1755634595
 30
0.0
 10
15.4614838011
 20
4.1774487552
 30
0.0
 10
15.4656701954
 20
4.1796254436
 30
0.0
 10
15.4702632585
 20
4.1810101686
 30
0.0
 10
15.4734759193
 20
4.1813364176
 30
0.0
 10
15.4750861347
 20
4.1813364146
 30
0.0
  0
SPLINE
  5
655
100
AcDbEntity
  8
0
100
AcDbSpline
 62
7
  6
CONTINUOUS
 70
0
 71
3
 72
11
 73
7
 74
0
 42
0.0000001
 43
0.0000001
 44
0.0000000001
 40
0.0
 40
0.0
 40
0.0
 40
0.0
 40
0.2532359621
 40
0.5050141009
 40
0.7539988384
 40
1.0
 40
1.0
 40
1.0
 40
1.0
 10
15.4750861207
 20
4.4527845312
 30
0.0
 10
15.4734750509
 20
4.4527845793
 30
0.0
 10
15.4702532868
 20
4.4531299849
 30
0.0
 10
15.4656540107
 20
4.4545949322
 30
0.0
 10
15.4614664408
 20
4.456896502
 30
0.0
 10
15.4590015403
 20
4.458880672
 30
0.0
 10
15.4578552569
 20
4.4599462199
 30
0.0
  0
SPLINE
  5
656
100
AcDbEntity
  8
0
100
AcDbSpline
 62
7
  6
CONTINUOUS
 70
0
 71
3
 72
11
 73
7
 74
0
 42
0.0000001
 43
0.0000001
 44
0.0000000001
 40
0.0
 40
0.0
 40
0.0
 40
0.0
 40
0.2459905371
 40
0.4949966347
 40
0.7467582599
 40
1.0
 40
1.0
 40
1.0
 40
1.0
 10
15.6628552569
 20
4.4599462199
 30
0.0
 10
15.6617109434
 20
4.4588786406
 30
0.0
 10
15.659244588
 20
4.4568954407
 30
0.0
 10
15.6550562685
 20
4.4545959375
 30
0.0
 10
15.6504573369
 20
4.4531296872
 30
0.0
 10
15.6472355178
 20
4.4527845399
 30
0.0
 10
15.6456244004
 20
4.4527845321
 30
0.0
  0
SPLINE
  5
657
100
AcDbEntity
  8
0
100
AcDbSpline
 62
7
  6
CONTINUOUS
 70
0
 71
3
 72
11
 73
7
 74
0
 42
0.0000001
 43
0.0000001
 44
0.0000000001
 40
0.0
 40
0.0
 40
0.0
 40
0.0
 40
0.2617678832
 40
0.5180523383
 40
0.7645879932
 40
1.0
 40
1.0
 40
1.0
 40
1.0
 10
15.6456243994
 20
3.6330450661
 30
0.0
 10
15.6472321614
 20
3.6330450402
 30
0.0
 10
15.6504197116
 20
3.6327765972
 30
0.0
 10
15.6549944972
 20
3.631632725
 30
0.0
 10
15.6591760182
 20
3.6298301227
 30
0.0
 10
15.6616893605
 20
3.6282431476
 30
0.0
 10
15.6628552569
 20
3.6273880036
 30
0.0
  0
SPLINE
  5
658
100
AcDbEntity
  8
0
100
AcDbSpline
 62
7
  6
CONTINUOUS
 70
0
 71
3
 72
11
 73
7
 74
0
 42
0.0000001
 43
0.0000001
 44
0.0000000001
 40
0.0
 40
0.0
 40
0.0
 40
0.0
 40
0.2354175433
 40
0.4819409099
 40
0.7382273633
 40
1.0
 40
1.0
 40
1.0
 40
1.0
 10
15.4578552569
 20
3.6273880036
 30
0.0
 10
15.4590214352
 20
3.6282428209
 30
0.0
 10
15.4615345659
 20
3.6298299354
 30
0.0
 10
15.4657159514
 20
3.6316328985
 30
0.0
 10
15.4702907671
 20
3.6327765118
 30
0.0
 10
15.4734783434
 20
3.6330450707
 30
0.0
 10
15.4750861347
 20
3.6330450681
 30
0.0
  0
SPLINE
  5
659
100
AcDbEntity
  8
0
100
AcDbSpline
 62
7
  6
CONTINUOUS
 70
0
 71
3
 72
9
 73
5
 74
0
 42
0.0000001
 43
0.0000001
 44
0.0000000001
 40
0.0
 40
0.0
 40
0.0
 40
0.0
 40
0.4891266816
 40
1.0
 40
1.0
 40
1.0
 40
1.0
 10
15.6628552569
 20
3.8704189941
 30
0.0
 10
15.6612509875
 20
3.8691185023
 30
0.0
 10
15.6576869077
 20
3.8667862478
 30
0.0
 10
15.6536657983
 20
3.865349029
 30
0.0
 10
15.6515625348
 20
3.8648705792
 30
0.0
  0
SPLINE
  5
65A
100
AcDbEntity
  8
0
100
AcDbSpline
 62
7
  6
CONTINUOUS
 70
0
 71
3
 72
11
 73
7
 74
0
 42
0.0000001
 43
0.0000001
 44
0.0000000001
 40
0.0
 40
0.0
 40
0.0
 40
0.0
 40
0.2690513546
 40
0.5292967463
 40
0.7738522505
 40
1.0
 40
1.0
 40
1.0
 40
1.0
 10
15.6456243994
 20
3.1995872701
 30
0.0
 10
15.6472296377
 20
3.199587251
 30
0.0
 10
15.6503907235
 20
3.1993917809
 30
0.0
 10
15.6549427933
 20
3.1985568346
 30
0.0
 10
15.6591121174
 20
3.1972391704
 30
0.0
 10
15.6616683122
 20
3.1960559121
 30
0.0
 10
15.6628552569
 20
3.1954142948
 30
0.0
  0
SPLINE
  5
65B
100
AcDbEntity
  8
0
100
AcDbSpline
 62
7
  6
CONTINUOUS
 70
0
 71
3
 72
9
 73
5
 74
0
 42
0.0000001
 43
0.0000001
 44
0.0000000001
 40
0.0
 40
0.0
 40
0.0
 40
0.0
 40
0.2546608996
 40
1.0
 40
1.0
 40
1.0
 40
1.0
 10
15.6517541973
 20
7.3151731434
 30
0.0
 10
15.6522450965
 20
7.3150692881
 30
0.0
 10
15.6541619972
 20
7.3146123515
 30
0.0
 10
15.6560332089
 20
7.313962482
 30
0.0
 10
15.6573785243
 20
7.3133735876
 30
0.0
  0
SPLINE
  5
65C
100
AcDbEntity
  8
0
100
AcDbSpline
 62
7
  6
CONTINUOUS
 70
0
 71
3
 72
9
 73
5
 74
0
 42
0.0000001
 43
0.0000001
 44
0.0000000001
 40
0.0
 40
0.0
 40
0.0
 40
0.0
 40
0.2566732682
 40
1.0
 40
1.0
 40
1.0
 40
1.0
 10
15.6573785243
 20
7.3133735876
 30
0.0
 10
15.6578744397
 20
7.3131565071
 30
0.0
 10
15.6597817609
 20
7.3122548381
 30
0.0
 10
15.6615876405
 20
7.3111418734
 30
0.0
 10
15.6628552569
 20
7.3102193977
 30
0.0
  0
SPLINE
  5
65D
100
AcDbEntity
  8
0
100
AcDbSpline
 62
7
  6
CONTINUOUS
 70
0
 71
3
 72
11
 73
7
 74
0
 42
0.0000001
 43
0.0000001
 44
0.0000000001
 40
0.0
 40
0.0
 40
0.0
 40
0.0
 40
0.2261559073
 40
0.4706968399
 40
0.7309442025
 40
1.0
 40
1.0
 40
1.0
 40
1.0
 10
15.4578552569
 20
3.1954142948
 30
0.0
 10
15.4590424184
 20
3.1960556146
 30
0.0
 10
15.4615984493
 20
3.1972390313
 30
0.0
 10
15.4657676936
 20
3.1985569774
 30
0.0
 10
15.4703197529
 20
3.1993917142
 30
0.0
 10
15.4734808692
 20
3.1995872735
 30
0.0
 10
15.4750861347
 20
3.1995872716
 30
0.0
  0
SPLINE
  5
65E
100
AcDbEntity
  8
0
100
AcDbSpline
 62
7
  6
CONTINUOUS
 70
0
 71
3
 72
9
 73
5
 74
0
 42
0.0000001
 43
0.0000001
 44
0.0000000001
 40
0.0
 40
0.0
 40
0.0
 40
0.0
 40
0.4824912553
 40
1.0
 40
1.0
 40
1.0
 40
1.0
 10
15.6628552569
 20
3.3808102415
 30
0.0
 10
15.6615134786
 20
3.379954979
 30
0.0
 10
15.6585878118
 20
3.3783996813
 30
0.0
 10
15.6554458394
 20
3.3773432801
 30
0.0
 10
15.653790501
 20
3.3769279033
 30
0.0
  0
SPLINE
  5
65F
100
AcDbEntity
  8
0
100
AcDbSpline
 62
7
  6
CONTINUOUS
 70
0
 71
3
 72
9
 73
5
 74
0
 42
0.0000001
 43
0.0000001
 44
0.0000000001
 40
0.0
 40
0.0
 40
0.0
 40
0.0
 40
0.2756639213
 40
1.0
 40
1.0
 40
1.0
 40
1.0
 10
15.6503835264
 20
2.9080298123
 30
0.0
 10
15.651546694
 20
2.9079472898
 30
0.0
 10
15.655756542
 20
2.9075374847
 30
0.0
 10
15.6599316989
 20
2.9066891889
 30
0.0
 10
15.6628552569
 20
2.9057720868
 30
0.0
  0
SPLINE
  5
660
100
AcDbEntity
  8
0
100
AcDbSpline
 62
7
  6
CONTINUOUS
 70
0
 71
3
 72
9
 73
5
 74
0
 42
0.0000001
 43
0.0000001
 44
0.0000000001
 40
0.0
 40
0.0
 40
0.0
 40
0.0
 40
0.2222950467
 40
1.0
 40
1.0
 40
1.0
 40
1.0
 10
15.4578552569
 20
2.9057720868
 30
0.0
 10
15.4587524956
 20
2.9060533483
 30
0.0
 10
15.4628286173
 20
2.9071907405
 30
0.0
 10
15.4670449363
 20
2.9077969308
 30
0.0
 10
15.4703263154
 20
2.9080297584
 30
0.0
  0
LINE
  5
661
100
AcDbEntity
  8
0
100
AcDbLine
 62
7
  6
CONTINUOUS
 10
15.4578552569
 20
2.7766606649
 11
15.4703263262
 21
2.7771512445
  0
SPLINE
  5
662
100
AcDbEntity
  8
DRAWING
100
AcDbSpline
 62
7
  6
CONTINUOUS
 70
0
 71
3
 72
9
 73
5
 74
0
 42
0.0000001
 43
0.0000001
 44
0.0000000001
 40
0.0
 40
0.0
 40
0.0
 40
0.0
 40
0.4881410914
 40
1.0
 40
1.0
 40
1.0
 40
1.0
 10
18.1873177071
 20
12.5499713394
 30
0.0
 10
18.1626311824
 20
12.6002771876
 30
0.0
 10
18.1069496334
 20
12.7008777427
 30
0.0
 10
18.0427339948
 20
12.7962073541
 30
0.0
 10
18.0080292036
 20
12.8436229248
 30
0.0
  0
SPLINE
  5
663
100
AcDbEntity
  8
DRAWING
100
AcDbSpline
 62
7
  6
CONTINUOUS
 70
0
 71
3
 72
10
 73
6
 74
0
 42
0.0000001
 43
0.0000001
 44
0.0000000001
 40
0.0
 40
0.0
 40
0.0
 40
0.0
 40
0.4883466983
 40
0.74136282
 40
1.0
 40
1.0
 40
1.0
 40
1.0
 10
17.9219927739
 20
12.9540624976
 30
0.0
 10
17.8745470066
 20
13.0114554879
 30
0.0
 10
17.7985970954
 20
13.0954185633
 30
0.0
 10
17.6898482197
 20
13.2023338972
 30
0.0
 10
17.632171631
 20
13.2549086511
 30
0.0
 10
17.6025541481
 20
13.2809502762
 30
0.0
  0
SPLINE
  5
664
100
AcDbEntity
  8
DRAWING
100
AcDbSpline
 62
7
  6
CONTINUOUS
 70
0
 71
3
 72
10
 73
6
 74
0
 42
0.0000001
 43
0.0000001
 44
0.0000000001
 40
0.0
 40
0.0
 40
0.0
 40
0.0
 40
0.2437259652
 40
0.4918466885
 40
1.0
 40
1.0
 40
1.0
 40
1.0
 10
17.4844218795
 20
13.3801360389
 30
0.0
 10
17.4514825797
 20
13.4065656799
 30
0.0
 10
17.3840540794
 20
13.4587231178
 30
0.0
 10
17.2434624792
 20
13.5600438827
 30
0.0
 10
17.13338287
 20
13.631360996
 30
0.0
 10
17.0580639863
 20
13.6769677452
 30
0.0
  0
SPLINE
  5
665
100
AcDbEntity
  8
DRAWING
100
AcDbSpline
 62
7
  6
CONTINUOUS
 70
0
 71
3
 72
17
 73
13
 74
0
 42
0.0000001
 43
0.0000001
 44
0.0000000001
 40
0.0
 40
0.0
 40
0.0
 40
0.0
 40
0.1292120404
 40
0.2589493542
 40
0.3883191491
 40
0.4525955203
 40
0.5164498865
 40
0.6424528972
 40
0.7655284744
 40
0.8257390331
 40
0.8849438064
 40
1.0
 40
1.0
 40
1.0
 40
1.0
 10
16.4199989343
 20
13.9983536027
 30
0.0
 10
16.3286881697
 20
14.0361402024
 30
0.0
 10
16.1434117497
 20
14.1064738679
 30
0.0
 10
15.8599726593
 20
14.1956499773
 30
0.0
 10
15.6200051803
 20
14.2561479627
 30
0.0
 10
15.4270825344
 20
14.2958198712
 30
0.0
 10
15.2356040942
 20
14.3293064255
 30
0.0
 10
14.9980802277
 20
14.3599023254
 30
0.0
 10
14.7618710418
 20
14.3754033431
 30
0.0
 10
14.576403676
 20
14.3782776095
 30
0.0
 10
14.397090861
 20
14.374930035
 30
0.0
 10
14.2639977015
 20
14.3654251994
 30
0.0
 10
14.1765389678
 20
14.3557327747
 30
0.0
  0
SPLINE
  5
666
100
AcDbEntity
  8
DRAWING
100
AcDbSpline
 62
7
  6
CONTINUOUS
 70
0
 71
3
 72
10
 73
6
 74
0
 42
0.0000001
 43
0.0000001
 44
0.0000000001
 40
0.0
 40
0.0
 40
0.0
 40
0.0
 40
0.5113200816
 40
0.7585807884
 40
1.0
 40
1.0
 40
1.0
 40
1.0
 10
14.1765389678
 20
14.3557327747
 30
0.0
 10
14.0986479772
 20
14.3471006744
 30
0.0
 10
13.9834635337
 20
14.3302595305
 30
0.0
 10
13.8333522976
 20
14.2991864701
 30
0.0
 10
13.7606607538
 20
14.2810273415
 30
0.0
 10
13.7249651732
 20
14.271284591
 30
0.0
  0
SPLINE
  5
667
100
AcDbEntity
  8
DRAWING
100
AcDbSpline
 62
7
  6
CONTINUOUS
 70
0
 71
3
 72
10
 73
6
 74
0
 42
0.0000001
 43
0.0000001
 44
0.0000000001
 40
0.0
 40
0.0
 40
0.0
 40
0.0
 40
0.2601101085
 40
0.5134611327
 40
1.0
 40
1.0
 40
1.0
 40
1.0
 10
13.5872457148
 20
14.229353386
 30
0.0
 10
13.5548743278
 20
14.2184218931
 30
0.0
 10
13.4914363823
 20
14.1954211399
 30
0.0
 10
13.3701735042
 20
14.1448584282
 30
0.0
 10
13.2832611114
 20
14.1008332089
 30
0.0
 10
13.2279838162
 20
14.0687559786
 30
0.0
  0
SPLINE
  5
668
100
AcDbEntity
  8
DRAWING
100
AcDbSpline
 62
7
  6
CONTINUOUS
 70
0
 71
3
 72
10
 73
6
 74
0
 42
0.0000001
 43
0.0000001
 44
0.0000000001
 40
0.0
 40
0.0
 40
0.0
 40
0.0
 40
0.5113923303
 40
0.7582990383
 40
1.0
 40
1.0
 40
1.0
 40
1.0
 10
13.1164764677
 20
13.9977986603
 30
0.0
 10
13.0699809746
 20
13.9653534004
 30
0.0
 10
13.0036638058
 20
13.9132216813
 30
0.0
 10
12.9235487879
 20
13.8365040832
 30
0.0
 10
12.886994296
 20
13.7964531671
 30
0.0
 10
12.8696426251
 20
13.7760329081
 30
0.0
  0
SPLINE
  5
669
100
AcDbEntity
  8
DRAWING
100
AcDbSpline
 62
7
  6
CONTINUOUS
 70
0
 71
3
 72
11
 73
7
 74
0
 42
0.0000001
 43
0.0000001
 44
0.0000000001
 40
0.0
 40
0.0
 40
0.0
 40
0.0
 40
0.2483117301
 40
0.4973028751
 40
0.7476464671
 40
1.0
 40
1.0
 40
1.0
 40
1.0
 10
12.6839956563
 20
13.3280030093
 30
0.0
 10
12.6899850663
 20
13.3473821841
 30
0.0
 10
12.7032267828
 20
13.3858206574
 30
0.0
 10
12.7267760572
 20
13.4422131233
 30
0.0
 10
12.7539944952
 20
13.4972972447
 30
0.0
 10
12.7744685931
 20
13.5329280061
 30
0.0
 10
12.7852789457
 20
13.550479769
 30
0.0
  0
SPLINE
  5
66A
100
AcDbEntity
  8
DRAWING
100
AcDbSpline
 62
7
  6
CONTINUOUS
 70
0
 71
3
 72
11
 73
7
 74
0
 42
0.0000001
 43
0.0000001
 44
0.0000000001
 40
0.0
 40
0.0
 40
0.0
 40
0.0
 40
0.2396800386
 40
0.4853152628
 40
0.7383556278
 40
1.0
 40
1.0
 40
1.0
 40
1.0
 10
12.7852789457
 20
13.550479769
 30
0.0
 10
12.8044385431
 20
13.581587423
 30
0.0
 10
12.846673097
 20
13.6425194441
 30
0.0
 10
12.9200582105
 20
13.7280888522
 30
0.0
 10
13.0038144012
 20
13.8084358035
 30
0.0
 10
13.0652262436
 20
13.8574471538
 30
0.0
 10
13.0974106491
 20
13.8810010943
 30
0.0
  0
SPLINE
  5
66B
100
AcDbEntity
  8
DRAWING
100
AcDbSpline
 62
7
  6
CONTINUOUS
 70
0
 71
3
 72
11
 73
7
 74
0
 42
0.0000001
 43
0.0000001
 44
0.0000000001
 40
0.0
 40
0.0
 40
0.0
 40
0.0
 40
0.2363859268
 40
0.6075788515
 40
0.8011150551
 40
1.0
 40
1.0
 40
1.0
 40
1.0
 10
13.0991534233
 20
13.8822745151
 30
0.0
 10
13.1321525593
 20
13.9063484028
 30
0.0
 10
13.2196359328
 20
13.9646162364
 30
0.0
 10
13.3420953529
 20
14.0298515318
 30
0.0
 10
13.4630322871
 20
14.0827193157
 30
0.0
 10
13.5264629159
 20
14.1067889407
 30
0.0
 10
13.558867708
 20
14.1182356119
 30
0.0
  0
SPLINE
  5
66C
100
AcDbEntity
  8
DRAWING
100
AcDbSpline
 62
7
  6
CONTINUOUS
 70
0
 71
3
 72
9
 73
5
 74
0
 42
0.0000001
 43
0.0000001
 44
0.0000000001
 40
0.0
 40
0.0
 40
0.0
 40
0.0
 40
0.4930972223
 40
1.0
 40
1.0
 40
1.0
 40
1.0
 10
14.1472359683
 20
14.2505556302
 30
0.0
 10
14.2067488805
 20
14.2575664254
 30
0.0
 10
14.3278476453
 20
14.268487577
 30
0.0
 10
14.449336682
 20
14.2732306162
 30
0.0
 10
14.5109317573
 20
14.2741660416
 30
0.0
  0
SPLINE
  5
66D
100
AcDbEntity
  8
DRAWING
100
AcDbSpline
 62
7
  6
CONTINUOUS
 70
0
 71
3
 72
11
 73
7
 74
0
 42
0.0000001
 43
0.0000001
 44
0.0000000001
 40
0.0
 40
0.0
 40
0.0
 40
0.0
 40
0.2619653809
 40
0.5161124431
 40
0.7621676862
 40
1.0
 40
1.0
 40
1.0
 40
1.0
 10
17.568661665
 20
13.1761014845
 30
0.0
 10
17.6070973759
 20
13.1417721648
 30
0.0
 10
17.6812124124
 20
13.0723057204
 30
0.0
 10
17.7852144945
 20
12.9642080397
 30
0.0
 10
17.8800136934
 20
12.8541434769
 30
0.0
 10
17.9378342016
 20
12.7784359733
 30
0.0
 10
17.9650215877
 20
12.7403588307
 30
0.0
  0
SPLINE
  5
66E
100
AcDbEntity
  8
DRAWING
100
AcDbSpline
 62
7
  6
CONTINUOUS
 70
0
 71
3
 72
9
 73
5
 74
0
 42
0.0000001
 43
0.0000001
 44
0.0000000001
 40
0.0
 40
0.0
 40
0.0
 40
0.0
 40
0.5108354529
 40
1.0
 40
1.0
 40
1.0
 40
1.0
 10
17.9685300697
 20
12.7354305646
 30
0.0
 10
17.9988710889
 20
12.6926854799
 30
0.0
 10
18.0552630168
 20
12.6068242814
 30
0.0
 10
18.1046161396
 20
12.5167002576
 30
0.0
 10
18.1267291655
 20
12.4716386485
 30
0.0
  0
SPLINE
  5
66F
100
AcDbEntity
  8
DRAWING
100
AcDbSpline
 62
7
  6
CONTINUOUS
 70
0
 71
3
 72
9
 73
5
 74
0
 42
0.0000001
 43
0.0000001
 44
0.0000000001
 40
0.0
 40
0.0
 40
0.0
 40
0.0
 40
0.504690443
 40
1.0
 40
1.0
 40
1.0
 40
1.0
 10
12.6748012708
 20
12.9733195297
 30
0.0
 10
12.6710217557
 20
13.001778767
 30
0.0
 10
12.6656469094
 20
13.0584725594
 30
0.0
 10
12.6647778106
 20
13.1154206127
 30
0.0
 10
12.6655096386
 20
13.1435865877
 30
0.0
  0
SPLINE
  5
670
100
AcDbEntity
  8
DRAWING
100
AcDbSpline
 62
7
  6
CONTINUOUS
 70
0
 71
3
 72
11
 73
7
 74
0
 42
0.0000001
 43
0.0000001
 44
0.0000000001
 40
0.0
 40
0.0
 40
0.0
 40
0.0
 40
0.25979358
 40
0.5128874191
 40
0.7595213084
 40
1.0
 40
1.0
 40
1.0
 40
1.0
 10
17.5962437011
 20
10.8940083821
 30
0.0
 10
17.6238946113
 20
10.9075408538
 30
0.0
 10
17.6778334686
 20
10.9356135893
 30
0.0
 10
17.7554044068
 20
10.9813369636
 30
0.0
 10
17.82841573
 20
11.0300271436
 30
0.0
 10
17.8745120526
 20
11.0648359252
 30
0.0
 10
17.8967070225
 20
11.0827078259
 30
0.0
  0
SPLINE
  5
671
100
AcDbEntity
  8
DRAWING
100
AcDbSpline
 62
7
  6
CONTINUOUS
 70
0
 71
3
 72
11
 73
7
 74
0
 42
0.0000001
 43
0.0000001
 44
0.0000000001
 40
0.0
 40
0.0
 40
0.0
 40
0.0
 40
0.2564179746
 40
0.5080636709
 40
0.7556628317
 40
1.0
 40
1.0
 40
1.0
 40
1.0
 10
18.0050190867
 20
11.1802786955
 30
0.0
 10
18.0233630853
 20
11.1988263319
 30
0.0
 10
18.0585384285
 20
11.2367598193
 30
0.0
 10
18.1069063165
 20
11.2965914025
 30
0.0
 10
18.1502622486
 20
11.3586575851
 30
0.0
 10
18.1759135146
 20
11.4016927552
 30
0.0
 10
18.1878375407
 20
11.4235038041
 30
0.0
  0
SPLINE
  5
672
100
AcDbEntity
  8
DRAWING
100
AcDbSpline
 62
7
  6
CONTINUOUS
 70
0
 71
3
 72
12
 73
8
 74
0
 42
0.0000001
 43
0.0000001
 44
0.0000000001
 40
0.0
 40
0.0
 40
0.0
 40
0.0
 40
0.2611859128
 40
0.5139903798
 40
0.6376895123
 40
0.7598048705
 40
1.0
 40
1.0
 40
1.0
 40
1.0
 10
18.2078185705
 20
12.2733657836
 30
0.0
 10
18.2200075254
 20
12.2360751466
 30
0.0
 10
18.2409046937
 20
12.1616308065
 30
0.0
 10
18.2582065779
 20
12.0672656582
 30
0.0
 10
18.2662381328
 20
11.9927708664
 30
0.0
 10
18.2704074007
 20
11.9198668451
 30
0.0
 10
18.2693178557
 20
11.8653238641
 30
0.0
 10
18.2666480145
 20
11.8293436042
 30
0.0
  0
SPLINE
  5
673
100
AcDbEntity
  8
DRAWING
100
AcDbSpline
 62
7
  6
CONTINUOUS
 70
0
 71
3
 72
9
 73
5
 74
0
 42
0.0000001
 43
0.0000001
 44
0.0000000001
 40
0.0
 40
0.0
 40
0.0
 40
0.0
 40
0.4950656991
 40
1.0
 40
1.0
 40
1.0
 40
1.0
 10
18.1222467334
 20
11.4294863535
 30
0.0
 10
18.1063477859
 20
11.406264608
 30
0.0
 10
18.0723198263
 20
11.3606430023
 30
0.0
 10
18.034859008
 20
11.3178039256
 30
0.0
 10
18.0151818296
 20
11.2969059415
 30
0.0
  0
SPLINE
  5
674
100
AcDbEntity
  8
DRAWING
100
AcDbSpline
 62
7
  6
CONTINUOUS
 70
0
 71
3
 72
11
 73
7
 74
0
 42
0.0000001
 43
0.0000001
 44
0.0000000001
 40
0.0
 40
0.0
 40
0.0
 40
0.0
 40
0.2440643464
 40
0.4914580787
 40
0.7431403702
 40
1.0
 40
1.0
 40
1.0
 40
1.0
 10
12.6105100616
 20
13.1734528149
 30
0.0
 10
12.6071394619
 20
13.1465961211
 30
0.0
 10
12.6025603937
 20
13.0922151569
 30
0.0
 10
12.602185473
 20
13.009718881
 30
0.0
 10
12.6082738314
 20
12.9260268413
 30
0.0
 10
12.6165319686
 20
12.8701775144
 30
0.0
 10
12.6216849898
 20
12.8421610577
 30
0.0
  0
SPLINE
  5
675
100
AcDbEntity
  8
DRAWING
100
AcDbSpline
 62
7
  6
CONTINUOUS
 70
0
 71
3
 72
9
 73
5
 74
0
 42
0.0000001
 43
0.0000001
 44
0.0000000001
 40
0.0
 40
0.0
 40
0.0
 40
0.0
 40
0.2427152378
 40
1.0
 40
1.0
 40
1.0
 40
1.0
 10
12.6472422143
 20
12.7315888202
 30
0.0
 10
12.6532803875
 20
12.7098590383
 30
0.0
 10
12.6804233536
 20
12.6209669835
 30
0.0
 10
12.7162727857
 20
12.5348092819
 30
0.0
 10
12.7472724301
 20
12.4716386485
 30
0.0
  0
SPLINE
  5
676
100
AcDbEntity
  8
DRAWING
100
AcDbSpline
 62
7
  6
CONTINUOUS
 70
0
 71
3
 72
11
 73
7
 74
0
 42
0.0000001
 43
0.0000001
 44
0.0000000001
 40
0.0
 40
0.0
 40
0.0
 40
0.0
 40
0.2419855825
 40
0.4889192395
 40
0.7414220697
 40
1.0
 40
1.0
 40
1.0
 40
1.0
 10
18.3285099394
 20
12.0614321988
 30
0.0
 10
18.3264312844
 20
12.0875206682
 30
0.0
 10
18.3203705661
 20
12.1400990717
 30
0.0
 10
18.305846875
 20
12.2190151582
 30
0.0
 10
18.2858287547
 20
12.2985688197
 30
0.0
 10
18.2690509166
 20
12.3512760074
 30
0.0
 10
18.2598020406
 20
12.3776679623
 30
0.0
  0
SPLINE
  5
677
100
AcDbEntity
  8
DRAWING
100
AcDbSpline
 62
7
  6
CONTINUOUS
 70
0
 71
3
 72
9
 73
5
 74
0
 42
0.0000001
 43
0.0000001
 44
0.0000000001
 40
0.0
 40
0.0
 40
0.0
 40
0.0
 40
0.495466106
 40
1.0
 40
1.0
 40
1.0
 40
1.0
 10
18.1459980216
 20
11.4283284653
 30
0.0
 10
18.1309180183
 20
11.4014306085
 30
0.0
 10
18.0979359862
 20
11.3485353259
 30
0.0
 10
18.0603590632
 20
11.2988102415
 30
0.0
 10
18.0403793754
 20
11.2745855088
 30
0.0
  0
SPLINE
  5
678
100
AcDbEntity
  8
DRAWING
100
AcDbSpline
 62
7
  6
CONTINUOUS
 70
0
 71
3
 72
9
 73
5
 74
0
 42
0.0000001
 43
0.0000001
 44
0.0000000001
 40
0.0
 40
0.0
 40
0.0
 40
0.0
 40
0.491425989
 40
1.0
 40
1.0
 40
1.0
 40
1.0
 10
18.0347639845
 20
11.2678316446
 30
0.0
 10
18.0083825268
 20
11.2363552322
 30
0.0
 10
17.9511149419
 20
11.1752425375
 30
0.0
 10
17.8879357923
 20
11.1203089953
 30
0.0
 10
17.8545990685
 20
11.0939427569
 30
0.0
  0
SPLINE
  5
679
100
AcDbEntity
  8
DRAWING
100
AcDbSpline
 62
7
  6
CONTINUOUS
 70
0
 71
3
 72
10
 73
6
 74
0
 42
0.0000001
 43
0.0000001
 44
0.0000000001
 40
0.0
 40
0.0
 40
0.0
 40
0.0
 40
0.4867340297
 40
0.7399507815
 40
1.0
 40
1.0
 40
1.0
 40
1.0
 10
17.8545990685
 20
11.0939427569
 30
0.0
 10
17.8089581694
 20
11.0578450637
 30
0.0
 10
17.7359927118
 20
11.0073482028
 30
0.0
 10
17.6323626302
 20
10.9476767609
 30
0.0
 10
17.5776019308
 20
10.919906847
 30
0.0
 10
17.5495319359
 20
10.9065411296
 30
0.0
  0
SPLINE
  5
67A
100
AcDbEntity
  8
DRAWING
100
AcDbSpline
 62
7
  6
CONTINUOUS
 70
0
 71
3
 72
9
 73
5
 74
0
 42
0.0000001
 43
0.0000001
 44
0.0000000001
 40
0.0
 40
0.0
 40
0.0
 40
0.0
 40
0.4885177891
 40
1.0
 40
1.0
 40
1.0
 40
1.0
 10
18.1631110748
 20
12.4716386485
 30
0.0
 10
18.1392646455
 20
12.5202325622
 30
0.0
 10
18.0856867569
 20
12.6174141688
 30
0.0
 10
18.0241046427
 20
12.709687749
 30
0.0
 10
17.9908762512
 20
12.7555989711
 30
0.0
  0
SPLINE
  5
67B
100
AcDbEntity
  8
DRAWING
100
AcDbSpline
 62
7
  6
CONTINUOUS
 70
0
 71
3
 72
11
 73
7
 74
0
 42
0.0000001
 43
0.0000001
 44
0.0000000001
 40
0.0
 40
0.0
 40
0.0
 40
0.0
 40
0.2381868088
 40
0.4843661217
 40
0.7383975545
 40
1.0
 40
1.0
 40
1.0
 40
1.0
 10
17.9838225712
 20
12.7652902338
 30
0.0
 10
17.956253476
 20
12.8029566291
 30
0.0
 10
17.8978015332
 20
12.8778294409
 30
0.0
 10
17.80237072
 20
12.9866984334
 30
0.0
 10
17.6980638496
 20
13.0936005159
 30
0.0
 10
17.6239225918
 20
13.1623281542
 30
0.0
 10
17.5855206098
 20
13.1962920453
 30
0.0
  0
SPLINE
  5
67C
100
AcDbEntity
  8
DRAWING
100
AcDbSpline
 62
7
  6
CONTINUOUS
 70
0
 71
3
 72
13
 73
9
 74
0
 42
0.0000001
 43
0.0000001
 44
0.0000000001
 40
0.0
 40
0.0
 40
0.0
 40
0.0
 40
0.2383314048
 40
0.360775111
 40
0.4852192185
 40
0.6115239542
 40
0.7395352654
 40
1.0
 40
1.0
 40
1.0
 40
1.0
 10
17.5783475158
 20
13.2026175852
 30
0.0
 10
17.5185922328
 20
13.2551583321
 30
0.0
 10
17.4252285418
 20
13.3314511948
 30
0.0
 10
17.294924936
 20
13.4277242937
 30
0.0
 10
17.1923963702
 20
13.4985553708
 30
0.0
 10
17.0861711013
 20
13.5671957687
 30
0.0
 10
16.9390784336
 20
13.6561177814
 30
0.0
 10
16.8251614596
 20
13.7183139351
 30
0.0
 10
16.7477122548
 20
13.7578535662
 30
0.0
  0
SPLINE
  5
67D
100
AcDbEntity
  8
DRAWING
100
AcDbSpline
 62
7
  6
CONTINUOUS
 70
0
 71
3
 72
11
 73
7
 74
0
 42
0.0000001
 43
0.0000001
 44
0.0000000001
 40
0.0
 40
0.0
 40
0.0
 40
0.0
 40
0.2593188112
 40
0.5130140954
 40
0.7601807041
 40
1.0
 40
1.0
 40
1.0
 40
1.0
 10
15.0106190758
 20
14.2748482883
 30
0.0
 10
14.9367052401
 20
14.2826428307
 30
0.0
 10
14.7900792561
 20
14.2945288049
 30
0.0
 10
14.5722049413
 20
14.301058425
 30
0.0
 10
14.3598741767
 20
14.2961074423
 30
0.0
 10
14.2206489972
 20
14.2849711298
 30
0.0
 10
14.1523323355
 20
14.2774000837
 30
0.0
  0
SPLINE
  5
67E
100
AcDbEntity
  8
DRAWING
100
AcDbSpline
 62
7
  6
CONTINUOUS
 70
0
 71
3
 72
11
 73
7
 74
0
 42
0.0000001
 43
0.0000001
 44
0.0000000001
 40
0.0
 40
0.0
 40
0.0
 40
0.0
 40
0.2614807112
 40
0.5154910043
 40
0.7617357529
 40
1.0
 40
1.0
 40
1.0
 40
1.0
 10
14.1443844986
 20
14.2765097106
 30
0.0
 10
14.0927857672
 20
14.2706670152
 30
0.0
 10
13.991310563
 20
14.2567868223
 30
0.0
 10
13.8425744891
 20
14.2288290509
 30
0.0
 10
13.699997059
 20
14.1941504114
 30
0.0
 10
13.6078697741
 20
14.1661595701
 30
0.0
 10
13.5630390825
 20
14.151020695
 30
0.0
  0
SPLINE
  5
67F
100
AcDbEntity
  8
DRAWING
100
AcDbSpline
 62
7
  6
CONTINUOUS
 70
0
 71
3
 72
11
 73
7
 74
0
 42
0.0000001
 43
0.0000001
 44
0.0000000001
 40
0.0
 40
0.0
 40
0.0
 40
0.0
 40
0.2635102905
 40
0.5178678224
 40
0.7632463092
 40
1.0
 40
1.0
 40
1.0
 40
1.0
 10
13.5510007067
 20
14.146918406
 30
0.0
 10
13.5083423083
 20
14.1322498624
 30
0.0
 10
13.4253315989
 20
14.1009392355
 30
0.0
 10
13.3062124197
 20
14.0470202271
 30
0.0
 10
13.1951370408
 20
13.9871546861
 30
0.0
 10
13.1255069767
 20
13.9426593503
 30
0.0
 10
13.0922698354
 20
13.9194659693
 30
0.0
  0
SPLINE
  5
680
100
AcDbEntity
  8
DRAWING
100
AcDbSpline
 62
7
  6
CONTINUOUS
 70
0
 71
3
 72
11
 73
7
 74
0
 42
0.0000001
 43
0.0000001
 44
0.0000000001
 40
0.0
 40
0.0
 40
0.0
 40
0.0
 40
0.2618366082
 40
0.5149773046
 40
0.7605683047
 40
1.0
 40
1.0
 40
1.0
 40
1.0
 10
13.0808875994
 20
13.9114438157
 30
0.0
 10
13.0479112017
 20
13.8879694785
 30
0.0
 10
12.984916323
 20
13.8390995685
 30
0.0
 10
12.8987256547
 20
13.7588827134
 30
0.0
 10
12.8228970713
 20
13.6733680561
 30
0.0
 10
12.7789996873
 20
13.6123827548
 30
0.0
 10
12.7590131595
 20
13.5812280157
 30
0.0
  0
SPLINE
  5
681
100
AcDbEntity
  8
DRAWING
100
AcDbSpline
 62
7
  6
CONTINUOUS
 70
0
 71
3
 72
9
 73
5
 74
0
 42
0.0000001
 43
0.0000001
 44
0.0000000001
 40
0.0
 40
0.0
 40
0.0
 40
0.0
 40
0.2573440757
 40
1.0
 40
1.0
 40
1.0
 40
1.0
 10
12.7836543393
 20
12.4716386485
 30
0.0
 10
12.7737301216
 20
12.4918620779
 30
0.0
 10
12.7367561094
 20
12.5712093687
 30
0.0
 10
12.7063404823
 20
12.653676117
 30
0.0
 10
12.6883489413
 20
12.7161471918
 30
0.0
  0
SPLINE
  5
682
100
AcDbEntity
  8
DRAWING
100
AcDbSpline
 62
7
  6
CONTINUOUS
 70
0
 71
3
 72
9
 73
5
 74
0
 42
0.0000001
 43
0.0000001
 44
0.0000000001
 40
0.0
 40
0.0
 40
0.0
 40
0.0
 40
0.5083621085
 40
1.0
 40
1.0
 40
1.0
 40
1.0
 10
12.6883489413
 20
12.7161471918
 30
0.0
 10
12.6766825318
 20
12.756655848
 30
0.0
 10
12.6575056346
 20
12.8374886668
 30
0.0
 10
12.6468073409
 20
12.9199024221
 30
0.0
 10
12.6438277102
 20
12.9605617062
 30
0.0
  0
SPLINE
  5
683
100
AcDbEntity
  8
DRAWING
100
AcDbSpline
 62
7
  6
CONTINUOUS
 70
0
 71
3
 72
9
 73
5
 74
0
 42
0.0000001
 43
0.0000001
 44
0.0000000001
 40
0.0
 40
0.0
 40
0.0
 40
0.0
 40
0.5041962904
 40
1.0
 40
1.0
 40
1.0
 40
1.0
 10
12.6433454929
 20
12.9674398648
 30
0.0
 10
12.6412587522
 20
12.9986176686
 30
0.0
 10
12.6397884832
 20
13.0606661658
 30
0.0
 10
12.6439379694
 20
13.1226013033
 30
0.0
 10
12.6474239955
 20
13.1531303469
 30
0.0
  0
SPLINE
  5
684
100
AcDbEntity
  8
DRAWING
100
AcDbSpline
 62
7
  6
CONTINUOUS
 70
0
 71
3
 72
13
 73
9
 74
0
 42
0.0000001
 43
0.0000001
 44
0.0000000001
 40
0.0
 40
0.0
 40
0.0
 40
0.0
 40
0.1194256137
 40
0.2400817989
 40
0.3621664634
 40
0.485867085
 40
0.7387367812
 40
1.0
 40
1.0
 40
1.0
 40
1.0
 10
18.3061991769
 20
11.8401834229
 30
0.0
 10
18.3071868074
 20
11.8581786217
 30
0.0
 10
18.3082177795
 20
11.8944136871
 30
0.0
 10
18.3069501786
 20
11.9490751996
 30
0.0
 10
18.3028749439
 20
12.0042478137
 30
0.0
 10
18.2936436554
 20
12.0789565751
 30
0.0
 10
18.2749396807
 20
12.1735268296
 30
0.0
 10
18.2530517427
 20
12.2480782839
 30
0.0
 10
18.2403932346
 20
12.2854176412
 30
0.0
  0
SPLINE
  5
685
100
AcDbEntity
  8
DRAWING
100
AcDbSpline
 62
7
  6
CONTINUOUS
 70
0
 71
3
 72
9
 73
5
 74
0
 42
0.0000001
 43
0.0000001
 44
0.0000000001
 40
0.0
 40
0.0
 40
0.0
 40
0.0
 40
0.2450898787
 40
1.0
 40
1.0
 40
1.0
 40
1.0
 10
18.2355954083
 20
12.2993352713
 30
0.0
 10
18.2305430851
 20
12.3137522323
 30
0.0
 10
18.2090005405
 20
12.3722476291
 30
0.0
 10
18.1838403829
 20
12.4293967598
 30
0.0
 10
18.1631110748
 20
12.4716386485
 30
0.0
  0
SPLINE
  5
686
100
AcDbEntity
  8
0
100
AcDbSpline
 62
7
  6
CONTINUOUS
 70
0
 71
3
 72
20
 73
16
 74
0
 42
0.0000001
 43
0.0000001
 44
0.0000000001
 40
0.0
 40
0.0
 40
0.0
 40
0.0
 40
0.0531689603
 40
0.1066239715
 40
0.1606455732
 40
0.2154981034
 40
0.2714251485
 40
0.3286489283
 40
0.3873612732
 40
0.4477194618
 40
0.5738087473
 40
0.6397912401
 40
0.7077950653
 40
0.8499232908
 40
1.0
 40
1.0
 40
1.0
 40
1.0
 10
14.390843779
 20
12.4143880695
 30
0.0
 10
14.3937446855
 20
12.4237744904
 30
0.0
 10
14.4004126041
 20
12.4423468407
 30
0.0
 10
14.4129163317
 20
12.4693098486
 30
0.0
 10
14.4279057752
 20
12.4953352893
 30
0.0
 10
14.4453292873
 20
12.5203535164
 30
0.0
 10
14.4651372449
 20
12.5443005499
 30
0.0
 10
14.487280112
 20
12.567108135
 30
0.0
 10
14.5116963041
 20
12.5887179714
 30
0.0
 10
14.5476998203
 20
12.6162616747
 30
0.0
 10
14.587588792
 20
12.6407301443
 30
0.0
 10
14.6306306235
 20
12.6621412948
 30
0.0
 10
14.6775433859
 20
12.6822633771
 30
0.0
 10
14.7407493662
 20
12.7034997642
 30
0.0
 10
14.7934003603
 20
12.7158221099
 30
0.0
 10
14.820641141
 20
12.7210128029
 30
0.0
  0
SPLINE
  5
687
100
AcDbEntity
  8
0
100
AcDbSpline
 62
7
  6
CONTINUOUS
 70
0
 71
3
 72
23
 73
19
 74
0
 42
0.0000001
 43
0.0000001
 44
0.0000000001
 40
0.0
 40
0.0
 40
0.0
 40
0.0
 40
0.0562591448
 40
0.1149133573
 40
0.1757226638
 40
0.2383927008
 40
0.3025935418
 40
0.3679614107
 40
0.434112749
 40
0.5006473997
 40
0.5671600561
 40
0.6332439523
 40
0.6985022786
 40
0.7625509441
 40
0.8250323966
 40
0.8856165822
 40
0.9440189082
 40
1.0
 40
1.0
 40
1.0
 40
1.0
 10
14.8086424448
 20
12.7082964251
 30
0.0
 10
14.8274303278
 20
12.6890858868
 30
0.0
 10
14.8674227173
 20
12.6514029564
 30
0.0
 10
14.9325888787
 20
12.5984101748
 30
0.0
 10
15.0036873004
 20
12.5481765109
 30
0.0
 10
15.080065396
 20
12.5011467577
 30
0.0
 10
15.1610407144
 20
12.4577518326
 30
0.0
 10
15.2458786619
 20
12.4183771301
 30
0.0
 10
15.3338140332
 20
12.3833818977
 30
0.0
 10
15.424051677
 20
12.3530819946
 30
0.0
 10
15.5157743499
 20
12.3277489563
 30
0.0
 10
15.6081542827
 20
12.3076175578
 30
0.0
 10
15.7003539186
 20
12.2928610839
 30
0.0
 10
15.7915426713
 20
12.2836247552
 30
0.0
 10
15.8808948221
 20
12.2799775655
 30
0.0
 10
15.9676086703
 20
12.2819707898
 30
0.0
 10
16.0508963892
 20
12.2895672809
 30
0.0
 10
16.1048524025
 20
12.298540295
 30
0.0
 10
16.1310249711
 20
12.3040089834
 30
0.0
  0
LINE
  5
688
100
AcDbEntity
  8
0
100
AcDbLine
 62
7
  6
CONTINUOUS
 10
14.3743394946
 20
13.3361102552
 11
14.3744213411
 21
13.3353536673
  0
LINE
  5
689
100
AcDbEntity
  8
0
100
AcDbLine
 62
7
  6
CONTINUOUS
 10
14.3744213411
 20
13.3353536673
 11
14.374235654
 21
13.3342228324
  0
SPLINE
  5
68A
100
AcDbEntity
  8
0
100
AcDbSpline
 62
7
  6
CONTINUOUS
 70
0
 71
3
 72
15
 73
11
 74
0
 42
0.0000001
 43
0.0000001
 44
0.0000000001
 40
0.0
 40
0.0
 40
0.0
 40
0.0
 40
0.1426881741
 40
0.2801933499
 40
0.4118717994
 40
0.5377962047
 40
0.6584981286
 40
0.7748848707
 40
0.888197529
 40
1.0
 40
1.0
 40
1.0
 40
1.0
 10
14.6188948202
 20
14.092853214
 30
0.0
 10
14.6146797516
 20
14.092853214
 30
0.0
 10
14.6063957014
 20
14.0932627781
 30
0.0
 10
14.594352267
 20
14.0951547471
 30
0.0
 10
14.5830847757
 20
14.098310264
 30
0.0
 10
14.5727645602
 20
14.1026838781
 30
0.0
 10
14.5635416665
 20
14.1082293723
 30
0.0
 10
14.5555483856
 20
14.114874542
 30
0.0
 10
14.5489156522
 20
14.1225356849
 30
0.0
 10
14.5454630506
 20
14.1282644268
 30
0.0
 10
14.5440074298
 20
14.1312290418
 30
0.0
  0
SPLINE
  5
68B
100
AcDbEntity
  8
0
100
AcDbSpline
 62
7
  6
CONTINUOUS
 70
0
 71
3
 72
43
 73
39
 74
0
 42
0.0000001
 43
0.0000001
 44
0.0000000001
 40
0.0
 40
0.0
 40
0.0
 40
0.0
 40
0.0109370862
 40
0.0219142163
 40
0.0329662904
 40
0.0441269098
 40
0.0668910127
 40
0.0904643291
 40
0.1026239536
 40
0.1150562799
 40
0.1277783053
 40
0.1408042105
 40
0.1678010076
 40
0.1961083754
 40
0.2257387642
 40
0.2566649806
 40
0.2888296368
 40
0.3221454931
 40
0.3565038163
 40
0.3917745866
 40
0.4278132451
 40
0.4644611561
 40
0.5015510673
 40
0.5389079624
 40
0.5763536022
 40
0.6137076257
 40
0.6507918388
 40
0.687431309
 40
0.7234589215
 40
0.7587162126
 40
0.7930588629
 40
0.8263571249
 40
0.8585026226
 40
0.8894085092
 40
0.9190178944
 40
0.9473041244
 40
0.9742803078
 40
1.0
 40
1.0
 40
1.0
 40
1.0
 10
14.1253936344
 20
12.5071450084
 30
0.0
 10
14.1222744753
 20
12.4970514058
 30
0.0
 10
14.1167748293
 20
12.4765867433
 30
0.0
 10
14.1107944344
 20
12.4452825479
 30
0.0
 10
14.1070834108
 20
12.4134092949
 30
0.0
 10
14.105160278
 20
12.3699752562
 30
0.0
 10
14.1086035363
 20
12.3143557368
 30
0.0
 10
14.1194788138
 20
12.2587492669
 30
0.0
 10
14.1324725304
 20
12.2140538662
 30
0.0
 10
14.1445169416
 20
12.1800614807
 30
0.0
 10
14.1587314411
 20
12.1460117127
 30
0.0
 10
14.1808039295
 20
12.1000711766
 30
0.0
 10
14.2138560286
 20
12.0428132892
 30
0.0
 10
14.2611508178
 20
11.9756576051
 30
0.0
 10
14.3162075801
 20
11.9096882547
 30
0.0
 10
14.3786165957
 20
11.8453431596
 30
0.0
 10
14.4479415134
 20
11.7830647534
 30
0.0
 10
14.5236837523
 20
11.7232719868
 30
0.0
 10
14.6053113618
 20
11.6663862244
 30
0.0
 10
14.6922409419
 20
11.6127980222
 30
0.0
 10
14.7838572499
 20
11.5628898547
 30
0.0
 10
14.8795055949
 20
11.5170096784
 30
0.0
 10
14.9785049561
 20
11.4754866248
 30
0.0
 10
15.0801477266
 20
11.4386136867
 30
0.0
 10
15.1837078007
 20
11.4066550862
 30
0.0
 10
15.2884454982
 20
11.3798391726
 30
0.0
 10
15.3936121141
 20
11.3583566872
 30
0.0
 10
15.4984581518
 20
11.342364479
 30
0.0
 10
15.6022357084
 20
11.3319742099
 30
0.0
 10
15.7042081448
 20
11.3272675053
 30
0.0
 10
15.8036519589
 20
11.3282748304
 30
0.0
 10
15.8998655485
 20
11.3350025051
 30
0.0
 10
15.9921722493
 20
11.3474017664
 30
0.0
 10
16.0799252417
 20
11.3654081582
 30
0.0
 10
16.162512765
 20
11.3889001476
 30
0.0
 10
16.2393587391
 20
11.4177527239
 30
0.0
 10
16.3099167271
 20
11.4517767535
 30
0.0
 10
16.353428519
 20
11.4784047308
 30
0.0
 10
16.3738563714
 20
11.4925436988
 30
0.0
  0
SPLINE
  5
68C
100
AcDbEntity
  8
0
100
AcDbSpline
 62
7
  6
CONTINUOUS
 70
0
 71
3
 72
14
 73
10
 74
0
 42
0.0000001
 43
0.0000001
 44
0.0000000001
 40
0.0
 40
0.0
 40
0.0
 40
0.0
 40
0.265480865
 40
0.3932410141
 40
0.5181716917
 40
0.6407625413
 40
0.7615553667
 40
0.881107559
 40
1.0
 40
1.0
 40
1.0
 40
1.0
 10
16.3738563714
 20
11.4925436988
 30
0.0
 10
16.3980310876
 20
11.5092760277
 30
0.0
 10
16.4322730939
 20
11.5365162838
 30
0.0
 10
16.4727300156
 20
11.5772778929
 30
0.0
 10
16.4995610731
 20
11.6090822415
 30
0.0
 10
16.5231588483
 20
11.6424131705
 30
0.0
 10
16.5434336478
 20
11.6771806949
 30
0.0
 10
16.5603223242
 20
11.7132589986
 30
0.0
 10
16.5692944184
 20
11.73814155
 30
0.0
 10
16.5731818374
 20
11.7507212426
 30
0.0
  0
SPLINE
  5
68D
100
AcDbEntity
  8
0
100
AcDbSpline
 62
7
  6
CONTINUOUS
 70
0
 71
3
 72
9
 73
5
 74
0
 42
0.0000001
 43
0.0000001
 44
0.0000000001
 40
0.0
 40
0.0
 40
0.0
 40
0.0
 40
0.2492587642
 40
1.0
 40
1.0
 40
1.0
 40
1.0
 10
14.307667415
 20
13.1188079323
 30
0.0
 10
14.3075247789
 20
13.1183463616
 30
0.0
 10
14.3070640501
 20
13.1164618407
 30
0.0
 10
14.307044644
 20
13.1144703166
 30
0.0
 10
14.3072848069
 20
13.113035205
 30
0.0
  0
SPLINE
  5
68E
100
AcDbEntity
  8
0
100
AcDbSpline
 62
7
  6
CONTINUOUS
 70
0
 71
3
 72
10
 73
6
 74
0
 42
0.0000001
 43
0.0000001
 44
0.0000000001
 40
0.0
 40
0.0
 40
0.0
 40
0.0
 40
0.2354357434
 40
0.4776694053
 40
1.0
 40
1.0
 40
1.0
 40
1.0
 10
13.0362033451
 20
12.1129824401
 30
0.0
 10
13.035633622
 20
12.1129825571
 30
0.0
 10
13.0344751679
 20
12.1130860625
 30
0.0
 10
13.03212815
 20
12.1137110677
 30
0.0
 10
13.0304784629
 20
12.1146208749
 30
0.0
 10
13.0294497493
 20
12.1153552929
 30
0.0
  0
SPLINE
  5
68F
100
AcDbEntity
  8
0
100
AcDbSpline
 62
7
  6
CONTINUOUS
 70
0
 71
3
 72
9
 73
5
 74
0
 42
0.0000001
 43
0.0000001
 44
0.0000000001
 40
0.0
 40
0.0
 40
0.0
 40
0.0
 40
0.2350067871
 40
1.0
 40
1.0
 40
1.0
 40
1.0
 10
13.0294497493
 20
12.1153552929
 30
0.0
 10
13.029122351
 20
12.1155890288
 30
0.0
 10
13.027766125
 20
12.1166352681
 30
0.0
 10
13.0265584103
 20
12.1178663012
 30
0.0
 10
13.0257117837
 20
12.1188652706
 30
0.0
  0
SPLINE
  5
690
100
AcDbEntity
  8
0
100
AcDbSpline
 62
7
  6
CONTINUOUS
 70
0
 71
3
 72
9
 73
5
 74
0
 42
0.0000001
 43
0.0000001
 44
0.0000000001
 40
0.0
 40
0.0
 40
0.0
 40
0.0
 40
0.2360782982
 40
1.0
 40
1.0
 40
1.0
 40
1.0
 10
13.0257117837
 20
12.1188652706
 30
0.0
 10
13.0254050841
 20
12.119227158
 30
0.0
 10
13.0241472069
 20
12.1207949705
 30
0.0
 10
13.0230468397
 20
12.1224857915
 30
0.0
 10
13.0222806571
 20
12.1238159076
 30
0.0
  0
SPLINE
  5
691
100
AcDbEntity
  8
0
100
AcDbSpline
 62
7
  6
CONTINUOUS
 70
0
 71
3
 72
9
 73
5
 74
0
 42
0.0000001
 43
0.0000001
 44
0.0000000001
 40
0.0
 40
0.0
 40
0.0
 40
0.0
 40
0.2511540047
 40
1.0
 40
1.0
 40
1.0
 40
1.0
 10
15.0128446903
 20
14.3816934667
 30
0.0
 10
15.0124701973
 20
14.3819011921
 30
0.0
 10
15.0109372577
 20
14.382650409
 30
0.0
 10
15.0092510896
 20
14.3830865932
 30
0.0
 10
15.0079802239
 20
14.3832102544
 30
0.0
  0
SPLINE
  5
692
100
AcDbEntity
  8
0
100
AcDbSpline
 62
7
  6
CONTINUOUS
 70
0
 71
3
 72
9
 73
5
 74
0
 42
0.0000001
 43
0.0000001
 44
0.0000000001
 40
0.0
 40
0.0
 40
0.0
 40
0.0
 40
0.2511711159
 40
1.0
 40
1.0
 40
1.0
 40
1.0
 10
16.281005476
 20
14.082084536
 30
0.0
 10
16.2814373692
 20
14.0821067119
 30
0.0
 10
16.2831603044
 20
14.0821049031
 30
0.0
 10
16.2848830741
 20
14.0817476519
 30
0.0
 10
16.2860887606
 20
14.0812908498
 30
0.0
  0
SPLINE
  5
693
100
AcDbEntity
  8
0
100
AcDbSpline
 62
7
  6
CONTINUOUS
 70
0
 71
3
 72
9
 73
5
 74
0
 42
0.0000001
 43
0.0000001
 44
0.0000000001
 40
0.0
 40
0.0
 40
0.0
 40
0.0
 40
0.2511741625
 40
1.0
 40
1.0
 40
1.0
 40
1.0
 10
15.7257628559
 20
14.2563577058
 30
0.0
 10
15.7254207903
 20
14.2566232998
 30
0.0
 10
15.7240044348
 20
14.2576085544
 30
0.0
 10
15.7223843666
 20
14.2583013268
 30
0.0
 10
15.7211321801
 20
14.2586159601
 30
0.0
  0
SPLINE
  5
694
100
AcDbEntity
  8
0
100
AcDbSpline
 62
7
  6
CONTINUOUS
 70
0
 71
3
 72
9
 73
5
 74
0
 42
0.0000001
 43
0.0000001
 44
0.0000000001
 40
0.0
 40
0.0
 40
0.0
 40
0.0
 40
0.251155179
 40
1.0
 40
1.0
 40
1.0
 40
1.0
 10
16.9360416504
 20
13.7780540701
 30
0.0
 10
16.9364677714
 20
13.7780102409
 30
0.0
 10
16.9381541984
 20
13.7777478709
 30
0.0
 10
16.9397872296
 20
13.7771409026
 30
0.0
 10
16.9409006461
 20
13.7765151146
 30
0.0
  0
SPLINE
  5
695
100
AcDbEntity
  8
0
100
AcDbSpline
 62
7
  6
CONTINUOUS
 70
0
 71
3
 72
9
 73
5
 74
0
 42
0.0000001
 43
0.0000001
 44
0.0000000001
 40
0.0
 40
0.0
 40
0.0
 40
0.0
 40
0.2512281654
 40
1.0
 40
1.0
 40
1.0
 40
1.0
 10
17.5000780759
 20
13.3986845349
 30
0.0
 10
17.5005027592
 20
13.3985709679
 30
0.0
 10
17.5021678864
 20
13.3980292516
 30
0.0
 10
17.5037198333
 20
13.3971386945
 30
0.0
 10
17.5047374597
 20
13.3963133964
 30
0.0
  0
SPLINE
  5
696
100
AcDbEntity
  8
0
100
AcDbSpline
 62
7
  6
CONTINUOUS
 70
0
 71
3
 72
9
 73
5
 74
0
 42
0.0000001
 43
0.0000001
 44
0.0000000001
 40
0.0
 40
0.0
 40
0.0
 40
0.0
 40
0.251306939
 40
1.0
 40
1.0
 40
1.0
 40
1.0
 10
17.0628903824
 20
13.7045220052
 30
0.0
 10
17.0626630067
 20
13.7048000885
 30
0.0
 10
17.0617116254
 20
13.7058675828
 30
0.0
 10
17.0605789825
 20
13.7067744324
 30
0.0
 10
17.0596628529
 20
13.7073275401
 30
0.0
  0
SPLINE
  5
697
100
AcDbEntity
  8
0
100
AcDbSpline
 62
7
  6
CONTINUOUS
 70
0
 71
3
 72
9
 73
5
 74
0
 42
0.0000001
 43
0.0000001
 44
0.0000000001
 40
0.0
 40
0.0
 40
0.0
 40
0.0
 40
0.2514496513
 40
1.0
 40
1.0
 40
1.0
 40
1.0
 10
17.9378669134
 20
12.9677147109
 30
0.0
 10
17.9382970037
 20
12.9675142351
 30
0.0
 10
17.9399600692
 20
12.9666191793
 30
0.0
 10
17.9414217931
 20
12.9653488745
 30
0.0
 10
17.9423118201
 20
12.9642519103
 30
0.0
  0
SPLINE
  5
698
100
AcDbEntity
  8
0
100
AcDbSpline
 62
7
  6
CONTINUOUS
 70
0
 71
3
 72
9
 73
5
 74
0
 42
0.0000001
 43
0.0000001
 44
0.0000000001
 40
0.0
 40
0.0
 40
0.0
 40
0.0
 40
0.5005011352
 40
1.0
 40
1.0
 40
1.0
 40
1.0
 10
17.6050447924
 20
13.3018746555
 30
0.0
 10
17.6054794508
 20
13.303277443
 30
0.0
 10
17.6058636118
 20
13.3062561938
 30
0.0
 10
17.6051752831
 20
13.3091818373
 30
0.0
 10
17.6045939352
 20
13.310527254
 30
0.0
  0
SPLINE
  5
699
100
AcDbEntity
  8
0
100
AcDbSpline
 62
7
  6
CONTINUOUS
 70
0
 71
3
 72
9
 73
5
 74
0
 42
0.0000001
 43
0.0000001
 44
0.0000000001
 40
0.0
 40
0.0
 40
0.0
 40
0.0
 40
0.2513835919
 40
1.0
 40
1.0
 40
1.0
 40
1.0
 10
17.6045939352
 20
13.310527254
 30
0.0
 10
17.604409283
 20
13.3109545957
 30
0.0
 10
17.6035794144
 20
13.3126116973
 30
0.0
 10
17.6023823632
 20
13.314085408
 30
0.0
 10
17.6013386046
 20
13.3149978237
 30
0.0
  0
SPLINE
  5
69A
100
AcDbEntity
  8
0
100
AcDbSpline
 62
7
  6
CONTINUOUS
 70
0
 71
3
 72
9
 73
5
 74
0
 42
0.0000001
 43
0.0000001
 44
0.0000000001
 40
0.0
 40
0.0
 40
0.0
 40
0.0
 40
0.5019224337
 40
1.0
 40
1.0
 40
1.0
 40
1.0
 10
18.2220770536
 20
12.5119975107
 30
0.0
 10
18.2229488436
 20
12.511345749
 30
0.0
 10
18.2245187342
 20
12.509811177
 30
0.0
 10
18.2256567133
 20
12.5079330878
 30
0.0
 10
18.2260867946
 20
12.5069422504
 30
0.0
  0
SPLINE
  5
69B
100
AcDbEntity
  8
0
100
AcDbSpline
 62
7
  6
CONTINUOUS
 70
0
 71
3
 72
9
 73
5
 74
0
 42
0.0000001
 43
0.0000001
 44
0.0000000001
 40
0.0
 40
0.0
 40
0.0
 40
0.0
 40
0.4991877598
 40
1.0
 40
1.0
 40
1.0
 40
1.0
 10
17.96933395
 20
12.7361663668
 30
0.0
 10
17.9706801644
 20
12.7369390769
 30
0.0
 10
17.9731102546
 20
12.7390127691
 30
0.0
 10
17.9745868437
 20
12.7418427017
 30
0.0
 10
17.9750483985
 20
12.7433299973
 30
0.0
  0
SPLINE
  5
69C
100
AcDbEntity
  8
0
100
AcDbSpline
 62
7
  6
CONTINUOUS
 70
0
 71
3
 72
9
 73
5
 74
0
 42
0.0000001
 43
0.0000001
 44
0.0000000001
 40
0.0
 40
0.0
 40
0.0
 40
0.0
 40
0.2513373881
 40
1.0
 40
1.0
 40
1.0
 40
1.0
 10
18.0128752571
 20
12.8709191922
 30
0.0
 10
18.0127842901
 20
12.8713620462
 30
0.0
 10
18.0123261117
 20
12.8731028305
 30
0.0
 10
18.0114936264
 20
12.8747455541
 30
0.0
 10
18.0106955324
 20
12.8758302605
 30
0.0
  0
SPLINE
  5
69D
100
AcDbEntity
  8
0
100
AcDbSpline
 62
7
  6
CONTINUOUS
 70
0
 71
3
 72
15
 73
11
 74
0
 42
0.0000001
 43
0.0000001
 44
0.0000000001
 40
0.0
 40
0.0
 40
0.0
 40
0.0
 40
0.1245463934
 40
0.2538929887
 40
0.3855241309
 40
0.5170363351
 40
0.6459843818
 40
0.7702846282
 40
0.8885635651
 40
1.0
 40
1.0
 40
1.0
 40
1.0
 10
14.6188948202
 20
14.092853214
 30
0.0
 10
14.6259912945
 20
14.092853214
 30
0.0
 10
14.6404761373
 20
14.0940470525
 30
0.0
 10
14.6619410931
 20
14.0990297542
 30
0.0
 10
14.6828786777
 20
14.1070914486
 30
0.0
 10
14.7024882788
 20
14.1179467973
 30
0.0
 10
14.72002072
 20
14.1312397793
 30
0.0
 10
14.7348102784
 20
14.1465150165
 30
0.0
 10
14.746262006
 20
14.1632414603
 30
0.0
 10
14.7515299824
 20
14.1753406486
 30
0.0
 10
14.7534046519
 20
14.1814070816
 30
0.0
  0
SPLINE
  5
69E
100
AcDbEntity
  8
0
100
AcDbSpline
 62
7
  6
CONTINUOUS
 70
0
 71
3
 72
11
 73
7
 74
0
 42
0.0000001
 43
0.0000001
 44
0.0000000001
 40
0.0
 40
0.0
 40
0.0
 40
0.0
 40
0.262254265
 40
0.5145393959
 40
0.7591377205
 40
1.0
 40
1.0
 40
1.0
 40
1.0
 10
14.7534046519
 20
14.1814070816
 30
0.0
 10
14.754757413
 20
14.1857846178
 30
0.0
 10
14.7567224965
 20
14.194608854
 30
0.0
 10
14.7572702767
 20
14.2079352259
 30
0.0
 10
14.7553032484
 20
14.220755622
 30
0.0
 10
14.7523377967
 20
14.2287752707
 30
0.0
 10
14.7504832061
 20
14.2325525992
 30
0.0
  0
SPLINE
  5
69F
100
AcDbEntity
  8
0
100
AcDbSpline
 62
7
  6
CONTINUOUS
 70
0
 71
3
 72
9
 73
5
 74
0
 42
0.0000001
 43
0.0000001
 44
0.0000000001
 40
0.0
 40
0.0
 40
0.0
 40
0.0
 40
0.5022275489
 40
1.0
 40
1.0
 40
1.0
 40
1.0
 10
18.3355234369
 20
12.0589575904
 30
0.0
 10
18.3361638079
 20
12.0580101285
 30
0.0
 10
18.3371787883
 20
12.0559375287
 30
0.0
 10
18.3376190919
 20
12.0536713439
 30
0.0
 10
18.3376748781
 20
12.052539289
 30
0.0
  0
SPLINE
  5
6A0
100
AcDbEntity
  8
0
100
AcDbSpline
 62
7
  6
CONTINUOUS
 70
0
 71
3
 72
9
 73
5
 74
0
 42
0.0000001
 43
0.0000001
 44
0.0000000001
 40
0.0
 40
0.0
 40
0.0
 40
0.0
 40
0.2512446441
 40
1.0
 40
1.0
 40
1.0
 40
1.0
 10
18.2216682082
 20
12.2825592271
 30
0.0
 10
18.2220013552
 20
12.2829103547
 30
0.0
 10
18.2232434301
 20
12.2843853326
 30
0.0
 10
18.2241454462
 20
12.2861455815
 30
0.0
 10
18.2245721097
 20
12.2875235125
 30
0.0
  0
SPLINE
  5
6A1
100
AcDbEntity
  8
0
100
AcDbSpline
 62
7
  6
CONTINUOUS
 70
0
 71
3
 72
9
 73
5
 74
0
 42
0.0000001
 43
0.0000001
 44
0.0000000001
 40
0.0
 40
0.0
 40
0.0
 40
0.0
 40
0.2513717842
 40
1.0
 40
1.0
 40
1.0
 40
1.0
 10
18.2978485701
 20
11.8370978952
 30
0.0
 10
18.2981390956
 20
11.837429053
 30
0.0
 10
18.2992232682
 20
11.838807575
 30
0.0
 10
18.3000180631
 20
11.8404136992
 30
0.0
 10
18.3004052314
 20
11.8416672581
 30
0.0
  0
SPLINE
  5
6A2
100
AcDbEntity
  8
0
100
AcDbSpline
 62
7
  6
CONTINUOUS
 70
0
 71
3
 72
9
 73
5
 74
0
 42
0.0000001
 43
0.0000001
 44
0.0000000001
 40
0.0
 40
0.0
 40
0.0
 40
0.0
 40
0.2514954595
 40
1.0
 40
1.0
 40
1.0
 40
1.0
 10
18.1935977787
 20
11.4277004914
 30
0.0
 10
18.193956462
 20
11.4279840773
 30
0.0
 10
18.195318688
 20
11.4291902719
 30
0.0
 10
18.1964184036
 20
11.4306932524
 30
0.0
 10
18.197028529
 20
11.4319096816
 30
0.0
  0
SPLINE
  5
6A3
100
AcDbEntity
  8
0
100
AcDbSpline
 62
7
  6
CONTINUOUS
 70
0
 71
3
 72
9
 73
5
 74
0
 42
0.0000001
 43
0.0000001
 44
0.0000000001
 40
0.0
 40
0.0
 40
0.0
 40
0.0
 40
0.2512793839
 40
1.0
 40
1.0
 40
1.0
 40
1.0
 10
17.5865562326
 20
10.8694114723
 30
0.0
 10
17.5862753784
 20
10.8690798949
 30
0.0
 10
17.5850890602
 20
10.8678200991
 30
0.0
 10
17.5836422389
 20
10.8668050496
 30
0.0
 10
17.5824780957
 20
10.8662383225
 30
0.0
  0
SPLINE
  5
6A4
100
AcDbEntity
  8
0
100
AcDbSpline
 62
7
  6
CONTINUOUS
 70
0
 71
3
 72
9
 73
5
 74
0
 42
0.0000001
 43
0.0000001
 44
0.0000000001
 40
0.0
 40
0.0
 40
0.0
 40
0.0
 40
0.5019393785
 40
1.0
 40
1.0
 40
1.0
 40
1.0
 10
17.9135662609
 20
11.081016945
 30
0.0
 10
17.9146360789
 20
11.0812214045
 30
0.0
 10
17.9167205547
 20
11.0819144774
 30
0.0
 10
17.9185667705
 20
11.0831059543
 30
0.0
 10
17.9193874671
 20
11.0838091665
 30
0.0
  0
SPLINE
  5
6A5
100
AcDbEntity
  8
0
100
AcDbSpline
 62
7
  6
CONTINUOUS
 70
0
 71
3
 72
9
 73
5
 74
0
 42
0.0000001
 43
0.0000001
 44
0.0000000001
 40
0.0
 40
0.0
 40
0.0
 40
0.0
 40
0.2516177816
 40
1.0
 40
1.0
 40
1.0
 40
1.0
 10
17.4809108473
 20
10.8218812144
 30
0.0
 10
17.4814099241
 20
10.8218421622
 30
0.0
 10
17.4834009009
 20
10.8218077373
 30
0.0
 10
17.4854008328
 20
10.8222460149
 30
0.0
 10
17.4867725634
 20
10.8228250444
 30
0.0
  0
SPLINE
  5
6A6
100
AcDbEntity
  8
0
100
AcDbSpline
 62
7
  6
CONTINUOUS
 70
0
 71
3
 72
9
 73
5
 74
0
 42
0.0000001
 43
0.0000001
 44
0.0000000001
 40
0.0
 40
0.0
 40
0.0
 40
0.0
 40
0.2516456199
 40
1.0
 40
1.0
 40
1.0
 40
1.0
 10
12.8340742108
 20
12.2804118781
 30
0.0
 10
12.8336395524
 20
12.2806687765
 30
0.0
 10
12.831976639
 20
12.281794609
 30
0.0
 10
12.8305825561
 20
12.283318994
 30
0.0
 10
12.8297907898
 20
12.2845947658
 30
0.0
  0
SPLINE
  5
6A7
100
AcDbEntity
  8
0
100
AcDbSpline
 62
7
  6
CONTINUOUS
 70
0
 71
3
 72
9
 73
5
 74
0
 42
0.0000001
 43
0.0000001
 44
0.0000000001
 40
0.0
 40
0.0
 40
0.0
 40
0.0
 40
0.4989631389
 40
1.0
 40
1.0
 40
1.0
 40
1.0
 10
12.6110374308
 20
13.1766426844
 30
0.0
 10
12.6100483804
 20
13.1779533539
 30
0.0
 10
12.6085699839
 20
13.1810053102
 30
0.0
 10
12.6084168785
 20
13.184391337
 30
0.0
 10
12.6086576705
 20
13.1860224565
 30
0.0
  0
SPLINE
  5
6A8
100
AcDbEntity
  8
0
100
AcDbSpline
 62
7
  6
CONTINUOUS
 70
0
 71
3
 72
9
 73
5
 74
0
 42
0.0000001
 43
0.0000001
 44
0.0000000001
 40
0.0
 40
0.0
 40
0.0
 40
0.0
 40
0.25132737
 40
1.0
 40
1.0
 40
1.0
 40
1.0
 10
12.7647218173
 20
13.573754079
 30
0.0
 10
12.7646714851
 20
13.5741866375
 30
0.0
 10
12.7645627176
 20
13.5759171541
 30
0.0
 10
12.7648131898
 20
13.5776702197
 30
0.0
 10
12.7651964103
 20
13.5789095545
 30
0.0
  0
SPLINE
  5
6A9
100
AcDbEntity
  8
0
100
AcDbSpline
 62
7
  6
CONTINUOUS
 70
0
 71
3
 72
8
 73
4
 74
0
 42
0.0000001
 43
0.0000001
 44
0.0000000001
 40
0.0
 40
0.0
 40
0.0
 40
0.0
 40
1.0
 40
1.0
 40
1.0
 40
1.0
 10
13.1266741976
 20
14.0206054558
 30
0.0
 10
13.127000745
 20
14.0216753356
 30
0.0
 10
13.1274724951
 20
14.0227114796
 30
0.0
 10
13.1280695543
 20
14.0236574163
 30
0.0
  0
SPLINE
  5
6AA
100
AcDbEntity
  8
0
100
AcDbSpline
 62
7
  6
CONTINUOUS
 70
0
 71
3
 72
9
 73
5
 74
0
 42
0.0000001
 43
0.0000001
 44
0.0000000001
 40
0.0
 40
0.0
 40
0.0
 40
0.0
 40
0.2511850331
 40
1.0
 40
1.0
 40
1.0
 40
1.0
 10
13.0887619158
 20
13.8936188868
 30
0.0
 10
13.0886892095
 20
13.8940902898
 30
0.0
 10
13.0885095887
 20
13.8959824196
 30
0.0
 10
13.0887594834
 20
13.8979144272
 30
0.0
 10
13.0891784617
 20
13.8992732289
 30
0.0
  0
SPLINE
  5
6AB
100
AcDbEntity
  8
0
100
AcDbSpline
 62
7
  6
CONTINUOUS
 70
0
 71
3
 72
9
 73
5
 74
0
 42
0.0000001
 43
0.0000001
 44
0.0000000001
 40
0.0
 40
0.0
 40
0.0
 40
0.0
 40
0.4993079366
 40
1.0
 40
1.0
 40
1.0
 40
1.0
 10
12.8619769616
 20
13.7776488188
 30
0.0
 10
12.8609633325
 20
13.7773630223
 30
0.0
 10
12.8589988755
 20
13.7765285092
 30
0.0
 10
12.8573045434
 20
13.775228857
 30
0.0
 10
12.8565572785
 20
13.7744826154
 30
0.0
  0
SPLINE
  5
6AC
100
AcDbEntity
  8
0
100
AcDbSpline
 62
7
  6
CONTINUOUS
 70
0
 71
3
 72
9
 73
5
 74
0
 42
0.0000001
 43
0.0000001
 44
0.0000000001
 40
0.0
 40
0.0
 40
0.0
 40
0.0
 40
0.2513437045
 40
1.0
 40
1.0
 40
1.0
 40
1.0
 10
13.6015194655
 20
14.2555799383
 30
0.0
 10
13.6018499271
 20
14.2558911457
 30
0.0
 10
13.6032317842
 20
14.2570560165
 30
0.0
 10
13.6048654019
 20
14.2579229208
 30
0.0
 10
13.6061480384
 20
14.2583506987
 30
0.0
  0
SPLINE
  5
6AD
100
AcDbEntity
  8
0
100
AcDbSpline
 62
7
  6
CONTINUOUS
 70
0
 71
3
 72
8
 73
4
 74
0
 42
0.0000001
 43
0.0000001
 44
0.0000000001
 40
0.0
 40
0.0
 40
0.0
 40
0.0
 40
1.0
 40
1.0
 40
1.0
 40
1.0
 10
13.5600892961
 20
14.1246661686
 30
0.0
 10
13.5600469066
 20
14.126048353
 30
0.0
 10
13.5602416675
 20
14.1274551554
 30
0.0
 10
13.5606483884
 20
14.1287768243
 30
0.0
  0
SPLINE
  5
6AE
100
AcDbEntity
  8
0
100
AcDbSpline
 62
7
  6
CONTINUOUS
 70
0
 71
3
 72
9
 73
5
 74
0
 42
0.0000001
 43
0.0000001
 44
0.0000000001
 40
0.0
 40
0.0
 40
0.0
 40
0.0
 40
0.5004864209
 40
1.0
 40
1.0
 40
1.0
 40
1.0
 10
14.1875006531
 20
14.3744373095
 30
0.0
 10
14.187943219
 20
14.3758721516
 30
0.0
 10
14.1893497279
 20
14.3786056658
 30
0.0
 10
14.191646081
 20
14.3806529533
 30
0.0
 10
14.1929258202
 20
14.3814327914
 30
0.0
  0
SPLINE
  5
6AF
100
AcDbEntity
  8
0
100
AcDbSpline
 62
7
  6
CONTINUOUS
 70
0
 71
3
 72
9
 73
5
 74
0
 42
0.0000001
 43
0.0000001
 44
0.0000000001
 40
0.0
 40
0.0
 40
0.0
 40
0.0
 40
0.2513850783
 40
1.0
 40
1.0
 40
1.0
 40
1.0
 10
14.1929258202
 20
14.3814327914
 30
0.0
 10
14.1933194682
 20
14.3816726698
 30
0.0
 10
14.1949373594
 20
14.3825387415
 30
0.0
 10
14.1967454863
 20
14.3830504698
 30
0.0
 10
14.1981103844
 20
14.3831973035
 30
0.0
  0
SPLINE
  5
6B0
100
AcDbEntity
  8
0
100
AcDbSpline
 62
7
  6
CONTINUOUS
 70
0
 71
3
 72
9
 73
5
 74
0
 42
0.0000001
 43
0.0000001
 44
0.0000000001
 40
0.0
 40
0.0
 40
0.0
 40
0.0
 40
0.2514299577
 40
1.0
 40
1.0
 40
1.0
 40
1.0
 10
13.7194777596
 20
14.2917608234
 30
0.0
 10
13.7190134822
 20
14.2918427619
 30
0.0
 10
13.7171498732
 20
14.2920627774
 30
0.0
 10
13.71523645
 20
14.2918652666
 30
0.0
 10
13.7138857169
 20
14.291483555
 30
0.0
  0
SPLINE
  5
6B1
100
AcDbEntity
  8
0
100
AcDbSpline
 62
7
  6
CONTINUOUS
 70
0
 71
3
 72
9
 73
5
 74
0
 42
0.0000001
 43
0.0000001
 44
0.0000000001
 40
0.0
 40
0.0
 40
0.0
 40
0.0
 40
0.2512936309
 40
1.0
 40
1.0
 40
1.0
 40
1.0
 10
14.8663056778
 20
14.394037714
 30
0.0
 10
14.8666438834
 20
14.3941306068
 30
0.0
 10
14.8680044206
 20
14.3944442461
 30
0.0
 10
14.8694174482
 20
14.3945330704
 30
0.0
 10
14.8704601355
 20
14.3944640313
 30
0.0
  0
LINE
  5
6B2
100
AcDbEntity
  8
0
100
AcDbLine
 62
7
  6
CONTINUOUS
 10
14.7711650058
 20
14.1299237248
 11
14.7655275373
 21
14.1135405098
  0
SPLINE
  5
6B3
100
AcDbEntity
  8
0
100
AcDbSpline
 62
7
  6
CONTINUOUS
 70
0
 71
3
 72
9
 73
5
 74
0
 42
0.0000001
 43
0.0000001
 44
0.0000000001
 40
0.0
 40
0.0
 40
0.0
 40
0.0
 40
0.2512203025
 40
1.0
 40
1.0
 40
1.0
 40
1.0
 10
14.3298482399
 20
14.3937358696
 30
0.0
 10
14.3294362083
 20
14.3938854445
 30
0.0
 10
14.3277656715
 20
14.3943933409
 30
0.0
 10
14.3259887816
 20
14.3945524063
 30
0.0
 10
14.3246855397
 20
14.3944601177
 30
0.0
  0
SPLINE
  5
6B4
100
AcDbEntity
  8
0
100
AcDbSpline
 62
7
  6
CONTINUOUS
 70
0
 71
3
 72
14
 73
10
 74
0
 42
0.0000001
 43
0.0000001
 44
0.0000000001
 40
0.0
 40
0.0
 40
0.0
 40
0.0
 40
0.1361563907
 40
0.2695330505
 40
0.399838198
 40
0.5268749831
 40
0.6505122156
 40
0.7706423142
 40
1.0
 40
1.0
 40
1.0
 40
1.0
 10
14.73417911
 20
14.4716193711
 30
0.0
 10
14.687112997
 20
14.4715663471
 30
0.0
 10
14.5939322677
 20
14.4696610126
 30
0.0
 10
14.455935979
 20
14.4612487713
 30
0.0
 10
14.3215500652
 20
14.4473187764
 30
0.0
 10
14.1912469928
 20
14.4279189783
 30
0.0
 10
14.0654342677
 20
14.4031087154
 30
0.0
 10
13.9067087469
 20
14.363535234
 30
0.0
 10
13.7917898466
 20
14.3252025318
 30
0.0
 10
13.7182672223
 20
14.2955322124
 30
0.0
  0
SPLINE
  5
6B5
100
AcDbEntity
  8
0
100
AcDbSpline
 62
7
  6
CONTINUOUS
 70
0
 71
3
 72
26
 73
22
 74
0
 42
0.0000001
 43
0.0000001
 44
0.0000000001
 40
0.0
 40
0.0
 40
0.0
 40
0.0
 40
0.0509253861
 40
0.0773723833
 40
0.1044636392
 40
0.1605194932
 40
0.1894587095
 40
0.2189716175
 40
0.2490319228
 40
0.279609056
 40
0.3421731063
 40
0.4063807857
 40
0.4719091932
 40
0.5384103544
 40
0.6055194241
 40
0.6728607881
 40
0.740056027
 40
0.806725969
 40
0.8725011139
 40
0.9370471982
 40
1.0
 40
1.0
 40
1.0
 40
1.0
 10
17.936660229
 20
12.9695196059
 30
0.0
 10
17.9031164768
 20
13.0218421435
 30
0.0
 10
17.8481616516
 20
13.0988486991
 30
0.0
 10
17.767509611
 20
13.1976176199
 30
0.0
 10
17.6786425208
 20
13.2976279559
 30
0.0
 10
17.5816727054
 20
13.3943375918
 30
0.0
 10
17.4775306836
 20
13.4875586088
 30
0.0
 10
17.3945574177
 20
13.5567666574
 30
0.0
 10
17.3077254241
 20
13.6243672257
 30
0.0
 10
17.1861299591
 20
13.712851848
 30
0.0
 10
17.025563551
 20
13.8184292616
 30
0.0
 10
16.8220770024
 20
13.9356159483
 30
0.0
 10
16.6080059072
 20
14.0432808391
 30
0.0
 10
16.3851458982
 20
14.1405316759
 30
0.0
 10
16.1553563505
 20
14.2265590086
 30
0.0
 10
15.9205546726
 20
14.3006391748
 30
0.0
 10
15.6827056876
 20
14.3621563978
 30
0.0
 10
15.4438014894
 20
14.4105989483
 30
0.0
 10
15.2058151736
 20
14.4455602611
 30
0.0
 10
14.9707655318
 20
14.4667328807
 30
0.0
 10
14.8151250027
 20
14.4716216887
 30
0.0
 10
14.7382945129
 20
14.4716216887
 30
0.0
  0
LINE
  5
6B6
100
AcDbEntity
  8
0
100
AcDbLine
 62
7
  6
CONTINUOUS
 10
16.9836938896
 20
13.4173162161
 11
16.9887391141
 21
13.4345486616
  0
SPLINE
  5
6B7
100
AcDbEntity
  8
0
100
AcDbSpline
 62
7
  6
CONTINUOUS
 70
0
 71
3
 72
13
 73
9
 74
0
 42
0.0000001
 43
0.0000001
 44
0.0000000001
 40
0.0
 40
0.0
 40
0.0
 40
0.0
 40
0.1215894237
 40
0.2435565804
 40
0.3662110956
 40
0.4898545646
 40
0.7411941573
 40
1.0
 40
1.0
 40
1.0
 40
1.0
 10
12.8094639553
 20
13.0210644185
 30
0.0
 10
12.8037246631
 20
13.0024920621
 30
0.0
 10
12.7934484366
 20
12.9649000026
 30
0.0
 10
12.7817236367
 20
12.9074988551
 30
0.0
 10
12.7736912194
 20
12.8491306497
 30
0.0
 10
12.7678983417
 20
12.7697359856
 30
0.0
 10
12.7701273533
 20
12.6681651711
 30
0.0
 10
12.7816309886
 20
12.5872147535
 30
0.0
 10
12.7896822504
 20
12.5466294499
 30
0.0
  0
SPLINE
  5
6B8
100
AcDbEntity
  8
0
100
AcDbSpline
 62
7
  6
CONTINUOUS
 70
0
 71
3
 72
12
 73
8
 74
0
 42
0.0000001
 43
0.0000001
 44
0.0000000001
 40
0.0
 40
0.0
 40
0.0
 40
0.0
 40
0.2316259729
 40
0.3517618212
 40
0.4749535929
 40
0.7308631788
 40
1.0
 40
1.0
 40
1.0
 40
1.0
 10
12.7990165349
 20
12.5038545255
 30
0.0
 10
12.8109199582
 20
12.4538322039
 30
0.0
 10
12.83398158
 20
12.3789621413
 30
0.0
 10
12.8735780549
 20
12.2812089824
 30
0.0
 10
12.9207968153
 20
12.1808843736
 30
0.0
 10
12.9923405314
 20
12.0557349764
 30
0.0
 10
13.0595466533
 20
11.9602914935
 30
0.0
 10
13.0959428538
 20
11.912910842
 30
0.0
  0
SPLINE
  5
6B9
100
AcDbEntity
  8
0
100
AcDbSpline
 62
7
  6
CONTINUOUS
 70
0
 71
3
 72
24
 73
20
 74
0
 42
0.0000001
 43
0.0000001
 44
0.0000000001
 40
0.0
 40
0.0
 40
0.0
 40
0.0
 40
0.0538159468
 40
0.109822376
 40
0.167884163
 40
0.197636456
 40
0.2278341859
 40
0.2894516475
 40
0.3525067812
 40
0.4167414755
 40
0.4818789219
 40
0.5476300665
 40
0.6136961477
 40
0.6797755147
 40
0.7455656002
 40
0.8107637886
 40
0.8750835746
 40
0.938261794
 40
1.0
 40
1.0
 40
1.0
 40
1.0
 10
13.174111795
 20
11.8168239055
 30
0.0
 10
13.2134471809
 20
11.7710551683
 30
0.0
 10
13.297307363
 20
11.6806895171
 30
0.0
 10
13.4346432057
 20
11.5517314069
 30
0.0
 10
13.5590781055
 20
11.4489531708
 30
0.0
 10
13.6647560827
 20
11.3692682684
 30
0.0
 10
13.7759406397
 20
11.2903541756
 30
0.0
 10
13.9217736155
 20
11.1958679186
 30
0.0
 10
14.1055124302
 20
11.0902453328
 30
0.0
 10
14.2979212038
 20
10.9923523244
 30
0.0
 10
14.4976824442
 20
10.9028425554
 30
0.0
 10
14.7034417076
 20
10.8223308641
 30
0.0
 10
14.9137979519
 20
10.7513625056
 30
0.0
 10
15.1273187117
 20
10.6904152428
 30
0.0
 10
15.3425508428
 20
10.6399171101
 30
0.0
 10
15.5580253374
 20
10.6001952724
 30
0.0
 10
15.7722984853
 20
10.5715296192
 30
0.0
 10
15.9838839622
 20
10.5541287335
 30
0.0
 10
16.1239884162
 20
10.5500477723
 30
0.0
 10
16.1932218405
 20
10.549989591
 30
0.0
  0
SPLINE
  5
6BA
100
AcDbEntity
  8
0
100
AcDbSpline
 62
7
  6
CONTINUOUS
 70
0
 71
3
 72
14
 73
10
 74
0
 42
0.0000001
 43
0.0000001
 44
0.0000000001
 40
0.0
 40
0.0
 40
0.0
 40
0.0
 40
0.1336305556
 40
0.2650985858
 40
0.5207478215
 40
0.6446981274
 40
0.76593514
 40
0.8843882552
 40
1.0
 40
1.0
 40
1.0
 40
1.0
 10
16.1962956243
 20
10.5499882992
 30
0.0
 10
16.2346950282
 20
10.5499882992
 30
0.0
 10
16.3108801017
 20
10.5511878537
 30
0.0
 10
16.4603610704
 20
10.558428252
 30
0.0
 10
16.6066511648
 20
10.5729049726
 30
0.0
 10
16.7488899264
 20
10.5950027416
 30
0.0
 10
16.8514835005
 20
10.6149893346
 30
0.0
 10
16.9508600124
 20
10.638520291
 30
0.0
 10
17.0156254182
 20
10.6567591062
 30
0.0
 10
17.0473936776
 20
10.6664777998
 30
0.0
  0
SPLINE
  5
6BB
100
AcDbEntity
  8
0
100
AcDbSpline
 62
7
  6
CONTINUOUS
 70
0
 71
3
 72
13
 73
9
 74
0
 42
0.0000001
 43
0.0000001
 44
0.0000000001
 40
0.0
 40
0.0
 40
0.0
 40
0.0
 40
0.2690995214
 40
0.5250508087
 40
0.6482591114
 40
0.7683921626
 40
0.8855832301
 40
1.0
 40
1.0
 40
1.0
 40
1.0
 10
17.0518755388
 20
10.6678540847
 30
0.0
 10
17.1095504489
 20
10.6856315268
 30
0.0
 10
17.2207342897
 20
10.7249312255
 30
0.0
 10
17.3529946898
 20
10.7858995749
 30
0.0
 10
17.4507800671
 20
10.8405602143
 30
0.0
 10
17.5191679081
 20
10.8837826575
 30
0.0
 10
17.583386585
 20
10.929671012
 30
0.0
 10
17.6237995697
 20
10.9623665207
 30
0.0
 10
17.643228492
 20
10.9791295965
 30
0.0
  0
SPLINE
  5
6BC
100
AcDbEntity
  8
0
100
AcDbSpline
 62
7
  6
CONTINUOUS
 70
0
 71
3
 72
15
 73
11
 74
0
 42
0.0000001
 43
0.0000001
 44
0.0000000001
 40
0.0
 40
0.0
 40
0.0
 40
0.0
 40
0.1319614406
 40
0.2612530481
 40
0.3881755378
 40
0.5130697411
 40
0.636307173
 40
0.7582800761
 40
0.8793781964
 40
1.0
 40
1.0
 40
1.0
 40
1.0
 10
17.6449947234
 20
10.9806564461
 30
0.0
 10
17.6633540101
 20
10.9965583269
 30
0.0
 10
17.6987664754
 20
11.0291418247
 30
0.0
 10
17.7482010206
 20
11.080791842
 30
0.0
 10
17.7932798967
 20
11.1346051736
 30
0.0
 10
17.8339161949
 20
11.190477744
 30
0.0
 10
17.8700235341
 20
11.2483104544
 30
0.0
 10
17.901516134
 20
11.307994401
 30
0.0
 10
17.9283349909
 20
11.3693914045
 30
0.0
 10
17.9430731949
 20
11.4114218876
 30
0.0
 10
17.9496280974
 20
11.4326335599
 30
0.0
  0
SPLINE
  5
6BD
100
AcDbEntity
  8
0
100
AcDbSpline
 62
7
  6
CONTINUOUS
 70
0
 71
3
 72
23
 73
19
 74
0
 42
0.0000001
 43
0.0000001
 44
0.0000000001
 40
0.0
 40
0.0
 40
0.0
 40
0.0
 40
0.0788869874
 40
0.1557605055
 40
0.2304508988
 40
0.3028506083
 40
0.3728731059
 40
0.4404536863
 40
0.5055648263
 40
0.5682240333
 40
0.6284931491
 40
0.6864863733
 40
0.7423696085
 40
0.7963670954
 40
0.8487618947
 40
0.8999076622
 40
0.9501923021
 40
1.0
 40
1.0
 40
1.0
 40
1.0
 10
14.4942781303
 20
13.843486901
 30
0.0
 10
14.44343247
 20
13.8422467689
 30
0.0
 10
14.3430762696
 20
13.8375750682
 30
0.0
 10
14.1950927833
 20
13.8236840049
 30
0.0
 10
14.0521146396
 20
13.8030481863
 30
0.0
 10
13.914750302
 20
13.7757638892
 30
0.0
 10
13.7835678117
 20
13.7419466821
 30
0.0
 10
13.6591194831
 20
13.7017449414
 30
0.0
 10
13.5419370625
 20
13.6553216574
 30
0.0
 10
13.432511046
 20
13.6028862355
 30
0.0
 10
13.3313068559
 20
13.5446489471
 30
0.0
 10
13.2387440456
 20
13.4808669021
 30
0.0
 10
13.1552248181
 20
13.4117935924
 30
0.0
 10
13.0810876484
 20
13.3377377668
 30
0.0
 10
13.0166582048
 20
13.2589875071
 30
0.0
 10
12.9622004573
 20
13.1758662874
 30
0.0
 10
12.917979205
 20
13.088746177
 30
0.0
 10
12.8953787543
 20
13.0281255813
 30
0.0
 10
12.8858976229
 20
12.9974446288
 30
0.0
  0
SPLINE
  5
6BE
100
AcDbEntity
  8
0
100
AcDbSpline
 62
7
  6
CONTINUOUS
 70
0
 71
3
 72
40
 73
36
 74
0
 42
0.0000001
 43
0.0000001
 44
0.0000000001
 40
0.0
 40
0.0
 40
0.0
 40
0.0
 40
0.0211272534
 40
0.0424487366
 40
0.0532343064
 40
0.0641264998
 40
0.0863015116
 40
0.1091260731
 40
0.1327184257
 40
0.1571714617
 40
0.18255639
 40
0.2089223622
 40
0.2362993974
 40
0.2646972501
 40
0.294110814
 40
0.3245183928
 40
0.3558869142
 40
0.3881700673
 40
0.4213126575
 40
0.4552495575
 40
0.4899084701
 40
0.5252101448
 40
0.561069515
 40
0.5973971125
 40
0.6340990686
 40
0.671079026
 40
0.7082377631
 40
0.7454751815
 40
0.7826907399
 40
0.8197838353
 40
0.8566536383
 40
0.8932006853
 40
0.9293338281
 40
0.9649663942
 40
1.0
 40
1.0
 40
1.0
 40
1.0
 10
17.8731944299
 20
11.4562533496
 30
0.0
 10
17.8824413536
 20
11.4861764057
 30
0.0
 10
17.8976791851
 20
11.5473837268
 30
0.0
 10
17.9082327144
 20
11.6257518795
 30
0.0
 10
17.9116417093
 20
11.6894295004
 30
0.0
 10
17.9116870283
 20
11.7544636804
 30
0.0
 10
17.9052784101
 20
11.8372248833
 30
0.0
 10
17.8874835641
 20
11.9374889987
 30
0.0
 10
17.8596301695
 20
12.0389337078
 30
0.0
 10
17.8218207796
 20
12.1411440619
 30
0.0
 10
17.7742057751
 20
12.2437084573
 30
0.0
 10
17.7169837472
 20
12.3462197102
 30
0.0
 10
17.6503732221
 20
12.4482590437
 30
0.0
 10
17.5746533821
 20
12.5494253284
 30
0.0
 10
17.490112282
 20
12.649297284
 30
0.0
 10
17.3971035829
 20
12.747485746
 30
0.0
 10
17.2959861105
 20
12.8435794435
 30
0.0
 10
17.187177866
 20
12.9372044571
 30
0.0
 10
17.0711051928
 20
13.0279699426
 30
0.0
 10
16.948241839
 20
13.1155201057
 30
0.0
 10
16.8190756246
 20
13.19949417
 30
0.0
 10
16.6841281661
 20
13.2795579761
 30
0.0
 10
16.5439403146
 20
13.3553881699
 30
0.0
 10
16.3990738731
 20
13.4266766633
 30
0.0
 10
16.2501127649
 20
13.4931427091
 30
0.0
 10
16.097651525
 20
13.5545095877
 30
0.0
 10
15.9423068034
 20
13.6105427709
 30
0.0
 10
15.7846970767
 20
13.6610033433
 30
0.0
 10
15.6254587875
 20
13.7057033633
 30
0.0
 10
15.4652278061
 20
13.7444474614
 30
0.0
 10
15.3046550216
 20
13.7770958679
 30
0.0
 10
15.1443804973
 20
13.8035070812
 30
0.0
 10
14.9850361648
 20
13.8235834489
 30
0.0
 10
14.8272662005
 20
13.837234144
 30
0.0
 10
14.7225867308
 20
13.842065873
 30
0.0
 10
14.670668952
 20
13.8433697943
 30
0.0
  0
SPLINE
  5
6BF
100
AcDbEntity
  8
0
100
AcDbSpline
 62
7
  6
CONTINUOUS
 70
0
 71
3
 72
30
 73
26
 74
0
 42
0.0000001
 43
0.0000001
 44
0.0000000001
 40
0.0
 40
0.0
 40
0.0
 40
0.0
 40
0.074700959
 40
0.1501857332
 40
0.2257291757
 40
0.3007137238
 40
0.3745082864
 40
0.4107711538
 40
0.4465124606
 40
0.516150186
 40
0.5499389039
 40
0.5829642165
 40
0.6151787002
 40
0.6465450568
 40
0.7065967121
 40
0.7352681455
 40
0.7630262678
 40
0.8158286015
 40
0.8652880948
 40
0.8889304547
 40
0.91194751
 40
0.9344406518
 40
0.9565264756
 40
0.9783340874
 40
1.0
 40
1.0
 40
1.0
 40
1.0
 10
15.281171638
 20
12.7210128029
 30
0.0
 10
15.3180071436
 20
12.7150996911
 30
0.0
 10
15.3916817503
 20
12.7006883837
 30
0.0
 10
15.5007450437
 20
12.6718636696
 30
0.0
 10
15.6078552225
 20
12.6359961402
 30
0.0
 10
15.7116213058
 20
12.5935580749
 30
0.0
 10
15.7947147611
 20
12.552936217
 30
0.0
 10
15.8583751343
 20
12.5175612248
 30
0.0
 10
15.918953332
 20
12.4810129291
 30
0.0
 10
15.9764778277
 20
12.4418606211
 30
0.0
 10
16.0304248549
 20
12.4001980506
 30
0.0
 10
16.0682928628
 20
12.3683629665
 30
0.0
 10
16.1038473759
 20
12.3357231091
 30
0.0
 10
16.1473838616
 20
12.2919205476
 30
0.0
 10
16.1866053659
 20
12.2463809739
 30
0.0
 10
16.2208005772
 20
12.1992846892
 30
0.0
 10
16.2502486047
 20
12.1533326393
 30
0.0
 10
16.2802262397
 20
12.0955152989
 30
0.0
 10
16.3010871532
 20
12.0359153515
 30
0.0
 10
16.3112837004
 20
11.9889561127
 30
0.0
 10
16.3157205048
 20
11.9546607526
 30
0.0
 10
16.3170329341
 20
11.9208803034
 30
0.0
 10
16.3152076096
 20
11.887724854
 30
0.0
 10
16.3102596693
 20
11.855309355
 30
0.0
 10
16.3048776941
 20
11.8342320988
 30
0.0
 10
16.3016826851
 20
11.8238941881
 30
0.0
  0
SPLINE
  5
6C0
100
AcDbEntity
  8
0
100
AcDbSpline
 62
7
  6
CONTINUOUS
 70
0
 71
3
 72
9
 73
5
 74
0
 42
0.0000001
 43
0.0000001
 44
0.0000000001
 40
0.0
 40
0.0
 40
0.0
 40
0.0
 40
0.2564264792
 40
1.0
 40
1.0
 40
1.0
 40
1.0
 10
13.0222806571
 20
12.1238159076
 30
0.0
 10
13.0134142997
 20
12.1392081712
 30
0.0
 10
12.9797958937
 20
12.1997774699
 30
0.0
 10
12.9501213709
 20
12.2625637869
 30
0.0
 10
12.9307680971
 20
12.3102988981
 30
0.0
  0
SPLINE
  5
6C1
100
AcDbEntity
  8
0
100
AcDbSpline
 62
7
  6
CONTINUOUS
 70
0
 71
3
 72
11
 73
7
 74
0
 42
0.0000001
 43
0.0000001
 44
0.0000000001
 40
0.0
 40
0.0
 40
0.0
 40
0.0
 40
0.211901538
 40
0.4531633796
 40
0.7181765311
 40
1.0
 40
1.0
 40
1.0
 40
1.0
 10
12.9307680971
 20
12.3102988981
 30
0.0
 10
12.9299474403
 20
12.3123230592
 30
0.0
 10
12.9285196494
 20
12.3167854915
 30
0.0
 10
12.9270027673
 20
12.3240400844
 30
0.0
 10
12.9260055073
 20
12.332110166
 30
0.0
 10
12.9257125524
 20
12.3377439858
 30
0.0
 10
12.9256532587
 20
12.3406483018
 30
0.0
  0
SPLINE
  5
6C2
100
AcDbEntity
  8
0
100
AcDbSpline
 62
7
  6
CONTINUOUS
 70
0
 71
3
 72
45
 73
41
 74
0
 42
0.0000001
 43
0.0000001
 44
0.0000000001
 40
0.0
 40
0.0
 40
0.0
 40
0.0
 40
0.0111794536
 40
0.0224138868
 40
0.0337566911
 40
0.0452591293
 40
0.0689113307
 40
0.0937131064
 40
0.1199059479
 40
0.1476449531
 40
0.1770066316
 40
0.2079985543
 40
0.2405678976
 40
0.274614585
 40
0.309995233
 40
0.3465360836
 40
0.3840342236
 40
0.4222686196
 40
0.46100132
 40
0.4999860876
 40
0.5389705874
 40
0.5777036075
 40
0.6159375849
 40
0.6534362602
 40
0.6899764582
 40
0.7253578354
 40
0.7594037864
 40
0.7919737895
 40
0.8229652045
 40
0.8523271703
 40
0.8664013473
 40
0.8800768268
 40
0.9062694697
 40
0.9310715936
 40
0.9430313362
 40
0.9547406868
 40
0.9662432092
 40
0.9775862257
 40
0.9888205442
 40
1.0
 40
1.0
 40
1.0
 40
1.0
 10
16.3016826851
 20
11.8238941881
 30
0.0
 10
16.29891505
 20
11.8149391074
 30
0.0
 10
16.2925898136
 20
11.7972144809
 30
0.0
 10
16.2808248212
 20
11.7714384614
 30
0.0
 10
16.2668021555
 20
11.7465035878
 30
0.0
 10
16.2449434805
 20
11.7141792696
 30
0.0
 10
16.2118301915
 20
11.6760691393
 30
0.0
 10
16.1641740316
 20
11.6352012678
 30
0.0
 10
16.1087087685
 20
11.5990921747
 30
0.0
 10
16.0459924089
 20
11.5680540151
 30
0.0
 10
15.9766262303
 20
11.5423416141
 30
0.0
 10
15.9012649961
 20
11.5221868717
 30
0.0
 10
15.8206228272
 20
11.5077527616
 30
0.0
 10
15.7354601776
 20
11.4991861671
 30
0.0
 10
15.6465856268
 20
11.4965447822
 30
0.0
 10
15.5548445679
 20
11.4998714614
 30
0.0
 10
15.4611100015
 20
11.5091150271
 30
0.0
 10
15.3662789138
 20
11.5242026391
 30
0.0
 10
15.2712554346
 20
11.5449777718
 30
0.0
 10
15.1769504536
 20
11.5712495891
 30
0.0
 10
15.0842652761
 20
11.6027634077
 30
0.0
 10
14.9940864514
 20
11.6392163197
 30
0.0
 10
14.9072787235
 20
11.6802654713
 30
0.0
 10
14.8246676119
 20
11.7255087983
 30
0.0
 10
14.7470486906
 20
11.774527761
 30
0.0
 10
14.675153261
 20
11.8268407225
 30
0.0
 10
14.6096774793
 20
11.8819679449
 30
0.0
 10
14.5512308508
 20
11.9393753569
 30
0.0
 10
14.5003875457
 20
11.9985353916
 30
0.0
 10
14.4642428745
 20
12.0495415543
 30
0.0
 10
14.4397490541
 20
12.0907117117
 30
0.0
 10
14.4188059383
 20
12.130817967
 30
0.0
 10
14.3979212632
 20
12.1810102057
 30
0.0
 10
14.3841808098
 20
12.2321661019
 30
0.0
 10
14.3780458755
 20
12.2723736365
 30
0.0
 10
14.3758421719
 20
12.3018104937
 30
0.0
 10
14.3759815855
 20
12.3308126643
 30
0.0
 10
14.3784650849
 20
12.3593112581
 30
0.0
 10
14.3832949877
 20
12.3872312379
 30
0.0
 10
14.3880761761
 20
12.405432977
 30
0.0
 10
14.390843779
 20
12.4143880695
 30
0.0
  0
SPLINE
  5
6C3
100
AcDbEntity
  8
0
100
AcDbSpline
 62
7
  6
CONTINUOUS
 70
0
 71
3
 72
11
 73
7
 74
0
 42
0.0000001
 43
0.0000001
 44
0.0000000001
 40
0.0
 40
0.0
 40
0.0
 40
0.0
 40
0.2286006513
 40
0.4781192845
 40
0.7387550513
 40
1.0
 40
1.0
 40
1.0
 40
1.0
 10
12.9307142759
 20
12.380545742
 30
0.0
 10
12.9298061365
 20
12.3776070018
 30
0.0
 10
12.9282429236
 20
12.371355142
 30
0.0
 10
12.9266288823
 20
12.3615379876
 30
0.0
 10
12.9257071456
 20
12.3511908831
 30
0.0
 10
12.9255815104
 20
12.3441626633
 30
0.0
 10
12.9256532587
 20
12.3406483018
 30
0.0
  0
SPLINE
  5
6C4
100
AcDbEntity
  8
0
100
AcDbSpline
 62
7
  6
CONTINUOUS
 70
0
 71
3
 72
11
 73
7
 74
0
 42
0.0000001
 43
0.0000001
 44
0.0000000001
 40
0.0
 40
0.0
 40
0.0
 40
0.0
 40
0.2371554546
 40
0.4802011989
 40
0.733714987
 40
1.0
 40
1.0
 40
1.0
 40
1.0
 10
14.5440074298
 20
14.1312290418
 30
0.0
 10
14.5422167293
 20
14.1348761025
 30
0.0
 10
14.5393732804
 20
14.1426721841
 30
0.0
 10
14.5375732385
 20
14.1551944924
 30
0.0
 10
14.5382314902
 20
14.1683188288
 30
0.0
 10
14.5402137014
 20
14.1770484408
 30
0.0
 10
14.5415606233
 20
14.1814070816
 30
0.0
  0
SPLINE
  5
6C5
100
AcDbEntity
  8
0
100
AcDbSpline
 62
7
  6
CONTINUOUS
 70
0
 71
3
 72
11
 73
7
 74
0
 42
0.0000001
 43
0.0000001
 44
0.0000000001
 40
0.0
 40
0.0
 40
0.0
 40
0.0
 40
0.236808289
 40
0.4797316483
 40
0.7331432642
 40
1.0
 40
1.0
 40
1.0
 40
1.0
 10
14.7504832061
 20
14.2325525992
 30
0.0
 10
14.7482896302
 20
14.2370203543
 30
0.0
 10
14.7427300559
 20
14.2455673817
 30
0.0
 10
14.731449571
 20
14.2562514499
 30
0.0
 10
14.717598396
 20
14.2645643188
 30
0.0
 10
14.7072239088
 20
14.2682531236
 30
0.0
 10
14.7017957426
 20
14.269664947
 30
0.0
  0
SPLINE
  5
6C6
100
AcDbEntity
  8
0
100
AcDbSpline
 62
7
  6
CONTINUOUS
 70
0
 71
3
 72
11
 73
7
 74
0
 42
0.0000001
 43
0.0000001
 44
0.0000000001
 40
0.0
 40
0.0
 40
0.0
 40
0.0
 40
0.2735453797
 40
0.5260991767
 40
0.7654217207
 40
1.0
 40
1.0
 40
1.0
 40
1.0
 10
17.4590166217
 20
13.046128526
 30
0.0
 10
17.4585878968
 20
13.0452558427
 30
0.0
 10
17.4576022397
 20
13.0436481652
 30
0.0
 10
17.4556853297
 20
13.0416825597
 30
0.0
 10
17.4534682878
 20
13.0403116668
 30
0.0
 10
17.4518591192
 20
13.0397679154
 30
0.0
 10
17.4510476184
 20
13.0395763722
 30
0.0
  0
SPLINE
  5
6C7
100
AcDbEntity
  8
0
100
AcDbSpline
 62
7
  6
CONTINUOUS
 70
0
 71
3
 72
13
 73
9
 74
0
 42
0.0000001
 43
0.0000001
 44
0.0000000001
 40
0.0
 40
0.0
 40
0.0
 40
0.0
 40
0.1110426003
 40
0.2284030031
 40
0.3511857301
 40
0.4783704807
 40
0.7396371338
 40
1.0
 40
1.0
 40
1.0
 40
1.0
 10
14.5415606233
 20
14.1814070816
 30
0.0
 10
14.543112188
 20
14.1864279466
 30
0.0
 10
14.5472174635
 20
14.1964876219
 30
0.0
 10
14.5557683876
 20
14.2108008084
 30
0.0
 10
14.5666829727
 20
14.2243997042
 30
0.0
 10
14.5841443183
 20
14.2412251423
 30
0.0
 10
14.609986359
 20
14.2583524031
 30
0.0
 10
14.6334302162
 20
14.266942015
 30
0.0
 10
14.6454472349
 20
14.2696655029
 30
0.0
  0
SPLINE
  5
6C8
100
AcDbEntity
  8
0
100
AcDbSpline
 62
7
  6
CONTINUOUS
 70
0
 71
3
 72
10
 73
6
 74
0
 42
0.0000001
 43
0.0000001
 44
0.0000000001
 40
0.0
 40
0.0
 40
0.0
 40
0.0
 40
0.5418160292
 40
0.7775035069
 40
1.0
 40
1.0
 40
1.0
 40
1.0
 10
17.8077071916
 20
12.6372768141
 30
0.0
 10
17.8070393848
 20
12.6362384486
 30
0.0
 10
17.8058627761
 20
12.6348456215
 30
0.0
 10
17.8039088315
 20
12.6336459009
 30
0.0
 10
17.8029184807
 20
12.6332900473
 30
0.0
 10
17.8024268429
 20
12.6331662834
 30
0.0
  0
SPLINE
  5
6C9
100
AcDbEntity
  8
0
100
AcDbSpline
 62
7
  6
CONTINUOUS
 70
0
 71
3
 72
9
 73
5
 74
0
 42
0.0000001
 43
0.0000001
 44
0.0000000001
 40
0.0
 40
0.0
 40
0.0
 40
0.0
 40
0.3001143412
 40
1.0
 40
1.0
 40
1.0
 40
1.0
 10
18.0081862481
 20
12.2163358546
 30
0.0
 10
18.00798051
 20
12.2160458507
 30
0.0
 10
18.0072551651
 20
12.2151147717
 30
0.0
 10
18.0062946151
 20
12.2143242463
 30
0.0
 10
18.0055221336
 20
12.2140228055
 30
0.0
  0
SPLINE
  5
6CA
100
AcDbEntity
  8
0
100
AcDbSpline
 62
7
  6
CONTINUOUS
 70
0
 71
3
 72
11
 73
7
 74
0
 42
0.0000001
 43
0.0000001
 44
0.0000000001
 40
0.0
 40
0.0
 40
0.0
 40
0.0
 40
0.239364304
 40
0.4799568421
 40
0.7307850145
 40
1.0
 40
1.0
 40
1.0
 40
1.0
 10
14.5276976966
 20
14.2603506606
 30
0.0
 10
14.5284473046
 20
14.2595078264
 30
0.0
 10
14.5297845714
 20
14.2576543718
 30
0.0
 10
14.5310271964
 20
14.2543960763
 30
0.0
 10
14.5313215357
 20
14.2507785487
 30
0.0
 10
14.5308653601
 20
14.2483397971
 30
0.0
 10
14.5304908101
 20
14.2471277292
 30
0.0
  0
SPLINE
  5
6CB
100
AcDbEntity
  8
0
100
AcDbSpline
 62
7
  6
CONTINUOUS
 70
0
 71
3
 72
9
 73
5
 74
0
 42
0.0000001
 43
0.0000001
 44
0.0000000001
 40
0.0
 40
0.0
 40
0.0
 40
0.0
 40
0.2307641164
 40
1.0
 40
1.0
 40
1.0
 40
1.0
 10
14.4892092366
 20
14.1135405056
 30
0.0
 10
14.4888026608
 20
14.1122249818
 30
0.0
 10
14.4863317555
 20
14.1067392703
 30
0.0
 10
14.4818059337
 20
14.1024407718
 30
0.0
 10
14.4780741003
 20
14.0997686441
 30
0.0
  0
SPLINE
  5
6CC
100
AcDbEntity
  8
0
100
AcDbSpline
 62
7
  6
CONTINUOUS
 70
0
 71
3
 72
11
 73
7
 74
0
 42
0.0000001
 43
0.0000001
 44
0.0000000001
 40
0.0
 40
0.0
 40
0.0
 40
0.0
 40
0.2466363796
 40
0.490765153
 40
0.7392374638
 40
1.0
 40
1.0
 40
1.0
 40
1.0
 10
14.7685662815
 20
14.0997695671
 30
0.0
 10
14.7677818624
 20
14.1006905589
 30
0.0
 10
14.7663939177
 20
14.102684024
 30
0.0
 10
14.7650703211
 20
14.106102278
 30
0.0
 10
14.7647043025
 20
14.1098256327
 30
0.0
 10
14.7651498976
 20
14.1123184789
 30
0.0
 10
14.765527539
 20
14.1135405166
 30
0.0
  0
LINE
  5
6CD
100
AcDbEntity
  8
0
100
AcDbLine
 62
7
  6
CONTINUOUS
 10
14.8068091124
 20
14.2471277284
 11
14.8079088707
 21
14.2498221235
  0
SPLINE
  5
6CE
100
AcDbEntity
  8
0
100
AcDbSpline
 62
7
  6
CONTINUOUS
 70
0
 71
3
 72
11
 73
7
 74
0
 42
0.0000001
 43
0.0000001
 44
0.0000000001
 40
0.0
 40
0.0
 40
0.0
 40
0.0
 40
0.2174499526
 40
0.4505440156
 40
0.709640924
 40
1.0
 40
1.0
 40
1.0
 40
1.0
 10
13.9554934856
 20
14.1827615983
 30
0.0
 10
13.9560079098
 20
14.1820813451
 30
0.0
 10
13.9568971063
 20
14.1805255985
 30
0.0
 10
13.9575691152
 20
14.1777910695
 30
0.0
 10
13.9575432322
 20
14.1746957954
 30
0.0
 10
13.9570772529
 20
14.1725762402
 30
0.0
 10
13.9567410235
 20
14.1714881845
 30
0.0
  0
SPLINE
  5
6CF
100
AcDbEntity
  8
0
100
AcDbSpline
 62
7
  6
CONTINUOUS
 70
0
 71
3
 72
10
 73
6
 74
0
 42
0.0000001
 43
0.0000001
 44
0.0000000001
 40
0.0
 40
0.0
 40
0.0
 40
0.0
 40
0.2287565837
 40
0.4766884242
 40
1.0
 40
1.0
 40
1.0
 40
1.0
 10
13.91545945
 20
14.0379009611
 30
0.0
 10
13.9150477562
 20
14.0365688484
 30
0.0
 10
13.913907848
 20
14.0338776361
 30
0.0
 10
13.9107257044
 20
14.0286625687
 30
0.0
 10
13.9075444236
 20
14.025139906
 30
0.0
 10
13.905228917
 20
14.0229462792
 30
0.0
  0
SPLINE
  5
6D0
100
AcDbEntity
  8
0
100
AcDbSpline
 62
7
  6
CONTINUOUS
 70
0
 71
3
 72
11
 73
7
 74
0
 42
0.0000001
 43
0.0000001
 44
0.0000000001
 40
0.0
 40
0.0
 40
0.0
 40
0.0
 40
0.2352978141
 40
0.4748721574
 40
0.7271659772
 40
1.0
 40
1.0
 40
1.0
 40
1.0
 10
14.1626901487
 20
14.0717055998
 30
0.0
 10
14.1621139083
 20
14.0723382047
 30
0.0
 10
14.1610672195
 20
14.0737300803
 30
0.0
 10
14.1599893361
 20
14.0761727828
 30
0.0
 10
14.1595163816
 20
14.0789396798
 30
0.0
 10
14.1596254975
 20
14.0808629416
 30
0.0
 10
14.1597752702
 20
14.0818437925
 30
0.0
  0
SPLINE
  5
6D1
100
AcDbEntity
  8
0
100
AcDbSpline
 62
7
  6
CONTINUOUS
 70
0
 71
3
 72
11
 73
7
 74
0
 42
0.0000001
 43
0.0000001
 44
0.0000000001
 40
0.0
 40
0.0
 40
0.0
 40
0.0
 40
0.2071971987
 40
0.4365405103
 40
0.6985496493
 40
1.0
 40
1.0
 40
1.0
 40
1.0
 10
13.4785986747
 20
14.0066475532
 30
0.0
 10
13.4789059152
 20
14.0062815937
 30
0.0
 10
13.4794584562
 20
14.0054265428
 30
0.0
 10
13.4799972778
 20
14.0038946452
 30
0.0
 10
13.4802352357
 20
14.0020712046
 30
0.0
 10
13.4801897808
 20
14.0007672493
 30
0.0
 10
13.4801225317
 20
14.0000753143
 30
0.0
  0
SPLINE
  5
6D2
100
AcDbEntity
  8
0
100
AcDbSpline
 62
7
  6
CONTINUOUS
 70
0
 71
3
 72
9
 73
5
 74
0
 42
0.0000001
 43
0.0000001
 44
0.0000000001
 40
0.0
 40
0.0
 40
0.0
 40
0.0
 40
0.2310026125
 40
1.0
 40
1.0
 40
1.0
 40
1.0
 10
13.4801225317
 20
14.0000753143
 30
0.0
 10
13.4800891858
 20
13.9997322132
 30
0.0
 10
13.4798982273
 20
13.9982515289
 30
0.0
 10
13.4795406474
 20
13.9967950901
 30
0.0
 10
13.4792018397
 20
13.9956986959
 30
0.0
  0
SPLINE
  5
6D3
100
AcDbEntity
  8
0
100
AcDbSpline
 62
7
  6
CONTINUOUS
 70
0
 71
3
 72
10
 73
6
 74
0
 42
0.0000001
 43
0.0000001
 44
0.0000000001
 40
0.0
 40
0.0
 40
0.0
 40
0.0
 40
0.2287763925
 40
0.4781446373
 40
1.0
 40
1.0
 40
1.0
 40
1.0
 10
13.437920266
 20
13.8621114726
 30
0.0
 10
13.4375048057
 20
13.860767135
 30
0.0
 10
13.4364340437
 20
13.8580190234
 30
0.0
 10
13.4336312938
 20
13.852537049
 30
0.0
 10
13.4309361047
 20
13.8486064244
 30
0.0
 10
13.4289750784
 20
13.8460655368
 30
0.0
  0
SPLINE
  5
6D4
100
AcDbEntity
  8
0
100
AcDbSpline
 62
7
  6
CONTINUOUS
 70
0
 71
3
 72
10
 73
6
 74
0
 42
0.0000001
 43
0.0000001
 44
0.0000000001
 40
0.0
 40
0.0
 40
0.0
 40
0.0
 40
0.2233760977
 40
0.4593590297
 40
1.0
 40
1.0
 40
1.0
 40
1.0
 10
13.6372043829
 20
13.9405204504
 30
0.0
 10
13.6368551783
 20
13.9409122252
 30
0.0
 10
13.6362144321
 20
13.9417914481
 30
0.0
 10
13.6352444798
 20
13.9439478098
 30
0.0
 10
13.6350564348
 20
13.9458178392
 30
0.0
 10
13.6350980257
 20
13.9470873781
 30
0.0
  0
SPLINE
  5
6D5
100
AcDbEntity
  8
0
100
AcDbSpline
 62
7
  6
CONTINUOUS
 70
0
 71
3
 72
11
 73
7
 74
0
 42
0.0000001
 43
0.0000001
 44
0.0000000001
 40
0.0
 40
0.0
 40
0.0
 40
0.0
 40
0.1690981336
 40
0.3863955345
 40
0.6621704824
 40
1.0
 40
1.0
 40
1.0
 40
1.0
 10
13.128860961
 20
13.7408225008
 30
0.0
 10
13.1290127801
 20
13.740531261
 30
0.0
 10
13.1292436259
 20
13.7398059881
 30
0.0
 10
13.1293635001
 20
13.7385201473
 30
0.0
 10
13.1292767606
 20
13.7369044313
 30
0.0
 10
13.1290935473
 20
13.7357252596
 30
0.0
 10
13.1289706825
 20
13.7350807075
 30
0.0
  0
LINE
  5
6D6
100
AcDbEntity
  8
0
100
AcDbLine
 62
7
  6
CONTINUOUS
 10
13.1289706825
 20
13.7350807075
 11
13.1278788018
 21
13.7308047633
  0
SPLINE
  5
6D7
100
AcDbEntity
  8
0
100
AcDbSpline
 62
7
  6
CONTINUOUS
 70
0
 71
3
 72
10
 73
6
 74
0
 42
0.0000001
 43
0.0000001
 44
0.0000000001
 40
0.0
 40
0.0
 40
0.0
 40
0.0
 40
0.2291354251
 40
0.4795729329
 40
1.0
 40
1.0
 40
1.0
 40
1.0
 10
13.0865972279
 20
13.5972175402
 30
0.0
 10
13.0861794477
 20
13.5958656525
 30
0.0
 10
13.0851969397
 20
13.5930693647
 30
0.0
 10
13.0828460451
 20
13.5873572543
 30
0.0
 10
13.0807418813
 20
13.5830803354
 30
0.0
 10
13.0792373647
 20
13.5802404843
 30
0.0
  0
SPLINE
  5
6D8
100
AcDbEntity
  8
0
100
AcDbSpline
 62
7
  6
CONTINUOUS
 70
0
 71
3
 72
9
 73
5
 74
0
 42
0.0000001
 43
0.0000001
 44
0.0000000001
 40
0.0
 40
0.0
 40
0.0
 40
0.0
 40
0.4402121616
 40
1.0
 40
1.0
 40
1.0
 40
1.0
 10
13.225150929
 20
13.7144560415
 30
0.0
 10
13.2248345634
 20
13.7149055029
 30
0.0
 10
13.2243282405
 20
13.7160781921
 30
0.0
 10
13.2241987062
 20
13.717333871
 30
0.0
 10
13.2241864144
 20
13.7180327011
 30
0.0
  0
LINE
  5
6D9
100
AcDbEntity
  8
0
100
AcDbLine
 62
7
  6
CONTINUOUS
 10
12.9276146789
 20
13.402755904
 11
12.9248468283
 21
13.3934506469
  0
LINE
  5
6DA
100
AcDbEntity
  8
0
100
AcDbLine
 62
7
  6
CONTINUOUS
 10
12.8835652542
 20
13.2598634238
 11
12.8779910826
 21
13.2421738875
  0
SPLINE
  5
6DB
100
AcDbEntity
  8
0
100
AcDbSpline
 62
7
  6
CONTINUOUS
 70
0
 71
3
 72
9
 73
5
 74
0
 42
0.0000001
 43
0.0000001
 44
0.0000000001
 40
0.0
 40
0.0
 40
0.0
 40
0.0
 40
0.496723574
 40
1.0
 40
1.0
 40
1.0
 40
1.0
 10
14.6402986762
 20
13.3449444997
 30
0.0
 10
14.6395763772
 20
13.3464751756
 30
0.0
 10
14.6376154366
 20
13.3493204596
 30
0.0
 10
14.6351179184
 20
13.3516658669
 30
0.0
 10
14.6337698046
 20
13.3527257513
 30
0.0
  0
SPLINE
  5
6DC
100
AcDbEntity
  8
0
100
AcDbSpline
 62
7
  6
CONTINUOUS
 70
0
 71
3
 72
13
 73
9
 74
0
 42
0.0000001
 43
0.0000001
 44
0.0000000001
 40
0.0
 40
0.0
 40
0.0
 40
0.0
 40
0.1301187034
 40
0.2728382996
 40
0.4155895548
 40
0.5518739134
 40
0.7967025228
 40
1.0
 40
1.0
 40
1.0
 40
1.0
 10
12.9579467373
 20
12.4686700193
 30
0.0
 10
12.9582192228
 20
12.4695517828
 30
0.0
 10
12.9589292268
 20
12.471357541
 30
0.0
 10
12.9602402055
 20
12.4739999285
 30
0.0
 10
12.9617529187
 20
12.4765832036
 30
0.0
 10
12.9638071248
 20
12.4796811394
 30
0.0
 10
12.9663495279
 20
12.4829628002
 30
0.0
 10
12.968549424
 20
12.4852702322
 30
0.0
 10
12.9696240105
 20
12.4862317303
 30
0.0
  0
SPLINE
  5
6DD
100
AcDbEntity
  8
0
100
AcDbSpline
 62
7
  6
CONTINUOUS
 70
0
 71
3
 72
11
 73
7
 74
0
 42
0.0000001
 43
0.0000001
 44
0.0000000001
 40
0.0
 40
0.0
 40
0.0
 40
0.0
 40
0.2917501095
 40
0.5591041428
 40
0.7960687666
 40
1.0
 40
1.0
 40
1.0
 40
1.0
 10
15.2179590765
 20
13.3449444997
 30
0.0
 10
15.2185832135
 20
13.3460950847
 30
0.0
 10
15.2198576406
 20
13.3482582645
 30
0.0
 10
15.2218583265
 20
13.3512196185
 30
0.0
 10
15.2238017313
 20
13.3537361794
 30
0.0
 10
15.2251206655
 20
13.3552141868
 30
0.0
 10
15.2257647093
 20
13.3558640759
 30
0.0
  0
SPLINE
  5
6DE
100
AcDbEntity
  8
0
100
AcDbSpline
 62
7
  6
CONTINUOUS
 70
0
 71
3
 72
9
 73
5
 74
0
 42
0.0000001
 43
0.0000001
 44
0.0000000001
 40
0.0
 40
0.0
 40
0.0
 40
0.0
 40
0.4964636647
 40
1.0
 40
1.0
 40
1.0
 40
1.0
 10
15.2126836194
 20
13.3383023649
 30
0.0
 10
15.2137335219
 20
13.3392417088
 30
0.0
 10
15.2156896981
 20
13.3413169969
 30
0.0
 10
15.2172777769
 20
13.3436885367
 30
0.0
 10
15.2179590765
 20
13.3449444997
 30
0.0
  0
SPLINE
  5
6DF
100
AcDbEntity
  8
02___PRT_ALL_AXES
100
AcDbSpline
 62
7
  6
CONTINUOUS
 70
0
 71
3
 72
9
 73
5
 74
0
 42
0.0000001
 43
0.0000001
 44
0.0000000001
 40
0.0
 40
0.0
 40
0.0
 40
0.0
 40
0.2450685706
 40
1.0
 40
1.0
 40
1.0
 40
1.0
 10
14.4954906075
 20
13.8481528441
 30
0.0
 10
14.4987357588
 20
13.8474445238
 30
0.0
 10
14.5120197163
 20
13.8447493341
 30
0.0
 10
14.525455631
 20
13.8428157402
 30
0.0
 10
14.5356316774
 20
13.8417469718
 30
0.0
  0
SPLINE
  5
6E0
100
AcDbEntity
  8
02___PRT_ALL_AXES
100
AcDbSpline
 62
7
  6
CONTINUOUS
 70
0
 71
3
 72
9
 73
5
 74
0
 42
0.0000001
 43
0.0000001
 44
0.0000000001
 40
0.0
 40
0.0
 40
0.0
 40
0.0
 40
0.2458587471
 40
1.0
 40
1.0
 40
1.0
 40
1.0
 10
14.5356316774
 20
13.8417469718
 30
0.0
 10
14.5391861413
 20
13.841373654
 30
0.0
 10
14.5536634433
 20
13.8400492859
 30
0.0
 10
14.5682086839
 20
13.8394886919
 30
0.0
 10
14.5791714935
 20
13.839460185
 30
0.0
  0
SPLINE
  5
6E1
100
AcDbEntity
  8
0
100
AcDbSpline
 62
7
  6
CONTINUOUS
 70
0
 71
3
 72
22
 73
18
 74
0
 42
0.0000001
 43
0.0000001
 44
0.0000000001
 40
0.0
 40
0.0
 40
0.0
 40
0.0
 40
0.0507296234
 40
0.1022092226
 40
0.1549617809
 40
0.2094940363
 40
0.2661627314
 40
0.3251491333
 40
0.3864914599
 40
0.4500986369
 40
0.5830072346
 40
0.6517816606
 40
0.7214872112
 40
0.7916394721
 40
0.8617692333
 40
0.9314152721
 40
1.0
 40
1.0
 40
1.0
 40
1.0
 10
14.6435044408
 20
13.3383023649
 30
0.0
 10
14.6483879493
 20
13.3285285251
 30
0.0
 10
14.6599205745
 20
13.3096352308
 30
0.0
 10
14.6818593088
 20
13.2842971847
 30
0.0
 10
14.7081816411
 20
13.2622527478
 30
0.0
 10
14.7384448817
 20
13.2438212897
 30
0.0
 10
14.7721948886
 20
13.2292420712
 30
0.0
 10
14.8089338822
 20
13.2187162887
 30
0.0
 10
14.8481282312
 20
13.2123714838
 30
0.0
 10
14.9036815133
 20
13.2095685536
 30
0.0
 10
14.9609350803
 20
13.2155978995
 30
0.0
 10
15.0177402797
 20
13.2295835175
 30
0.0
 10
15.0602998928
 20
13.2441984611
 30
0.0
 10
15.101676758
 20
13.2625937734
 30
0.0
 10
15.1412895242
 20
13.2845126518
 30
0.0
 10
15.1785387957
 20
13.3096384789
 30
0.0
 10
15.2016750457
 20
13.3284530347
 30
0.0
 10
15.2126836194
 20
13.3383023649
 30
0.0
  0
SPLINE
  5
6E2
100
AcDbEntity
  8
0
100
AcDbSpline
 62
7
  6
CONTINUOUS
 70
0
 71
3
 72
9
 73
5
 74
0
 42
0.0000001
 43
0.0000001
 44
0.0000000001
 40
0.0
 40
0.0
 40
0.0
 40
0.0
 40
0.4896845789
 40
1.0
 40
1.0
 40
1.0
 40
1.0
 10
15.4547958934
 20
14.1714881838
 30
0.0
 10
15.4551742435
 20
14.1727124112
 30
0.0
 10
15.4562875819
 20
14.1751149478
 30
0.0
 10
15.4579164733
 20
14.177190407
 30
0.0
 10
15.4588389024
 20
14.1781559474
 30
0.0
  0
LINE
  5
6E3
100
AcDbEntity
  8
0
100
AcDbLine
 62
7
  6
CONTINUOUS
 10
15.4588389024
 20
14.1781559474
 11
15.461256026
 21
14.1803324982
  0
SPLINE
  5
6E4
100
AcDbEntity
  8
0
100
AcDbSpline
 62
7
  6
CONTINUOUS
 70
0
 71
3
 72
11
 73
7
 74
0
 42
0.0000001
 43
0.0000001
 44
0.0000000001
 40
0.0
 40
0.0
 40
0.0
 40
0.0
 40
0.257647476
 40
0.5077213343
 40
0.7533949137
 40
1.0
 40
1.0
 40
1.0
 40
1.0
 10
15.4168330885
 20
14.0229462792
 30
0.0
 10
15.41601425
 20
14.0240383779
 30
0.0
 10
15.4145580102
 20
14.0263194689
 30
0.0
 10
15.4131371075
 20
14.0300875054
 30
0.0
 10
15.412701905
 20
14.0340402184
 30
0.0
 10
15.4131285816
 20
14.0366527343
 30
0.0
 10
15.4135143199
 20
14.0379009724
 30
0.0
  0
SPLINE
  5
6E5
100
AcDbEntity
  8
0
100
AcDbSpline
 62
7
  6
CONTINUOUS
 70
0
 71
3
 72
10
 73
6
 74
0
 42
0.0000001
 43
0.0000001
 44
0.0000000001
 40
0.0
 40
0.0
 40
0.0
 40
0.0
 40
0.5203570705
 40
0.7708391823
 40
1.0
 40
1.0
 40
1.0
 40
1.0
 10
18.0455952575
 20
12.0214309013
 30
0.0
 10
18.0459896372
 20
12.0246203948
 30
0.0
 10
18.0467081144
 20
12.0293322389
 30
0.0
 10
18.0480212185
 20
12.0353686947
 30
0.0
 10
18.0487939238
 20
12.0382306703
 30
0.0
 10
18.049211792
 20
12.0395828999
 30
0.0
  0
SPLINE
  5
6E6
100
AcDbEntity
  8
0
100
AcDbSpline
 62
7
  6
CONTINUOUS
 70
0
 71
3
 72
11
 73
7
 74
0
 42
0.0000001
 43
0.0000001
 44
0.0000000001
 40
0.0
 40
0.0
 40
0.0
 40
0.0
 40
0.2323225395
 40
0.4774167832
 40
0.7342495967
 40
1.0
 40
1.0
 40
1.0
 40
1.0
 10
15.1231188167
 20
14.0842773954
 30
0.0
 10
15.122718542
 20
14.0829822785
 30
0.0
 10
15.1215240123
 20
14.0804278973
 30
0.0
 10
15.1188658628
 20
14.077031467
 30
0.0
 10
15.1154665043
 20
14.0740797674
 30
0.0
 10
15.1128748948
 20
14.0724536494
 30
0.0
 10
15.1115166585
 20
14.0717055998
 30
0.0
  0
SPLINE
  5
6E7
100
AcDbEntity
  8
0
100
AcDbSpline
 62
7
  6
CONTINUOUS
 70
0
 71
3
 72
10
 73
6
 74
0
 42
0.0000001
 43
0.0000001
 44
0.0000000001
 40
0.0
 40
0.0
 40
0.0
 40
0.0
 40
0.5773930333
 40
0.8087322034
 40
1.0
 40
1.0
 40
1.0
 40
1.0
 10
18.0904933574
 20
12.1731700954
 30
0.0
 10
18.090938495
 20
12.1746105449
 30
0.0
 10
18.0916354707
 20
12.1766104486
 30
0.0
 10
18.0927460286
 20
12.1789755949
 30
0.0
 10
18.0933028233
 20
12.1799314456
 30
0.0
 10
18.0935839546
 20
12.1803442348
 30
0.0
  0
SPLINE
  5
6E8
100
AcDbEntity
  8
0
100
AcDbSpline
 62
7
  6
CONTINUOUS
 70
0
 71
3
 72
9
 73
5
 74
0
 42
0.0000001
 43
0.0000001
 44
0.0000000001
 40
0.0
 40
0.0
 40
0.0
 40
0.0
 40
0.5679321453
 40
1.0
 40
1.0
 40
1.0
 40
1.0
 10
18.0935839546
 20
12.1803442348
 30
0.0
 10
18.0938344091
 20
12.1807119807
 30
0.0
 10
18.0943162059
 20
12.1813340141
 30
0.0
 10
18.0949250898
 20
12.1818447513
 30
0.0
 10
18.0952188538
 20
12.1820129178
 30
0.0
  0
SPLINE
  5
6E9
100
AcDbEntity
  8
0
100
AcDbSpline
 62
7
  6
CONTINUOUS
 70
0
 71
3
 72
10
 73
6
 74
0
 42
0.0000001
 43
0.0000001
 44
0.0000000001
 40
0.0
 40
0.0
 40
0.0
 40
0.0
 40
0.5217544188
 40
0.7712006774
 40
1.0
 40
1.0
 40
1.0
 40
1.0
 10
17.9166932357
 20
12.4374884224
 30
0.0
 10
17.9165397425
 20
12.4406949362
 30
0.0
 10
17.9165730141
 20
12.4454610903
 30
0.0
 10
17.9173817371
 20
12.4515665257
 30
0.0
 10
17.9180539206
 20
12.4544395206
 30
0.0
 10
17.9184695503
 20
12.4557844926
 30
0.0
  0
SPLINE
  5
6EA
100
AcDbEntity
  8
0
100
AcDbSpline
 62
7
  6
CONTINUOUS
 70
0
 71
3
 72
11
 73
7
 74
0
 42
0.0000001
 43
0.0000001
 44
0.0000000001
 40
0.0
 40
0.0
 40
0.0
 40
0.0
 40
0.2532100531
 40
0.5008265553
 40
0.7476094547
 40
1.0
 40
1.0
 40
1.0
 40
1.0
 10
15.1611402548
 20
14.2322876163
 30
0.0
 10
15.1619536009
 20
14.2312749713
 30
0.0
 10
15.1633990591
 20
14.2291284273
 30
0.0
 10
15.1647988172
 20
14.2255171224
 30
0.0
 10
15.1652149985
 20
14.2216634331
 30
0.0
 10
15.1647826201
 20
14.2191015427
 30
0.0
 10
15.1644003901
 20
14.2178646192
 30
0.0
  0
SPLINE
  5
6EB
100
AcDbEntity
  8
0
100
AcDbSpline
 62
7
  6
CONTINUOUS
 70
0
 71
3
 72
11
 73
7
 74
0
 42
0.0000001
 43
0.0000001
 44
0.0000000001
 40
0.0
 40
0.0
 40
0.0
 40
0.0
 40
0.2994388401
 40
0.5661601342
 40
0.7987711149
 40
1.0
 40
1.0
 40
1.0
 40
1.0
 10
17.9597511219
 20
12.5893717028
 30
0.0
 10
17.9600063816
 20
12.5901976859
 30
0.0
 10
17.9605583215
 20
12.5917395144
 30
0.0
 10
17.9615675925
 20
12.593819348
 30
0.0
 10
17.9626906451
 20
12.5955097259
 30
0.0
 10
17.9635568148
 20
12.5964274846
 30
0.0
 10
17.9640013477
 20
12.5968015527
 30
0.0
  0
SPLINE
  5
6EC
100
AcDbEntity
  8
0
100
AcDbSpline
 62
7
  6
CONTINUOUS
 70
0
 71
3
 72
9
 73
5
 74
0
 42
0.0000001
 43
0.0000001
 44
0.0000000001
 40
0.0
 40
0.0
 40
0.0
 40
0.0
 40
0.5233414747
 40
1.0
 40
1.0
 40
1.0
 40
1.0
 10
17.9640013477
 20
12.5968015527
 30
0.0
 10
17.9643557244
 20
12.5970997557
 30
0.0
 10
17.9650875562
 20
12.5976095056
 30
0.0
 10
17.9659117575
 20
12.597952709
 30
0.0
 10
17.966316832
 20
12.5980704389
 30
0.0
  0
SPLINE
  5
6ED
100
AcDbEntity
  8
0
100
AcDbSpline
 62
7
  6
CONTINUOUS
 70
0
 71
3
 72
9
 73
5
 74
0
 42
0.0000001
 43
0.0000001
 44
0.0000000001
 40
0.0
 40
0.0
 40
0.0
 40
0.0
 40
0.4972777326
 40
1.0
 40
1.0
 40
1.0
 40
1.0
 10
16.1048649802
 20
13.9956986951
 30
0.0
 10
16.1052095916
 20
13.9968137526
 30
0.0
 10
16.1061872896
 20
13.9989765996
 30
0.0
 10
16.1076407787
 20
14.0008472304
 30
0.0
 10
16.1084595023
 20
14.0016968137
 30
0.0
  0
SPLINE
  5
6EE
100
AcDbEntity
  8
0
100
AcDbSpline
 62
7
  6
CONTINUOUS
 70
0
 71
3
 72
10
 73
6
 74
0
 42
0.0000001
 43
0.0000001
 44
0.0000000001
 40
0.0
 40
0.0
 40
0.0
 40
0.0
 40
0.5232381401
 40
0.7712601734
 40
1.0
 40
1.0
 40
1.0
 40
1.0
 10
17.6323275023
 20
12.853107714
 30
0.0
 10
17.6316808872
 20
12.8562330852
 30
0.0
 10
17.6310783574
 20
12.8609433557
 30
0.0
 10
17.631420005
 20
12.8670470755
 30
0.0
 10
17.632002124
 20
12.8699133056
 30
0.0
 10
17.632414064
 20
12.8712463355
 30
0.0
  0
SPLINE
  5
6EF
100
AcDbEntity
  8
0
100
AcDbSpline
 62
7
  6
CONTINUOUS
 70
0
 71
3
 72
11
 73
7
 74
0
 42
0.0000001
 43
0.0000001
 44
0.0000000001
 40
0.0
 40
0.0
 40
0.0
 40
0.0
 40
0.2635244673
 40
0.5177730958
 40
0.7625384673
 40
1.0
 40
1.0
 40
1.0
 40
1.0
 10
16.0666878493
 20
13.8460655368
 30
0.0
 10
16.0659000823
 20
13.8473172435
 30
0.0
 10
16.0645090379
 20
13.8498834675
 30
0.0
 10
16.0631624793
 20
13.8539761572
 30
0.0
 10
16.062760051
 20
13.8581268798
 30
0.0
 10
16.0631899284
 20
13.8608381995
 30
0.0
 10
16.0635834067
 20
13.8621114842
 30
0.0
  0
SPLINE
  5
6F0
100
AcDbEntity
  8
0
100
AcDbSpline
 62
7
  6
CONTINUOUS
 70
0
 71
3
 72
11
 73
7
 74
0
 42
0.0000001
 43
0.0000001
 44
0.0000000001
 40
0.0
 40
0.0
 40
0.0
 40
0.0
 40
0.2915051293
 40
0.5512511785
 40
0.7840360148
 40
1.0
 40
1.0
 40
1.0
 40
1.0
 10
17.6736956362
 20
13.0048335457
 30
0.0
 10
17.6740278873
 20
13.0059086407
 30
0.0
 10
17.6748239269
 20
13.0078973225
 30
0.0
 10
17.676503901
 20
13.0104440331
 30
0.0
 10
17.6785401061
 20
13.0123165347
 30
0.0
 10
17.6801093327
 20
13.0131057646
 30
0.0
 10
17.6808958046
 20
13.0133822667
 30
0.0
  0
SPLINE
  5
6F1
100
AcDbEntity
  8
0
100
AcDbSpline
 62
7
  6
CONTINUOUS
 70
0
 71
3
 72
11
 73
7
 74
0
 42
0.0000001
 43
0.0000001
 44
0.0000000001
 40
0.0
 40
0.0
 40
0.0
 40
0.0
 40
0.237899685
 40
0.4826805784
 40
0.7367238487
 40
1.0
 40
1.0
 40
1.0
 40
1.0
 10
15.77735732
 20
13.9519503393
 30
0.0
 10
15.7769642652
 20
13.9506785906
 30
0.0
 10
15.7757919873
 20
13.9482024005
 30
0.0
 10
15.7731201317
 20
13.9450144594
 30
0.0
 10
15.7697025129
 20
13.9424156044
 30
0.0
 10
15.7671094662
 20
13.9410997577
 30
0.0
 10
15.7657550662
 20
13.9405204504
 30
0.0
  0
SPLINE
  5
6F2
100
AcDbEntity
  8
0
100
AcDbSpline
 62
7
  6
CONTINUOUS
 70
0
 71
3
 72
12
 73
8
 74
0
 42
0.0000001
 43
0.0000001
 44
0.0000000001
 40
0.0
 40
0.0
 40
0.0
 40
0.0
 40
0.2616362991
 40
0.5102888406
 40
0.632400921
 40
0.7542544115
 40
1.0
 40
1.0
 40
1.0
 40
1.0
 10
16.98369389
 20
13.4173162218
 30
0.0
 10
16.9833164134
 20
13.4160948599
 30
0.0
 10
16.9822816807
 20
13.4137897972
 30
0.0
 10
16.980276996
 20
13.4113853126
 30
0.0
 10
16.9783840701
 20
13.409887893
 30
0.0
 10
16.976322628
 20
13.4086619733
 30
0.0
 10
16.9746220171
 20
13.4080301985
 30
0.0
 10
16.9734629089
 20
13.4077168312
 30
0.0
  0
SPLINE
  5
6F3
100
AcDbEntity
  8
0
100
AcDbSpline
 62
7
  6
CONTINUOUS
 70
0
 71
3
 72
10
 73
6
 74
0
 42
0.0000001
 43
0.0000001
 44
0.0000000001
 40
0.0
 40
0.0
 40
0.0
 40
0.0
 40
0.2659667556
 40
0.6495375749
 40
1.0
 40
1.0
 40
1.0
 40
1.0
 10
17.2103658022
 20
13.2421738875
 30
0.0
 10
17.2098304205
 20
13.2436770798
 30
0.0
 10
17.2086996324
 20
13.2474149603
 30
0.0
 10
17.2078763488
 20
13.2533998418
 30
0.0
 10
17.2083984528
 20
13.2578545441
 30
0.0
 10
17.2090192522
 20
13.2598634358
 30
0.0
  0
SPLINE
  5
6F4
100
AcDbEntity
  8
0
100
AcDbSpline
 62
7
  6
CONTINUOUS
 70
0
 71
3
 72
12
 73
8
 74
0
 42
0.0000001
 43
0.0000001
 44
0.0000000001
 40
0.0
 40
0.0
 40
0.0
 40
0.0
 40
0.2703009795
 40
0.5213522581
 40
0.6423843386
 40
0.7618545129
 40
1.0
 40
1.0
 40
1.0
 40
1.0
 10
17.250300825
 20
13.3934506462
 30
0.0
 10
17.2506749443
 20
13.3946612
 30
0.0
 10
17.2516673298
 20
13.3969267013
 30
0.0
 10
17.2535829138
 20
13.3993016272
 30
0.0
 10
17.2553813411
 20
13.4007534104
 30
0.0
 10
17.2573107768
 20
13.4019099263
 30
0.0
 10
17.2589062221
 20
13.4024859215
 30
0.0
 10
17.2599893984
 20
13.402755904
 30
0.0
  0
SPLINE
  5
6F5
100
AcDbEntity
  8
0
100
AcDbSpline
 62
7
  6
CONTINUOUS
 70
0
 71
3
 72
9
 73
5
 74
0
 42
0.0000001
 43
0.0000001
 44
0.0000000001
 40
0.0
 40
0.0
 40
0.0
 40
0.0
 40
0.2557373547
 40
1.0
 40
1.0
 40
1.0
 40
1.0
 10
16.451904287
 20
13.8690068159
 30
0.0
 10
16.4520403599
 20
13.8685450588
 30
0.0
 10
16.4525174916
 20
13.8667242392
 30
0.0
 10
16.4527640936
 20
13.864839034
 30
0.0
 10
16.4527834038
 20
13.8634381991
 30
0.0
  0
SPLINE
  5
6F6
100
AcDbEntity
  8
0
100
AcDbSpline
 62
7
  6
CONTINUOUS
 70
0
 71
3
 72
9
 73
5
 74
0
 42
0.0000001
 43
0.0000001
 44
0.0000000001
 40
0.0
 40
0.0
 40
0.0
 40
0.0
 40
0.2555989318
 40
1.0
 40
1.0
 40
1.0
 40
1.0
 10
16.4527834038
 20
13.8634381991
 30
0.0
 10
16.4527893169
 20
13.8630092376
 30
0.0
 10
16.4527526665
 20
13.8613311494
 30
0.0
 10
16.4524669883
 20
13.8596548785
 30
0.0
 10
16.4520981086
 20
13.8584611569
 30
0.0
  0
SPLINE
  5
6F7
100
AcDbEntity
  8
0
100
AcDbSpline
 62
7
  6
CONTINUOUS
 70
0
 71
3
 72
11
 73
7
 74
0
 42
0.0000001
 43
0.0000001
 44
0.0000000001
 40
0.0
 40
0.0
 40
0.0
 40
0.0
 40
0.2473121472
 40
0.4930993115
 40
0.7428638848
 40
1.0
 40
1.0
 40
1.0
 40
1.0
 10
16.4108165351
 20
13.7248739328
 30
0.0
 10
16.4104312423
 20
13.7236272947
 30
0.0
 10
16.4093139471
 20
13.7212347953
 30
0.0
 10
16.4067332514
 20
13.7182267288
 30
0.0
 10
16.4034464699
 20
13.7159342948
 30
0.0
 10
16.4009672974
 20
13.7148876059
 30
0.0
 10
16.3996811181
 20
13.7144560415
 30
0.0
  0
SPLINE
  5
6F8
100
AcDbEntity
  8
0
100
AcDbSpline
 62
7
  6
CONTINUOUS
 70
0
 71
3
 72
11
 73
7
 74
0
 42
0.0000001
 43
0.0000001
 44
0.0000000001
 40
0.0
 40
0.0
 40
0.0
 40
0.0
 40
0.2658133786
 40
0.522773764
 40
0.7679159174
 40
1.0
 40
1.0
 40
1.0
 40
1.0
 10
16.6773215407
 20
13.5802404843
 30
0.0
 10
16.6766297124
 20
13.5816322266
 30
0.0
 10
16.6754220058
 20
13.5844512613
 30
0.0
 10
16.6742982896
 20
13.5888214511
 30
0.0
 10
16.6740307719
 20
13.5931341105
 30
0.0
 10
16.6744879152
 20
13.5959210506
 30
0.0
 10
16.674888568
 20
13.597217552
 30
0.0
  0
SPLINE
  5
6F9
100
AcDbEntity
  8
0
100
AcDbSpline
 62
7
  6
CONTINUOUS
 70
0
 71
3
 72
9
 73
5
 74
0
 42
0.0000001
 43
0.0000001
 44
0.0000000001
 40
0.0
 40
0.0
 40
0.0
 40
0.0
 40
0.2518555034
 40
1.0
 40
1.0
 40
1.0
 40
1.0
 10
15.8192735185
 20
14.0904090364
 30
0.0
 10
15.8192877925
 20
14.0899957921
 30
0.0
 10
15.819279466
 20
14.0883536052
 30
0.0
 10
15.8190015344
 20
14.0867110964
 30
0.0
 10
15.8186388934
 20
14.0855375632
 30
0.0
  0
SPLINE
  5
6FA
100
AcDbEntity
  8
0
100
AcDbSpline
 62
7
  6
CONTINUOUS
 70
0
 71
3
 72
11
 73
7
 74
0
 42
0.0000001
 43
0.0000001
 44
0.0000000001
 40
0.0
 40
0.0
 40
0.0
 40
0.0
 40
0.254693234
 40
0.5033661003
 40
0.7503122993
 40
1.0
 40
1.0
 40
1.0
 40
1.0
 10
16.7161701412
 20
13.7308047626
 30
0.0
 10
16.7164886293
 20
13.7318352977
 30
0.0
 10
16.7173461539
 20
13.733810297
 30
0.0
 10
16.719251194
 20
13.7363860375
 30
0.0
 10
16.7216614716
 20
13.7384619661
 30
0.0
 10
16.7235170438
 20
13.7394829783
 30
0.0
 10
16.7244829983
 20
13.7399131969
 30
0.0
  0
LINE
  5
6FB
100
AcDbEntity
  8
0
100
AcDbLine
 62
7
  6
CONTINUOUS
 10
16.7244829983
 20
13.7399131969
 11
16.726945137
 21
13.7408225008
  0
ENDSEC
  0
SECTION
  2
OBJECTS
  0
DICTIONARY
  5
C
100
AcDbDictionary
280
0
281
1
  3
ACAD_GROUP
350
D
  3
ACAD_MLINESTYLE
350
17
  3
ACAD_LAYOUT
350
1A
  3
ACAD_PLOTSETTINGS
350
19
  3
ACAD_PLOTSTYLENAME
350
E
  0
DICTIONARY
  5
D
102
{ACAD_REACTORS
330
C
102
}
100
AcDbDictionary
280
0
281
1
  0
ACDBDICTIONARYWDFLT
  5
E
102
{ACAD_REACTORS
330
C
102
}
100
AcDbDictionary
281
1
  3
Normal
350
F
100
AcDbDictionaryWithDefault
340
F
  0
DICTIONARY
  5
17
102
{ACAD_REACTORS
330
C
102
}
100
AcDbDictionary
280
0
281
1
  3
Standard
350
18
  0
DICTIONARY
  5
19
102
{ACAD_REACTORS
330
C
102
}
100
AcDbDictionary
281
1
  0
DICTIONARY
  5
1A
102
{ACAD_REACTORS
330
C
102
}
100
AcDbDictionary
281
1
  3
Model
350
6FC
  3
Layout1
350
6FD
  0
ACDBPLACEHOLDER
  5
F
102
{ACAD_REACTORS
330
E
102
}
  0
MLINESTYLE
  5
18
102
{ACAD_REACTORS
330
17
102
}
100
AcDbMlineStyle
  2
STANDARD
 70
0
  3

 62
256
 51
90.0
 52
90.0
 71
2
 49
0.5
 62
256
  6
BYLAYER
 49
-0.5
 62
256
  6
BYLAYER
  0
LAYOUT
  5
6FC
102
{ACAD_REACTORS
330
1A
102
}
100
AcDbPlotSettings
  1

  2
none_device
  4
ANSI_C_(22.00_x_17.00_Inches)
  6

 40
0.0
 41
0.0
 42
0.0
 43
0.0
 44
558.8
 45
431.8
 46
0.0
 47
0.0
 48
0.0
 49
0.0
140
0.0
141
0.0
142
1.0
143
1.0
 70
1024
 72
0
 73
0
 74
0
  7

 75
0
147
1.0
148
0.0
149
0.0
100
AcDbLayout
  1
Model
 70
0
 71
0
 10
0.0
 20
0.0
 11
22.0
 21
17.0
 12
0.0
 22
0.0
 32
0.0
 14
0.0
 24
0.0
 34
0.0
 15
0.0
 25
0.0
 35
0.0
146
0.0
 13
0.0
 23
0.0
 33
0.0
 16
1.0
 26
0.0
 36
0.0
 17
0.0
 27
1.0
 37
0.0
 76
0
330
217
345
0
346
0
  0
LAYOUT
  5
6FD
102
{ACAD_REACTORS
330
1A
102
}
100
AcDbPlotSettings
  1

  2
none_device
  4
ANSI_C_(22.00_x_17.00_Inches)
  6

 40
0.0
 41
0.0
 42
0.0
 43
0.0
 44
558.8
 45
431.8
 46
0.0
 47
0.0
 48
0.0
 49
0.0
140
0.0
141
0.0
142
1.0
143
1.0
 70
0
 72
0
 73
0
 74
0
  7

 75
0
147
1.0
148
0.0
149
0.0
100
AcDbLayout
  1
Layout1
 70
0
 71
1
 10
0.0
 20
0.0
 11
22.0
 21
17.0
 12
0.0
 22
0.0
 32
0.0
 14
0.0
 24
0.0
 34
0.0
 15
0.0
 25
0.0
 35
0.0
146
0.0
 13
0.0
 23
0.0
 33
0.0
 16
1.0
 26
0.0
 36
0.0
 17
0.0
 27
1.0
 37
0.0
 76
0
330
218
345
0
346
0
  0
ENDSEC
  0
EOF