999
DXF file: _cgs_temp_output.dxf
999
Pro/ENGINEER 2015110 by Parametric Technology Corporation
  0
SECTION
  2
HEADER
  9
$ACADVER
  1
AC1021
  9
$DWGCODEPAGE
  3
ANSI_1252
  9
$EXTMAX
 10
22.0
 20
17.0
 30
0.0
  9
$EXTMIN
 10
0.0
 20
0.0
 30
0.0
  9
$LIMMIN
 10
0.0
 20
0.0
  9
$LIMMAX
 10
22.0
 20
17.0
  9
$VIEWCTR
 10
11.0
 20
8.5
  9
$VIEWSIZE
 40
17.0
  9
$CLAYER
  8
0
  9
$LTSCALE
 40
1.21
  9
$CELTYPE
  6
BYLAYER
  9
$DIMSCALE
 40
1.0
  9
$DIMASZ
 40
0.1875
  9
$DIMEXO
 40
0.0625
  9
$DIMDLI
 40
0.836
  9
$DIMEXE
 40
0.125
  9
$DIMCEN
 40
0.198
  9
$DIMLFAC
 40
1.0
  9
$DIMBLK
  1
_CLOSED
  9
$DIMALT
 70
0
  9
$DIMALTF
 40
25.4
  9
$DIMTXT
 40
0.15625
  9
$DIMTOL
 70
0
  9
$DIMLIM
 70
0
  9
$DIMTFAC
 40
1.0
  9
$DIMGAP
 40
0.09
  9
$DIMDSEP
 70
46
  9
$AUNITS
 70
0
  9
$PDMODE
 70
3
  9
$PDSIZE
 40
0.3125
  9
$HANDSEED
  5
30E
  9
$TILEMODE
 70
1
  9
$MEASUREMENT
 70
0
  9
$INSUNITS
 70
1
  0
ENDSEC
  0
SECTION
  2
CLASSES
  0
CLASS
  1
ACDBDICTIONARYWDFLT
  2
AcDbDictionaryWithDefault
  3
AutoCAD 2000
 90
0
 91
1
280
0
281
0
  0
CLASS
  1
ACDBPLACEHOLDER
  2
AcDbPlaceHolder
  3
AutoCAD 2000
 90
0
 91
1
280
0
281
0
  0
CLASS
  1
LAYOUT
  2
AcDbLayout
  3
AutoCAD 2000
 90
0
 91
0
280
0
281
0
  0
ENDSEC
  0
SECTION
  2
TABLES
  0
TABLE
  2
VPORT
  5
8
100
AcDbSymbolTable
 70
2
  0
VPORT
  5
1F4
100
AcDbSymbolTableRecord
100
AcDbViewportTableRecord
  2
*ACTIVE
 70
0
 10
0.0
 20
0.0
 11
1.0
 21
1.0
 12
11.0
 22
8.5
 13
0.0
 23
0.0
 14
1.0
 24
1.0
 15
0.0
 25
0.0
 16
0.0
 26
0.0
 36
1.0
 17
0.0
 27
0.0
 37
0.0
 40
17.0
 41
1.2941176471
 42
50.0
 43
0.0
 44
0.0
 50
0.0
 51
0.0
 71
0
 72
100
 73
1
 74
1
 75
0
 76
0
 77
0
 78
0
  0
ENDTAB
  0
TABLE
  2
LTYPE
  5
5
100
AcDbSymbolTable
 70
6
  0
LTYPE
  5
14
100
AcDbSymbolTableRecord
100
AcDbLinetypeTableRecord
  2
BYBLOCK
 70
0
  3

 72
65
 73
0
 40
0.0
  0
LTYPE
  5
15
100
AcDbSymbolTableRecord
100
AcDbLinetypeTableRecord
  2
BYLAYER
 70
0
  3

 72
65
 73
0
 40
0.0
  0
LTYPE
  5
16
100
AcDbSymbolTableRecord
100
AcDbLinetypeTableRecord
  2
CONTINUOUS
 70
64
  3
Solid line
 72
65
 73
0
 40
0.0
  0
LTYPE
  5
1F5
100
AcDbSymbolTableRecord
100
AcDbLinetypeTableRecord
  2
CENTER
 70
64
  3
____ _ ____ _ ____ _ ____ _ ____ _ ____ _ ____
 72
65
 73
4
 40
0.6
 49
0.375
 74
0
 49
-0.075
 74
0
 49
0.075
 74
0
 49
-0.075
 74
0
  0
LTYPE
  5
1F6
100
AcDbSymbolTableRecord
100
AcDbLinetypeTableRecord
  2
HIDDEN
 70
64
  3
- - - - - - - - - - - - - - - - - - - -
 72
65
 73
2
 40
0.2
 49
0.1
 74
0
 49
-0.1
 74
0
  0
LTYPE
  5
1F7
100
AcDbSymbolTableRecord
100
AcDbLinetypeTableRecord
  2
PHANTOM
 70
64
  3
_____ _ _ _____ _ _ _____ _ _ _____
 72
65
 73
6
 40
0.8
 49
0.45
 74
0
 49
-0.05
 74
0
 49
0.1
 74
0
 49
-0.05
 74
0
 49
0.1
 74
0
 49
-0.05
 74
0
  0
LTYPE
  5
1F8
100
AcDbSymbolTableRecord
100
AcDbLinetypeTableRecord
  2
DOT
 70
64
  3
. . . . . . . . . . . . . . . . . . . .
 72
65
 73
2
 40
0.2
 49
0.1
 74
0
 49
-0.1
 74
0
  0
LTYPE
  5
1F9
100
AcDbSymbolTableRecord
100
AcDbLinetypeTableRecord
  2
DASHED
 70
64
  3
- - - - - - - - - - - - - - - - - - - -
 72
65
 73
2
 40
0.2
 49
0.1
 74
0
 49
-0.1
 74
0
  0
ENDTAB
  0
TABLE
  2
LAYER
  5
2
100
AcDbSymbolTable
 70
36
  0
LAYER
  5
10
100
AcDbSymbolTableRecord
100
AcDbLayerTableRecord
  2
0
 70
0
 62
7
  6
CONTINUOUS
370
-3
390
F
  0
LAYER
  5
1FA
100
AcDbSymbolTableRecord
100
AcDbLayerTableRecord
  2
DEFAULT_1
 70
0
 62
7
  6
CENTER
370
-3
390
F
  0
LAYER
  5
1FB
100
AcDbSymbolTableRecord
100
AcDbLayerTableRecord
  2
DEFAULT_2
 70
0
 62
8
  6
HIDDEN
370
-3
390
F
  0
LAYER
  5
1FC
100
AcDbSymbolTableRecord
100
AcDbLayerTableRecord
  2
DEFAULT_3
 70
0
 62
7
  6
PHANTOM
370
-3
390
F
  0
LAYER
  5
1FD
100
AcDbSymbolTableRecord
100
AcDbLayerTableRecord
  2
01_ALL_DTM_PLN
 70
0
 62
7
  6
CONTINUOUS
370
-3
390
F
  0
LAYER
  5
1FE
100
AcDbSymbolTableRecord
100
AcDbLayerTableRecord
  2
01__ASM_ALL_DTM_PLN
 70
0
 62
7
  6
CONTINUOUS
370
-3
390
F
  0
LAYER
  5
1FF
100
AcDbSymbolTableRecord
100
AcDbLayerTableRecord
  2
01__ASM_DEF_DTM_PLN
 70
0
 62
7
  6
CONTINUOUS
370
-3
390
F
  0
LAYER
  5
200
100
AcDbSymbolTableRecord
100
AcDbLayerTableRecord
  2
01___PRT_ALL_DTM_PLN
 70
0
 62
7
  6
CONTINUOUS
370
-3
390
F
  0
LAYER
  5
201
100
AcDbSymbolTableRecord
100
AcDbLayerTableRecord
  2
01___PRT_DEF_DTM_PLN
 70
0
 62
7
  6
CONTINUOUS
370
-3
390
F
  0
LAYER
  5
202
100
AcDbSymbolTableRecord
100
AcDbLayerTableRecord
  2
02_ALL_AXES
 70
0
 62
7
  6
CONTINUOUS
370
-3
390
F
  0
LAYER
  5
203
100
AcDbSymbolTableRecord
100
AcDbLayerTableRecord
  2
02__ASM_ALL_AXES
 70
0
 62
7
  6
CONTINUOUS
370
-3
390
F
  0
LAYER
  5
204
100
AcDbSymbolTableRecord
100
AcDbLayerTableRecord
  2
02___PRT_ALL_AXES
 70
0
 62
7
  6
CONTINUOUS
370
-3
390
F
  0
LAYER
  5
205
100
AcDbSymbolTableRecord
100
AcDbLayerTableRecord
  2
03_ALL_CURVES
 70
0
 62
7
  6
CONTINUOUS
370
-3
390
F
  0
LAYER
  5
206
100
AcDbSymbolTableRecord
100
AcDbLayerTableRecord
  2
03__ASM_ALL_CURVES
 70
0
 62
7
  6
CONTINUOUS
370
-3
390
F
  0
LAYER
  5
207
100
AcDbSymbolTableRecord
100
AcDbLayerTableRecord
  2
03___PRT_ALL_CURVES
 70
0
 62
7
  6
CONTINUOUS
370
-3
390
F
  0
LAYER
  5
208
100
AcDbSymbolTableRecord
100
AcDbLayerTableRecord
  2
04_ALL_DTM_PNT
 70
0
 62
7
  6
CONTINUOUS
370
-3
390
F
  0
LAYER
  5
209
100
AcDbSymbolTableRecord
100
AcDbLayerTableRecord
  2
04__ASM_ALL_DTM_PNT
 70
0
 62
7
  6
CONTINUOUS
370
-3
390
F
  0
LAYER
  5
20A
100
AcDbSymbolTableRecord
100
AcDbLayerTableRecord
  2
04___PRT_ALL_DTM_PNT
 70
0
 62
7
  6
CONTINUOUS
370
-3
390
F
  0
LAYER
  5
20B
100
AcDbSymbolTableRecord
100
AcDbLayerTableRecord
  2
05_ALL_DTM_CSYS
 70
0
 62
7
  6
CONTINUOUS
370
-3
390
F
  0
LAYER
  5
20C
100
AcDbSymbolTableRecord
100
AcDbLayerTableRecord
  2
05__ASM_ALL_DTM_CSYS
 70
0
 62
7
  6
CONTINUOUS
370
-3
390
F
  0
LAYER
  5
20D
100
AcDbSymbolTableRecord
100
AcDbLayerTableRecord
  2
05__ASM_DEF_DTM_CSYS
 70
0
 62
7
  6
CONTINUOUS
370
-3
390
F
  0
LAYER
  5
20E
100
AcDbSymbolTableRecord
100
AcDbLayerTableRecord
  2
05___PRT_ALL_DTM_CSYS
 70
0
 62
7
  6
CONTINUOUS
370
-3
390
F
  0
LAYER
  5
20F
100
AcDbSymbolTableRecord
100
AcDbLayerTableRecord
  2
05___PRT_DEF_DTM_CSYS
 70
0
 62
7
  6
CONTINUOUS
370
-3
390
F
  0
LAYER
  5
210
100
AcDbSymbolTableRecord
100
AcDbLayerTableRecord
  2
06_ALL_SURFS
 70
0
 62
7
  6
CONTINUOUS
370
-3
390
F
  0
LAYER
  5
211
100
AcDbSymbolTableRecord
100
AcDbLayerTableRecord
  2
06__ASM_ALL_SURFS
 70
0
 62
7
  6
CONTINUOUS
370
-3
390
F
  0
LAYER
  5
212
100
AcDbSymbolTableRecord
100
AcDbLayerTableRecord
  2
06___PRT_ALL_SURFS
 70
0
 62
7
  6
CONTINUOUS
370
-3
390
F
  0
LAYER
  5
213
100
AcDbSymbolTableRecord
100
AcDbLayerTableRecord
  2
07__ASM_ALL_SKELETONS
 70
0
 62
7
  6
CONTINUOUS
370
-3
390
F
  0
LAYER
  5
214
100
AcDbSymbolTableRecord
100
AcDbLayerTableRecord
  2
LAYER_DIM
 70
0
 62
7
  6
CONTINUOUS
370
-3
390
F
  0
LAYER
  5
215
100
AcDbSymbolTableRecord
100
AcDbLayerTableRecord
  2
LAYER_FEATURE
 70
0
 62
7
  6
CONTINUOUS
370
-3
390
F
  0
LAYER
  5
216
100
AcDbSymbolTableRecord
100
AcDbLayerTableRecord
  2
LAYER_GEOM_FEAT
 70
0
 62
7
  6
CONTINUOUS
370
-3
390
F
  0
LAYER
  5
217
100
AcDbSymbolTableRecord
100
AcDbLayerTableRecord
  2
LAYER_PARAMETER_DIM
 70
0
 62
7
  6
CONTINUOUS
370
-3
390
F
  0
LAYER
  5
218
100
AcDbSymbolTableRecord
100
AcDbLayerTableRecord
  2
LAYER_PROTRUSION_FEAT
 70
0
 62
7
  6
CONTINUOUS
370
-3
390
F
  0
LAYER
  5
219
100
AcDbSymbolTableRecord
100
AcDbLayerTableRecord
  2
LAYER_ROUND_FEAT
 70
0
 62
7
  6
CONTINUOUS
370
-3
390
F
  0
ENDTAB
  0
TABLE
  2
STYLE
  5
3
100
AcDbSymbolTable
 70
1
  0
STYLE
  5
11
100
AcDbSymbolTableRecord
100
AcDbTextStyleTableRecord
  2
STANDARD
 70
0
 40
0.0
 41
0.8
 50
0.0
 71
0
 42
0.2
  3
txt
  4

  0
STYLE
  5
21A
100
AcDbSymbolTableRecord
100
AcDbTextStyleTableRecord
  2
TEXTSTYLE_1
 70
0
 40
0.0
 41
0.8
 50
0.0
 71
0
 42
0.2
  3
gdt
  4

  0
ENDTAB
  0
TABLE
  2
VIEW
  5
6
100
AcDbSymbolTable
 70
0
  0
ENDTAB
  0
TABLE
  2
UCS
  5
7
100
AcDbSymbolTable
 70
0
  0
ENDTAB
  0
TABLE
  2
APPID
  5
9
100
AcDbSymbolTable
 70
1
  0
APPID
  5
21B
100
AcDbSymbolTableRecord
100
AcDbRegAppTableRecord
  2
ACAD
 70
0
  0
ENDTAB
  0
TABLE
  2
BLOCK_RECORD
  5
1
100
AcDbSymbolTable
 70
0
  0
BLOCK_RECORD
  5
21C
100
AcDbSymbolTableRecord
100
AcDbBlockTableRecord
  2
*Model_Space
  0
BLOCK_RECORD
  5
21D
100
AcDbSymbolTableRecord
100
AcDbBlockTableRecord
  2
*Paper_Space
  0
ENDTAB
  0
TABLE
  2
DIMSTYLE
  5
A
100
AcDbSymbolTable
 70
1
100
AcDbDimStyleTable
 71
0
  0
DIMSTYLE
105
21E
100
AcDbSymbolTableRecord
100
AcDbDimStyleTableRecord
  2
STANDARD
 70
0
  3

  4

 40
1.0
 41
0.1875
 42
0.0625
 43
0.38
 44
0.125
 45
0.0
 46
0.0
 47
0.0001
 48
0.0001
140
0.15625
141
0.09
142
0.0
143
25.4
144
1.0
145
0.0
146
1.0
147
0.09
 71
0.0
 72
0.0
 73
1
 74
1
 75
0
 76
0
 77
0
 78
4
170
0
171
2
172
0
173
0
174
0
175
0
176
0
177
0
178
0
270
2
271
4
272
4
273
2
274
2
275
0
280
0
281
0
282
0
283
1
284
4
285
0
286
0
287
3
288
0
340
11
278
46
  0
ENDTAB
  0
ENDSEC
  0
SECTION
  2
BLOCKS
  0
BLOCK
  5
20
100
AcDbEntity
  8
0
100
AcDbBlockBegin
  2
*Model_Space
 70
0
 10
0.0
 20
0.0
 30
0.0
  3
*Model_Space
  1

  0
ENDBLK
  5
21
100
AcDbEntity
  8
0
100
AcDbBlockEnd
  0
BLOCK
  5
1C
100
AcDbEntity
  8
0
100
AcDbBlockBegin
  2
*Paper_Space
 70
0
 10
0.0
 20
0.0
 30
0.0
  3
*Paper_Space
  1

  0
ENDBLK
  5
1D
100
AcDbEntity
  8
0
100
AcDbBlockEnd
  0
ENDSEC
  0
SECTION
  2
ENTITIES
  0
MTEXT
  5
21F
100
AcDbEntity
  8
0
100
AcDbMText
 62
7
  6
CONTINUOUS
  7
STANDARD
 71
1
 72
1
 10
15.9560215477
 20
0.9479130325
 30
0.0
 11
1.0
 21
0.0
 31
0.0
 44
0.9
  1
SCALE: 1:0.500
 40
0.3
 41
3.36
  0
LINE
  5
220
100
AcDbEntity
  8
0
100
AcDbLine
 62
7
  6
CONTINUOUS
 10
0.0
 20
0.0
 11
0.0
 21
17.0
  0
LINE
  5
221
100
AcDbEntity
  8
0
100
AcDbLine
 62
7
  6
CONTINUOUS
 10
0.0
 20
0.0
 11
22.0
 21
0.0
  0
LINE
  5
222
100
AcDbEntity
  8
0
100
AcDbLine
 62
7
  6
CONTINUOUS
 10
0.0
 20
17.0
 11
22.0
 21
17.0
  0
LINE
  5
223
100
AcDbEntity
  8
0
100
AcDbLine
 62
7
  6
CONTINUOUS
 10
22.0
 20
0.0
 11
22.0
 21
17.0
  0
LINE
  5
224
100
AcDbEntity
  8
0
100
AcDbLine
 62
7
  6
CONTINUOUS
 10
3.0678672762
 20
5.7626198968
 11
3.0678672762
 21
5.7251198968
  0
LINE
  5
225
100
AcDbEntity
  8
0
100
AcDbLine
 62
7
  6
CONTINUOUS
 10
3.0678672762
 20
5.7251198968
 11
3.1581909573
 21
5.2867489642
  0
LINE
  5
226
100
AcDbEntity
  8
0
100
AcDbLine
 62
7
  6
CONTINUOUS
 10
3.5678672762
 20
5.7251198968
 11
3.5678672762
 21
5.7476198968
  0
LINE
  5
227
100
AcDbEntity
  8
LAYER_FEATURE
100
AcDbLine
 62
7
  6
CONTINUOUS
 10
3.6303672762
 20
5.7476198968
 11
3.6303672762
 21
5.7251198968
  0
LINE
  5
228
100
AcDbEntity
  8
0
100
AcDbLine
 62
7
  6
CONTINUOUS
 10
3.477543595
 20
5.2867489642
 11
3.5678672762
 21
5.7251198968
  0
LINE
  5
229
100
AcDbEntity
  8
LAYER_FEATURE
100
AcDbLine
 62
7
  6
CONTINUOUS
 10
3.6303672762
 20
5.7251198968
 11
3.7206909573
 21
5.2867489642
  0
LINE
  5
22A
100
AcDbEntity
  8
LAYER_FEATURE
100
AcDbLine
 62
7
  6
CONTINUOUS
 10
4.1303672762
 20
5.7251198968
 11
4.1303672762
 21
5.7476198968
  0
LINE
  5
22B
100
AcDbEntity
  8
LAYER_FEATURE
100
AcDbLine
 62
7
  6
CONTINUOUS
 10
4.1928672762
 20
5.7476198968
 11
4.1928672762
 21
5.7251198968
  0
LINE
  5
22C
100
AcDbEntity
  8
LAYER_FEATURE
100
AcDbLine
 62
7
  6
CONTINUOUS
 10
4.040043595
 20
5.2867489642
 11
4.1303672762
 21
5.7251198968
  0
LINE
  5
22D
100
AcDbEntity
  8
LAYER_FEATURE
100
AcDbLine
 62
7
  6
CONTINUOUS
 10
4.1928672762
 20
5.7251198968
 11
4.2831909573
 21
5.2867489642
  0
LINE
  5
22E
100
AcDbEntity
  8
LAYER_FEATURE
100
AcDbLine
 62
7
  6
CONTINUOUS
 10
4.6928672762
 20
5.7251198968
 11
4.6928672762
 21
5.7476198968
  0
LINE
  5
22F
100
AcDbEntity
  8
LAYER_FEATURE
100
AcDbLine
 62
7
  6
CONTINUOUS
 10
4.602543595
 20
5.2867489642
 11
4.6928672762
 21
5.7251198968
  0
LINE
  5
230
100
AcDbEntity
  8
LAYER_FEATURE
100
AcDbLine
 62
7
  6
CONTINUOUS
 10
4.7553672762
 20
5.7476198968
 11
4.7553672762
 21
5.7251198968
  0
LINE
  5
231
100
AcDbEntity
  8
LAYER_FEATURE
100
AcDbLine
 62
7
  6
CONTINUOUS
 10
4.7553672762
 20
5.7251198968
 11
4.8456909573
 21
5.2867489642
  0
LINE
  5
232
100
AcDbEntity
  8
LAYER_FEATURE
100
AcDbLine
 62
7
  6
CONTINUOUS
 10
5.2553672762
 20
5.7251198968
 11
5.2553672762
 21
5.7476198968
  0
LINE
  5
233
100
AcDbEntity
  8
LAYER_FEATURE
100
AcDbLine
 62
7
  6
CONTINUOUS
 10
5.3178672762
 20
5.7476198968
 11
5.3178672762
 21
5.7251198968
  0
LINE
  5
234
100
AcDbEntity
  8
LAYER_FEATURE
100
AcDbLine
 62
7
  6
CONTINUOUS
 10
5.165043595
 20
5.2867489642
 11
5.2553672762
 21
5.7251198968
  0
LINE
  5
235
100
AcDbEntity
  8
LAYER_FEATURE
100
AcDbLine
 62
7
  6
CONTINUOUS
 10
5.3178672762
 20
5.7251198968
 11
5.4081909573
 21
5.2867489642
  0
LINE
  5
236
100
AcDbEntity
  8
LAYER_FEATURE
100
AcDbLine
 62
7
  6
CONTINUOUS
 10
5.8178672762
 20
5.7251198968
 11
5.8178672762
 21
5.7476198968
  0
LINE
  5
237
100
AcDbEntity
  8
LAYER_FEATURE
100
AcDbLine
 62
7
  6
CONTINUOUS
 10
5.8803672762
 20
5.7476198968
 11
5.8803672762
 21
5.7251198968
  0
LINE
  5
238
100
AcDbEntity
  8
LAYER_FEATURE
100
AcDbLine
 62
7
  6
CONTINUOUS
 10
5.727543595
 20
5.2867489642
 11
5.8178672762
 21
5.7251198968
  0
LINE
  5
239
100
AcDbEntity
  8
0
100
AcDbLine
 62
7
  6
CONTINUOUS
 10
3.1785956609
 20
5.2701198968
 11
3.4571388915
 21
5.2701198968
  0
LINE
  5
23A
100
AcDbEntity
  8
LAYER_FEATURE
100
AcDbLine
 62
7
  6
CONTINUOUS
 10
3.7410956609
 20
5.2701198968
 11
4.0196388915
 21
5.2701198968
  0
LINE
  5
23B
100
AcDbEntity
  8
LAYER_FEATURE
100
AcDbLine
 62
7
  6
CONTINUOUS
 10
4.3035956609
 20
5.2701198968
 11
4.5821388915
 21
5.2701198968
  0
LINE
  5
23C
100
AcDbEntity
  8
LAYER_FEATURE
100
AcDbLine
 62
7
  6
CONTINUOUS
 10
4.8660956609
 20
5.2701198968
 11
5.1446388915
 21
5.2701198968
  0
LINE
  5
23D
100
AcDbEntity
  8
LAYER_FEATURE
100
AcDbLine
 62
7
  6
CONTINUOUS
 10
5.4285956609
 20
5.2701198968
 11
5.7071388915
 21
5.2701198968
  0
LINE
  5
23E
100
AcDbEntity
  8
LAYER_FEATURE
100
AcDbLine
 62
7
  6
CONTINUOUS
 10
5.9910956609
 20
5.2701198968
 11
6.2696388915
 21
5.2701198968
  0
LINE
  5
23F
100
AcDbEntity
  8
LAYER_FEATURE
100
AcDbLine
 62
7
  6
CONTINUOUS
 10
6.5535956609
 20
5.2701198968
 11
6.8321388915
 21
5.2701198968
  0
LINE
  5
240
100
AcDbEntity
  8
LAYER_FEATURE
100
AcDbLine
 62
7
  6
CONTINUOUS
 10
7.1160956609
 20
5.2701198968
 11
7.3946388915
 21
5.2701198968
  0
LINE
  5
241
100
AcDbEntity
  8
LAYER_FEATURE
100
AcDbLine
 62
7
  6
CONTINUOUS
 10
7.6785956609
 20
5.2701198968
 11
7.9571388915
 21
5.2701198968
  0
LINE
  5
242
100
AcDbEntity
  8
LAYER_FEATURE
100
AcDbLine
 62
7
  6
CONTINUOUS
 10
8.2410956609
 20
5.2701198968
 11
8.5196388915
 21
5.2701198968
  0
LINE
  5
243
100
AcDbEntity
  8
LAYER_FEATURE
100
AcDbLine
 62
7
  6
CONTINUOUS
 10
8.8035956609
 20
5.2701198968
 11
9.0821388915
 21
5.2701198968
  0
LINE
  5
244
100
AcDbEntity
  8
LAYER_FEATURE
100
AcDbLine
 62
7
  6
CONTINUOUS
 10
5.8803672762
 20
5.7251198968
 11
5.9706909573
 21
5.2867489642
  0
LINE
  5
245
100
AcDbEntity
  8
LAYER_FEATURE
100
AcDbLine
 62
7
  6
CONTINUOUS
 10
6.290043595
 20
5.2867489642
 11
6.3803672762
 21
5.7251198968
  0
LINE
  5
246
100
AcDbEntity
  8
LAYER_FEATURE
100
AcDbLine
 62
7
  6
CONTINUOUS
 10
3.5678672762
 20
5.7476198968
 11
3.6303672762
 21
5.7476198968
  0
LINE
  5
247
100
AcDbEntity
  8
LAYER_FEATURE
100
AcDbLine
 62
7
  6
CONTINUOUS
 10
4.1303672762
 20
5.7476198968
 11
4.1928672762
 21
5.7476198968
  0
LINE
  5
248
100
AcDbEntity
  8
LAYER_FEATURE
100
AcDbLine
 62
7
  6
CONTINUOUS
 10
4.6928672762
 20
5.7476198968
 11
4.7553672762
 21
5.7476198968
  0
LINE
  5
249
100
AcDbEntity
  8
LAYER_FEATURE
100
AcDbLine
 62
7
  6
CONTINUOUS
 10
5.2553672762
 20
5.7476198968
 11
5.3178672762
 21
5.7476198968
  0
LINE
  5
24A
100
AcDbEntity
  8
LAYER_FEATURE
100
AcDbLine
 62
7
  6
CONTINUOUS
 10
5.8178672762
 20
5.7476198968
 11
5.8803672762
 21
5.7476198968
  0
LINE
  5
24B
100
AcDbEntity
  8
LAYER_FEATURE
100
AcDbLine
 62
7
  6
CONTINUOUS
 10
6.3803672762
 20
5.7476198968
 11
6.4428672762
 21
5.7476198968
  0
LINE
  5
24C
100
AcDbEntity
  8
LAYER_FEATURE
100
AcDbLine
 62
7
  6
CONTINUOUS
 10
6.9428672762
 20
5.7476198968
 11
7.0053672762
 21
5.7476198968
  0
LINE
  5
24D
100
AcDbEntity
  8
LAYER_FEATURE
100
AcDbLine
 62
7
  6
CONTINUOUS
 10
7.5053672762
 20
5.7476198968
 11
7.5678672762
 21
5.7476198968
  0
LINE
  5
24E
100
AcDbEntity
  8
LAYER_FEATURE
100
AcDbLine
 62
7
  6
CONTINUOUS
 10
8.0678672762
 20
5.7476198968
 11
8.1303672762
 21
5.7476198968
  0
LINE
  5
24F
100
AcDbEntity
  8
LAYER_FEATURE
100
AcDbLine
 62
7
  6
CONTINUOUS
 10
8.6303672762
 20
5.7476198968
 11
8.6928672762
 21
5.7476198968
  0
LINE
  5
250
100
AcDbEntity
  8
LAYER_FEATURE
100
AcDbLine
 62
7
  6
CONTINUOUS
 10
6.3803672762
 20
5.7251198968
 11
6.3803672762
 21
5.7476198968
  0
LINE
  5
251
100
AcDbEntity
  8
LAYER_FEATURE
100
AcDbLine
 62
7
  6
CONTINUOUS
 10
6.4428672762
 20
5.7476198968
 11
6.4428672762
 21
5.7251198968
  0
LINE
  5
252
100
AcDbEntity
  8
0
100
AcDbLine
 62
7
  6
CONTINUOUS
 10
9.1853672762
 20
5.7701198968
 11
3.0753672762
 21
5.7701198968
  0
LINE
  5
253
100
AcDbEntity
  8
LAYER_FEATURE
100
AcDbLine
 62
7
  6
CONTINUOUS
 10
6.4428672762
 20
5.7251198968
 11
6.5331909573
 21
5.2867489642
  0
LINE
  5
254
100
AcDbEntity
  8
LAYER_FEATURE
100
AcDbLine
 62
7
  6
CONTINUOUS
 10
6.9428672762
 20
5.7251198968
 11
6.9428672762
 21
5.7476198968
  0
LINE
  5
255
100
AcDbEntity
  8
LAYER_FEATURE
100
AcDbLine
 62
7
  6
CONTINUOUS
 10
6.852543595
 20
5.2867489642
 11
6.9428672762
 21
5.7251198968
  0
LINE
  5
256
100
AcDbEntity
  8
LAYER_FEATURE
100
AcDbLine
 62
7
  6
CONTINUOUS
 10
7.0053672762
 20
5.7476198968
 11
7.0053672762
 21
5.7251198968
  0
LINE
  5
257
100
AcDbEntity
  8
LAYER_FEATURE
100
AcDbLine
 62
7
  6
CONTINUOUS
 10
7.0053672762
 20
5.7251198968
 11
7.0956909573
 21
5.2867489642
  0
LINE
  5
258
100
AcDbEntity
  8
LAYER_FEATURE
100
AcDbLine
 62
7
  6
CONTINUOUS
 10
7.5053672762
 20
5.7251198968
 11
7.5053672762
 21
5.7476198968
  0
LINE
  5
259
100
AcDbEntity
  8
LAYER_FEATURE
100
AcDbLine
 62
7
  6
CONTINUOUS
 10
7.5678672762
 20
5.7476198968
 11
7.5678672762
 21
5.7251198968
  0
LINE
  5
25A
100
AcDbEntity
  8
LAYER_FEATURE
100
AcDbLine
 62
7
  6
CONTINUOUS
 10
7.415043595
 20
5.2867489642
 11
7.5053672762
 21
5.7251198968
  0
LINE
  5
25B
100
AcDbEntity
  8
LAYER_FEATURE
100
AcDbLine
 62
7
  6
CONTINUOUS
 10
7.5678672762
 20
5.7251198968
 11
7.6581909573
 21
5.2867489642
  0
LINE
  5
25C
100
AcDbEntity
  8
LAYER_FEATURE
100
AcDbLine
 62
7
  6
CONTINUOUS
 10
7.977543595
 20
5.2867489642
 11
8.0678672762
 21
5.7251198968
  0
LINE
  5
25D
100
AcDbEntity
  8
LAYER_FEATURE
100
AcDbLine
 62
7
  6
CONTINUOUS
 10
8.0678672762
 20
5.7251198968
 11
8.0678672762
 21
5.7476198968
  0
LINE
  5
25E
100
AcDbEntity
  8
LAYER_FEATURE
100
AcDbLine
 62
7
  6
CONTINUOUS
 10
8.1303672762
 20
5.7476198968
 11
8.1303672762
 21
5.7251198968
  0
LINE
  5
25F
100
AcDbEntity
  8
LAYER_FEATURE
100
AcDbLine
 62
7
  6
CONTINUOUS
 10
8.1303672762
 20
5.7251198968
 11
8.2206909573
 21
5.2867489642
  0
LINE
  5
260
100
AcDbEntity
  8
LAYER_FEATURE
100
AcDbLine
 62
7
  6
CONTINUOUS
 10
8.540043595
 20
5.2867489642
 11
8.6303672762
 21
5.7251198968
  0
LINE
  5
261
100
AcDbEntity
  8
LAYER_FEATURE
100
AcDbLine
 62
7
  6
CONTINUOUS
 10
8.6303672762
 20
5.7251198968
 11
8.6303672762
 21
5.7476198968
  0
LINE
  5
262
100
AcDbEntity
  8
LAYER_FEATURE
100
AcDbLine
 62
7
  6
CONTINUOUS
 10
8.6928672762
 20
5.7476198968
 11
8.6928672762
 21
5.7251198968
  0
LINE
  5
263
100
AcDbEntity
  8
LAYER_FEATURE
100
AcDbLine
 62
7
  6
CONTINUOUS
 10
8.6928672762
 20
5.7251198968
 11
8.7831909573
 21
5.2867489642
  0
LINE
  5
264
100
AcDbEntity
  8
0
100
AcDbLine
 62
7
  6
CONTINUOUS
 10
9.1928672762
 20
5.7251198968
 11
9.1928672762
 21
5.7626198968
  0
LINE
  5
265
100
AcDbEntity
  8
LAYER_FEATURE
100
AcDbLine
 62
7
  6
CONTINUOUS
 10
9.102543595
 20
5.2867489642
 11
9.1928672762
 21
5.7251198968
  0
LINE
  5
266
100
AcDbEntity
  8
0
100
AcDbLine
 62
7
  6
CONTINUOUS
 10
3.0083720839
 20
13.6000477814
 11
3.0083720839
 21
11.6000477814
  0
LINE
  5
267
100
AcDbEntity
  8
0
100
AcDbLine
 62
7
  6
CONTINUOUS
 10
9.1333720839
 20
11.6000477814
 11
3.0083720839
 21
11.6000477814
  0
LINE
  5
268
100
AcDbEntity
  8
0
100
AcDbLine
 62
7
  6
CONTINUOUS
 10
3.0083720839
 20
13.6000477814
 11
9.1333720839
 21
13.6000477814
  0
LINE
  5
269
100
AcDbEntity
  8
0
100
AcDbLine
 62
7
  6
CONTINUOUS
 10
9.1333720839
 20
11.6000477814
 11
9.1333720839
 21
13.6000477814
  0
LINE
  5
26A
100
AcDbEntity
  8
LAYER_FEATURE
100
AcDbLine
 62
7
  6
CONTINUOUS
 10
14.5603552569
 20
5.2106247044
 11
14.5603552569
 21
5.6656247044
  0
LINE
  5
26B
100
AcDbEntity
  8
0
100
AcDbLine
 62
7
  6
CONTINUOUS
 10
14.5603552569
 20
5.6656247044
 11
14.5603552569
 21
5.7106247044
  0
LINE
  5
26C
100
AcDbEntity
  8
LAYER_FEATURE
100
AcDbLine
 62
7
  6
CONTINUOUS
 10
14.5603552569
 20
5.2106247044
 11
16.5603552569
 21
5.2106247044
  0
LINE
  5
26D
100
AcDbEntity
  8
LAYER_FEATURE
100
AcDbLine
 62
7
  6
CONTINUOUS
 10
16.5603552569
 20
5.6656247044
 11
14.5603552569
 21
5.6656247044
  0
LINE
  5
26E
100
AcDbEntity
  8
0
100
AcDbLine
 62
7
  6
CONTINUOUS
 10
14.5603552569
 20
5.7106247044
 11
16.5603552569
 21
5.7106247044
  0
LINE
  5
26F
100
AcDbEntity
  8
0
100
AcDbLine
 62
7
  6
CONTINUOUS
 10
16.5603552569
 20
5.7106247044
 11
16.5603552569
 21
5.6656247044
  0
LINE
  5
270
100
AcDbEntity
  8
LAYER_FEATURE
100
AcDbLine
 62
7
  6
CONTINUOUS
 10
16.5603552569
 20
5.2106247044
 11
16.5603552569
 21
5.6656247044
  0
LINE
  5
271
100
AcDbEntity
  8
0
100
AcDbLine
 62
7
  6
CONTINUOUS
 10
12.3774204001
 20
11.8782185006
 11
12.3888594701
 21
11.8549081268
  0
LINE
  5
272
100
AcDbEntity
  8
0
100
AcDbLine
 62
7
  6
CONTINUOUS
 10
12.3771635097
 20
11.8804326084
 11
12.3774204001
 21
11.8782185006
  0
LINE
  5
273
100
AcDbEntity
  8
0
100
AcDbLine
 62
7
  6
CONTINUOUS
 10
12.3888594701
 20
11.8549081268
 11
12.6057745771
 21
11.5824123853
  0
LINE
  5
274
100
AcDbEntity
  8
0
100
AcDbLine
 62
7
  6
CONTINUOUS
 10
12.861295348
 20
13.4470866751
 11
12.3771627012
 21
11.8804328559
  0
LINE
  5
275
100
AcDbEntity
  8
0
100
AcDbLine
 62
7
  6
CONTINUOUS
 10
12.8493899671
 20
11.8549081268
 11
12.8425265251
 21
11.8688943511
  0
LINE
  5
276
100
AcDbEntity
  8
LAYER_FEATURE
100
AcDbLine
 62
7
  6
CONTINUOUS
 10
12.9000928372
 20
11.8688943511
 11
12.9069562792
 21
11.8549081268
  0
LINE
  5
277
100
AcDbEntity
  8
0
100
AcDbLine
 62
7
  6
CONTINUOUS
 10
12.8999178351
 20
11.5824123853
 11
12.8493899671
 21
11.8549081268
  0
LINE
  5
278
100
AcDbEntity
  8
0
100
AcDbLine
 62
7
  6
CONTINUOUS
 10
12.899746534
 20
11.5788746416
 11
12.8999178351
 21
11.5824123853
  0
LINE
  5
279
100
AcDbEntity
  8
LAYER_FEATURE
100
AcDbLine
 62
7
  6
CONTINUOUS
 10
12.9069562792
 20
11.8549081268
 11
13.1238713863
 21
11.5824123853
  0
LINE
  5
27A
100
AcDbEntity
  8
0
100
AcDbLine
 62
7
  6
CONTINUOUS
 10
12.8537120373
 20
11.8688943511
 11
12.8493899671
 21
11.8549081268
  0
LINE
  5
27B
100
AcDbEntity
  8
0
100
AcDbLine
 62
7
  6
CONTINUOUS
 10
12.9007588611
 20
11.5821524886
 11
12.9632090969
 21
11.784241526
  0
LINE
  5
27C
100
AcDbEntity
  8
LAYER_FEATURE
100
AcDbLine
 62
7
  6
CONTINUOUS
 10
13.3674867762
 20
11.8549081268
 11
13.3606233342
 21
11.8688943511
  0
LINE
  5
27D
100
AcDbEntity
  8
LAYER_FEATURE
100
AcDbLine
 62
7
  6
CONTINUOUS
 10
13.4180146442
 20
11.5824123853
 11
13.3674867762
 21
11.8549081268
  0
LINE
  5
27E
100
AcDbEntity
  8
LAYER_FEATURE
100
AcDbLine
 62
7
  6
CONTINUOUS
 10
13.4178433432
 20
11.5788746416
 11
13.4180146442
 21
11.5824123853
  0
LINE
  5
27F
100
AcDbEntity
  8
LAYER_FEATURE
100
AcDbLine
 62
7
  6
CONTINUOUS
 10
13.4250530883
 20
11.8549081268
 11
13.6419681954
 21
11.5824123853
  0
LINE
  5
280
100
AcDbEntity
  8
LAYER_FEATURE
100
AcDbLine
 62
7
  6
CONTINUOUS
 10
13.4181896463
 20
11.8688943511
 11
13.4250530883
 21
11.8549081268
  0
LINE
  5
281
100
AcDbEntity
  8
LAYER_FEATURE
100
AcDbLine
 62
7
  6
CONTINUOUS
 10
13.3718088464
 20
11.8688943511
 11
13.3674867762
 21
11.8549081268
  0
LINE
  5
282
100
AcDbEntity
  8
LAYER_FEATURE
100
AcDbLine
 62
7
  6
CONTINUOUS
 10
13.8855835853
 20
11.8549081268
 11
13.8787201433
 21
11.8688943511
  0
LINE
  5
283
100
AcDbEntity
  8
LAYER_FEATURE
100
AcDbLine
 62
7
  6
CONTINUOUS
 10
13.9359401523
 20
11.5788746416
 11
13.9361114533
 21
11.5824123853
  0
LINE
  5
284
100
AcDbEntity
  8
LAYER_FEATURE
100
AcDbLine
 62
7
  6
CONTINUOUS
 10
13.4188556702
 20
11.5821524886
 11
13.4813059061
 21
11.784241526
  0
LINE
  5
285
100
AcDbEntity
  8
LAYER_FEATURE
100
AcDbLine
 62
7
  6
CONTINUOUS
 10
13.9431498975
 20
11.8549081268
 11
14.1600650045
 21
11.5824123853
  0
LINE
  5
286
100
AcDbEntity
  8
LAYER_FEATURE
100
AcDbLine
 62
7
  6
CONTINUOUS
 10
13.9362864555
 20
11.8688943511
 11
13.9431498975
 21
11.8549081268
  0
LINE
  5
287
100
AcDbEntity
  8
LAYER_FEATURE
100
AcDbLine
 62
7
  6
CONTINUOUS
 10
13.9361114533
 20
11.5824123853
 11
13.8855835853
 21
11.8549081268
  0
LINE
  5
288
100
AcDbEntity
  8
LAYER_FEATURE
100
AcDbLine
 62
7
  6
CONTINUOUS
 10
13.8899056555
 20
11.8688943511
 11
13.8855835853
 21
11.8549081268
  0
LINE
  5
289
100
AcDbEntity
  8
LAYER_FEATURE
100
AcDbLine
 62
7
  6
CONTINUOUS
 10
13.9369524793
 20
11.5821524886
 11
13.9994027152
 21
11.784241526
  0
LINE
  5
28A
100
AcDbEntity
  8
LAYER_FEATURE
100
AcDbLine
 62
7
  6
CONTINUOUS
 10
14.4612467066
 20
11.8549081268
 11
14.6781618136
 21
11.5824123853
  0
LINE
  5
28B
100
AcDbEntity
  8
LAYER_FEATURE
100
AcDbLine
 62
7
  6
CONTINUOUS
 10
14.4036803945
 20
11.8549081268
 11
14.3968169525
 21
11.8688943511
  0
LINE
  5
28C
100
AcDbEntity
  8
LAYER_FEATURE
100
AcDbLine
 62
7
  6
CONTINUOUS
 10
14.4543832646
 20
11.8688943511
 11
14.4612467066
 21
11.8549081268
  0
LINE
  5
28D
100
AcDbEntity
  8
LAYER_FEATURE
100
AcDbLine
 62
7
  6
CONTINUOUS
 10
14.4542082624
 20
11.5824123853
 11
14.4036803945
 21
11.8549081268
  0
LINE
  5
28E
100
AcDbEntity
  8
LAYER_FEATURE
100
AcDbLine
 62
7
  6
CONTINUOUS
 10
14.4540369614
 20
11.5788746416
 11
14.4542082624
 21
11.5824123853
  0
LINE
  5
28F
100
AcDbEntity
  8
0
100
AcDbLine
 62
7
  6
CONTINUOUS
 10
12.6296411155
 20
11.5720755912
 11
12.8861964203
 21
11.5720755912
  0
LINE
  5
290
100
AcDbEntity
  8
LAYER_FEATURE
100
AcDbLine
 62
7
  6
CONTINUOUS
 10
13.1477379246
 20
11.5720755912
 11
13.4042932295
 21
11.5720755912
  0
LINE
  5
291
100
AcDbEntity
  8
LAYER_FEATURE
100
AcDbLine
 62
7
  6
CONTINUOUS
 10
13.6658347337
 20
11.5720755912
 11
13.9223900386
 21
11.5720755912
  0
LINE
  5
292
100
AcDbEntity
  8
LAYER_FEATURE
100
AcDbLine
 62
7
  6
CONTINUOUS
 10
14.1839315428
 20
11.5720755912
 11
14.4404868477
 21
11.5720755912
  0
LINE
  5
293
100
AcDbEntity
  8
LAYER_FEATURE
100
AcDbLine
 62
7
  6
CONTINUOUS
 10
14.702028352
 20
11.5720755912
 11
14.9585836568
 21
11.5720755912
  0
LINE
  5
294
100
AcDbEntity
  8
LAYER_FEATURE
100
AcDbLine
 62
7
  6
CONTINUOUS
 10
15.2201251611
 20
11.5720755912
 11
15.476680466
 21
11.5720755912
  0
LINE
  5
295
100
AcDbEntity
  8
LAYER_FEATURE
100
AcDbLine
 62
7
  6
CONTINUOUS
 10
15.7382219702
 20
11.5720755912
 11
15.9947772751
 21
11.5720755912
  0
LINE
  5
296
100
AcDbEntity
  8
LAYER_FEATURE
100
AcDbLine
 62
7
  6
CONTINUOUS
 10
16.2563187793
 20
11.5720755912
 11
16.5128740842
 21
11.5720755912
  0
LINE
  5
297
100
AcDbEntity
  8
LAYER_FEATURE
100
AcDbLine
 62
7
  6
CONTINUOUS
 10
16.7744155885
 20
11.5720755912
 11
17.0309708933
 21
11.5720755912
  0
LINE
  5
298
100
AcDbEntity
  8
LAYER_FEATURE
100
AcDbLine
 62
7
  6
CONTINUOUS
 10
17.2925123976
 20
11.5720755912
 11
17.5490677025
 21
11.5720755912
  0
LINE
  5
299
100
AcDbEntity
  8
LAYER_FEATURE
100
AcDbLine
 62
7
  6
CONTINUOUS
 10
17.8106092067
 20
11.5720755912
 11
18.0671645116
 21
11.5720755912
  0
LINE
  5
29A
100
AcDbEntity
  8
LAYER_FEATURE
100
AcDbLine
 62
7
  6
CONTINUOUS
 10
14.4080024647
 20
11.8688943511
 11
14.4036803945
 21
11.8549081268
  0
LINE
  5
29B
100
AcDbEntity
  8
LAYER_FEATURE
100
AcDbLine
 62
7
  6
CONTINUOUS
 10
14.4550492884
 20
11.5821524886
 11
14.5174995243
 21
11.784241526
  0
LINE
  5
29C
100
AcDbEntity
  8
LAYER_FEATURE
100
AcDbLine
 62
7
  6
CONTINUOUS
 10
12.8425265251
 20
11.8688943511
 11
12.9000928372
 21
11.8688943511
  0
LINE
  5
29D
100
AcDbEntity
  8
LAYER_FEATURE
100
AcDbLine
 62
7
  6
CONTINUOUS
 10
13.3606233342
 20
11.8688943511
 11
13.4181896463
 21
11.8688943511
  0
LINE
  5
29E
100
AcDbEntity
  8
LAYER_FEATURE
100
AcDbLine
 62
7
  6
CONTINUOUS
 10
13.8787201433
 20
11.8688943511
 11
13.9362864555
 21
11.8688943511
  0
LINE
  5
29F
100
AcDbEntity
  8
LAYER_FEATURE
100
AcDbLine
 62
7
  6
CONTINUOUS
 10
14.3968169525
 20
11.8688943511
 11
14.4543832646
 21
11.8688943511
  0
LINE
  5
2A0
100
AcDbEntity
  8
LAYER_FEATURE
100
AcDbLine
 62
7
  6
CONTINUOUS
 10
14.9149137616
 20
11.8688943511
 11
14.9724800737
 21
11.8688943511
  0
LINE
  5
2A1
100
AcDbEntity
  8
LAYER_FEATURE
100
AcDbLine
 62
7
  6
CONTINUOUS
 10
15.4330105707
 20
11.8688943511
 11
15.4905768828
 21
11.8688943511
  0
LINE
  5
2A2
100
AcDbEntity
  8
LAYER_FEATURE
100
AcDbLine
 62
7
  6
CONTINUOUS
 10
15.9511073798
 20
11.8688943511
 11
16.008673692
 21
11.8688943511
  0
LINE
  5
2A3
100
AcDbEntity
  8
LAYER_FEATURE
100
AcDbLine
 62
7
  6
CONTINUOUS
 10
16.469204189
 20
11.8688943511
 11
16.5267705011
 21
11.8688943511
  0
LINE
  5
2A4
100
AcDbEntity
  8
LAYER_FEATURE
100
AcDbLine
 62
7
  6
CONTINUOUS
 10
16.9873009981
 20
11.8688943511
 11
17.0448673102
 21
11.8688943511
  0
LINE
  5
2A5
100
AcDbEntity
  8
LAYER_FEATURE
100
AcDbLine
 62
7
  6
CONTINUOUS
 10
17.5053978072
 20
11.8688943511
 11
17.5629641193
 21
11.8688943511
  0
LINE
  5
2A6
100
AcDbEntity
  8
0
100
AcDbLine
 62
7
  6
CONTINUOUS
 10
18.0097232169
 20
11.8828805753
 11
12.3820405435
 21
11.8828805753
  0
LINE
  5
2A7
100
AcDbEntity
  8
LAYER_FEATURE
100
AcDbLine
 62
7
  6
CONTINUOUS
 10
14.9793435157
 20
11.8549081268
 11
15.1962586228
 21
11.5824123853
  0
LINE
  5
2A8
100
AcDbEntity
  8
LAYER_FEATURE
100
AcDbLine
 62
7
  6
CONTINUOUS
 10
14.9217772036
 20
11.8549081268
 11
14.9149137616
 21
11.8688943511
  0
LINE
  5
2A9
100
AcDbEntity
  8
LAYER_FEATURE
100
AcDbLine
 62
7
  6
CONTINUOUS
 10
14.9724800737
 20
11.8688943511
 11
14.9793435157
 21
11.8549081268
  0
LINE
  5
2AA
100
AcDbEntity
  8
LAYER_FEATURE
100
AcDbLine
 62
7
  6
CONTINUOUS
 10
14.9723050716
 20
11.5824123853
 11
14.9217772036
 21
11.8549081268
  0
LINE
  5
2AB
100
AcDbEntity
  8
LAYER_FEATURE
100
AcDbLine
 62
7
  6
CONTINUOUS
 10
14.9721337705
 20
11.5788746416
 11
14.9723050716
 21
11.5824123853
  0
LINE
  5
2AC
100
AcDbEntity
  8
LAYER_FEATURE
100
AcDbLine
 62
7
  6
CONTINUOUS
 10
14.9260992738
 20
11.8688943511
 11
14.9217772036
 21
11.8549081268
  0
LINE
  5
2AD
100
AcDbEntity
  8
LAYER_FEATURE
100
AcDbLine
 62
7
  6
CONTINUOUS
 10
14.9731460976
 20
11.5821524886
 11
15.0355963334
 21
11.784241526
  0
LINE
  5
2AE
100
AcDbEntity
  8
LAYER_FEATURE
100
AcDbLine
 62
7
  6
CONTINUOUS
 10
15.4974403248
 20
11.8549081268
 11
15.7143554319
 21
11.5824123853
  0
LINE
  5
2AF
100
AcDbEntity
  8
LAYER_FEATURE
100
AcDbLine
 62
7
  6
CONTINUOUS
 10
15.4398740127
 20
11.8549081268
 11
15.4330105707
 21
11.8688943511
  0
LINE
  5
2B0
100
AcDbEntity
  8
LAYER_FEATURE
100
AcDbLine
 62
7
  6
CONTINUOUS
 10
15.4905768828
 20
11.8688943511
 11
15.4974403248
 21
11.8549081268
  0
LINE
  5
2B1
100
AcDbEntity
  8
LAYER_FEATURE
100
AcDbLine
 62
7
  6
CONTINUOUS
 10
16.015537134
 20
11.8549081268
 11
16.232452241
 21
11.5824123853
  0
LINE
  5
2B2
100
AcDbEntity
  8
LAYER_FEATURE
100
AcDbLine
 62
7
  6
CONTINUOUS
 10
15.4904018807
 20
11.5824123853
 11
15.4398740127
 21
11.8549081268
  0
LINE
  5
2B3
100
AcDbEntity
  8
LAYER_FEATURE
100
AcDbLine
 62
7
  6
CONTINUOUS
 10
15.4902307619
 20
11.5788745852
 11
15.4904018807
 21
11.5824123853
  0
LINE
  5
2B4
100
AcDbEntity
  8
LAYER_FEATURE
100
AcDbLine
 62
7
  6
CONTINUOUS
 10
15.4441960829
 20
11.8688943511
 11
15.4398740127
 21
11.8549081268
  0
LINE
  5
2B5
100
AcDbEntity
  8
LAYER_FEATURE
100
AcDbLine
 62
7
  6
CONTINUOUS
 10
15.9579708218
 20
11.8549081268
 11
15.9511073798
 21
11.8688943511
  0
LINE
  5
2B6
100
AcDbEntity
  8
LAYER_FEATURE
100
AcDbLine
 62
7
  6
CONTINUOUS
 10
16.008673692
 20
11.8688943511
 11
16.015537134
 21
11.8549081268
  0
LINE
  5
2B7
100
AcDbEntity
  8
LAYER_FEATURE
100
AcDbLine
 62
7
  6
CONTINUOUS
 10
15.4912429067
 20
11.5821524886
 11
15.5536931426
 21
11.784241526
  0
LINE
  5
2B8
100
AcDbEntity
  8
LAYER_FEATURE
100
AcDbLine
 62
7
  6
CONTINUOUS
 10
16.5336339431
 20
11.8549081268
 11
16.7505490502
 21
11.5824123853
  0
LINE
  5
2B9
100
AcDbEntity
  8
LAYER_FEATURE
100
AcDbLine
 62
7
  6
CONTINUOUS
 10
16.0084986898
 20
11.5824123853
 11
15.9579708218
 21
11.8549081268
  0
LINE
  5
2BA
100
AcDbEntity
  8
LAYER_FEATURE
100
AcDbLine
 62
7
  6
CONTINUOUS
 10
16.0083273888
 20
11.5788746416
 11
16.0084986898
 21
11.5824123853
  0
LINE
  5
2BB
100
AcDbEntity
  8
LAYER_FEATURE
100
AcDbLine
 62
7
  6
CONTINUOUS
 10
15.962292892
 20
11.8688943511
 11
15.9579708218
 21
11.8549081268
  0
LINE
  5
2BC
100
AcDbEntity
  8
LAYER_FEATURE
100
AcDbLine
 62
7
  6
CONTINUOUS
 10
16.476067631
 20
11.8549081268
 11
16.469204189
 21
11.8688943511
  0
LINE
  5
2BD
100
AcDbEntity
  8
LAYER_FEATURE
100
AcDbLine
 62
7
  6
CONTINUOUS
 10
16.5267705011
 20
11.8688943511
 11
16.5336339431
 21
11.8549081268
  0
LINE
  5
2BE
100
AcDbEntity
  8
LAYER_FEATURE
100
AcDbLine
 62
7
  6
CONTINUOUS
 10
16.0093397158
 20
11.5821524886
 11
16.0717899517
 21
11.784241526
  0
LINE
  5
2BF
100
AcDbEntity
  8
LAYER_FEATURE
100
AcDbLine
 62
7
  6
CONTINUOUS
 10
17.0517307522
 20
11.8549081268
 11
17.2686458593
 21
11.5824123853
  0
LINE
  5
2C0
100
AcDbEntity
  8
LAYER_FEATURE
100
AcDbLine
 62
7
  6
CONTINUOUS
 10
16.5265954989
 20
11.5824123853
 11
16.476067631
 21
11.8549081268
  0
LINE
  5
2C1
100
AcDbEntity
  8
LAYER_FEATURE
100
AcDbLine
 62
7
  6
CONTINUOUS
 10
16.5264241979
 20
11.5788746416
 11
16.5265954989
 21
11.5824123853
  0
LINE
  5
2C2
100
AcDbEntity
  8
0
100
AcDbLine
 62
7
  6
CONTINUOUS
 10
12.8661731903
 20
13.4495343946
 11
18.4938558637
 21
13.4495343946
  0
LINE
  5
2C3
100
AcDbEntity
  8
LAYER_FEATURE
100
AcDbLine
 62
7
  6
CONTINUOUS
 10
16.9941644401
 20
11.8549081268
 11
16.9873009981
 21
11.8688943511
  0
LINE
  5
2C4
100
AcDbEntity
  8
LAYER_FEATURE
100
AcDbLine
 62
7
  6
CONTINUOUS
 10
16.4803897012
 20
11.8688943511
 11
16.476067631
 21
11.8549081268
  0
LINE
  5
2C5
100
AcDbEntity
  8
LAYER_FEATURE
100
AcDbLine
 62
7
  6
CONTINUOUS
 10
16.5274365249
 20
11.5821524886
 11
16.5898867608
 21
11.784241526
  0
LINE
  5
2C6
100
AcDbEntity
  8
LAYER_FEATURE
100
AcDbLine
 62
7
  6
CONTINUOUS
 10
17.5698275613
 20
11.8549081268
 11
17.7867426684
 21
11.5824123853
  0
LINE
  5
2C7
100
AcDbEntity
  8
LAYER_FEATURE
100
AcDbLine
 62
7
  6
CONTINUOUS
 10
17.0448673102
 20
11.8688943511
 11
17.0517307522
 21
11.8549081268
  0
LINE
  5
2C8
100
AcDbEntity
  8
LAYER_FEATURE
100
AcDbLine
 62
7
  6
CONTINUOUS
 10
17.0446923081
 20
11.5824123853
 11
16.9941644401
 21
11.8549081268
  0
LINE
  5
2C9
100
AcDbEntity
  8
LAYER_FEATURE
100
AcDbLine
 62
7
  6
CONTINUOUS
 10
17.044521007
 20
11.5788746416
 11
17.0446923081
 21
11.5824123853
  0
LINE
  5
2CA
100
AcDbEntity
  8
LAYER_FEATURE
100
AcDbLine
 62
7
  6
CONTINUOUS
 10
16.9984865103
 20
11.8688943511
 11
16.9941644401
 21
11.8549081268
  0
LINE
  5
2CB
100
AcDbEntity
  8
LAYER_FEATURE
100
AcDbLine
 62
7
  6
CONTINUOUS
 10
17.5122612492
 20
11.8549081268
 11
17.5053978072
 21
11.8688943511
  0
LINE
  5
2CC
100
AcDbEntity
  8
LAYER_FEATURE
100
AcDbLine
 62
7
  6
CONTINUOUS
 10
17.5629641193
 20
11.8688943511
 11
17.5698275613
 21
11.8549081268
  0
LINE
  5
2CD
100
AcDbEntity
  8
LAYER_FEATURE
100
AcDbLine
 62
7
  6
CONTINUOUS
 10
17.0455333341
 20
11.5821524886
 11
17.1079835699
 21
11.784241526
  0
LINE
  5
2CE
100
AcDbEntity
  8
LAYER_FEATURE
100
AcDbLine
 62
7
  6
CONTINUOUS
 10
17.5627891172
 20
11.5824123853
 11
17.5122612492
 21
11.8549081268
  0
LINE
  5
2CF
100
AcDbEntity
  8
LAYER_FEATURE
100
AcDbLine
 62
7
  6
CONTINUOUS
 10
17.5626178162
 20
11.5788746416
 11
17.5627891172
 21
11.5824123853
  0
LINE
  5
2D0
100
AcDbEntity
  8
LAYER_FEATURE
100
AcDbLine
 62
7
  6
CONTINUOUS
 10
17.5165833194
 20
11.8688943511
 11
17.5122612492
 21
11.8549081268
  0
LINE
  5
2D1
100
AcDbEntity
  8
0
100
AcDbLine
 62
7
  6
CONTINUOUS
 10
18.0303580583
 20
11.8549081268
 11
18.0189189883
 21
11.8782185006
  0
LINE
  5
2D2
100
AcDbEntity
  8
LAYER_FEATURE
100
AcDbLine
 62
7
  6
CONTINUOUS
 10
17.5636301432
 20
11.5821524886
 11
17.6260803791
 21
11.784241526
  0
LINE
  5
2D3
100
AcDbEntity
  8
LAYER_FEATURE
100
AcDbLine
 62
7
  6
CONTINUOUS
 10
18.0808859263
 20
11.5824123853
 11
18.0303580583
 21
11.8549081268
  0
LINE
  5
2D4
100
AcDbEntity
  8
LAYER_FEATURE
100
AcDbLine
 62
7
  6
CONTINUOUS
 10
18.0807146253
 20
11.5788746416
 11
18.0808859263
 21
11.5824123853
  0
LINE
  5
2D5
100
AcDbEntity
  8
LAYER_FEATURE
100
AcDbLine
 62
7
  6
CONTINUOUS
 10
18.5144907052
 20
13.421561946
 11
18.0303580583
 21
11.8549081268
  0
LINE
  5
2D6
100
AcDbEntity
  8
LAYER_FEATURE
100
AcDbLine
 62
7
  6
CONTINUOUS
 10
18.0817269523
 20
11.5821524886
 11
18.5648467204
 21
13.1455286312
  0
LINE
  5
2D7
100
AcDbEntity
  8
LAYER_FEATURE
100
AcDbLine
 62
7
  6
CONTINUOUS
 10
18.5650185731
 20
13.1490662046
 11
18.5648472721
 21
13.1455284608
  0
LINE
  5
2D8
100
AcDbEntity
  8
0
100
AcDbLine
 62
7
  6
CONTINUOUS
 10
18.5030516352
 20
13.4448723198
 11
18.5144907052
 21
13.421561946
  0
LINE
  5
2D9
100
AcDbEntity
  8
LAYER_FEATURE
100
AcDbLine
 62
7
  6
CONTINUOUS
 10
18.5650185731
 20
13.1490662046
 11
18.5144907052
 21
13.421561946
  0
ARC
  5
2DA
100
AcDbEntity
  8
0
100
AcDbCircle
 62
7
  6
CONTINUOUS
 10
3.1785956609
 20
5.2909532301
 40
0.0208333333
100
AcDbArc
 50
191.6425163769
 51
270.0
  0
ARC
  5
2DB
100
AcDbEntity
  8
0
100
AcDbCircle
 62
7
  6
CONTINUOUS
 10
3.4571388915
 20
5.2909532301
 40
0.0208333333
100
AcDbArc
 50
270.0
 51
348.3574836231
  0
ARC
  5
2DC
100
AcDbEntity
  8
LAYER_FEATURE
100
AcDbCircle
 62
7
  6
CONTINUOUS
 10
3.7410956609
 20
5.2909532301
 40
0.0208333333
100
AcDbArc
 50
191.6425163769
 51
270.0
  0
ARC
  5
2DD
100
AcDbEntity
  8
LAYER_FEATURE
100
AcDbCircle
 62
7
  6
CONTINUOUS
 10
4.0196388915
 20
5.2909532301
 40
0.0208333333
100
AcDbArc
 50
270.0
 51
348.3574836231
  0
ARC
  5
2DE
100
AcDbEntity
  8
LAYER_FEATURE
100
AcDbCircle
 62
7
  6
CONTINUOUS
 10
4.3035956609
 20
5.2909532301
 40
0.0208333333
100
AcDbArc
 50
191.6425163769
 51
270.0
  0
ARC
  5
2DF
100
AcDbEntity
  8
LAYER_FEATURE
100
AcDbCircle
 62
7
  6
CONTINUOUS
 10
4.5821388915
 20
5.2909532301
 40
0.0208333333
100
AcDbArc
 50
270.0
 51
348.3574836231
  0
ARC
  5
2E0
100
AcDbEntity
  8
LAYER_FEATURE
100
AcDbCircle
 62
7
  6
CONTINUOUS
 10
4.8660956609
 20
5.2909532301
 40
0.0208333333
100
AcDbArc
 50
191.6425163769
 51
270.0
  0
ARC
  5
2E1
100
AcDbEntity
  8
LAYER_FEATURE
100
AcDbCircle
 62
7
  6
CONTINUOUS
 10
5.1446388915
 20
5.2909532301
 40
0.0208333333
100
AcDbArc
 50
270.0
 51
348.3574836231
  0
ARC
  5
2E2
100
AcDbEntity
  8
LAYER_FEATURE
100
AcDbCircle
 62
7
  6
CONTINUOUS
 10
5.4285956609
 20
5.2909532301
 40
0.0208333333
100
AcDbArc
 50
191.6425163769
 51
270.0
  0
ARC
  5
2E3
100
AcDbEntity
  8
LAYER_FEATURE
100
AcDbCircle
 62
7
  6
CONTINUOUS
 10
5.7071388915
 20
5.2909532301
 40
0.0208333333
100
AcDbArc
 50
270.0
 51
348.3574836231
  0
ARC
  5
2E4
100
AcDbEntity
  8
LAYER_FEATURE
100
AcDbCircle
 62
7
  6
CONTINUOUS
 10
5.9910956609
 20
5.2909532301
 40
0.0208333333
100
AcDbArc
 50
191.6425163769
 51
270.0
  0
ARC
  5
2E5
100
AcDbEntity
  8
LAYER_FEATURE
100
AcDbCircle
 62
7
  6
CONTINUOUS
 10
6.2696388915
 20
5.2909532301
 40
0.0208333333
100
AcDbArc
 50
270.0
 51
348.3574836231
  0
ARC
  5
2E6
100
AcDbEntity
  8
LAYER_FEATURE
100
AcDbCircle
 62
7
  6
CONTINUOUS
 10
6.5535956609
 20
5.2909532301
 40
0.0208333333
100
AcDbArc
 50
191.6425163769
 51
270.0
  0
ARC
  5
2E7
100
AcDbEntity
  8
LAYER_FEATURE
100
AcDbCircle
 62
7
  6
CONTINUOUS
 10
6.8321388915
 20
5.2909532301
 40
0.0208333333
100
AcDbArc
 50
270.0
 51
348.3574836231
  0
ARC
  5
2E8
100
AcDbEntity
  8
LAYER_FEATURE
100
AcDbCircle
 62
7
  6
CONTINUOUS
 10
7.1160956609
 20
5.2909532301
 40
0.0208333333
100
AcDbArc
 50
191.6425163769
 51
270.0
  0
ARC
  5
2E9
100
AcDbEntity
  8
LAYER_FEATURE
100
AcDbCircle
 62
7
  6
CONTINUOUS
 10
7.3946388915
 20
5.2909532301
 40
0.0208333333
100
AcDbArc
 50
270.0
 51
348.3574836231
  0
ARC
  5
2EA
100
AcDbEntity
  8
LAYER_FEATURE
100
AcDbCircle
 62
7
  6
CONTINUOUS
 10
7.6785956609
 20
5.2909532301
 40
0.0208333333
100
AcDbArc
 50
191.6425163769
 51
270.0
  0
ARC
  5
2EB
100
AcDbEntity
  8
LAYER_FEATURE
100
AcDbCircle
 62
7
  6
CONTINUOUS
 10
7.9571388915
 20
5.2909532301
 40
0.0208333333
100
AcDbArc
 50
270.0
 51
348.3574836231
  0
ARC
  5
2EC
100
AcDbEntity
  8
LAYER_FEATURE
100
AcDbCircle
 62
7
  6
CONTINUOUS
 10
9.0821388915
 20
5.2909532301
 40
0.0208333333
100
AcDbArc
 50
270.0
 51
348.3574836231
  0
ARC
  5
2ED
100
AcDbEntity
  8
LAYER_FEATURE
100
AcDbCircle
 62
7
  6
CONTINUOUS
 10
8.8035956609
 20
5.2909532301
 40
0.0208333333
100
AcDbArc
 50
191.6425163769
 51
270.0
  0
ARC
  5
2EE
100
AcDbEntity
  8
LAYER_FEATURE
100
AcDbCircle
 62
7
  6
CONTINUOUS
 10
8.5196388915
 20
5.2909532301
 40
0.0208333333
100
AcDbArc
 50
270.0
 51
348.3574836231
  0
ARC
  5
2EF
100
AcDbEntity
  8
LAYER_FEATURE
100
AcDbCircle
 62
7
  6
CONTINUOUS
 10
8.2410956609
 20
5.2909532301
 40
0.0208333333
100
AcDbArc
 50
191.6425163769
 51
270.0
  0
ARC
  5
2F0
100
AcDbEntity
  8
0
100
AcDbCircle
 62
7
  6
CONTINUOUS
 10
3.0753672762
 20
5.7626198968
 40
0.0075
100
AcDbArc
 50
90.0
 51
180.0
  0
ARC
  5
2F1
100
AcDbEntity
  8
0
100
AcDbCircle
 62
7
  6
CONTINUOUS
 10
9.1853672762
 20
5.7626198968
 40
0.0075
100
AcDbArc
 50
0.0
 51
90.0
  0
SPLINE
  5
2F2
100
AcDbEntity
  8
0
100
AcDbSpline
 62
7
  6
CONTINUOUS
 70
0
 71
3
 72
11
 73
7
 74
0
 42
0.0000001
 43
0.0000001
 44
0.0000000001
 40
0.0
 40
0.0
 40
0.0
 40
0.0
 40
0.2644444522
 40
0.5366447956
 40
0.7886683147
 40
1.0
 40
1.0
 40
1.0
 40
1.0
 10
18.4938558637
 20
13.4495343946
 30
0.0
 10
18.4948015225
 20
13.4495343946
 30
0.0
 10
18.4967236616
 20
13.4492720126
 30
0.0
 10
18.4993946133
 20
13.4482988531
 30
0.0
 10
18.5016138744
 20
13.4468478401
 30
0.0
 10
18.5027187054
 20
13.4455507594
 30
0.0
 10
18.5030516352
 20
13.4448723198
 30
0.0
  0
SPLINE
  5
2F3
100
AcDbEntity
  8
0
100
AcDbSpline
 62
7
  6
CONTINUOUS
 70
0
 71
3
 72
11
 73
7
 74
0
 42
0.0000001
 43
0.0000001
 44
0.0000000001
 40
0.0
 40
0.0
 40
0.0
 40
0.0
 40
0.2022595964
 40
0.4301234434
 40
0.6973865799
 40
1.0
 40
1.0
 40
1.0
 40
1.0
 10
12.8612959135
 20
13.4470865023
 30
0.0
 10
12.8614095217
 20
13.4474605011
 30
0.0
 10
12.8618611883
 20
13.4481993923
 30
0.0
 10
12.8629959711
 20
13.4489762185
 30
0.0
 10
12.8644835398
 20
13.4494370077
 30
0.0
 10
12.8655883801
 20
13.4495343946
 30
0.0
 10
12.8661731903
 20
13.4495343946
 30
0.0
  0
SPLINE
  5
2F4
100
AcDbEntity
  8
LAYER_FEATURE
100
AcDbSpline
 62
7
  6
CONTINUOUS
 70
0
 71
3
 72
12
 73
8
 74
0
 42
0.0000001
 43
0.0000001
 44
0.0000000001
 40
0.0
 40
0.0
 40
0.0
 40
0.0
 40
0.3032482348
 40
0.5692126505
 40
0.7966460351
 40
0.9000567244
 40
1.0
 40
1.0
 40
1.0
 40
1.0
 10
18.0671645116
 20
11.5720755912
 30
0.0
 10
18.0687945424
 20
11.5720755912
 30
0.0
 10
18.071866385
 20
11.5723368674
 30
0.0
 10
18.0759919725
 20
11.573626067
 30
0.0
 10
18.0786961786
 20
11.5754932627
 30
0.0
 10
18.0801058728
 20
11.5773520437
 30
0.0
 10
18.0805555297
 20
11.5783615208
 30
0.0
 10
18.0807135486
 20
11.5788749738
 30
0.0
  0
SPLINE
  5
2F5
100
AcDbEntity
  8
LAYER_FEATURE
100
AcDbSpline
 62
7
  6
CONTINUOUS
 70
0
 71
3
 72
11
 73
7
 74
0
 42
0.0000001
 43
0.0000001
 44
0.0000000001
 40
0.0
 40
0.0
 40
0.0
 40
0.0
 40
0.2249867323
 40
0.4788835533
 40
0.7440310686
 40
1.0
 40
1.0
 40
1.0
 40
1.0
 10
17.7867426684
 20
11.5824123853
 30
0.0
 10
17.7879911835
 20
11.5808439605
 30
0.0
 10
17.7912182313
 20
11.577956123
 30
0.0
 10
17.7970621553
 20
11.5747410433
 30
0.0
 10
17.8036771632
 20
11.5726233099
 30
0.0
 10
17.8083284674
 20
11.5720755912
 30
0.0
 10
17.8106092067
 20
11.5720755912
 30
0.0
  0
SPLINE
  5
2F6
100
AcDbEntity
  8
LAYER_FEATURE
100
AcDbSpline
 62
7
  6
CONTINUOUS
 70
0
 71
3
 72
12
 73
8
 74
0
 42
0.0000001
 43
0.0000001
 44
0.0000000001
 40
0.0
 40
0.0
 40
0.0
 40
0.0
 40
0.3032482348
 40
0.5692126505
 40
0.7966460351
 40
0.9000567244
 40
1.0
 40
1.0
 40
1.0
 40
1.0
 10
17.5490677025
 20
11.5720755912
 30
0.0
 10
17.5506977333
 20
11.5720755912
 30
0.0
 10
17.5537695759
 20
11.5723368674
 30
0.0
 10
17.5578951634
 20
11.573626067
 30
0.0
 10
17.5605993695
 20
11.5754932627
 30
0.0
 10
17.5620090636
 20
11.5773520437
 30
0.0
 10
17.5624587206
 20
11.5783615208
 30
0.0
 10
17.5626167395
 20
11.5788749738
 30
0.0
  0
SPLINE
  5
2F7
100
AcDbEntity
  8
LAYER_FEATURE
100
AcDbSpline
 62
7
  6
CONTINUOUS
 70
0
 71
3
 72
11
 73
7
 74
0
 42
0.0000001
 43
0.0000001
 44
0.0000000001
 40
0.0
 40
0.0
 40
0.0
 40
0.0
 40
0.2249867323
 40
0.4788835533
 40
0.7440310686
 40
1.0
 40
1.0
 40
1.0
 40
1.0
 10
17.2686458593
 20
11.5824123853
 30
0.0
 10
17.2698943744
 20
11.5808439605
 30
0.0
 10
17.2731214222
 20
11.577956123
 30
0.0
 10
17.2789653461
 20
11.5747410433
 30
0.0
 10
17.2855803541
 20
11.5726233099
 30
0.0
 10
17.2902316583
 20
11.5720755912
 30
0.0
 10
17.2925123976
 20
11.5720755912
 30
0.0
  0
SPLINE
  5
2F8
100
AcDbEntity
  8
LAYER_FEATURE
100
AcDbSpline
 62
7
  6
CONTINUOUS
 70
0
 71
3
 72
12
 73
8
 74
0
 42
0.0000001
 43
0.0000001
 44
0.0000000001
 40
0.0
 40
0.0
 40
0.0
 40
0.0
 40
0.3032482348
 40
0.5692126505
 40
0.7966460351
 40
0.9000567244
 40
1.0
 40
1.0
 40
1.0
 40
1.0
 10
17.0309708933
 20
11.5720755912
 30
0.0
 10
17.0326009242
 20
11.5720755912
 30
0.0
 10
17.0356727667
 20
11.5723368674
 30
0.0
 10
17.0397983542
 20
11.573626067
 30
0.0
 10
17.0425025604
 20
11.5754932627
 30
0.0
 10
17.0439122545
 20
11.5773520437
 30
0.0
 10
17.0443619115
 20
11.5783615208
 30
0.0
 10
17.0445199303
 20
11.5788749738
 30
0.0
  0
SPLINE
  5
2F9
100
AcDbEntity
  8
LAYER_FEATURE
100
AcDbSpline
 62
7
  6
CONTINUOUS
 70
0
 71
3
 72
11
 73
7
 74
0
 42
0.0000001
 43
0.0000001
 44
0.0000000001
 40
0.0
 40
0.0
 40
0.0
 40
0.0
 40
0.2249867323
 40
0.4788835533
 40
0.7440310686
 40
1.0
 40
1.0
 40
1.0
 40
1.0
 10
16.7505490502
 20
11.5824123853
 30
0.0
 10
16.7517975652
 20
11.5808439605
 30
0.0
 10
16.7550246131
 20
11.577956123
 30
0.0
 10
16.760868537
 20
11.5747410433
 30
0.0
 10
16.7674835449
 20
11.5726233099
 30
0.0
 10
16.7721348492
 20
11.5720755912
 30
0.0
 10
16.7744155885
 20
11.5720755912
 30
0.0
  0
SPLINE
  5
2FA
100
AcDbEntity
  8
LAYER_FEATURE
100
AcDbSpline
 62
7
  6
CONTINUOUS
 70
0
 71
3
 72
12
 73
8
 74
0
 42
0.0000001
 43
0.0000001
 44
0.0000000001
 40
0.0
 40
0.0
 40
0.0
 40
0.0
 40
0.3032482348
 40
0.5692126505
 40
0.7966460351
 40
0.9000567244
 40
1.0
 40
1.0
 40
1.0
 40
1.0
 10
16.5128740842
 20
11.5720755912
 30
0.0
 10
16.5145041151
 20
11.5720755912
 30
0.0
 10
16.5175759576
 20
11.5723368674
 30
0.0
 10
16.5217015451
 20
11.573626067
 30
0.0
 10
16.5244057513
 20
11.5754932627
 30
0.0
 10
16.5258154454
 20
11.5773520437
 30
0.0
 10
16.5262651024
 20
11.5783615208
 30
0.0
 10
16.5264231212
 20
11.5788749738
 30
0.0
  0
SPLINE
  5
2FB
100
AcDbEntity
  8
LAYER_FEATURE
100
AcDbSpline
 62
7
  6
CONTINUOUS
 70
0
 71
3
 72
11
 73
7
 74
0
 42
0.0000001
 43
0.0000001
 44
0.0000000001
 40
0.0
 40
0.0
 40
0.0
 40
0.0
 40
0.2249867323
 40
0.4788835533
 40
0.7440310686
 40
1.0
 40
1.0
 40
1.0
 40
1.0
 10
16.232452241
 20
11.5824123853
 30
0.0
 10
16.2337007561
 20
11.5808439605
 30
0.0
 10
16.2369278039
 20
11.577956123
 30
0.0
 10
16.2427717279
 20
11.5747410433
 30
0.0
 10
16.2493867358
 20
11.5726233099
 30
0.0
 10
16.25403804
 20
11.5720755912
 30
0.0
 10
16.2563187793
 20
11.5720755912
 30
0.0
  0
SPLINE
  5
2FC
100
AcDbEntity
  8
LAYER_FEATURE
100
AcDbSpline
 62
7
  6
CONTINUOUS
 70
0
 71
3
 72
12
 73
8
 74
0
 42
0.0000001
 43
0.0000001
 44
0.0000000001
 40
0.0
 40
0.0
 40
0.0
 40
0.0
 40
0.3032482348
 40
0.5692126505
 40
0.7966460351
 40
0.9000567244
 40
1.0
 40
1.0
 40
1.0
 40
1.0
 10
15.9947772751
 20
11.5720755912
 30
0.0
 10
15.9964073059
 20
11.5720755912
 30
0.0
 10
15.9994791485
 20
11.5723368674
 30
0.0
 10
16.003604736
 20
11.573626067
 30
0.0
 10
16.0063089421
 20
11.5754932627
 30
0.0
 10
16.0077186363
 20
11.5773520437
 30
0.0
 10
16.0081682932
 20
11.5783615208
 30
0.0
 10
16.0083263121
 20
11.5788749738
 30
0.0
  0
SPLINE
  5
2FD
100
AcDbEntity
  8
LAYER_FEATURE
100
AcDbSpline
 62
7
  6
CONTINUOUS
 70
0
 71
3
 72
11
 73
7
 74
0
 42
0.0000001
 43
0.0000001
 44
0.0000000001
 40
0.0
 40
0.0
 40
0.0
 40
0.0
 40
0.2249867323
 40
0.4788835533
 40
0.7440310686
 40
1.0
 40
1.0
 40
1.0
 40
1.0
 10
15.7143554319
 20
11.5824123853
 30
0.0
 10
15.715603947
 20
11.5808439605
 30
0.0
 10
15.7188309948
 20
11.577956123
 30
0.0
 10
15.7246749187
 20
11.5747410433
 30
0.0
 10
15.7312899267
 20
11.5726233099
 30
0.0
 10
15.7359412309
 20
11.5720755912
 30
0.0
 10
15.7382219702
 20
11.5720755912
 30
0.0
  0
SPLINE
  5
2FE
100
AcDbEntity
  8
LAYER_FEATURE
100
AcDbSpline
 62
7
  6
CONTINUOUS
 70
0
 71
3
 72
12
 73
8
 74
0
 42
0.0000001
 43
0.0000001
 44
0.0000000001
 40
0.0
 40
0.0
 40
0.0
 40
0.0
 40
0.303248329
 40
0.5692128841
 40
0.7966463012
 40
0.9000571914
 40
1.0
 40
1.0
 40
1.0
 40
1.0
 10
15.476680466
 20
11.5720755912
 30
0.0
 10
15.4783104971
 20
11.5720755912
 30
0.0
 10
15.4813823391
 20
11.572336874
 30
0.0
 10
15.485507932
 20
11.5736260607
 30
0.0
 10
15.4882121347
 20
11.5754932688
 30
0.0
 10
15.4896218202
 20
11.5773520522
 30
0.0
 10
15.4900714881
 20
11.5783615221
 30
0.0
 10
15.4902295092
 20
11.5788749718
 30
0.0
  0
SPLINE
  5
2FF
100
AcDbEntity
  8
LAYER_FEATURE
100
AcDbSpline
 62
7
  6
CONTINUOUS
 70
0
 71
3
 72
11
 73
7
 74
0
 42
0.0000001
 43
0.0000001
 44
0.0000000001
 40
0.0
 40
0.0
 40
0.0
 40
0.0
 40
0.2249867323
 40
0.4788835533
 40
0.7440310686
 40
1.0
 40
1.0
 40
1.0
 40
1.0
 10
15.1962586228
 20
11.5824123853
 30
0.0
 10
15.1975071378
 20
11.5808439605
 30
0.0
 10
15.2007341857
 20
11.577956123
 30
0.0
 10
15.2065781096
 20
11.5747410433
 30
0.0
 10
15.2131931176
 20
11.5726233099
 30
0.0
 10
15.2178444218
 20
11.5720755912
 30
0.0
 10
15.2201251611
 20
11.5720755912
 30
0.0
  0
SPLINE
  5
300
100
AcDbEntity
  8
LAYER_FEATURE
100
AcDbSpline
 62
7
  6
CONTINUOUS
 70
0
 71
3
 72
12
 73
8
 74
0
 42
0.0000001
 43
0.0000001
 44
0.0000000001
 40
0.0
 40
0.0
 40
0.0
 40
0.0
 40
0.3032482348
 40
0.5692126505
 40
0.7966460351
 40
0.9000567244
 40
1.0
 40
1.0
 40
1.0
 40
1.0
 10
14.9585836568
 20
11.5720755912
 30
0.0
 10
14.9602136877
 20
11.5720755912
 30
0.0
 10
14.9632855302
 20
11.5723368674
 30
0.0
 10
14.9674111177
 20
11.573626067
 30
0.0
 10
14.9701153239
 20
11.5754932627
 30
0.0
 10
14.971525018
 20
11.5773520437
 30
0.0
 10
14.971974675
 20
11.5783615208
 30
0.0
 10
14.9721326938
 20
11.5788749738
 30
0.0
  0
SPLINE
  5
301
100
AcDbEntity
  8
LAYER_FEATURE
100
AcDbSpline
 62
7
  6
CONTINUOUS
 70
0
 71
3
 72
11
 73
7
 74
0
 42
0.0000001
 43
0.0000001
 44
0.0000000001
 40
0.0
 40
0.0
 40
0.0
 40
0.0
 40
0.2249867323
 40
0.4788835533
 40
0.7440310686
 40
1.0
 40
1.0
 40
1.0
 40
1.0
 10
14.6781618136
 20
11.5824123853
 30
0.0
 10
14.6794103287
 20
11.5808439605
 30
0.0
 10
14.6826373765
 20
11.577956123
 30
0.0
 10
14.6884813005
 20
11.5747410433
 30
0.0
 10
14.6950963084
 20
11.5726233099
 30
0.0
 10
14.6997476127
 20
11.5720755912
 30
0.0
 10
14.702028352
 20
11.5720755912
 30
0.0
  0
SPLINE
  5
302
100
AcDbEntity
  8
LAYER_FEATURE
100
AcDbSpline
 62
7
  6
CONTINUOUS
 70
0
 71
3
 72
12
 73
8
 74
0
 42
0.0000001
 43
0.0000001
 44
0.0000000001
 40
0.0
 40
0.0
 40
0.0
 40
0.0
 40
0.3032482348
 40
0.5692126505
 40
0.7966460351
 40
0.9000567244
 40
1.0
 40
1.0
 40
1.0
 40
1.0
 10
14.4404868477
 20
11.5720755912
 30
0.0
 10
14.4421168785
 20
11.5720755912
 30
0.0
 10
14.4451887211
 20
11.5723368674
 30
0.0
 10
14.4493143086
 20
11.573626067
 30
0.0
 10
14.4520185148
 20
11.5754932627
 30
0.0
 10
14.4534282089
 20
11.5773520437
 30
0.0
 10
14.4538778659
 20
11.5783615208
 30
0.0
 10
14.4540358847
 20
11.5788749738
 30
0.0
  0
SPLINE
  5
303
100
AcDbEntity
  8
LAYER_FEATURE
100
AcDbSpline
 62
7
  6
CONTINUOUS
 70
0
 71
3
 72
11
 73
7
 74
0
 42
0.0000001
 43
0.0000001
 44
0.0000000001
 40
0.0
 40
0.0
 40
0.0
 40
0.0
 40
0.2249867323
 40
0.4788835533
 40
0.7440310686
 40
1.0
 40
1.0
 40
1.0
 40
1.0
 10
14.1600650045
 20
11.5824123853
 30
0.0
 10
14.1613135196
 20
11.5808439605
 30
0.0
 10
14.1645405674
 20
11.577956123
 30
0.0
 10
14.1703844914
 20
11.5747410433
 30
0.0
 10
14.1769994993
 20
11.5726233099
 30
0.0
 10
14.1816508035
 20
11.5720755912
 30
0.0
 10
14.1839315428
 20
11.5720755912
 30
0.0
  0
SPLINE
  5
304
100
AcDbEntity
  8
LAYER_FEATURE
100
AcDbSpline
 62
7
  6
CONTINUOUS
 70
0
 71
3
 72
12
 73
8
 74
0
 42
0.0000001
 43
0.0000001
 44
0.0000000001
 40
0.0
 40
0.0
 40
0.0
 40
0.0
 40
0.3032482348
 40
0.5692126505
 40
0.7966460351
 40
0.9000567244
 40
1.0
 40
1.0
 40
1.0
 40
1.0
 10
13.9223900386
 20
11.5720755912
 30
0.0
 10
13.9240200694
 20
11.5720755912
 30
0.0
 10
13.927091912
 20
11.5723368674
 30
0.0
 10
13.9312174995
 20
11.573626067
 30
0.0
 10
13.9339217056
 20
11.5754932627
 30
0.0
 10
13.9353313998
 20
11.5773520437
 30
0.0
 10
13.9357810567
 20
11.5783615208
 30
0.0
 10
13.9359390756
 20
11.5788749738
 30
0.0
  0
SPLINE
  5
305
100
AcDbEntity
  8
LAYER_FEATURE
100
AcDbSpline
 62
7
  6
CONTINUOUS
 70
0
 71
3
 72
11
 73
7
 74
0
 42
0.0000001
 43
0.0000001
 44
0.0000000001
 40
0.0
 40
0.0
 40
0.0
 40
0.0
 40
0.2249867323
 40
0.4788835533
 40
0.7440310686
 40
1.0
 40
1.0
 40
1.0
 40
1.0
 10
13.6419681954
 20
11.5824123853
 30
0.0
 10
13.6432167105
 20
11.5808439605
 30
0.0
 10
13.6464437583
 20
11.577956123
 30
0.0
 10
13.6522876822
 20
11.5747410433
 30
0.0
 10
13.6589026902
 20
11.5726233099
 30
0.0
 10
13.6635539944
 20
11.5720755912
 30
0.0
 10
13.6658347337
 20
11.5720755912
 30
0.0
  0
SPLINE
  5
306
100
AcDbEntity
  8
LAYER_FEATURE
100
AcDbSpline
 62
7
  6
CONTINUOUS
 70
0
 71
3
 72
12
 73
8
 74
0
 42
0.0000001
 43
0.0000001
 44
0.0000000001
 40
0.0
 40
0.0
 40
0.0
 40
0.0
 40
0.3032482348
 40
0.5692126505
 40
0.7966460351
 40
0.9000567244
 40
1.0
 40
1.0
 40
1.0
 40
1.0
 10
13.4042932295
 20
11.5720755912
 30
0.0
 10
13.4059232603
 20
11.5720755912
 30
0.0
 10
13.4089951029
 20
11.5723368674
 30
0.0
 10
13.4131206903
 20
11.573626067
 30
0.0
 10
13.4158248965
 20
11.5754932627
 30
0.0
 10
13.4172345906
 20
11.5773520437
 30
0.0
 10
13.4176842476
 20
11.5783615208
 30
0.0
 10
13.4178422664
 20
11.5788749738
 30
0.0
  0
SPLINE
  5
307
100
AcDbEntity
  8
LAYER_FEATURE
100
AcDbSpline
 62
7
  6
CONTINUOUS
 70
0
 71
3
 72
11
 73
7
 74
0
 42
0.0000001
 43
0.0000001
 44
0.0000000001
 40
0.0
 40
0.0
 40
0.0
 40
0.0
 40
0.2249867323
 40
0.4788835533
 40
0.7440310686
 40
1.0
 40
1.0
 40
1.0
 40
1.0
 10
13.1238713863
 20
11.5824123853
 30
0.0
 10
13.1251199013
 20
11.5808439605
 30
0.0
 10
13.1283469492
 20
11.577956123
 30
0.0
 10
13.1341908731
 20
11.5747410433
 30
0.0
 10
13.140805881
 20
11.5726233099
 30
0.0
 10
13.1454571853
 20
11.5720755912
 30
0.0
 10
13.1477379246
 20
11.5720755912
 30
0.0
  0
SPLINE
  5
308
100
AcDbEntity
  8
0
100
AcDbSpline
 62
7
  6
CONTINUOUS
 70
0
 71
3
 72
12
 73
8
 74
0
 42
0.0000001
 43
0.0000001
 44
0.0000000001
 40
0.0
 40
0.0
 40
0.0
 40
0.0
 40
0.3032482348
 40
0.5692126505
 40
0.7966460351
 40
0.9000567244
 40
1.0
 40
1.0
 40
1.0
 40
1.0
 10
12.8861964203
 20
11.5720755912
 30
0.0
 10
12.8878264512
 20
11.5720755912
 30
0.0
 10
12.8908982937
 20
11.5723368674
 30
0.0
 10
12.8950238812
 20
11.573626067
 30
0.0
 10
12.8977280874
 20
11.5754932627
 30
0.0
 10
12.8991377815
 20
11.5773520437
 30
0.0
 10
12.8995874385
 20
11.5783615208
 30
0.0
 10
12.8997454573
 20
11.5788749738
 30
0.0
  0
SPLINE
  5
309
100
AcDbEntity
  8
0
100
AcDbSpline
 62
7
  6
CONTINUOUS
 70
0
 71
3
 72
11
 73
7
 74
0
 42
0.0000001
 43
0.0000001
 44
0.0000000001
 40
0.0
 40
0.0
 40
0.0
 40
0.0
 40
0.2249867323
 40
0.4788835533
 40
0.7440310686
 40
1.0
 40
1.0
 40
1.0
 40
1.0
 10
12.6057745771
 20
11.5824123853
 30
0.0
 10
12.6070230922
 20
11.5808439605
 30
0.0
 10
12.61025014
 20
11.577956123
 30
0.0
 10
12.616094064
 20
11.5747410433
 30
0.0
 10
12.6227090719
 20
11.5726233099
 30
0.0
 10
12.6273603762
 20
11.5720755912
 30
0.0
 10
12.6296411155
 20
11.5720755912
 30
0.0
  0
SPLINE
  5
30A
100
AcDbEntity
  8
0
100
AcDbSpline
 62
7
  6
CONTINUOUS
 70
0
 71
3
 72
11
 73
7
 74
0
 42
0.0000001
 43
0.0000001
 44
0.0000000001
 40
0.0
 40
0.0
 40
0.0
 40
0.0
 40
0.3026134201
 40
0.5698765566
 40
0.7977404036
 40
1.0
 40
1.0
 40
1.0
 40
1.0
 10
12.3820405435
 20
11.8828805753
 30
0.0
 10
12.3814557333
 20
11.8828805753
 30
0.0
 10
12.380350893
 20
11.8827831885
 30
0.0
 10
12.3788633243
 20
11.8823223993
 30
0.0
 10
12.3777285415
 20
11.881545573
 30
0.0
 10
12.3772768749
 20
11.8808066818
 30
0.0
 10
12.3771632667
 20
11.8804326831
 30
0.0
  0
SPLINE
  5
30B
100
AcDbEntity
  8
0
100
AcDbSpline
 62
7
  6
CONTINUOUS
 70
0
 71
3
 72
11
 73
7
 74
0
 42
0.0000001
 43
0.0000001
 44
0.0000000001
 40
0.0
 40
0.0
 40
0.0
 40
0.0
 40
0.2113316853
 40
0.4633552044
 40
0.7355555478
 40
1.0
 40
1.0
 40
1.0
 40
1.0
 10
18.0189189883
 20
11.8782185006
 30
0.0
 10
18.0185860586
 20
11.8788969401
 30
0.0
 10
18.0174812276
 20
11.8801940209
 30
0.0
 10
18.0152619665
 20
11.8816450338
 30
0.0
 10
18.0125910148
 20
11.8826181933
 30
0.0
 10
18.0106688757
 20
11.8828805753
 30
0.0
 10
18.0097232169
 20
11.8828805753
 30
0.0
  0
ENDSEC
  0
SECTION
  2
OBJECTS
  0
DICTIONARY
  5
C
100
AcDbDictionary
280
0
281
1
  3
ACAD_GROUP
350
D
  3
ACAD_MLINESTYLE
350
17
  3
ACAD_LAYOUT
350
1A
  3
ACAD_PLOTSETTINGS
350
19
  3
ACAD_PLOTSTYLENAME
350
E
  0
DICTIONARY
  5
D
102
{ACAD_REACTORS
330
C
102
}
100
AcDbDictionary
280
0
281
1
  0
ACDBDICTIONARYWDFLT
  5
E
102
{ACAD_REACTORS
330
C
102
}
100
AcDbDictionary
281
1
  3
Normal
350
F
100
AcDbDictionaryWithDefault
340
F
  0
DICTIONARY
  5
17
102
{ACAD_REACTORS
330
C
102
}
100
AcDbDictionary
280
0
281
1
  3
Standard
350
18
  0
DICTIONARY
  5
19
102
{ACAD_REACTORS
330
C
102
}
100
AcDbDictionary
281
1
  0
DICTIONARY
  5
1A
102
{ACAD_REACTORS
330
C
102
}
100
AcDbDictionary
281
1
  3
Model
350
30C
  3
Layout1
350
30D
  0
ACDBPLACEHOLDER
  5
F
102
{ACAD_REACTORS
330
E
102
}
  0
MLINESTYLE
  5
18
102
{ACAD_REACTORS
330
17
102
}
100
AcDbMlineStyle
  2
STANDARD
 70
0
  3

 62
256
 51
90.0
 52
90.0
 71
2
 49
0.5
 62
256
  6
BYLAYER
 49
-0.5
 62
256
  6
BYLAYER
  0
LAYOUT
  5
30C
102
{ACAD_REACTORS
330
1A
102
}
100
AcDbPlotSettings
  1

  2
none_device
  4
ANSI_C_(22.00_x_17.00_Inches)
  6

 40
0.0
 41
0.0
 42
0.0
 43
0.0
 44
558.8
 45
431.8
 46
0.0
 47
0.0
 48
0.0
 49
0.0
140
0.0
141
0.0
142
1.0
143
1.0
 70
1024
 72
0
 73
0
 74
0
  7

 75
0
147
1.0
148
0.0
149
0.0
100
AcDbLayout
  1
Model
 70
0
 71
0
 10
0.0
 20
0.0
 11
22.0
 21
17.0
 12
0.0
 22
0.0
 32
0.0
 14
0.0
 24
0.0
 34
0.0
 15
0.0
 25
0.0
 35
0.0
146
0.0
 13
0.0
 23
0.0
 33
0.0
 16
1.0
 26
0.0
 36
0.0
 17
0.0
 27
1.0
 37
0.0
 76
0
330
21C
345
0
346
0
  0
LAYOUT
  5
30D
102
{ACAD_REACTORS
330
1A
102
}
100
AcDbPlotSettings
  1

  2
none_device
  4
ANSI_C_(22.00_x_17.00_Inches)
  6

 40
0.0
 41
0.0
 42
0.0
 43
0.0
 44
558.8
 45
431.8
 46
0.0
 47
0.0
 48
0.0
 49
0.0
140
0.0
141
0.0
142
1.0
143
1.0
 70
0
 72
0
 73
0
 74
0
  7

 75
0
147
1.0
148
0.0
149
0.0
100
AcDbLayout
  1
Layout1
 70
0
 71
1
 10
0.0
 20
0.0
 11
22.0
 21
17.0
 12
0.0
 22
0.0
 32
0.0
 14
0.0
 24
0.0
 34
0.0
 15
0.0
 25
0.0
 35
0.0
146
0.0
 13
0.0
 23
0.0
 33
0.0
 16
1.0
 26
0.0
 36
0.0
 17
0.0
 27
1.0
 37
0.0
 76
0
330
21D
345
0
346
0
  0
ENDSEC
  0
EOF