0
SECTION
  2
HEADER
  9
$ACADVER
  1
AC1027
  9
$ACADMAINTVER
 70
     8
  9
$DWGCODEPAGE
  3
ANSI_1252
  9
$REQUIREDVERSIONS
160
                 0
  9
$COMMENTS
  1
File was created by Cadenas
  9
$CUSTOMPROPERTYTAG
  1
NN
  9
$CUSTOMPROPERTY
  1
Special Duty Flange Bearing - Inch - Gray Iron Non-Expansion
  9
$CUSTOMPROPERTYTAG
  1
NT
  9
$CUSTOMPROPERTY
  1
Special Duty
  9
$CUSTOMPROPERTYTAG
  1
NB
  9
$CUSTOMPROPERTY
  1
104019
  9
$CUSTOMPROPERTYTAG
  1
NBSYN
  9
$CUSTOMPROPERTY
  1
$PN.
  9
$CUSTOMPROPERTYTAG
  1
LINA
  9
$CUSTOMPROPERTY
  1
104019
  9
$CUSTOMPROPERTYTAG
  1
SS
  9
$CUSTOMPROPERTY
  1
6
  9
$CUSTOMPROPERTYTAG
  1
PN
  9
$CUSTOMPROPERTY
  1
104019
  9
$CUSTOMPROPERTYTAG
  1
TYPE
  9
$CUSTOMPROPERTY
  1
Gray Iron Expansion
  9
$CUSTOMPROPERTYTAG
  1
DESCRIPTION
  9
$CUSTOMPROPERTY
  1
F4B-SD-600E
  9
$CUSTOMPROPERTYTAG
  1
WEIGHT
  9
$CUSTOMPROPERTY
  1
560
  9
$CUSTOMPROPERTYTAG
  1
A
  9
$CUSTOMPROPERTY
  1
12
  9
$CUSTOMPROPERTYTAG
  1
B
  9
$CUSTOMPROPERTY
  1
25-1/2
  9
$CUSTOMPROPERTYTAG
  1
C
  9
$CUSTOMPROPERTY
  1
9
  9
$CUSTOMPROPERTYTAG
  1
D
  9
$CUSTOMPROPERTY
  1
22-1/2
  9
$CUSTOMPROPERTYTAG
  1
E
  9
$CUSTOMPROPERTY
  1
1-1/2
  9
$CUSTOMPROPERTYTAG
  1
F
  9
$CUSTOMPROPERTY
  1
1-1/4
  9
$CUSTOMPROPERTYTAG
  1
H
  9
$CUSTOMPROPERTY
  1
1-3/4
  9
$CUSTOMPROPERTYTAG
  1
J
  9
$CUSTOMPROPERTY
  1
15.910
  9
$CUSTOMPROPERTYTAG
  1
L
  9
$CUSTOMPROPERTY
  1
9-1/2
  9
$CUSTOMPROPERTYTAG
  1
EXP
  9
$CUSTOMPROPERTY
  1
5/8
  9
$CUSTOMPROPERTYTAG
  1
COMPANY
  9
$CUSTOMPROPERTY
  1
baldor
  9
$INSBASE
 10
0.0
 20
0.0
 30
0.0
  9
$EXTMIN
 10
1.000000000000000E+20
 20
1.000000000000000E+20
 30
1.000000000000000E+20
  9
$EXTMAX
 10
-1.000000000000000E+20
 20
-1.000000000000000E+20
 30
-1.000000000000000E+20
  9
$LIMMIN
 10
0.0
 20
0.0
  9
$LIMMAX
 10
12.0
 20
9.0
  9
$ORTHOMODE
 70
     0
  9
$REGENMODE
 70
     1
  9
$FILLMODE
 70
     1
  9
$QTEXTMODE
 70
     0
  9
$MIRRTEXT
 70
     1
  9
$LTSCALE
 40
1.0
  9
$ATTMODE
 70
     1
  9
$TEXTSIZE
 40
0.2
  9
$TRACEWID
 40
0.05
  9
$TEXTSTYLE
  7
Standard
  9
$CLAYER
  8
0
  9
$CELTYPE
  6
ByLayer
  9
$CECOLOR
 62
   256
  9
$CELTSCALE
 40
1.0
  9
$DISPSILH
 70
     0
  9
$DIMSCALE
 40
1.0
  9
$DIMASZ
 40
0.18
  9
$DIMEXO
 40
0.0625
  9
$DIMDLI
 40
0.38
  9
$DIMRND
 40
0.0
  9
$DIMDLE
 40
0.0
  9
$DIMEXE
 40
0.18
  9
$DIMTP
 40
0.0
  9
$DIMTM
 40
0.0
  9
$DIMTXT
 40
0.18
  9
$DIMCEN
 40
0.09
  9
$DIMTSZ
 40
0.0
  9
$DIMTOL
 70
     0
  9
$DIMLIM
 70
     0
  9
$DIMTIH
 70
     1
  9
$DIMTOH
 70
     1
  9
$DIMSE1
 70
     0
  9
$DIMSE2
 70
     0
  9
$DIMTAD
 70
     0
  9
$DIMZIN
 70
     0
  9
$DIMBLK
  1

  9
$DIMASO
 70
     1
  9
$DIMSHO
 70
     1
  9
$DIMPOST
  1

  9
$DIMAPOST
  1

  9
$DIMALT
 70
     0
  9
$DIMALTD
 70
     2
  9
$DIMALTF
 40
25.4
  9
$DIMLFAC
 40
1.0
  9
$DIMTOFL
 70
     0
  9
$DIMTVP
 40
0.0
  9
$DIMTIX
 70
     0
  9
$DIMSOXD
 70
     0
  9
$DIMSAH
 70
     0
  9
$DIMBLK1
  1

  9
$DIMBLK2
  1

  9
$DIMSTYLE
  2
Standard
  9
$DIMCLRD
 70
     0
  9
$DIMCLRE
 70
     0
  9
$DIMCLRT
 70
     0
  9
$DIMTFAC
 40
1.0
  9
$DIMGAP
 40
0.09
  9
$DIMJUST
 70
     0
  9
$DIMSD1
 70
     0
  9
$DIMSD2
 70
     0
  9
$DIMTOLJ
 70
     1
  9
$DIMTZIN
 70
     0
  9
$DIMALTZ
 70
     0
  9
$DIMALTTZ
 70
     0
  9
$DIMUPT
 70
     0
  9
$DIMDEC
 70
     4
  9
$DIMTDEC
 70
     4
  9
$DIMALTU
 70
     2
  9
$DIMALTTD
 70
     2
  9
$DIMTXSTY
  7
Standard
  9
$DIMAUNIT
 70
     0
  9
$DIMADEC
 70
     0
  9
$DIMALTRND
 40
0.0
  9
$DIMAZIN
 70
     0
  9
$DIMDSEP
 70
    46
  9
$DIMATFIT
 70
     3
  9
$DIMFRAC
 70
     0
  9
$DIMLDRBLK
  1

  9
$DIMLUNIT
 70
     2
  9
$DIMLWD
 70
    -2
  9
$DIMLWE
 70
    -2
  9
$DIMTMOVE
 70
     0
  9
$DIMFXL
 40
1.0
  9
$DIMFXLON
 70
     0
  9
$DIMJOGANG
 40
0.7853981633974483
  9
$DIMTFILL
 70
     0
  9
$DIMTFILLCLR
 70
     0
  9
$DIMARCSYM
 70
     0
  9
$DIMLTYPE
  6

  9
$DIMLTEX1
  6

  9
$DIMLTEX2
  6

  9
$DIMTXTDIRECTION
 70
     0
  9
$LUNITS
 70
     2
  9
$LUPREC
 70
     4
  9
$SKETCHINC
 40
0.1
  9
$FILLETRAD
 40
0.5
  9
$AUNITS
 70
     0
  9
$AUPREC
 70
     0
  9
$MENU
  1
.
  9
$ELEVATION
 40
0.0
  9
$PELEVATION
 40
0.0
  9
$THICKNESS
 40
0.0
  9
$LIMCHECK
 70
     0
  9
$CHAMFERA
 40
0.0
  9
$CHAMFERB
 40
0.0
  9
$CHAMFERC
 40
0.0
  9
$CHAMFERD
 40
0.0
  9
$SKPOLY
 70
     0
  9
$TDCREATE
 40
2458169.000215197
  9
$TDUCREATE
 40
2458168.95854853
  9
$TDUPDATE
 40
2458169.000215197
  9
$TDUUPDATE
 40
2458168.95854853
  9
$TDINDWG
 40
0.0000000116
  9
$TDUSRTIMER
 40
0.0000000116
  9
$USRTIMER
 70
     1
  9
$ANGBASE
 50
0.0
  9
$ANGDIR
 70
     0
  9
$PDMODE
 70
     0
  9
$PDSIZE
 40
0.0
  9
$PLINEWID
 40
0.0
  9
$SPLFRAME
 70
     0
  9
$SPLINETYPE
 70
     6
  9
$SPLINESEGS
 70
     8
  9
$HANDSEED
  5
197
  9
$SURFTAB1
 70
     6
  9
$SURFTAB2
 70
     6
  9
$SURFTYPE
 70
     6
  9
$SURFU
 70
     6
  9
$SURFV
 70
     6
  9
$UCSBASE
  2

  9
$UCSNAME
  2

  9
$UCSORG
 10
0.0
 20
0.0
 30
0.0
  9
$UCSXDIR
 10
1.0
 20
0.0
 30
0.0
  9
$UCSYDIR
 10
0.0
 20
1.0
 30
0.0
  9
$UCSORTHOREF
  2

  9
$UCSORTHOVIEW
 70
     0
  9
$UCSORGTOP
 10
0.0
 20
0.0
 30
0.0
  9
$UCSORGBOTTOM
 10
0.0
 20
0.0
 30
0.0
  9
$UCSORGLEFT
 10
0.0
 20
0.0
 30
0.0
  9
$UCSORGRIGHT
 10
0.0
 20
0.0
 30
0.0
  9
$UCSORGFRONT
 10
0.0
 20
0.0
 30
0.0
  9
$UCSORGBACK
 10
0.0
 20
0.0
 30
0.0
  9
$PUCSBASE
  2

  9
$PUCSNAME
  2

  9
$PUCSORG
 10
0.0
 20
0.0
 30
0.0
  9
$PUCSXDIR
 10
1.0
 20
0.0
 30
0.0
  9
$PUCSYDIR
 10
0.0
 20
1.0
 30
0.0
  9
$PUCSORTHOREF
  2

  9
$PUCSORTHOVIEW
 70
     0
  9
$PUCSORGTOP
 10
0.0
 20
0.0
 30
0.0
  9
$PUCSORGBOTTOM
 10
0.0
 20
0.0
 30
0.0
  9
$PUCSORGLEFT
 10
0.0
 20
0.0
 30
0.0
  9
$PUCSORGRIGHT
 10
0.0
 20
0.0
 30
0.0
  9
$PUCSORGFRONT
 10
0.0
 20
0.0
 30
0.0
  9
$PUCSORGBACK
 10
0.0
 20
0.0
 30
0.0
  9
$USERI1
 70
     0
  9
$USERI2
 70
     0
  9
$USERI3
 70
     0
  9
$USERI4
 70
     0
  9
$USERI5
 70
     0
  9
$USERR1
 40
0.0
  9
$USERR2
 40
0.0
  9
$USERR3
 40
0.0
  9
$USERR4
 40
0.0
  9
$USERR5
 40
0.0
  9
$WORLDVIEW
 70
     1
  9
$SHADEDGE
 70
     3
  9
$SHADEDIF
 70
    70
  9
$TILEMODE
 70
     1
  9
$MAXACTVP
 70
    64
  9
$PINSBASE
 10
0.0
 20
0.0
 30
0.0
  9
$PLIMCHECK
 70
     0
  9
$PEXTMIN
 10
1.000000000000000E+20
 20
1.000000000000000E+20
 30
1.000000000000000E+20
  9
$PEXTMAX
 10
-1.000000000000000E+20
 20
-1.000000000000000E+20
 30
-1.000000000000000E+20
  9
$PLIMMIN
 10
0.0
 20
0.0
  9
$PLIMMAX
 10
12.0
 20
9.0
  9
$UNITMODE
 70
     0
  9
$VISRETAIN
 70
     1
  9
$PLINEGEN
 70
     0
  9
$PSLTSCALE
 70
     1
  9
$TREEDEPTH
 70
  3020
  9
$CMLSTYLE
  2
Standard
  9
$CMLJUST
 70
     0
  9
$CMLSCALE
 40
1.0
  9
$PROXYGRAPHICS
 70
     1
  9
$MEASUREMENT
 70
     0
  9
$CELWEIGHT
370
    -1
  9
$ENDCAPS
280
     0
  9
$JOINSTYLE
280
     0
  9
$LWDISPLAY
290
     0
  9
$INSUNITS
 70
     1
  9
$HYPERLINKBASE
  1

  9
$STYLESHEET
  1

  9
$XEDIT
290
     1
  9
$CEPSNTYPE
380
     0
  9
$PSTYLEMODE
290
     1
  9
$FINGERPRINTGUID
  2
{531D3505-879C-4234-A130-AC181A6A2BBE}
  9
$VERSIONGUID
  2
{FAEB1C32-E019-11D5-929B-00C0DF256EC4}
  9
$EXTNAMES
290
     1
  9
$PSVPSCALE
 40
0.0
  9
$OLESTARTUP
290
     0
  9
$SORTENTS
280
   127
  9
$INDEXCTL
280
     0
  9
$HIDETEXT
280
     1
  9
$XCLIPFRAME
280
     2
  9
$HALOGAP
280
     0
  9
$OBSCOLOR
 70
   257
  9
$OBSLTYPE
280
     0
  9
$INTERSECTIONDISPLAY
280
     0
  9
$INTERSECTIONCOLOR
 70
   257
  9
$DIMASSOC
280
     2
  9
$PROJECTNAME
  1

  9
$CAMERADISPLAY
290
     0
  9
$LENSLENGTH
 40
50.0
  9
$CAMERAHEIGHT
 40
0.0
  9
$STEPSPERSEC
 40
2.0
  9
$STEPSIZE
 40
6.0
  9
$3DDWFPREC
 40
2.0
  9
$PSOLWIDTH
 40
0.25
  9
$PSOLHEIGHT
 40
4.0
  9
$LOFTANG1
 40
1.570796326794897
  9
$LOFTANG2
 40
1.570796326794897
  9
$LOFTMAG1
 40
0.0
  9
$LOFTMAG2
 40
0.0
  9
$LOFTPARAM
 70
     7
  9
$LOFTNORMALS
280
     1
  9
$LATITUDE
 40
37.795
  9
$LONGITUDE
 40
-122.394
  9
$NORTHDIRECTION
 40
0.0
  9
$TIMEZONE
 70
 -8000
  9
$LIGHTGLYPHDISPLAY
280
     1
  9
$TILEMODELIGHTSYNCH
280
     1
  9
$CMATERIAL
347
44
  9
$SOLIDHIST
280
     0
  9
$SHOWHIST
280
     1
  9
$DWFFRAME
280
     2
  9
$DGNFRAME
280
     2
  9
$REALWORLDSCALE
290
     1
  9
$INTERFERECOLOR
 62
   256
  9
$CSHADOW
280
     0
  9
$SHADOWPLANELOCATION
 40
0.0
  0
ENDSEC
  0
SECTION
  2
CLASSES
  0
CLASS
  1
ACDBDICTIONARYWDFLT
  2
AcDbDictionaryWithDefault
  3
ObjectDBX Classes
 90
        0
 91
        4
280
     0
281
     0
  0
CLASS
  1
VISUALSTYLE
  2
AcDbVisualStyle
  3
ObjectDBX Classes
 90
     4095
 91
        4
280
     0
281
     0
  0
CLASS
  1
MATERIAL
  2
AcDbMaterial
  3
ObjectDBX Classes
 90
     1153
 91
        4
280
     0
281
     0
  0
CLASS
  1
SCALE
  2
AcDbScale
  3
ObjectDBX Classes
 90
     1153
 91
        4
280
     0
281
     0
  0
CLASS
  1
TABLESTYLE
  2
AcDbTableStyle
  3
ObjectDBX Classes
 90
     4095
 91
        4
280
     0
281
     0
  0
CLASS
  1
MLEADERSTYLE
  2
AcDbMLeaderStyle
  3
ACDB_MLEADERSTYLE_CLASS
 90
     4095
 91
        4
280
     0
281
     0
  0
CLASS
  1
SUN
  2
AcDbSun
  3
SCENEOE
 90
     1153
 91
        4
280
     0
281
     0
  0
CLASS
  1
DICTIONARYVAR
  2
AcDbDictionaryVar
  3
ObjectDBX Classes
 90
        0
 91
        4
280
     0
281
     0
  0
CLASS
  1
CELLSTYLEMAP
  2
AcDbCellStyleMap
  3
ObjectDBX Classes
 90
     1152
 91
        4
280
     0
281
     0
  0
ENDSEC
  0
SECTION
  2
TABLES
  0
TABLE
  2
VPORT
  5
8
330
0
100
AcDbSymbolTable
 70
     1
  0
VPORT
  5
29
330
8
100
AcDbSymbolTableRecord
100
AcDbViewportTableRecord
  2
*Active
 70
     0
 10
0.0
 20
0.0
 11
1.0
 21
1.0
 12
-0.7750000000000004
 22
0.0000000000010871
 13
0.0
 23
0.0
 14
0.5
 24
0.5
 15
0.5
 25
0.5
 16
0.0
 26
0.0
 36
1.0
 17
0.0
 27
0.0
 37
0.0
 40
26.01000000000191
 41
0.7156862745097515
 42
50.0
 43
0.0
 44
0.0
 50
0.0
 51
0.0
 71
     0
 72
   100
 73
     1
 74
     3
 75
     0
 76
     0
 77
     0
 78
     0
281
     0
 65
     1
110
0.0
120
0.0
130
0.0
111
1.0
121
0.0
131
0.0
112
0.0
122
1.0
132
0.0
 79
     0
146
0.0
348
2F
 60
     3
 61
     5
292
     1
282
     1
141
0.0
142
0.0
 63
   250
361
6D
  0
ENDTAB
  0
TABLE
  2
LTYPE
  5
5
330
0
100
AcDbSymbolTable
 70
     3
  0
LTYPE
  5
14
330
5
100
AcDbSymbolTableRecord
100
AcDbLinetypeTableRecord
  2
ByBlock
 70
     0
  3

 72
    65
 73
     0
 40
0.0
  0
LTYPE
  5
15
330
5
100
AcDbSymbolTableRecord
100
AcDbLinetypeTableRecord
  2
ByLayer
 70
     0
  3

 72
    65
 73
     0
 40
0.0
  0
LTYPE
  5
16
330
5
100
AcDbSymbolTableRecord
100
AcDbLinetypeTableRecord
  2
Continuous
 70
     0
  3
Solid line
 72
    65
 73
     0
 40
0.0
  0
LTYPE
  5
A7
330
5
100
AcDbSymbolTableRecord
100
AcDbLinetypeTableRecord
  2
Dashed
 70
     0
  3

 72
    65
 73
     2
 40
2.0
 49
1.0
 74
     0
 49
-1.0
 74
     0
  0
LTYPE
  5
122
330
5
100
AcDbSymbolTableRecord
100
AcDbLinetypeTableRecord
  2
Center
 70
     0
  3

 72
    65
 73
     4
 40
1.5
 49
0.45
 74
     0
 49
-0.5
 74
     0
 49
0.05
 74
     0
 49
-0.5
 74
     0
  0
ENDTAB
  0
TABLE
  2
LAYER
  5
2
330
0
100
AcDbSymbolTable
 70
     7
  0
LAYER
  5
10
330
2
100
AcDbSymbolTableRecord
100
AcDbLayerTableRecord
  2
0
 70
     0
 62
     7
  6
Continuous
370
    -3
390
F
347
46
348
0
  0
LAYER
  5
72
330
2
100
AcDbSymbolTableRecord
100
AcDbLayerTableRecord
  2
AM_6
 70
     0
 62
    -2
  6
Continuous
370
    35
390
F
347
46
348
0
  0
LAYER
  5
A8
330
2
100
AcDbSymbolTableRecord
100
AcDbLayerTableRecord
  2
AM_9
 70
     0
 62
     6
  6
Dashed
370
    25
390
F
347
46
348
0
  0
LAYER
  5
E8
330
2
100
AcDbSymbolTableRecord
100
AcDbLayerTableRecord
  2
AM_4
 70
     0
 62
     7
  6
Continuous
370
    50
390
F
347
46
348
0
  0
LAYER
  5
123
330
2
100
AcDbSymbolTableRecord
100
AcDbLayerTableRecord
  2
AM_7
 70
     0
 62
     7
  6
Center
370
    25
390
F
347
46
348
0
  0
LAYER
  5
184
330
2
100
AcDbSymbolTableRecord
100
AcDbLayerTableRecord
  2
AM_5
 70
     0
 62
     3
  6
Continuous
370
    25
390
F
347
46
348
0
  0
LAYER
  5
18A
330
2
100
AcDbSymbolTableRecord
100
AcDbLayerTableRecord
  2
ConnectionPoints
 70
     0
 62
     7
  6
Continuous
370
    50
390
F
347
46
348
0
  0
ENDTAB
  0
TABLE
  2
STYLE
  5
3
330
0
100
AcDbSymbolTable
 70
     1
  0
STYLE
  5
11
330
3
100
AcDbSymbolTableRecord
100
AcDbTextStyleTableRecord
  2
Standard
 70
     0
 40
0.0
 41
1.0
 50
0.0
 71
     0
 42
0.2
  3
txt
  4

  0
ENDTAB
  0
TABLE
  2
VIEW
  5
6
330
0
100
AcDbSymbolTable
 70
     0
  0
ENDTAB
  0
TABLE
  2
UCS
  5
7
330
0
100
AcDbSymbolTable
 70
     0
  0
ENDTAB
  0
TABLE
  2
APPID
  5
9
330
0
100
AcDbSymbolTable
 70
     1
  0
APPID
  5
12
330
9
100
AcDbSymbolTableRecord
100
AcDbRegAppTableRecord
  2
ACAD
 70
     0
  0
ENDTAB
  0
TABLE
  2
DIMSTYLE
  5
A
330
0
100
AcDbSymbolTable
 70
     1
100
AcDbDimStyleTable
  0
DIMSTYLE
105
27
330
A
100
AcDbSymbolTableRecord
100
AcDbDimStyleTableRecord
  2
Standard
 70
     0
178
     0
340
11
  0
ENDTAB
  0
TABLE
  2
BLOCK_RECORD
  5
1
330
0
100
AcDbSymbolTable
 70
     5
  0
BLOCK_RECORD
  5
1F
330
1
100
AcDbSymbolTableRecord
100
AcDbBlockTableRecord
  2
*Model_Space
340
22
 70
     0
280
     1
281
     0
  0
BLOCK_RECORD
  5
1B
330
1
100
AcDbSymbolTableRecord
100
AcDbBlockTableRecord
  2
*Paper_Space
340
1E
 70
     0
280
     1
281
     0
  0
BLOCK_RECORD
  5
23
330
1
100
AcDbSymbolTableRecord
100
AcDbBlockTableRecord
  2
*Paper_Space0
340
26
 70
     0
280
     1
281
     0
  0
BLOCK_RECORD
  5
6E
330
1
100
AcDbSymbolTableRecord
100
AcDbBlockTableRecord
  2
1_104019_2
340
0
102
{BLKREFS
331
6F
102
}
 70
     0
280
     1
281
     0
  0
BLOCK_RECORD
  5
88
330
1
100
AcDbSymbolTableRecord
100
AcDbBlockTableRecord
  2
2_6_SD_0_in_104019_2
340
0
102
{BLKREFS
331
89
102
}
 70
     0
280
     1
281
     0
  0
BLOCK_RECORD
  5
B9
330
1
100
AcDbSymbolTableRecord
100
AcDbBlockTableRecord
  2
3_104018I_0_in_104019_2
340
0
102
{BLKREFS
331
BA
102
}
 70
     0
280
     1
281
     0
  0
BLOCK_RECORD
  5
F5
330
1
100
AcDbSymbolTableRecord
100
AcDbBlockTableRecord
  2
4_F4B_SD_600E_0_in_104019_2
340
0
102
{BLKREFS
331
F6
102
}
 70
     0
280
     1
281
     0
  0
ENDTAB
  0
ENDSEC
  0
SECTION
  2
BLOCKS
  0
BLOCK
  5
20
330
1F
100
AcDbEntity
  8
0
100
AcDbBlockBegin
  2
*Model_Space
 70
     0
 10
0.0
 20
0.0
 30
0.0
  3
*Model_Space
  1

  0
ENDBLK
  5
21
330
1F
100
AcDbEntity
  8
0
100
AcDbBlockEnd
  0
BLOCK
  5
1C
330
1B
100
AcDbEntity
 67
     1
  8
0
100
AcDbBlockBegin
  2
*Paper_Space
 70
     0
 10
0.0
 20
0.0
 30
0.0
  3
*Paper_Space
  1

  0
ENDBLK
  5
1D
330
1B
100
AcDbEntity
 67
     1
  8
0
100
AcDbBlockEnd
  0
BLOCK
  5
24
330
23
100
AcDbEntity
  8
0
100
AcDbBlockBegin
  2
*Paper_Space0
 70
     0
 10
0.0
 20
0.0
 30
0.0
  3
*Paper_Space0
  1

  0
ENDBLK
  5
25
330
23
100
AcDbEntity
  8
0
100
AcDbBlockEnd
  0
BLOCK
  5
70
330
6E
100
AcDbEntity
  8
0
100
AcDbBlockBegin
  2
1_104019_2
 70
     2
 10
0.0
 20
0.0
 30
0.0
  3
1_104019_2
  1

  0
ATTDEF
  5
73
330
6E
100
AcDbEntity
  8
AM_6
100
AcDbText
 10
13.35
 20
12.75000000000203
 30
0.0
 40
0.5
  1
Special Duty Flange Bearing - Inch - Gray Iron Non-Expansion
100
AcDbAttributeDefinition
  3

  2
NN
 70
     8
280
     0
  0
ATTDEF
  5
74
330
6E
100
AcDbEntity
  8
AM_6
100
AcDbText
 10
13.35
 20
12.25000000000203
 30
0.0
 40
0.5
  1
Special Duty
100
AcDbAttributeDefinition
  3

  2
NT
 70
     8
280
     0
  0
ATTDEF
  5
75
330
6E
100
AcDbEntity
  8
AM_6
100
AcDbText
 10
13.35
 20
11.75000000000203
 30
0.0
 40
0.5
  1
104019
100
AcDbAttributeDefinition
  3

  2
NB
 70
     8
280
     0
  0
ATTDEF
  5
76
330
6E
100
AcDbEntity
  8
AM_6
100
AcDbText
 10
13.35
 20
11.25000000000203
 30
0.0
 40
0.5
  1
$PN.
100
AcDbAttributeDefinition
  3

  2
NBSYN
 70
     8
280
     0
  0
ATTDEF
  5
77
330
6E
100
AcDbEntity
  8
AM_6
100
AcDbText
 10
13.35
 20
10.75000000000203
 30
0.0
 40
0.5
  1
104019
100
AcDbAttributeDefinition
  3

  2
LINA
 70
     8
280
     0
  0
ATTDEF
  5
78
330
6E
100
AcDbEntity
  8
AM_6
100
AcDbText
 10
13.35
 20
10.25000000000203
 30
0.0
 40
0.5
  1
6
100
AcDbAttributeDefinition
  3

  2
SS
 70
     8
280
     0
  0
ATTDEF
  5
79
330
6E
100
AcDbEntity
  8
AM_6
100
AcDbText
 10
13.35
 20
9.750000000002027
 30
0.0
 40
0.5
  1
104019
100
AcDbAttributeDefinition
  3

  2
PN
 70
     8
280
     0
  0
ATTDEF
  5
7A
330
6E
100
AcDbEntity
  8
AM_6
100
AcDbText
 10
13.35
 20
9.250000000002027
 30
0.0
 40
0.5
  1
Gray Iron Expansion
100
AcDbAttributeDefinition
  3

  2
TYPE
 70
     8
280
     0
  0
ATTDEF
  5
7B
330
6E
100
AcDbEntity
  8
AM_6
100
AcDbText
 10
13.35
 20
8.750000000002027
 30
0.0
 40
0.5
  1
F4B-SD-600E
100
AcDbAttributeDefinition
  3

  2
DESCRIPTION
 70
     8
280
     0
  0
ATTDEF
  5
7C
330
6E
100
AcDbEntity
  8
AM_6
100
AcDbText
 10
13.35
 20
8.250000000002027
 30
0.0
 40
0.5
  1
560
100
AcDbAttributeDefinition
  3

  2
WEIGHT
 70
     8
280
     0
  0
ATTDEF
  5
7D
330
6E
100
AcDbEntity
  8
AM_6
100
AcDbText
 10
13.35
 20
7.750000000002027
 30
0.0
 40
0.5
  1
12
100
AcDbAttributeDefinition
  3

  2
A
 70
     8
280
     0
  0
ATTDEF
  5
7E
330
6E
100
AcDbEntity
  8
AM_6
100
AcDbText
 10
13.35
 20
7.250000000002027
 30
0.0
 40
0.5
  1
25-1/2
100
AcDbAttributeDefinition
  3

  2
B
 70
     8
280
     0
  0
ATTDEF
  5
7F
330
6E
100
AcDbEntity
  8
AM_6
100
AcDbText
 10
13.35
 20
6.750000000002027
 30
0.0
 40
0.5
  1
9
100
AcDbAttributeDefinition
  3

  2
C
 70
     8
280
     0
  0
ATTDEF
  5
80
330
6E
100
AcDbEntity
  8
AM_6
100
AcDbText
 10
13.35
 20
6.250000000002027
 30
0.0
 40
0.5
  1
22-1/2
100
AcDbAttributeDefinition
  3

  2
D
 70
     8
280
     0
  0
ATTDEF
  5
81
330
6E
100
AcDbEntity
  8
AM_6
100
AcDbText
 10
13.35
 20
5.750000000002027
 30
0.0
 40
0.5
  1
1-1/2
100
AcDbAttributeDefinition
  3

  2
E
 70
     8
280
     0
  0
ATTDEF
  5
82
330
6E
100
AcDbEntity
  8
AM_6
100
AcDbText
 10
13.35
 20
5.250000000002027
 30
0.0
 40
0.5
  1
1-1/4
100
AcDbAttributeDefinition
  3

  2
F
 70
     8
280
     0
  0
ATTDEF
  5
83
330
6E
100
AcDbEntity
  8
AM_6
100
AcDbText
 10
13.35
 20
4.750000000002027
 30
0.0
 40
0.5
  1
1-3/4
100
AcDbAttributeDefinition
  3

  2
H
 70
     8
280
     0
  0
ATTDEF
  5
84
330
6E
100
AcDbEntity
  8
AM_6
100
AcDbText
 10
13.35
 20
4.250000000002027
 30
0.0
 40
0.5
  1
15.910
100
AcDbAttributeDefinition
  3

  2
J
 70
     8
280
     0
  0
ATTDEF
  5
85
330
6E
100
AcDbEntity
  8
AM_6
100
AcDbText
 10
13.35
 20
3.750000000002027
 30
0.0
 40
0.5
  1
9-1/2
100
AcDbAttributeDefinition
  3

  2
L
 70
     8
280
     0
  0
ATTDEF
  5
86
330
6E
100
AcDbEntity
  8
AM_6
100
AcDbText
 10
13.35
 20
3.250000000002027
 30
0.0
 40
0.5
  1
5/8
100
AcDbAttributeDefinition
  3

  2
EXP
 70
     8
280
     0
  0
ATTDEF
  5
87
330
6E
100
AcDbEntity
  8
AM_6
100
AcDbText
 10
13.35
 20
2.750000000002027
 30
0.0
 40
0.5
  1
baldor
100
AcDbAttributeDefinition
  3

  2
COMPANY
 70
     8
280
     0
  0
INSERT
  5
89
330
6E
100
AcDbEntity
  8
0
100
AcDbBlockReference
  2
2_6_SD_0_in_104019_2
 10
0.0
 20
0.0
 30
0.0
  0
INSERT
  5
BA
330
6E
100
AcDbEntity
  8
0
100
AcDbBlockReference
  2
3_104018I_0_in_104019_2
 10
0.0
 20
0.0
 30
0.0
  0
INSERT
  5
F6
330
6E
100
AcDbEntity
  8
0
100
AcDbBlockReference
  2
4_F4B_SD_600E_0_in_104019_2
 10
0.0
 20
0.0
 30
0.0
  0
ENDBLK
  5
71
330
6E
100
AcDbEntity
  8
0
100
AcDbBlockEnd
  0
BLOCK
  5
8A
330
88
100
AcDbEntity
  8
0
100
AcDbBlockBegin
  2
2_6_SD_0_in_104019_2
 70
     2
 10
0.0
 20
0.0
 30
0.0
  3
2_6_SD_0_in_104019_2
  1

  0
ATTDEF
  5
8C
330
88
100
AcDbEntity
  8
AM_6
100
AcDbText
 10
8.250000000000002
 20
3.75
 30
0.0
 40
0.5
  1
Special Duty Flange Bearing - Inch - Body - Insert - Ring
100
AcDbAttributeDefinition
  3

  2
NN
 70
     8
280
     0
  0
ATTDEF
  5
8D
330
88
100
AcDbEntity
  8
AM_6
100
AcDbText
 10
8.250000000000002
 20
3.25
 30
0.0
 40
0.5
  1
Special Duty
100
AcDbAttributeDefinition
  3

  2
NT
 70
     8
280
     0
  0
ATTDEF
  5
8E
330
88
100
AcDbEntity
  8
AM_6
100
AcDbText
 10
8.250000000000002
 20
2.75
 30
0.0
 40
0.5
  1
6-SD
100
AcDbAttributeDefinition
  3

  2
NB
 70
     8
280
     0
  0
ATTDEF
  5
8F
330
88
100
AcDbEntity
  8
AM_6
100
AcDbText
 10
8.250000000000002
 20
2.25
 30
0.0
 40
0.5
  1
$SS.-SD
100
AcDbAttributeDefinition
  3

  2
NBSYN
 70
     8
280
     0
  0
ATTDEF
  5
90
330
88
100
AcDbEntity
  8
AM_6
100
AcDbText
 10
8.250000000000002
 20
1.75
 30
0.0
 40
0.5
  1
6
100
AcDbAttributeDefinition
  3

  2
LINA
 70
     8
280
     0
  0
ATTDEF
  5
91
330
88
100
AcDbEntity
  8
AM_6
100
AcDbText
 10
8.250000000000002
 20
1.25
 30
0.0
 40
0.5
  1
6
100
AcDbAttributeDefinition
  3

  2
SS
 70
     8
280
     0
  0
ATTDEF
  5
92
330
88
100
AcDbEntity
  8
AM_6
100
AcDbText
 10
8.250000000000002
 20
0.75
 30
0.0
 40
0.5
  1
104018I
100
AcDbAttributeDefinition
  3

  2
PN1
 70
     8
280
     0
  0
ATTDEF
  5
93
330
88
100
AcDbEntity
  8
AM_6
100
AcDbText
 10
8.250000000000002
 20
0.25
 30
0.0
 40
0.5
  1
12
100
AcDbAttributeDefinition
  3

  2
A
 70
     8
280
     0
  0
ATTDEF
  5
94
330
88
100
AcDbEntity
  8
AM_6
100
AcDbText
 10
8.250000000000002
 20
-0.25
 30
0.0
 40
0.5
  1
12.00000
100
AcDbAttributeDefinition
  3

  2
A1
 70
     8
280
     0
  0
ATTDEF
  5
95
330
88
100
AcDbEntity
  8
AM_6
100
AcDbText
 10
8.250000000000002
 20
-0.75
 30
0.0
 40
0.5
  1
25-1/2
100
AcDbAttributeDefinition
  3

  2
B
 70
     8
280
     0
  0
ATTDEF
  5
96
330
88
100
AcDbEntity
  8
AM_6
100
AcDbText
 10
8.250000000000002
 20
-1.25
 30
0.0
 40
0.5
  1
25.50000
100
AcDbAttributeDefinition
  3

  2
B1
 70
     8
280
     0
  0
ATTDEF
  5
97
330
88
100
AcDbEntity
  8
AM_6
100
AcDbText
 10
8.250000000000002
 20
-1.75
 30
0.0
 40
0.5
  1
9
100
AcDbAttributeDefinition
  3

  2
C
 70
     8
280
     0
  0
ATTDEF
  5
98
330
88
100
AcDbEntity
  8
AM_6
100
AcDbText
 10
8.250000000000002
 20
-2.25
 30
0.0
 40
0.5
  1
9.00000
100
AcDbAttributeDefinition
  3

  2
C1
 70
     8
280
     0
  0
ATTDEF
  5
99
330
88
100
AcDbEntity
  8
AM_6
100
AcDbText
 10
8.250000000000002
 20
-2.75
 30
0.0
 40
0.5
  1
22-1/2
100
AcDbAttributeDefinition
  3

  2
D
 70
     8
280
     0
  0
ATTDEF
  5
9A
330
88
100
AcDbEntity
  8
AM_6
100
AcDbText
 10
8.250000000000002
 20
-3.25
 30
0.0
 40
0.5
  1
22.50000
100
AcDbAttributeDefinition
  3

  2
D1
 70
     8
280
     0
  0
ATTDEF
  5
9B
330
88
100
AcDbEntity
  8
AM_6
100
AcDbText
 10
8.250000000000002
 20
-3.75
 30
0.0
 40
0.5
  1
1-1/2
100
AcDbAttributeDefinition
  3

  2
E
 70
     8
280
     0
  0
ATTDEF
  5
9C
330
88
100
AcDbEntity
  8
AM_6
100
AcDbText
 10
8.250000000000002
 20
-4.25
 30
0.0
 40
0.5
  1
1.50000
100
AcDbAttributeDefinition
  3

  2
E1
 70
     8
280
     0
  0
ATTDEF
  5
9D
330
88
100
AcDbEntity
  8
AM_6
100
AcDbText
 10
8.250000000000002
 20
-4.75
 30
0.0
 40
0.5
  1
1-1/4
100
AcDbAttributeDefinition
  3

  2
F
 70
     8
280
     0
  0
ATTDEF
  5
9E
330
88
100
AcDbEntity
  8
AM_6
100
AcDbText
 10
8.250000000000002
 20
-5.25
 30
0.0
 40
0.5
  1
1.25000
100
AcDbAttributeDefinition
  3

  2
F1
 70
     8
280
     0
  0
ATTDEF
  5
9F
330
88
100
AcDbEntity
  8
AM_6
100
AcDbText
 10
8.250000000000002
 20
-5.75
 30
0.0
 40
0.5
  1
1-3/4
100
AcDbAttributeDefinition
  3

  2
H
 70
     8
280
     0
  0
ATTDEF
  5
A0
330
88
100
AcDbEntity
  8
AM_6
100
AcDbText
 10
8.250000000000002
 20
-6.25
 30
0.0
 40
0.5
  1
1.75000
100
AcDbAttributeDefinition
  3

  2
H1
 70
     8
280
     0
  0
ATTDEF
  5
A1
330
88
100
AcDbEntity
  8
AM_6
100
AcDbText
 10
8.250000000000002
 20
-6.75
 30
0.0
 40
0.5
  1
15.910
100
AcDbAttributeDefinition
  3

  2
J
 70
     8
280
     0
  0
ATTDEF
  5
A2
330
88
100
AcDbEntity
  8
AM_6
100
AcDbText
 10
8.250000000000002
 20
-7.25
 30
0.0
 40
0.5
  1
15.91000
100
AcDbAttributeDefinition
  3

  2
J1
 70
     8
280
     0
  0
ATTDEF
  5
A3
330
88
100
AcDbEntity
  8
AM_6
100
AcDbText
 10
8.250000000000002
 20
-7.75
 30
0.0
 40
0.5
  1
9-1/2
100
AcDbAttributeDefinition
  3

  2
L
 70
     8
280
     0
  0
ATTDEF
  5
A4
330
88
100
AcDbEntity
  8
AM_6
100
AcDbText
 10
8.250000000000002
 20
-8.25
 30
0.0
 40
0.5
  1
9.50000
100
AcDbAttributeDefinition
  3

  2
L1
 70
     8
280
     0
  0
ATTDEF
  5
A5
330
88
100
AcDbEntity
  8
AM_6
100
AcDbText
 10
8.250000000000002
 20
-8.75
 30
0.0
 40
0.5
  1
5/8
100
AcDbAttributeDefinition
  3

  2
EXP
 70
     8
280
     0
  0
ATTDEF
  5
A6
330
88
100
AcDbEntity
  8
AM_6
100
AcDbText
 10
8.250000000000002
 20
-9.25
 30
0.0
 40
0.5
  1
baldor
100
AcDbAttributeDefinition
  3

  2
COMPANY
 70
     8
280
     0
  0
LINE
  5
A9
330
88
100
AcDbEntity
  8
AM_9
100
AcDbLine
 10
3.149999999999995
 20
3.0
 30
0.0
 11
-8.649999999999995
 21
3.0
 31
0.0
  0
LINE
  5
AA
330
88
100
AcDbEntity
  8
AM_9
100
AcDbLine
 10
-8.649999999999995
 20
-3.0
 30
0.0
 11
3.149999999999995
 21
-3.0
 31
0.0
  0
LINE
  5
AB
330
88
100
AcDbEntity
  8
AM_9
100
AcDbLine
 10
-8.649999999999995
 20
-3.0
 30
0.0
 11
-8.649999999999995
 21
3.0
 31
0.0
  0
ARC
  5
AC
330
88
100
AcDbEntity
  8
AM_9
100
AcDbCircle
 10
-8.649999999999999
 20
3.100000000000003
 30
0.0
 40
0.1000000000000032
100
AcDbArc
 50
180.0
 51
270.0
  0
ARC
  5
AD
330
88
100
AcDbEntity
  8
AM_9
100
AcDbCircle
 10
-8.649999999999999
 20
-3.100000000000003
 30
0.0
 40
0.1000000000000036
100
AcDbArc
 50
90.0
 51
180.0
  0
LINE
  5
AE
330
88
100
AcDbEntity
  8
AM_9
100
AcDbLine
 10
3.149999999999995
 20
-2.999999999999999
 30
0.0
 11
3.149999999999995
 21
2.999999999999999
 31
0.0
  0
ARC
  5
AF
330
88
100
AcDbEntity
  8
AM_9
100
AcDbCircle
 10
3.149999999999998
 20
3.100000000000003
 30
0.0
 40
0.1000000000000041
100
AcDbArc
 50
270.0
 51
0.0
  0
ARC
  5
B0
330
88
100
AcDbEntity
  8
AM_9
100
AcDbCircle
 10
3.149999999999998
 20
-3.100000000000003
 30
0.0
 40
0.1000000000000041
100
AcDbArc
 50
0.0
 51
90.0
  0
ARC
  5
B1
330
88
100
AcDbEntity
  8
AM_9
100
AcDbCircle
 10
3.099999999999999
 20
3.599999999999997
 30
0.0
 40
0.150000000000003
100
AcDbArc
 50
0.0
 51
90.0
  0
ARC
  5
B2
330
88
100
AcDbEntity
  8
AM_9
100
AcDbCircle
 10
3.099999999999999
 20
-3.599999999999997
 30
0.0
 40
0.150000000000003
100
AcDbArc
 50
270.0
 51
0.0
  0
ARC
  5
B3
330
88
100
AcDbEntity
  8
AM_9
100
AcDbCircle
 10
-8.599999999999998
 20
3.599999999999996
 30
0.0
 40
0.1500000000000035
100
AcDbArc
 50
90.0
 51
180.0
  0
ARC
  5
B4
330
88
100
AcDbEntity
  8
AM_9
100
AcDbCircle
 10
-8.599999999999998
 20
-3.599999999999996
 30
0.0
 40
0.1500000000000039
100
AcDbArc
 50
180.0
 51
270.0
  0
LINE
  5
B5
330
88
100
AcDbEntity
  8
AM_9
100
AcDbLine
 10
3.1
 20
-3.75
 30
0.0
 11
3.1
 21
3.75
 31
0.0
  0
LINE
  5
B6
330
88
100
AcDbEntity
  8
AM_9
100
AcDbLine
 10
-8.6
 20
-3.75
 30
0.0
 11
-8.6
 21
3.75
 31
0.0
  0
LINE
  5
B7
330
88
100
AcDbEntity
  8
AM_9
100
AcDbLine
 10
3.1
 20
3.75
 30
0.0
 11
-8.6
 21
3.75
 31
0.0
  0
LINE
  5
B8
330
88
100
AcDbEntity
  8
AM_9
100
AcDbLine
 10
-8.6
 20
-3.75
 30
0.0
 11
3.1
 21
-3.75
 31
0.0
  0
ENDBLK
  5
8B
330
88
100
AcDbEntity
  8
0
100
AcDbBlockEnd
  0
BLOCK
  5
BB
330
B9
100
AcDbEntity
  8
0
100
AcDbBlockBegin
  2
3_104018I_0_in_104019_2
 70
     2
 10
0.0
 20
0.0
 30
0.0
  3
3_104018I_0_in_104019_2
  1

  0
ATTDEF
  5
BD
330
B9
100
AcDbEntity
  8
AM_6
100
AcDbText
 10
8.250000000000004
 20
4.871794871794873
 30
0.0
 40
0.5
  1
Special Duty Flange Bearing - Inch - Body - Insert
100
AcDbAttributeDefinition
  3

  2
NN
 70
     8
280
     0
  0
ATTDEF
  5
BE
330
B9
100
AcDbEntity
  8
AM_6
100
AcDbText
 10
8.250000000000004
 20
4.371794871794873
 30
0.0
 40
0.5
  1
Special Duty
100
AcDbAttributeDefinition
  3

  2
NT
 70
     8
280
     0
  0
ATTDEF
  5
BF
330
B9
100
AcDbEntity
  8
AM_6
100
AcDbText
 10
8.250000000000004
 20
3.871794871794873
 30
0.0
 40
0.5
  1
104018I
100
AcDbAttributeDefinition
  3

  2
NB
 70
     8
280
     0
  0
ATTDEF
  5
C0
330
B9
100
AcDbEntity
  8
AM_6
100
AcDbText
 10
8.250000000000004
 20
3.371794871794873
 30
0.0
 40
0.5
  1
$PN1.
100
AcDbAttributeDefinition
  3

  2
NBSYN
 70
     8
280
     0
  0
ATTDEF
  5
C1
330
B9
100
AcDbEntity
  8
AM_6
100
AcDbText
 10
8.250000000000004
 20
2.871794871794873
 30
0.0
 40
0.5
  1
104018I
100
AcDbAttributeDefinition
  3

  2
LINA
 70
     8
280
     0
  0
ATTDEF
  5
C2
330
B9
100
AcDbEntity
  8
AM_6
100
AcDbText
 10
8.250000000000004
 20
2.371794871794873
 30
0.0
 40
0.5
  1
6
100
AcDbAttributeDefinition
  3

  2
SS
 70
     8
280
     0
  0
ATTDEF
  5
C3
330
B9
100
AcDbEntity
  8
AM_6
100
AcDbText
 10
8.250000000000004
 20
1.871794871794873
 30
0.0
 40
0.5
  1
6.00000
100
AcDbAttributeDefinition
  3

  2
SS1
 70
     8
280
     0
  0
ATTDEF
  5
C4
330
B9
100
AcDbEntity
  8
AM_6
100
AcDbText
 10
8.250000000000004
 20
1.371794871794873
 30
0.0
 40
0.5
  1
104018I
100
AcDbAttributeDefinition
  3

  2
PN1
 70
     8
280
     0
  0
ATTDEF
  5
C5
330
B9
100
AcDbEntity
  8
AM_6
100
AcDbText
 10
8.250000000000004
 20
0.8717948717948731
 30
0.0
 40
0.5
  1
104019
100
AcDbAttributeDefinition
  3

  2
PN2
 70
     8
280
     0
  0
ATTDEF
  5
C6
330
B9
100
AcDbEntity
  8
AM_6
100
AcDbText
 10
8.250000000000004
 20
0.3717948717948731
 30
0.0
 40
0.5
  1
F4B-SD-600
100
AcDbAttributeDefinition
  3

  2
DESCRIPTION1
 70
     8
280
     0
  0
ATTDEF
  5
C7
330
B9
100
AcDbEntity
  8
AM_6
100
AcDbText
 10
8.250000000000004
 20
-0.1282051282051269
 30
0.0
 40
0.5
  1
F4B-SD-600E
100
AcDbAttributeDefinition
  3

  2
DESCRIPTION2
 70
     8
280
     0
  0
ATTDEF
  5
C8
330
B9
100
AcDbEntity
  8
AM_6
100
AcDbText
 10
8.250000000000004
 20
-0.6282051282051269
 30
0.0
 40
0.5
  1
560
100
AcDbAttributeDefinition
  3

  2
WEIGHT1
 70
     8
280
     0
  0
ATTDEF
  5
C9
330
B9
100
AcDbEntity
  8
AM_6
100
AcDbText
 10
8.250000000000004
 20
-1.128205128205127
 30
0.0
 40
0.5
  1
560
100
AcDbAttributeDefinition
  3

  2
WEIGHT2
 70
     8
280
     0
  0
ATTDEF
  5
CA
330
B9
100
AcDbEntity
  8
AM_6
100
AcDbText
 10
8.250000000000004
 20
-1.628205128205127
 30
0.0
 40
0.5
  1
12
100
AcDbAttributeDefinition
  3

  2
A
 70
     8
280
     0
  0
ATTDEF
  5
CB
330
B9
100
AcDbEntity
  8
AM_6
100
AcDbText
 10
8.250000000000004
 20
-2.128205128205127
 30
0.0
 40
0.5
  1
12.00000
100
AcDbAttributeDefinition
  3

  2
A1
 70
     8
280
     0
  0
ATTDEF
  5
CC
330
B9
100
AcDbEntity
  8
AM_6
100
AcDbText
 10
8.250000000000004
 20
-2.628205128205127
 30
0.0
 40
0.5
  1
25-1/2
100
AcDbAttributeDefinition
  3

  2
B
 70
     8
280
     0
  0
ATTDEF
  5
CD
330
B9
100
AcDbEntity
  8
AM_6
100
AcDbText
 10
8.250000000000004
 20
-3.128205128205127
 30
0.0
 40
0.5
  1
25.50000
100
AcDbAttributeDefinition
  3

  2
B1
 70
     8
280
     0
  0
ATTDEF
  5
CE
330
B9
100
AcDbEntity
  8
AM_6
100
AcDbText
 10
8.250000000000004
 20
-3.628205128205127
 30
0.0
 40
0.5
  1
9
100
AcDbAttributeDefinition
  3

  2
C
 70
     8
280
     0
  0
ATTDEF
  5
CF
330
B9
100
AcDbEntity
  8
AM_6
100
AcDbText
 10
8.250000000000004
 20
-4.128205128205127
 30
0.0
 40
0.5
  1
9.00000
100
AcDbAttributeDefinition
  3

  2
C1
 70
     8
280
     0
  0
ATTDEF
  5
D0
330
B9
100
AcDbEntity
  8
AM_6
100
AcDbText
 10
8.250000000000004
 20
-4.628205128205127
 30
0.0
 40
0.5
  1
22-1/2
100
AcDbAttributeDefinition
  3

  2
D
 70
     8
280
     0
  0
ATTDEF
  5
D1
330
B9
100
AcDbEntity
  8
AM_6
100
AcDbText
 10
8.250000000000004
 20
-5.128205128205127
 30
0.0
 40
0.5
  1
22.50000
100
AcDbAttributeDefinition
  3

  2
D1
 70
     8
280
     0
  0
ATTDEF
  5
D2
330
B9
100
AcDbEntity
  8
AM_6
100
AcDbText
 10
8.250000000000004
 20
-5.628205128205127
 30
0.0
 40
0.5
  1
1-1/2
100
AcDbAttributeDefinition
  3

  2
E
 70
     8
280
     0
  0
ATTDEF
  5
D3
330
B9
100
AcDbEntity
  8
AM_6
100
AcDbText
 10
8.250000000000004
 20
-6.128205128205127
 30
0.0
 40
0.5
  1
1.50000
100
AcDbAttributeDefinition
  3

  2
E1
 70
     8
280
     0
  0
ATTDEF
  5
D4
330
B9
100
AcDbEntity
  8
AM_6
100
AcDbText
 10
8.250000000000004
 20
-6.628205128205127
 30
0.0
 40
0.5
  1
1-1/4
100
AcDbAttributeDefinition
  3

  2
F
 70
     8
280
     0
  0
ATTDEF
  5
D5
330
B9
100
AcDbEntity
  8
AM_6
100
AcDbText
 10
8.250000000000004
 20
-7.128205128205127
 30
0.0
 40
0.5
  1
1.25000
100
AcDbAttributeDefinition
  3

  2
F1
 70
     8
280
     0
  0
ATTDEF
  5
D6
330
B9
100
AcDbEntity
  8
AM_6
100
AcDbText
 10
8.250000000000004
 20
-7.628205128205127
 30
0.0
 40
0.5
  1
1-3/4
100
AcDbAttributeDefinition
  3

  2
H
 70
     8
280
     0
  0
ATTDEF
  5
D7
330
B9
100
AcDbEntity
  8
AM_6
100
AcDbText
 10
8.250000000000004
 20
-8.128205128205128
 30
0.0
 40
0.5
  1
1.75000
100
AcDbAttributeDefinition
  3

  2
H1
 70
     8
280
     0
  0
ATTDEF
  5
D8
330
B9
100
AcDbEntity
  8
AM_6
100
AcDbText
 10
8.250000000000004
 20
-8.628205128205128
 30
0.0
 40
0.5
  1
15.910
100
AcDbAttributeDefinition
  3

  2
J
 70
     8
280
     0
  0
ATTDEF
  5
D9
330
B9
100
AcDbEntity
  8
AM_6
100
AcDbText
 10
8.250000000000004
 20
-9.128205128205128
 30
0.0
 40
0.5
  1
15.91000
100
AcDbAttributeDefinition
  3

  2
J1
 70
     8
280
     0
  0
ATTDEF
  5
DA
330
B9
100
AcDbEntity
  8
AM_6
100
AcDbText
 10
8.250000000000004
 20
-9.628205128205128
 30
0.0
 40
0.5
  1
9-1/2
100
AcDbAttributeDefinition
  3

  2
L
 70
     8
280
     0
  0
ATTDEF
  5
DB
330
B9
100
AcDbEntity
  8
AM_6
100
AcDbText
 10
8.250000000000004
 20
-10.12820512820513
 30
0.0
 40
0.5
  1
9.50000
100
AcDbAttributeDefinition
  3

  2
L1
 70
     8
280
     0
  0
ATTDEF
  5
DC
330
B9
100
AcDbEntity
  8
AM_6
100
AcDbText
 10
8.250000000000004
 20
-10.62820512820513
 30
0.0
 40
0.5
  1
5/8
100
AcDbAttributeDefinition
  3

  2
EXP
 70
     8
280
     0
  0
ATTDEF
  5
DD
330
B9
100
AcDbEntity
  8
AM_6
100
AcDbText
 10
8.250000000000004
 20
-11.12820512820513
 30
0.0
 40
0.5
  1
baldor
100
AcDbAttributeDefinition
  3

  2
COMPANY
 70
     8
280
     0
  0
LINE
  5
DE
330
B9
100
AcDbEntity
  8
AM_9
100
AcDbLine
 10
3.060000000000004
 20
3.75
 30
0.0
 11
-8.560000000000004
 21
3.75
 31
0.0
  0
LINE
  5
DF
330
B9
100
AcDbEntity
  8
AM_9
100
AcDbLine
 10
-8.560000000000004
 20
-3.75
 30
0.0
 11
3.060000000000004
 21
-3.75
 31
0.0
  0
LINE
  5
E0
330
B9
100
AcDbEntity
  8
AM_9
100
AcDbLine
 10
3.060000000000004
 20
-3.75
 30
0.0
 11
3.060000000000004
 21
3.75
 31
0.0
  0
ARC
  5
E1
330
B9
100
AcDbEntity
  8
AM_9
100
AcDbCircle
 10
3.059999999999998
 20
3.940000000000004
 30
0.0
 40
0.1900000000000039
100
AcDbArc
 50
270.0
 51
0.0
  0
ARC
  5
E2
330
B9
100
AcDbEntity
  8
AM_9
100
AcDbCircle
 10
3.059999999999998
 20
-3.940000000000004
 30
0.0
 40
0.1900000000000039
100
AcDbArc
 50
0.0
 51
90.0
  0
LINE
  5
E3
330
B9
100
AcDbEntity
  8
AM_9
100
AcDbLine
 10
-8.560000000000004
 20
-3.75
 30
0.0
 11
-8.560000000000004
 21
3.75
 31
0.0
  0
ARC
  5
E4
330
B9
100
AcDbEntity
  8
AM_9
100
AcDbCircle
 10
-8.559999999999997
 20
3.940000000000005
 30
0.0
 40
0.1900000000000048
100
AcDbArc
 50
180.0
 51
270.0
  0
ARC
  5
E5
330
B9
100
AcDbEntity
  8
AM_9
100
AcDbCircle
 10
-8.559999999999997
 20
-3.940000000000005
 30
0.0
 40
0.1900000000000048
100
AcDbArc
 50
90.0
 51
180.0
  0
LINE
  5
E6
330
B9
100
AcDbEntity
  8
AM_9
100
AcDbLine
 10
1.750000000000004
 20
4.871794871794871
 30
0.0
 11
-7.250000000000002
 21
4.871794871794871
 31
0.0
  0
LINE
  5
E7
330
B9
100
AcDbEntity
  8
AM_9
100
AcDbLine
 10
-7.250000000000002
 20
-4.871794871794871
 30
0.0
 11
1.750000000000004
 21
-4.871794871794871
 31
0.0
  0
LINE
  5
E9
330
B9
100
AcDbEntity
  8
AM_4
100
AcDbLine
 10
3.250000000000004
 20
-4.555128205128208
 30
0.0
 11
3.250000000000004
 21
4.555128205128208
 31
0.0
  0
ARC
  5
EA
330
B9
100
AcDbEntity
  8
AM_4
100
AcDbCircle
 10
2.933333333333333
 20
4.555128205128204
 30
0.0
 40
0.3166666666666691
100
AcDbArc
 50
0.0
 51
90.0
  0
ARC
  5
EB
330
B9
100
AcDbEntity
  8
AM_4
100
AcDbCircle
 10
2.933333333333334
 20
-4.555128205128205
 30
0.0
 40
0.3166666666666673
100
AcDbArc
 50
270.0
 51
0.0
  0
LINE
  5
EC
330
B9
100
AcDbEntity
  8
AM_4
100
AcDbLine
 10
-8.750000000000004
 20
-4.555128205128206
 30
0.0
 11
-8.750000000000004
 21
4.555128205128206
 31
0.0
  0
ARC
  5
ED
330
B9
100
AcDbEntity
  8
AM_4
100
AcDbCircle
 10
-8.433333333333335
 20
4.555128205128206
 30
0.0
 40
0.3166666666666655
100
AcDbArc
 50
90.0
 51
180.0
  0
ARC
  5
EE
330
B9
100
AcDbEntity
  8
AM_4
100
AcDbCircle
 10
-8.433333333333335
 20
-4.555128205128206
 30
0.0
 40
0.3166666666666664
100
AcDbArc
 50
180.0
 51
270.0
  0
LINE
  5
EF
330
B9
100
AcDbEntity
  8
AM_4
100
AcDbLine
 10
2.933333333333334
 20
-4.871794871794871
 30
0.0
 11
2.933333333333334
 21
4.871794871794871
 31
0.0
  0
LINE
  5
F0
330
B9
100
AcDbEntity
  8
AM_4
100
AcDbLine
 10
-8.433333333333334
 20
-4.871794871794871
 30
0.0
 11
-8.433333333333334
 21
4.871794871794871
 31
0.0
  0
LINE
  5
F1
330
B9
100
AcDbEntity
  8
AM_4
100
AcDbLine
 10
-7.250000000000002
 20
4.871794871794871
 30
0.0
 11
-8.433333333333334
 21
4.871794871794871
 31
0.0
  0
LINE
  5
F2
330
B9
100
AcDbEntity
  8
AM_4
100
AcDbLine
 10
2.933333333333334
 20
4.871794871794871
 30
0.0
 11
1.750000000000004
 21
4.871794871794871
 31
0.0
  0
LINE
  5
F3
330
B9
100
AcDbEntity
  8
AM_4
100
AcDbLine
 10
1.750000000000004
 20
-4.871794871794871
 30
0.0
 11
2.933333333333334
 21
-4.871794871794871
 31
0.0
  0
LINE
  5
F4
330
B9
100
AcDbEntity
  8
AM_4
100
AcDbLine
 10
-8.433333333333334
 20
-4.871794871794871
 30
0.0
 11
-7.250000000000002
 21
-4.871794871794871
 31
0.0
  0
ENDBLK
  5
BC
330
B9
100
AcDbEntity
  8
0
100
AcDbBlockEnd
  0
BLOCK
  5
F7
330
F5
100
AcDbEntity
  8
0
100
AcDbBlockBegin
  2
4_F4B_SD_600E_0_in_104019_2
 70
     2
 10
0.0
 20
0.0
 30
0.0
  3
4_F4B_SD_600E_0_in_104019_2
  1

  0
ATTDEF
  5
F9
330
F5
100
AcDbEntity
  8
AM_6
100
AcDbText
 10
13.35
 20
12.75000000000203
 30
0.0
 40
0.5
  1
Special Duty Flange Bearing - Inch - Body
100
AcDbAttributeDefinition
  3

  2
NN
 70
     8
280
     0
  0
ATTDEF
  5
FA
330
F5
100
AcDbEntity
  8
AM_6
100
AcDbText
 10
13.35
 20
12.25000000000203
 30
0.0
 40
0.5
  1
Special Duty
100
AcDbAttributeDefinition
  3

  2
NT
 70
     8
280
     0
  0
ATTDEF
  5
FB
330
F5
100
AcDbEntity
  8
AM_6
100
AcDbText
 10
13.35
 20
11.75000000000203
 30
0.0
 40
0.5
  1
F4B-SD-600E
100
AcDbAttributeDefinition
  3

  2
NB
 70
     8
280
     0
  0
ATTDEF
  5
FC
330
F5
100
AcDbEntity
  8
AM_6
100
AcDbText
 10
13.35
 20
11.25000000000203
 30
0.0
 40
0.5
  1
$PN.
100
AcDbAttributeDefinition
  3

  2
NBSYN
 70
     8
280
     0
  0
ATTDEF
  5
FD
330
F5
100
AcDbEntity
  8
AM_6
100
AcDbText
 10
13.35
 20
10.75000000000203
 30
0.0
 40
0.5
  1
F4B-SD-600E
100
AcDbAttributeDefinition
  3

  2
LINA
 70
     8
280
     0
  0
ATTDEF
  5
FE
330
F5
100
AcDbEntity
  8
AM_6
100
AcDbText
 10
13.35
 20
10.25000000000203
 30
0.0
 40
0.5
  1
6
100
AcDbAttributeDefinition
  3

  2
SS
 70
     8
280
     0
  0
ATTDEF
  5
FF
330
F5
100
AcDbEntity
  8
AM_6
100
AcDbText
 10
13.35
 20
9.750000000002027
 30
0.0
 40
0.5
  1
6.00000
100
AcDbAttributeDefinition
  3

  2
SS1
 70
     8
280
     0
  0
ATTDEF
  5
100
330
F5
100
AcDbEntity
  8
AM_6
100
AcDbText
 10
13.35
 20
9.250000000002027
 30
0.0
 40
0.5
  1
Gray Iron Expansion
100
AcDbAttributeDefinition
  3

  2
TYPE
 70
     8
280
     0
  0
ATTDEF
  5
101
330
F5
100
AcDbEntity
  8
AM_6
100
AcDbText
 10
13.35
 20
8.750000000002027
 30
0.0
 40
0.5
  1
F4B-SD-600
100
AcDbAttributeDefinition
  3

  2
PN1
 70
     8
280
     0
  0
ATTDEF
  5
102
330
F5
100
AcDbEntity
  8
AM_6
100
AcDbText
 10
13.35
 20
8.250000000002027
 30
0.0
 40
0.5
  1
F4B-SD-600
100
AcDbAttributeDefinition
  3

  2
DESCRIPTION1
 70
     8
280
     0
  0
ATTDEF
  5
103
330
F5
100
AcDbEntity
  8
AM_6
100
AcDbText
 10
13.35
 20
7.750000000002027
 30
0.0
 40
0.5
  1
F4B-SD-600E
100
AcDbAttributeDefinition
  3

  2
PN2
 70
     8
280
     0
  0
ATTDEF
  5
104
330
F5
100
AcDbEntity
  8
AM_6
100
AcDbText
 10
13.35
 20
7.250000000002027
 30
0.0
 40
0.5
  1
F4B-SD-600E
100
AcDbAttributeDefinition
  3

  2
DESCRIPTION2
 70
     8
280
     0
  0
ATTDEF
  5
105
330
F5
100
AcDbEntity
  8
AM_6
100
AcDbText
 10
13.35
 20
6.750000000002027
 30
0.0
 40
0.5
  1
560
100
AcDbAttributeDefinition
  3

  2
WEIGHT1
 70
     8
280
     0
  0
ATTDEF
  5
106
330
F5
100
AcDbEntity
  8
AM_6
100
AcDbText
 10
13.35
 20
6.250000000002027
 30
0.0
 40
0.5
  1
560
100
AcDbAttributeDefinition
  3

  2
WEIGHT2
 70
     8
280
     0
  0
ATTDEF
  5
107
330
F5
100
AcDbEntity
  8
AM_6
100
AcDbText
 10
13.35
 20
5.750000000002027
 30
0.0
 40
0.5
  1
12
100
AcDbAttributeDefinition
  3

  2
A
 70
     8
280
     0
  0
ATTDEF
  5
108
330
F5
100
AcDbEntity
  8
AM_6
100
AcDbText
 10
13.35
 20
5.250000000002027
 30
0.0
 40
0.5
  1
12.00000
100
AcDbAttributeDefinition
  3

  2
A1
 70
     8
280
     0
  0
ATTDEF
  5
109
330
F5
100
AcDbEntity
  8
AM_6
100
AcDbText
 10
13.35
 20
4.750000000002027
 30
0.0
 40
0.5
  1
25-1/2
100
AcDbAttributeDefinition
  3

  2
B
 70
     8
280
     0
  0
ATTDEF
  5
10A
330
F5
100
AcDbEntity
  8
AM_6
100
AcDbText
 10
13.35
 20
4.250000000002027
 30
0.0
 40
0.5
  1
25.50000
100
AcDbAttributeDefinition
  3

  2
B1
 70
     8
280
     0
  0
ATTDEF
  5
10B
330
F5
100
AcDbEntity
  8
AM_6
100
AcDbText
 10
13.35
 20
3.750000000002027
 30
0.0
 40
0.5
  1
9
100
AcDbAttributeDefinition
  3

  2
C
 70
     8
280
     0
  0
ATTDEF
  5
10C
330
F5
100
AcDbEntity
  8
AM_6
100
AcDbText
 10
13.35
 20
3.250000000002027
 30
0.0
 40
0.5
  1
9.00000
100
AcDbAttributeDefinition
  3

  2
C1
 70
     8
280
     0
  0
ATTDEF
  5
10D
330
F5
100
AcDbEntity
  8
AM_6
100
AcDbText
 10
13.35
 20
2.750000000002027
 30
0.0
 40
0.5
  1
22-1/2
100
AcDbAttributeDefinition
  3

  2
D
 70
     8
280
     0
  0
ATTDEF
  5
10E
330
F5
100
AcDbEntity
  8
AM_6
100
AcDbText
 10
13.35
 20
2.250000000002027
 30
0.0
 40
0.5
  1
22.50000
100
AcDbAttributeDefinition
  3

  2
D1
 70
     8
280
     0
  0
ATTDEF
  5
10F
330
F5
100
AcDbEntity
  8
AM_6
100
AcDbText
 10
13.35
 20
1.750000000002027
 30
0.0
 40
0.5
  1
1.0000
100
AcDbAttributeDefinition
  3

  2
D11
 70
     8
280
     0
  0
ATTDEF
  5
110
330
F5
100
AcDbEntity
  8
AM_6
100
AcDbText
 10
13.35
 20
1.250000000002027
 30
0.0
 40
0.5
  1
1-1/2
100
AcDbAttributeDefinition
  3

  2
E
 70
     8
280
     0
  0
ATTDEF
  5
111
330
F5
100
AcDbEntity
  8
AM_6
100
AcDbText
 10
13.35
 20
0.7500000000020268
 30
0.0
 40
0.5
  1
1.50000
100
AcDbAttributeDefinition
  3

  2
E1
 70
     8
280
     0
  0
ATTDEF
  5
112
330
F5
100
AcDbEntity
  8
AM_6
100
AcDbText
 10
13.35
 20
0.2500000000020268
 30
0.0
 40
0.5
  1
1-1/4
100
AcDbAttributeDefinition
  3

  2
F
 70
     8
280
     0
  0
ATTDEF
  5
113
330
F5
100
AcDbEntity
  8
AM_6
100
AcDbText
 10
13.35
 20
-0.2499999999979732
 30
0.0
 40
0.5
  1
1.25000
100
AcDbAttributeDefinition
  3

  2
F1
 70
     8
280
     0
  0
ATTDEF
  5
114
330
F5
100
AcDbEntity
  8
AM_6
100
AcDbText
 10
13.35
 20
-0.7499999999979732
 30
0.0
 40
0.5
  1
1-3/4
100
AcDbAttributeDefinition
  3

  2
H
 70
     8
280
     0
  0
ATTDEF
  5
115
330
F5
100
AcDbEntity
  8
AM_6
100
AcDbText
 10
13.35
 20
-1.249999999997973
 30
0.0
 40
0.5
  1
1.75000
100
AcDbAttributeDefinition
  3

  2
H1
 70
     8
280
     0
  0
ATTDEF
  5
116
330
F5
100
AcDbEntity
  8
AM_6
100
AcDbText
 10
13.35
 20
-1.749999999997973
 30
0.0
 40
0.5
  1
15.910
100
AcDbAttributeDefinition
  3

  2
J
 70
     8
280
     0
  0
ATTDEF
  5
117
330
F5
100
AcDbEntity
  8
AM_6
100
AcDbText
 10
13.35
 20
-2.249999999997973
 30
0.0
 40
0.5
  1
15.91000
100
AcDbAttributeDefinition
  3

  2
J1
 70
     8
280
     0
  0
ATTDEF
  5
118
330
F5
100
AcDbEntity
  8
AM_6
100
AcDbText
 10
13.35
 20
-2.749999999997973
 30
0.0
 40
0.5
  1
9-1/2
100
AcDbAttributeDefinition
  3

  2
L
 70
     8
280
     0
  0
ATTDEF
  5
119
330
F5
100
AcDbEntity
  8
AM_6
100
AcDbText
 10
13.35
 20
-3.249999999997973
 30
0.0
 40
0.5
  1
9.50000
100
AcDbAttributeDefinition
  3

  2
L1
 70
     8
280
     0
  0
ATTDEF
  5
11A
330
F5
100
AcDbEntity
  8
AM_6
100
AcDbText
 10
13.35
 20
-3.749999999997973
 30
0.0
 40
0.5
  1
5/8
100
AcDbAttributeDefinition
  3

  2
EXP
 70
     8
280
     0
  0
ATTDEF
  5
11B
330
F5
100
AcDbEntity
  8
AM_6
100
AcDbText
 10
13.35
 20
-4.249999999997973
 30
0.0
 40
0.5
  1
baldor
100
AcDbAttributeDefinition
  3

  2
COMPANY
 70
     8
280
     0
  0
LINE
  5
11C
330
F5
100
AcDbEntity
  8
AM_9
100
AcDbLine
 10
1.750000000000001
 20
4.871794871794872
 30
0.0
 11
-7.249999999999999
 21
4.871794871794872
 31
0.0
  0
LINE
  5
11D
330
F5
100
AcDbEntity
  8
AM_9
100
AcDbLine
 10
-7.249999999999999
 20
-4.871794871794872
 30
0.0
 11
1.750000000000001
 21
-4.871794871794872
 31
0.0
  0
LINE
  5
11E
330
F5
100
AcDbEntity
  8
AM_9
100
AcDbLine
 10
1.75
 20
-7.33
 30
0.0
 11
0.0000000000000005
 21
-7.33
 31
0.0
  0
LINE
  5
11F
330
F5
100
AcDbEntity
  8
AM_9
100
AcDbLine
 10
0.0000000000000005
 20
-8.58
 30
0.0
 11
1.75
 21
-8.58
 31
0.0
  0
LINE
  5
120
330
F5
100
AcDbEntity
  8
AM_9
100
AcDbLine
 10
1.75
 20
8.58
 30
0.0
 11
0.0000000000000005
 21
8.58
 31
0.0
  0
LINE
  5
121
330
F5
100
AcDbEntity
  8
AM_9
100
AcDbLine
 10
0.0000000000000005
 20
7.33
 30
0.0
 11
1.75
 21
7.33
 31
0.0
  0
LINE
  5
124
330
F5
100
AcDbEntity
  8
AM_7
100
AcDbLine
 10
-7.700000000000001
 20
0.06375
 30
0.0
 11
2.200000000000001
 21
0.06375
 31
0.0
  0
LINE
  5
125
330
F5
100
AcDbEntity
  8
AM_7
100
AcDbLine
 10
-2.999999999999999
 20
1.841666666666667
 30
0.0
 11
-2.999999999999999
 21
-1.40685
 31
0.0
  0
LINE
  5
126
330
F5
100
AcDbEntity
  8
AM_7
100
AcDbLine
 10
-7.700000000000001
 20
-0.06375
 30
0.0
 11
2.200000000000001
 21
-0.06375
 31
0.0
  0
LINE
  5
127
330
F5
100
AcDbEntity
  8
AM_7
100
AcDbLine
 10
8.350000000000001
 20
0.0
 30
0.0
 11
-9.9
 21
0.0
 31
0.0
  0
LINE
  5
128
330
F5
100
AcDbEntity
  8
AM_7
100
AcDbLine
 10
-0.0875000000000005
 20
7.955
 30
0.0
 11
1.837499999999999
 21
7.955
 31
0.0
  0
LINE
  5
129
330
F5
100
AcDbEntity
  8
AM_7
100
AcDbLine
 10
-0.0875000000000005
 20
-7.955
 30
0.0
 11
1.837499999999999
 21
-7.955
 31
0.0
  0
LINE
  5
12A
330
F5
100
AcDbEntity
  8
AM_7
100
AcDbLine
 10
-3.625
 20
10.6875
 30
0.0
 11
-3.625
 21
9.3125
 31
0.0
  0
LINE
  5
12B
330
F5
100
AcDbEntity
  8
AM_4
100
AcDbLine
 10
-4.385869565217392
 20
10.275
 30
0.0
 11
-4.385869565217392
 21
9.840897610591526
 31
0.0
  0
LINE
  5
12C
330
F5
100
AcDbEntity
  8
AM_4
100
AcDbLine
 10
-2.864130434782608
 20
9.80988559974114
 30
0.0
 11
-2.864130434782608
 21
10.275
 31
0.0
  0
LINE
  5
12D
330
F5
100
AcDbEntity
  8
AM_4
100
AcDbLine
 10
-2.864130434782608
 20
10.625
 30
0.0
 11
-4.385869565217392
 21
10.625
 31
0.0
  0
LINE
  5
12E
330
F5
100
AcDbEntity
  8
AM_4
100
AcDbLine
 10
-4.385869565217392
 20
10.625
 30
0.0
 11
-4.385869565217392
 21
10.39772727272727
 31
0.0
  0
LINE
  5
12F
330
F5
100
AcDbEntity
  8
AM_4
100
AcDbLine
 10
-2.864130434782608
 20
10.39772727272727
 30
0.0
 11
-2.864130434782608
 21
10.625
 31
0.0
  0
LINE
  5
130
330
F5
100
AcDbEntity
  8
AM_4
100
AcDbLine
 10
-2.75
 20
10.275
 30
0.0
 11
-4.499999999999999
 21
10.275
 31
0.0
  0
LINE
  5
131
330
F5
100
AcDbEntity
  8
AM_4
100
AcDbLine
 10
-2.75
 20
10.39772727272727
 30
0.0
 11
-4.499999999999999
 21
10.39772727272727
 31
0.0
  0
LINE
  5
132
330
F5
100
AcDbEntity
  8
AM_4
100
AcDbLine
 10
-4.499999999999999
 20
10.39772727272727
 30
0.0
 11
-4.499999999999999
 21
10.275
 31
0.0
  0
LINE
  5
133
330
F5
100
AcDbEntity
  8
AM_4
100
AcDbLine
 10
-2.75
 20
10.275
 30
0.0
 11
-2.75
 21
10.39772727272727
 31
0.0
  0
LINE
  5
134
330
F5
100
AcDbEntity
  8
AM_4
100
AcDbLine
 10
-7.250000000000001
 20
-9.082419281061402
 30
0.0
 11
-7.249999999999999
 21
-0.06375
 31
0.0
  0
ARC
  5
135
330
F5
100
AcDbEntity
  8
AM_4
100
AcDbCircle
 10
-6.799999999999994
 20
-9.082419281061402
 30
0.0
 40
0.4500000000000055
100
AcDbArc
 50
180.0
 51
257.5045608341165
  0
LINE
  5
136
330
F5
100
AcDbEntity
  8
AM_4
100
AcDbLine
 10
-7.250000000000001
 20
9.082419281061405
 30
0.0
 11
-7.249999999999999
 21
0.0637500000000011
 31
0.0
  0
ARC
  5
137
330
F5
100
AcDbEntity
  8
AM_4
100
AcDbCircle
 10
-6.800000000000007
 20
9.082419281061412
 30
0.0
 40
0.4499999999999946
100
AcDbArc
 50
102.4954391658825
 51
180.0
  0
ARC
  5
138
330
F5
100
AcDbEntity
  8
AM_4
100
AcDbCircle
 10
-3.90624999803786
 20
3.975362337918073
 30
0.0
 40
13.82458223208539
100
AcDbArc
 50
257.5045608432843
 51
283.9969283421528
  0
LINE
  5
139
330
F5
100
AcDbEntity
  8
AM_4
100
AcDbLine
 10
-6.897362854350008
 20
-9.521760235893547
 30
0.0
 11
-6.897362854350006
 21
-0.06375
 31
0.0
  0
ARC
  5
13A
330
F5
100
AcDbEntity
  8
AM_4
100
AcDbCircle
 10
-3.906249999999985
 20
-3.975362318840615
 30
0.0
 40
13.82458221303528
100
AcDbArc
 50
76.00307166558747
 51
85.6866224207117
  0
ARC
  5
13B
330
F5
100
AcDbEntity
  8
AM_4
100
AcDbCircle
 10
-3.906250000000123
 20
-3.975362318839787
 30
0.0
 40
13.82458221303445
100
AcDbArc
 50
91.97879731527942
 51
102.4954391658834
  0
LINE
  5
13C
330
F5
100
AcDbEntity
  8
AM_4
100
AcDbLine
 10
-6.897362854350011
 20
9.52176023589355
 30
0.0
 11
-6.897362854350011
 21
0.0637500000000012
 31
0.0
  0
LWPOLYLINE
  5
13D
330
F5
100
AcDbEntity
  8
AM_4
100
AcDbPolyline
 90
       21
 70
     0
 43
0.0
 10
-2.864130434829011
 20
9.809885599741026
 10
-2.865329210201986
 20
9.809882657944236
 10
-2.883691435660872
 20
9.809843026315193
 10
-2.922284628402118
 20
9.809792945335818
 10
-2.982219903221611
 20
9.809804352292266
 10
-3.058465219463142
 20
9.809975532934342
 10
-3.153215711614279
 20
9.810432454177823
 10
-3.258507210540053
 20
9.811257253011465
 10
-3.377376106308014
 20
9.812588921725524
 10
-3.499828245328008
 20
9.814404253270197
 10
-3.629397725688564
 20
9.816814486505788
 10
-3.755226586570125
 20
9.819636092725416
 10
-3.880919286498108
 20
9.822927171254012
 10
-3.995983673339419
 20
9.826353541865913
 10
-4.103676544513297
 20
9.829918187421356
 10
-4.1949915334346
 20
9.833211525237127
 10
-4.27251882939018
 20
9.836202532515781
 10
-4.32972870089913
 20
9.838524424714091
 10
-4.368289646465012
 20
9.84014438841947
 10
-4.384949757984334
 20
9.840857972969115
 10
-4.385869565197889
 20
9.840897610590686
  0
ARC
  5
13E
330
F5
100
AcDbEntity
  8
AM_4
100
AcDbCircle
 10
-0.5625000000000014
 20
-10.00125
 30
0.0
 40
0.5625000000000012
100
AcDbArc
 50
0.0
 51
89.99999914622627
  0
LINE
  5
13F
330
F5
100
AcDbEntity
  8
AM_4
100
AcDbLine
 10
-0.5624999916180974
 20
-9.43875
 30
0.0
 11
-0.5624999916180974
 21
-0.85
 31
0.0
  0
ARC
  5
140
330
F5
100
AcDbEntity
  8
AM_4
100
AcDbCircle
 10
-0.5625000000000026
 20
10.00125000000001
 30
0.0
 40
0.5625000000000036
100
AcDbArc
 50
270.0
 51
0.0
  0
LINE
  5
141
330
F5
100
AcDbEntity
  8
AM_4
100
AcDbLine
 10
-0.5625000000000205
 20
9.438750000000006
 30
0.0
 11
-0.5625000000000205
 21
0.85
 31
0.0
  0
LINE
  5
142
330
F5
100
AcDbEntity
  8
AM_4
100
AcDbLine
 10
-2.204499999999999
 20
1.380333333333333
 30
0.0
 11
-3.795499999999999
 21
1.380333333333333
 31
0.0
  0
LINE
  5
143
330
F5
100
AcDbEntity
  8
AM_4
100
AcDbLine
 10
-3.795499999999999
 20
1.380333333333333
 30
0.0
 11
-3.918564278280694
 21
1.309282139140347
 31
0.0
  0
LINE
  5
144
330
F5
100
AcDbEntity
  8
AM_4
100
AcDbLine
 10
-3.918564278280694
 20
0.9210511941929862
 30
0.0
 11
-3.795499999999999
 21
0.85
 31
0.0
  0
LINE
  5
145
330
F5
100
AcDbEntity
  8
AM_4
100
AcDbLine
 10
-2.204499999999999
 20
0.85
 30
0.0
 11
-2.081435721719305
 21
0.9210511941929859
 31
0.0
  0
LINE
  5
146
330
F5
100
AcDbEntity
  8
AM_4
100
AcDbLine
 10
-3.795499999999999
 20
-0.85
 30
0.0
 11
-3.918564278280694
 21
-0.921051194192986
 31
0.0
  0
LINE
  5
147
330
F5
100
AcDbEntity
  8
AM_4
100
AcDbLine
 10
-2.081435721719305
 20
1.309282139140347
 30
0.0
 11
-2.204499999999999
 21
1.380333333333333
 31
0.0
  0
LINE
  5
148
330
F5
100
AcDbEntity
  8
AM_4
100
AcDbLine
 10
-2.081435721719305
 20
-0.9210511941929856
 30
0.0
 11
-2.204499999999999
 21
-0.85
 31
0.0
  0
LINE
  5
149
330
F5
100
AcDbEntity
  8
AM_4
100
AcDbLine
 10
-2.204499999999999
 20
-1.380333333333333
 30
0.0
 11
-3.795499999999999
 21
-1.380333333333333
 31
0.0
  0
LINE
  5
14A
330
F5
100
AcDbEntity
  8
AM_4
100
AcDbLine
 10
-3.918564278280694
 20
-1.309282139140347
 30
0.0
 11
-3.795499999999999
 21
-1.380333333333333
 31
0.0
  0
LINE
  5
14B
330
F5
100
AcDbEntity
  8
AM_4
100
AcDbLine
 10
-2.204499999999999
 20
-1.380333333333333
 30
0.0
 11
-2.081435721719305
 21
-1.309282139140347
 31
0.0
  0
LINE
  5
14C
330
F5
100
AcDbEntity
  8
AM_4
100
AcDbLine
 10
-3.499999999999999
 20
1.625599999999999
 30
0.0
 11
-3.499999999999999
 21
1.380333333333333
 31
0.0
  0
LINE
  5
14D
330
F5
100
AcDbEntity
  8
AM_4
100
AcDbLine
 10
-2.5
 20
1.380333333333333
 30
0.0
 11
-2.5
 21
1.625599999999999
 31
0.0
  0
LINE
  5
14E
330
F5
100
AcDbEntity
  8
AM_4
100
AcDbLine
 10
-2.5
 20
1.625599999999999
 30
0.0
 11
-3.499999999999999
 21
1.625599999999999
 31
0.0
  0
LINE
  5
14F
330
F5
100
AcDbEntity
  8
AM_4
100
AcDbLine
 10
-2.5744
 20
1.7
 30
0.0
 11
-3.425599999999998
 21
1.7
 31
0.0
  0
LINE
  5
150
330
F5
100
AcDbEntity
  8
AM_4
100
AcDbLine
 10
-3.425599999999998
 20
1.7
 30
0.0
 11
-3.499999999999999
 21
1.625599999999999
 31
0.0
  0
LINE
  5
151
330
F5
100
AcDbEntity
  8
AM_4
100
AcDbLine
 10
-2.5
 20
1.625599999999999
 30
0.0
 11
-2.5744
 21
1.7
 31
0.0
  0
LINE
  5
152
330
F5
100
AcDbEntity
  8
AM_4
100
AcDbLine
 10
-3.499999999999999
 20
0.06375
 30
0.0
 11
-3.499999999999999
 21
-0.06375
 31
0.0
  0
LINE
  5
153
330
F5
100
AcDbEntity
  8
AM_4
100
AcDbLine
 10
-2.5
 20
-0.06375
 30
0.0
 11
-2.5
 21
0.06375
 31
0.0
  0
LWPOLYLINE
  5
154
330
F5
100
AcDbEntity
  8
AM_4
100
AcDbPolyline
 90
        4
 70
     0
 43
0.0
 10
-2.081435721719305
 20
-0.9210511941929855
 10
-2.193943371426205
 20
-0.8695014592265498
 10
-2.25212407441502
 20
-0.8550173121148094
 10
-2.311076791289478
 20
-0.85
  0
LWPOLYLINE
  5
155
330
F5
100
AcDbEntity
  8
AM_4
100
AcDbPolyline
 90
        4
 70
     0
 43
0.0
 10
-2.311076791289479
 20
-1.380333333333333
 10
-2.294742130801808
 20
-1.379946194792074
 10
-2.187920643196029
 20
-1.358820992037787
 10
-2.081435721719305
 20
-1.309282139140347
  0
LINE
  5
156
330
F5
100
AcDbEntity
  8
AM_4
100
AcDbLine
 10
-2.081435721719305
 20
-1.309282139140347
 30
0.0
 11
-2.081435721719305
 21
-0.9210511941929855
 31
0.0
  0
LWPOLYLINE
  5
157
330
F5
100
AcDbEntity
  8
AM_4
100
AcDbPolyline
 90
        4
 70
     0
 43
0.0
 10
-2.311076791289478
 20
-0.85
 10
-2.327411451777149
 20
-0.850387138541259
 10
-2.434232939382928
 20
-0.8715123412955462
 10
-2.540717860859652
 20
-0.9210511941929856
  0
LWPOLYLINE
  5
158
330
F5
100
AcDbEntity
  8
AM_4
100
AcDbPolyline
 90
        4
 70
     0
 43
0.0
 10
-2.540717860859652
 20
-1.309282139140347
 10
-2.428210211152752
 20
-1.360831874106783
 10
-2.370029508163937
 20
-1.375316021218524
 10
-2.311076791289479
 20
-1.380333333333333
  0
LWPOLYLINE
  5
159
330
F5
100
AcDbEntity
  8
AM_4
100
AcDbPolyline
 90
        4
 70
     0
 43
0.0
 10
-2.999999999999999
 20
1.380333333333333
 10
-2.82392007810682
 20
1.369216921989127
 10
-2.64784015621364
 20
1.337341707289914
 10
-2.540717860859652
 20
1.309282139140347
  0
LWPOLYLINE
  5
15A
330
F5
100
AcDbEntity
  8
AM_4
100
AcDbPolyline
 90
        4
 70
     0
 43
0.0
 10
-2.540717860859652
 20
0.921051194192986
 10
-2.647840156213641
 20
0.8929916260434191
 10
-2.821563462845676
 20
0.8614123292754273
 10
-2.999999999999999
 20
0.85
  0
LWPOLYLINE
  5
15B
330
F5
100
AcDbEntity
  8
AM_4
100
AcDbPolyline
 90
        4
 70
     0
 43
0.0
 10
-3.459282139140347
 20
1.309282139140347
 10
-3.290900390687582
 20
1.350588108787288
 10
-3.117737080287875
 20
1.375330261970943
 10
-2.999999999999999
 20
1.380333333333333
  0
LWPOLYLINE
  5
15C
330
F5
100
AcDbEntity
  8
AM_4
100
AcDbPolyline
 90
        4
 70
     0
 43
0.0
 10
-2.540717860859652
 20
-0.9210511941929856
 10
-2.64784015621364
 20
-0.8929916260434192
 10
-2.821563462845676
 20
-0.8614123292754272
 10
-2.999999999999999
 20
-0.85
  0
LWPOLYLINE
  5
15D
330
F5
100
AcDbEntity
  8
AM_4
100
AcDbPolyline
 90
        4
 70
     0
 43
0.0
 10
-2.999999999999999
 20
-1.380333333333333
 10
-2.82392007810682
 20
-1.369216921989127
 10
-2.64784015621364
 20
-1.337341707289914
 10
-2.540717860859652
 20
-1.309282139140347
  0
LINE
  5
15E
330
F5
100
AcDbEntity
  8
AM_4
100
AcDbLine
 10
-2.540717860859652
 20
-1.309282139140347
 30
0.0
 11
-2.540717860859652
 21
-0.9210511941929856
 31
0.0
  0
LWPOLYLINE
  5
15F
330
F5
100
AcDbEntity
  8
AM_4
100
AcDbPolyline
 90
        4
 70
     0
 43
0.0
 10
-2.999999999999999
 20
0.85
 10
-3.117737080287875
 20
0.8550030713623902
 10
-3.289237475062693
 20
0.8794163251436601
 10
-3.459282139140347
 20
0.9210511941929861
  0
LWPOLYLINE
  5
160
330
F5
100
AcDbEntity
  8
AM_4
100
AcDbPolyline
 90
        4
 70
     0
 43
0.0
 10
-3.68892320871052
 20
-0.85
 10
-3.705257869198191
 20
-0.8503871385412592
 10
-3.81207935680397
 20
-0.8715123412955464
 10
-3.918564278280694
 20
-0.921051194192986
  0
LINE
  5
161
330
F5
100
AcDbEntity
  8
AM_4
100
AcDbLine
 10
-3.918564278280694
 20
-1.309282139140347
 30
0.0
 11
-3.918564278280694
 21
-0.921051194192986
 31
0.0
  0
LWPOLYLINE
  5
162
330
F5
100
AcDbEntity
  8
AM_4
100
AcDbPolyline
 90
        4
 70
     0
 43
0.0
 10
-3.918564278280694
 20
-1.309282139140347
 10
-3.806056628573792
 20
-1.360831874106783
 10
-3.747875925584978
 20
-1.375316021218524
 10
-3.68892320871052
 20
-1.380333333333333
  0
LINE
  5
163
330
F5
100
AcDbEntity
  8
AM_4
100
AcDbLine
 10
-3.459282139140347
 20
-1.309282139140347
 30
0.0
 11
-3.459282139140347
 21
-0.9210511941929859
 31
0.0
  0
LINE
  5
164
330
F5
100
AcDbEntity
  8
AM_4
100
AcDbLine
 10
-2.540717860859652
 20
1.309282139140347
 30
0.0
 11
-2.540717860859652
 21
0.921051194192986
 31
0.0
  0
LWPOLYLINE
  5
165
330
F5
100
AcDbEntity
  8
AM_4
100
AcDbPolyline
 90
        4
 70
     0
 43
0.0
 10
-2.311076791289478
 20
0.85
 10
-2.327411451777149
 20
0.8503871385412591
 10
-2.434232939382928
 20
0.8715123412955463
 10
-2.540717860859652
 20
0.921051194192986
  0
LWPOLYLINE
  5
166
330
F5
100
AcDbEntity
  8
AM_4
100
AcDbPolyline
 90
        4
 70
     0
 43
0.0
 10
-2.081435721719305
 20
0.9210511941929859
 10
-2.193943371426205
 20
0.86950145922655
 10
-2.25212407441502
 20
0.8550173121148095
 10
-2.311076791289478
 20
0.85
  0
LINE
  5
167
330
F5
100
AcDbEntity
  8
AM_4
100
AcDbLine
 10
-2.081435721719305
 20
1.309282139140347
 30
0.0
 11
-2.081435721719305
 21
0.9210511941929859
 31
0.0
  0
LWPOLYLINE
  5
168
330
F5
100
AcDbEntity
  8
AM_4
100
AcDbPolyline
 90
        4
 70
     0
 43
0.0
 10
-2.311076791289478
 20
1.380333333333333
 10
-2.294742130801808
 20
1.379946194792074
 10
-2.187920643196029
 20
1.358820992037787
 10
-2.081435721719305
 20
1.309282139140347
  0
LWPOLYLINE
  5
169
330
F5
100
AcDbEntity
  8
AM_4
100
AcDbPolyline
 90
        4
 70
     0
 43
0.0
 10
-2.540717860859652
 20
1.309282139140347
 10
-2.428210211152752
 20
1.360831874106783
 10
-2.370029508163937
 20
1.375316021218524
 10
-2.311076791289478
 20
1.380333333333333
  0
LINE
  5
16A
330
F5
100
AcDbEntity
  8
AM_4
100
AcDbLine
 10
-3.918564278280694
 20
1.309282139140347
 30
0.0
 11
-3.918564278280694
 21
0.9210511941929862
 31
0.0
  0
LWPOLYLINE
  5
16B
330
F5
100
AcDbEntity
  8
AM_4
100
AcDbPolyline
 90
        4
 70
     0
 43
0.0
 10
-3.68892320871052
 20
0.85
 10
-3.705257869198191
 20
0.8503871385412594
 10
-3.81207935680397
 20
0.8715123412955466
 10
-3.918564278280694
 20
0.9210511941929862
  0
LWPOLYLINE
  5
16C
330
F5
100
AcDbEntity
  8
AM_4
100
AcDbPolyline
 90
        4
 70
     0
 43
0.0
 10
-3.459282139140347
 20
0.9210511941929861
 10
-3.571789788847248
 20
0.8695014592265499
 10
-3.629970491836063
 20
0.8550173121148096
 10
-3.68892320871052
 20
0.85
  0
LINE
  5
16D
330
F5
100
AcDbEntity
  8
AM_4
100
AcDbLine
 10
-3.459282139140347
 20
1.309282139140347
 30
0.0
 11
-3.459282139140347
 21
0.9210511941929861
 31
0.0
  0
LWPOLYLINE
  5
16E
330
F5
100
AcDbEntity
  8
AM_4
100
AcDbPolyline
 90
        4
 70
     0
 43
0.0
 10
-3.68892320871052
 20
1.380333333333333
 10
-3.67258854822285
 20
1.379946194792074
 10
-3.565767060617071
 20
1.358820992037787
 10
-3.459282139140347
 20
1.309282139140347
  0
LWPOLYLINE
  5
16F
330
F5
100
AcDbEntity
  8
AM_4
100
AcDbPolyline
 90
        4
 70
     0
 43
0.0
 10
-3.918564278280694
 20
1.309282139140347
 10
-3.806056628573793
 20
1.360831874106783
 10
-3.747875925584979
 20
1.375316021218523
 10
-3.68892320871052
 20
1.380333333333333
  0
LWPOLYLINE
  5
170
330
F5
100
AcDbEntity
  8
AM_4
100
AcDbPolyline
 90
        4
 70
     0
 43
0.0
 10
-3.459282139140347
 20
-1.309282139140347
 10
-3.290900390687582
 20
-1.350588108787288
 10
-3.117737080287875
 20
-1.375330261970943
 10
-2.999999999999999
 20
-1.380333333333333
  0
LWPOLYLINE
  5
171
330
F5
100
AcDbEntity
  8
AM_4
100
AcDbPolyline
 90
        4
 70
     0
 43
0.0
 10
-3.68892320871052
 20
-1.380333333333333
 10
-3.67258854822285
 20
-1.379946194792074
 10
-3.565767060617071
 20
-1.358820992037787
 10
-3.459282139140347
 20
-1.309282139140347
  0
LWPOLYLINE
  5
172
330
F5
100
AcDbEntity
  8
AM_4
100
AcDbPolyline
 90
        4
 70
     0
 43
0.0
 10
-2.999999999999999
 20
-0.85
 10
-3.117737080287875
 20
-0.8550030713623901
 10
-3.289237475062693
 20
-0.87941632514366
 10
-3.459282139140347
 20
-0.9210511941929859
  0
LWPOLYLINE
  5
173
330
F5
100
AcDbEntity
  8
AM_4
100
AcDbPolyline
 90
        4
 70
     0
 43
0.0
 10
-3.459282139140347
 20
-0.9210511941929859
 10
-3.571789788847248
 20
-0.8695014592265495
 10
-3.629970491836063
 20
-0.8550173121148095
 10
-3.68892320871052
 20
-0.85
  0
LINE
  5
174
330
F5
100
AcDbEntity
  8
AM_4
100
AcDbLine
 10
0.0
 20
12.72625
 30
0.0
 11
0.0
 21
0.85
 31
0.0
  0
LINE
  5
175
330
F5
100
AcDbEntity
  8
AM_4
100
AcDbLine
 10
-7.249999999999999
 20
-0.06375
 30
0.0
 11
1.75
 21
-0.06375
 31
0.0
  0
LINE
  5
176
330
F5
100
AcDbEntity
  8
AM_4
100
AcDbLine
 10
1.75
 20
-12.72625
 30
0.0
 11
1.75
 21
-0.06375
 31
0.0
  0
LINE
  5
177
330
F5
100
AcDbEntity
  8
AM_4
100
AcDbLine
 10
-4.5
 20
0.8499999999999901
 30
0.0
 11
0.0610569354266366
 21
0.8499999999999911
 31
0.0
  0
LINE
  5
178
330
F5
100
AcDbEntity
  8
AM_4
100
AcDbLine
 10
-4.5
 20
0.06375
 30
0.0
 11
-4.5
 21
0.8499999999999901
 31
0.0
  0
LINE
  5
179
330
F5
100
AcDbEntity
  8
AM_4
100
AcDbLine
 10
1.746712012871906
 20
12.75000000000203
 30
0.0
 11
0.0032879871280943
 21
12.75000000000203
 31
0.0
  0
LINE
  5
17A
330
F5
100
AcDbEntity
  8
AM_4
100
AcDbLine
 10
0.0032848736865212
 20
12.7499999999795
 30
0.0
 11
0.0610569354266067
 21
0.8499999999999354
 31
0.0
  0
LINE
  5
17B
330
F5
100
AcDbEntity
  8
AM_4
100
AcDbLine
 10
-4.5
 20
-0.85
 30
0.0
 11
-4.5
 21
-0.0637499999999222
 31
0.0
  0
LINE
  5
17C
330
F5
100
AcDbEntity
  8
AM_4
100
AcDbLine
 10
-4.5
 20
-0.85
 30
0.0
 11
0.0610569354268599
 21
-0.8499999999999989
 31
0.0
  0
LINE
  5
17D
330
F5
100
AcDbEntity
  8
AM_4
100
AcDbLine
 10
0.0032879871280904
 20
-12.74999999999834
 30
0.0
 11
1.746712012871906
 21
-12.74999999999834
 31
0.0
  0
LWPOLYLINE
  5
17E
330
F5
100
AcDbEntity
  8
AM_4
100
AcDbPolyline
 90
       48
 70
     0
 43
0.0
 10
1.74671512631348
 20
-12.7499999999795
 10
1.746706601956669
 20
-12.74385006874637
 10
1.74666588924938
 20
-12.71539326499343
 10
1.746594223094254
 20
-12.66538374123458
 10
1.746489602738613
 20
-12.59345094729449
 10
1.746350578231976
 20
-12.49980904476405
 10
1.746175699623858
 20
-12.38467219523416
 10
1.74595615292997
 20
-12.24378749491551
 10
1.745693178255914
 20
-12.08037498031392
 10
1.745383590598976
 20
-11.89491246798134
 10
1.745024204956442
 20
-11.68787777446978
 10
1.744623299845326
 20
-11.4661341268538
 10
1.744166687428271
 20
-11.22439106880357
 10
1.743650063889253
 20
-10.9632989965584
 10
1.743069125412246
 20
-10.68350830635762
 10
1.742398287641779
 20
-10.37626830265033
 10
1.741646266049001
 20
-10.04976534172249
 10
1.740806742056317
 20
-9.704918917614233
 10
1.739873397086132
 20
-9.342648524365671
 10
1.73886856951321
 20
-8.97417212152948
 10
1.737758047789977
 20
-8.58987514523675
 10
1.736533752366813
 20
-8.19077092493195
 10
1.735187603694101
 20
-7.777872790059548
 10
1.733663850024271
 20
-7.338918822517328
 10
1.731984262769628
 20
-6.886138841475146
 10
1.730134395329584
 20
-6.42079042069517
 10
1.728099801103547
 20
-5.944131133939567
 10
1.727431891629408
 20
-5.794875851278873
 10
1.726720575846832
 20
-5.639623442390898
 10
1.725960810712517
 20
-5.477851401850363
 10
1.725146615779761
 20
-5.308954315270489
 10
1.724270821129587
 20
-5.13222389429589
 10
1.72332472334065
 20
-4.946822358092827
 10
1.722297605706282
 20
-4.751746237468067
 10
1.721176052322206
 20
-4.54577603074645
 10
1.719942938796988
 20
-4.327404324487093
 10
1.718575895855433
 20
-4.0947299710443
 10
1.717044873753005
 20
-3.845296511126109
 10
1.715308085918722
 20
-3.575834354642732
 10
1.713304825197185
 20
-3.281826414649309
 10
1.71094169890799
 20
-2.956724148230103
 10
1.708063332300852
 20
-2.590399076204783
 10
1.70438004890941
 20
-2.165680959889844
 10
1.699243317864367
 20
-1.649071612336896
 10
1.690576634140118
 20
-0.9570847865153072
 10
1.682834530323475
 20
-0.5109523654663031
 10
1.678749461442143
 20
-0.2872171791181173
 10
1.667778768664236
 20
-0.0637499999999857
  0
LINE
  5
17F
330
F5
100
AcDbEntity
  8
AM_4
100
AcDbLine
 10
0.0610569354269001
 20
-0.8499999999999127
 30
0.0
 11
0.0032848736864893
 21
-12.74999999999985
 31
0.0
  0
LINE
  5
180
330
F5
100
AcDbEntity
  8
AM_4
100
AcDbLine
 10
-0.0000000000000022
 20
-12.72625
 30
0.0
 11
-0.0000000000000022
 21
-0.85
 31
0.0
  0
LWPOLYLINE
  5
181
330
F5
100
AcDbEntity
  8
AM_4
100
AcDbPolyline
 90
       41
 70
     0
 43
0.0
 10
1.667778768664207
 20
0.0637500000000039
 10
1.675911719426994
 20
0.2386589519441285
 10
1.684392499385946
 20
0.5884161641028572
 10
1.690294421277523
 20
0.9380764123267846
 10
1.696521664285964
 20
1.403591638669052
 10
1.701564810484173
 20
1.867391815797136
 10
1.705841638415485
 20
2.328534236015455
 10
1.709684792616733
 20
2.792195500519757
 10
1.713100810880068
 20
3.252172563924226
 10
1.716168050904296
 20
3.707514075545919
 10
1.719269657427674
 20
4.210982201927084
 10
1.72206653227063
 20
4.707611820087691
 10
1.724593494144049
 20
5.196128425735394
 10
1.726885361758815
 20
5.675257514577844
 10
1.729031661310359
 20
6.158027688206119
 10
1.730982471574956
 20
6.629974216291764
 10
1.732753612918741
 20
7.089820893756706
 10
1.734360905707852
 20
7.536291515522868
 10
1.735781740933239
 20
7.956924808781727
 10
1.737074903946167
 20
8.364175616670638
 10
1.738248942524694
 20
8.757009083036946
 10
1.739312404446878
 20
9.134390351727992
 10
1.740301505974904
 20
9.506200423767336
 10
1.74119252054834
 20
9.860959875910934
 10
1.741992036427564
 20
10.19772164406053
 10
1.742706641872951
 20
10.51553866411788
 10
1.743326866014878
 20
10.80591189124032
 10
1.74387982038585
 20
11.07786772579669
 10
1.744370003244343
 20
11.33072734743592
 10
1.744801912848829
 20
11.56381193580696
 10
1.745190780447251
 20
11.78274132682274
 10
1.74552765785225
 20
11.98031486309077
 10
1.745815945623652
 20
12.1560213090499
 10
1.746059044321285
 20
12.30934942913896
 10
1.746255371768072
 20
12.43671196556199
 10
1.746414678615211
 20
12.54269914800726
 10
1.7465386286878
 20
12.62706476633832
 10
1.746628885810938
 20
12.68956261041873
 10
1.746688220887294
 20
12.73091702860349
 10
1.746714086052588
 20
12.74901875233121
 10
1.746715126313508
 20
12.74999999999985
  0
LINE
  5
182
330
F5
100
AcDbEntity
  8
AM_4
100
AcDbLine
 10
1.75
 20
0.0637500000000016
 30
0.0
 11
-7.249999999999999
 21
0.0637500000000011
 31
0.0
  0
LINE
  5
183
330
F5
100
AcDbEntity
  8
AM_4
100
AcDbLine
 10
1.75
 20
12.72625
 30
0.0
 11
1.75
 21
0.0637500000000016
 31
0.0
  0
LINE
  5
185
330
F5
100
AcDbEntity
  8
AM_5
100
AcDbLine
 10
-3.425599999999998
 20
1.7
 30
0.0
 11
-3.425599999999998
 21
-0.7968750000000002
 31
0.0
  0
LINE
  5
186
330
F5
100
AcDbEntity
  8
AM_5
100
AcDbLine
 10
-3.499999999999998
 20
-0.7968750000000002
 30
0.0
 11
-3.425599999999998
 21
-0.7968750000000002
 31
0.0
  0
LINE
  5
187
330
F5
100
AcDbEntity
  8
AM_5
100
AcDbLine
 10
-3.499999999999998
 20
-0.7968750000000002
 30
0.0
 11
-2.499999999999999
 21
-0.7968750000000002
 31
0.0
  0
LINE
  5
188
330
F5
100
AcDbEntity
  8
AM_5
100
AcDbLine
 10
-2.5744
 20
1.699999999999999
 30
0.0
 11
-2.5744
 21
-0.7968750000000002
 31
0.0
  0
LINE
  5
189
330
F5
100
AcDbEntity
  8
AM_5
100
AcDbLine
 10
-2.499999999999999
 20
-0.7968750000000002
 30
0.0
 11
-2.5744
 21
-0.7968750000000002
 31
0.0
  0
ENDBLK
  5
F8
330
F5
100
AcDbEntity
  8
0
100
AcDbBlockEnd
  0
ENDSEC
  0
SECTION
  2
ENTITIES
  0
INSERT
  5
6F
330
1F
100
AcDbEntity
  8
0
100
AcDbBlockReference
  2
1_104019_2
 10
0.0
 20
0.0
 30
0.0
  0
POINT
  5
18B
330
1F
100
AcDbEntity
  8
ConnectionPoints
100
AcDbPoint
 10
3.25
 20
0.0
 30
-0.0000000000000002
  0
POINT
  5
18C
330
1F
100
AcDbEntity
  8
ConnectionPoints
100
AcDbPoint
 10
0.0
 20
0.0
 30
0.0
  0
POINT
  5
18D
330
1F
100
AcDbEntity
  8
ConnectionPoints
100
AcDbPoint
 10
3.25
 20
0.0
 30
-0.0000000000000002
  0
ENDSEC
  0
SECTION
  2
OBJECTS
  0
DICTIONARY
  5
C
330
0
100
AcDbDictionary
281
     1
  3
ACAD_DETAILVIEWSTYLE
350
195
  3
ACAD_GROUP
350
D
  3
ACAD_LAYOUT
350
1A
  3
ACAD_MATERIAL
350
43
  3
ACAD_MLEADERSTYLE
350
6B
  3
ACAD_MLINESTYLE
350
17
  3
ACAD_PLOTSETTINGS
350
19
  3
ACAD_PLOTSTYLENAME
350
E
  3
ACAD_SCALELIST
350
47
  3
ACAD_SECTIONVIEWSTYLE
350
196
  3
ACAD_TABLESTYLE
350
69
  3
ACAD_VISUALSTYLE
350
2A
  3
ACDB_RECOMPOSE_DATA
350
192
  3
AcDbVariableDictionary
350
18E
  0
SUN
  5
6D
330
29
100
AcDbSun
 90
        1
290
     0
 63
     7
421
 16777215
 40
1.0
291
     1
 91
  2455826
 92
 54000000
292
     0
 70
     2
 71
   256
280
     1
  0
DICTIONARY
  5
195
102
{ACAD_REACTORS
330
C
102
}
330
C
100
AcDbDictionary
281
     1
  0
DICTIONARY
  5
D
102
{ACAD_REACTORS
330
C
102
}
330
C
100
AcDbDictionary
281
     1
  0
DICTIONARY
  5
1A
102
{ACAD_REACTORS
330
C
102
}
330
C
100
AcDbDictionary
281
     1
  3
Layout1
350
1E
  3
Layout2
350
26
  3
Model
350
22
  0
DICTIONARY
  5
43
102
{ACAD_REACTORS
330
C
102
}
330
C
100
AcDbDictionary
281
     1
  3
ByBlock
350
45
  3
ByLayer
350
44
  3
Global
350
46
  0
DICTIONARY
  5
6B
102
{ACAD_REACTORS
330
C
102
}
330
C
100
AcDbDictionary
281
     1
  3
Standard
350
6C
  0
DICTIONARY
  5
17
102
{ACAD_REACTORS
330
C
102
}
330
C
100
AcDbDictionary
281
     1
  3
Standard
350
18
  0
DICTIONARY
  5
19
102
{ACAD_REACTORS
330
C
102
}
330
C
100
AcDbDictionary
281
     1
  0
ACDBDICTIONARYWDFLT
  5
E
102
{ACAD_REACTORS
330
C
102
}
330
C
100
AcDbDictionary
281
     1
  3
Normal
350
F
100
AcDbDictionaryWithDefault
340
F
  0
DICTIONARY
  5
47
102
{ACAD_REACTORS
330
C
102
}
330
C
100
AcDbDictionary
281
     1
  3
A0
350
48
  3
A1
350
49
  3
A2
350
4A
  3
A3
350
4B
  3
A4
350
4C
  3
A5
350
4D
  3
A6
350
4E
  3
A7
350
4F
  3
A8
350
50
  3
A9
350
51
  3
B0
350
52
  3
B1
350
53
  3
B2
350
54
  3
B3
350
55
  3
B4
350
56
  3
B5
350
57
  3
B6
350
58
  3
B7
350
59
  3
B8
350
5A
  3
B9
350
5B
  3
C0
350
5C
  3
C1
350
5D
  3
C2
350
5E
  3
C3
350
5F
  3
C4
350
60
  3
C5
350
61
  3
C6
350
62
  3
C7
350
63
  3
C8
350
64
  3
C9
350
65
  3
D0
350
66
  3
D1
350
67
  3
D2
350
68
  0
DICTIONARY
  5
196
102
{ACAD_REACTORS
330
C
102
}
330
C
100
AcDbDictionary
281
     1
  0
DICTIONARY
  5
69
102
{ACAD_REACTORS
330
C
102
}
330
C
100
AcDbDictionary
281
     1
  3
Standard
350
6A
  0
DICTIONARY
  5
2A
102
{ACAD_REACTORS
330
C
102
}
330
C
100
AcDbDictionary
281
     1
  3
2dWireframe
350
2F
  3
Basic
350
32
  3
Brighten
350
36
  3
ColorChange
350
3A
  3
Conceptual
350
34
  3
Dim
350
35
  3
EdgeColorOff
350
3D
  3
Facepattern
350
39
  3
Flat
350
2B
  3
FlatWithEdges
350
2C
  3
Gouraud
350
2D
  3
GouraudWithEdges
350
2E
  3
Hidden
350
31
  3
JitterOff
350
3B
  3
Linepattern
350
38
  3
OverhangOff
350
3C
  3
Realistic
350
33
  3
Shaded
350
42
  3
Shaded with edges
350
41
  3
Shades of Gray
350
3E
  3
Sketchy
350
3F
  3
Thicken
350
37
  3
Wireframe
350
30
  3
X-Ray
350
40
  0
XRECORD
  5
192
102
{ACAD_REACTORS
330
C
102
}
330
C
100
AcDbXrecord
280
     1
 90
        1
330
6A
  0
DICTIONARY
  5
18E
102
{ACAD_REACTORS
330
C
102
}
330
C
100
AcDbDictionary
281
     1
  3
CANNOSCALE
350
18F
  3
CMLEADERSTYLE
350
194
  3
CTABLESTYLE
350
193
  0
LAYOUT
  5
1E
102
{ACAD_REACTORS
330
1A
102
}
330
1A
100
AcDbPlotSettings
  1

  2
none_device
  4

  6

 40
0.0
 41
0.0
 42
0.0
 43
0.0
 44
0.0
 45
0.0
 46
0.0
 47
0.0
 48
0.0
 49
0.0
140
0.0
141
0.0
142
1.0
143
1.0
 70
   688
 72
     0
 73
     0
 74
     5
  7

 75
    16
 76
     0
 77
     2
 78
   300
147
1.0
148
0.0
149
0.0
100
AcDbLayout
  1
Layout1
 70
     1
 71
     1
 10
0.0
 20
0.0
 11
12.0
 21
9.0
 12
0.0
 22
0.0
 32
0.0
 14
1.000000000000000E+20
 24
1.000000000000000E+20
 34
1.000000000000000E+20
 15
-1.000000000000000E+20
 25
-1.000000000000000E+20
 35
-1.000000000000000E+20
146
0.0
 13
0.0
 23
0.0
 33
0.0
 16
1.0
 26
0.0
 36
0.0
 17
0.0
 27
1.0
 37
0.0
 76
     0
330
1B
  0
LAYOUT
  5
26
102
{ACAD_REACTORS
330
1A
102
}
330
1A
100
AcDbPlotSettings
  1

  2
none_device
  4

  6

 40
0.0
 41
0.0
 42
0.0
 43
0.0
 44
0.0
 45
0.0
 46
0.0
 47
0.0
 48
0.0
 49
0.0
140
0.0
141
0.0
142
1.0
143
1.0
 70
   688
 72
     0
 73
     0
 74
     5
  7

 75
    16
 76
     0
 77
     2
 78
   300
147
1.0
148
0.0
149
0.0
100
AcDbLayout
  1
Layout2
 70
     1
 71
     2
 10
0.0
 20
0.0
 11
0.0
 21
0.0
 12
0.0
 22
0.0
 32
0.0
 14
0.0
 24
0.0
 34
0.0
 15
0.0
 25
0.0
 35
0.0
146
0.0
 13
0.0
 23
0.0
 33
0.0
 16
1.0
 26
0.0
 36
0.0
 17
0.0
 27
1.0
 37
0.0
 76
     0
330
23
  0
LAYOUT
  5
22
102
{ACAD_REACTORS
330
1A
102
}
330
1A
100
AcDbPlotSettings
  1

  2
none_device
  4
Letter_(8.50_x_11.00_Inches)
  6

 40
6.35
 41
6.35
 42
6.35000508
 43
6.35000508
 44
215.9
 45
279.4
 46
0.0
 47
0.0
 48
0.0
 49
0.0
140
0.0
141
0.0
142
1.0
143
1.0
 70
  1712
 72
     0
 73
     0
 74
     0
  7

 75
     0
 76
     0
 77
     2
 78
   300
147
1.0
148
0.0
149
0.0
100
AcDbLayout
  1
Model
 70
     1
 71
     0
 10
0.0
 20
0.0
 11
12.0
 21
9.0
 12
0.0
 22
0.0
 32
0.0
 14
1.000000000000000E+20
 24
1.000000000000000E+20
 34
1.000000000000000E+20
 15
-1.000000000000000E+20
 25
-1.000000000000000E+20
 35
-1.000000000000000E+20
146
0.0
 13
0.0
 23
0.0
 33
0.0
 16
1.0
 26
0.0
 36
0.0
 17
0.0
 27
1.0
 37
0.0
 76
     0
330
1F
331
29
  0
MATERIAL
  5
45
102
{ACAD_REACTORS
330
43
102
}
330
43
100
AcDbMaterial
  1
ByBlock
 72
     1
 94
      127
  0
MATERIAL
  5
44
102
{ACAD_REACTORS
330
43
102
}
330
43
100
AcDbMaterial
  1
ByLayer
 72
     1
 94
      127
  0
MATERIAL
  5
46
102
{ACAD_REACTORS
330
43
102
}
330
43
100
AcDbMaterial
  1
Global
 72
     1
 94
      127
  0
MLEADERSTYLE
  5
6C
102
{ACAD_REACTORS
330
6B
102
}
330
6B
100
AcDbMLeaderStyle
179
     2
170
     2
171
     1
172
     0
 90
        2
 40
0.0
 41
0.0
173
     1
 91
-1056964608
340
14
 92
       -2
290
     1
 42
0.09
291
     1
 43
0.36
  3
Standard
341
0
 44
0.18
300

342
11
174
     1
178
     6
175
     1
176
     0
 93
-1056964608
 45
0.18
292
     0
297
     0
 46
0.18
343
0
 94
-1056964608
 47
1.0
 49
1.0
140
1.0
293
     1
141
0.0
294
     1
177
     0
142
1.0
295
     0
296
     0
143
0.125
271
     0
272
     9
273
     9
298
     0
  0
MLINESTYLE
  5
18
102
{ACAD_REACTORS
330
17
102
}
330
17
100
AcDbMlineStyle
  2
Standard
 70
     0
  3

 62
   256
 51
90.0
 52
90.0
 71
     2
 49
0.5
 62
   256
  6
BYLAYER
 49
-0.5
 62
   256
  6
BYLAYER
  0
ACDBPLACEHOLDER
  5
F
102
{ACAD_REACTORS
330
E
102
}
330
E
  0
SCALE
  5
48
102
{ACAD_REACTORS
330
47
102
}
330
47
100
AcDbScale
 70
     0
300
1:1
140
1.0
141
1.0
290
     1
  0
SCALE
  5
49
102
{ACAD_REACTORS
330
47
102
}
330
47
100
AcDbScale
 70
     0
300
1:2
140
1.0
141
2.0
290
     0
  0
SCALE
  5
4A
102
{ACAD_REACTORS
330
47
102
}
330
47
100
AcDbScale
 70
     0
300
1:4
140
1.0
141
4.0
290
     0
  0
SCALE
  5
4B
102
{ACAD_REACTORS
330
47
102
}
330
47
100
AcDbScale
 70
     0
300
1:5
140
1.0
141
5.0
290
     0
  0
SCALE
  5
4C
102
{ACAD_REACTORS
330
47
102
}
330
47
100
AcDbScale
 70
     0
300
1:8
140
1.0
141
8.0
290
     0
  0
SCALE
  5
4D
102
{ACAD_REACTORS
330
47
102
}
330
47
100
AcDbScale
 70
     0
300
1:10
140
1.0
141
10.0
290
     0
  0
SCALE
  5
4E
102
{ACAD_REACTORS
330
47
102
}
330
47
100
AcDbScale
 70
     0
300
1:16
140
1.0
141
16.0
290
     0
  0
SCALE
  5
4F
102
{ACAD_REACTORS
330
47
102
}
330
47
100
AcDbScale
 70
     0
300
1:20
140
1.0
141
20.0
290
     0
  0
SCALE
  5
50
102
{ACAD_REACTORS
330
47
102
}
330
47
100
AcDbScale
 70
     0
300
1:30
140
1.0
141
30.0
290
     0
  0
SCALE
  5
51
102
{ACAD_REACTORS
330
47
102
}
330
47
100
AcDbScale
 70
     0
300
1:40
140
1.0
141
40.0
290
     0
  0
SCALE
  5
52
102
{ACAD_REACTORS
330
47
102
}
330
47
100
AcDbScale
 70
     0
300
1:50
140
1.0
141
50.0
290
     0
  0
SCALE
  5
53
102
{ACAD_REACTORS
330
47
102
}
330
47
100
AcDbScale
 70
     0
300
1:100
140
1.0
141
100.0
290
     0
  0
SCALE
  5
54
102
{ACAD_REACTORS
330
47
102
}
330
47
100
AcDbScale
 70
     0
300
2:1
140
2.0
141
1.0
290
     0
  0
SCALE
  5
55
102
{ACAD_REACTORS
330
47
102
}
330
47
100
AcDbScale
 70
     0
300
4:1
140
4.0
141
1.0
290
     0
  0
SCALE
  5
56
102
{ACAD_REACTORS
330
47
102
}
330
47
100
AcDbScale
 70
     0
300
8:1
140
8.0
141
1.0
290
     0
  0
SCALE
  5
57
102
{ACAD_REACTORS
330
47
102
}
330
47
100
AcDbScale
 70
     0
300
10:1
140
10.0
141
1.0
290
     0
  0
SCALE
  5
58
102
{ACAD_REACTORS
330
47
102
}
330
47
100
AcDbScale
 70
     0
300
100:1
140
100.0
141
1.0
290
     0
  0
SCALE
  5
59
102
{ACAD_REACTORS
330
47
102
}
330
47
100
AcDbScale
 70
     0
300
1/128" = 1'-0"
140
0.0078125
141
12.0
290
     0
  0
SCALE
  5
5A
102
{ACAD_REACTORS
330
47
102
}
330
47
100
AcDbScale
 70
     0
300
1/64" = 1'-0"
140
0.015625
141
12.0
290
     0
  0
SCALE
  5
5B
102
{ACAD_REACTORS
330
47
102
}
330
47
100
AcDbScale
 70
     0
300
1/32" = 1'-0"
140
0.03125
141
12.0
290
     0
  0
SCALE
  5
5C
102
{ACAD_REACTORS
330
47
102
}
330
47
100
AcDbScale
 70
     0
300
1/16" = 1'-0"
140
0.0625
141
12.0
290
     0
  0
SCALE
  5
5D
102
{ACAD_REACTORS
330
47
102
}
330
47
100
AcDbScale
 70
     0
300
3/32" = 1'-0"
140
0.09375
141
12.0
290
     0
  0
SCALE
  5
5E
102
{ACAD_REACTORS
330
47
102
}
330
47
100
AcDbScale
 70
     0
300
1/8" = 1'-0"
140
0.125
141
12.0
290
     0
  0
SCALE
  5
5F
102
{ACAD_REACTORS
330
47
102
}
330
47
100
AcDbScale
 70
     0
300
3/16" = 1'-0"
140
0.1875
141
12.0
290
     0
  0
SCALE
  5
60
102
{ACAD_REACTORS
330
47
102
}
330
47
100
AcDbScale
 70
     0
300
1/4" = 1'-0"
140
0.25
141
12.0
290
     0
  0
SCALE
  5
61
102
{ACAD_REACTORS
330
47
102
}
330
47
100
AcDbScale
 70
     0
300
3/8" = 1'-0"
140
0.375
141
12.0
290
     0
  0
SCALE
  5
62
102
{ACAD_REACTORS
330
47
102
}
330
47
100
AcDbScale
 70
     0
300
1/2" = 1'-0"
140
0.5
141
12.0
290
     0
  0
SCALE
  5
63
102
{ACAD_REACTORS
330
47
102
}
330
47
100
AcDbScale
 70
     0
300
3/4" = 1'-0"
140
0.75
141
12.0
290
     0
  0
SCALE
  5
64
102
{ACAD_REACTORS
330
47
102
}
330
47
100
AcDbScale
 70
     0
300
1" = 1'-0"
140
1.0
141
12.0
290
     0
  0
SCALE
  5
65
102
{ACAD_REACTORS
330
47
102
}
330
47
100
AcDbScale
 70
     0
300
1-1/2" = 1'-0"
140
1.5
141
12.0
290
     0
  0
SCALE
  5
66
102
{ACAD_REACTORS
330
47
102
}
330
47
100
AcDbScale
 70
     0
300
3" = 1'-0"
140
3.0
141
12.0
290
     0
  0
SCALE
  5
67
102
{ACAD_REACTORS
330
47
102
}
330
47
100
AcDbScale
 70
     0
300
6" = 1'-0"
140
6.0
141
12.0
290
     0
  0
SCALE
  5
68
102
{ACAD_REACTORS
330
47
102
}
330
47
100
AcDbScale
 70
     0
300
1'-0" = 1'-0"
140
12.0
141
12.0
290
     0
  0
TABLESTYLE
  5
6A
102
{ACAD_REACTORS
330
69
102
}
102
{ACAD_XDICTIONARY
360
190
102
}
330
69
100
AcDbTableStyle
  3
Standard
 70
     0
 71
     0
 40
0.06
 41
0.06
280
     0
281
     0
  7
Standard
140
0.18
170
     2
 62
     0
 63
   257
283
     0
 90
        4
 91
        0
  1

274
    -2
284
     1
 64
     0
275
    -2
285
     1
 65
     0
276
    -2
286
     1
 66
     0
277
    -2
287
     1
 67
     0
278
    -2
288
     1
 68
     0
279
    -2
289
     1
 69
     0
  7
Standard
140
0.25
170
     5
 62
     0
 63
   257
283
     0
 90
        4
 91
        0
  1

274
    -2
284
     1
 64
     0
275
    -2
285
     1
 65
     0
276
    -2
286
     1
 66
     0
277
    -2
287
     1
 67
     0
278
    -2
288
     1
 68
     0
279
    -2
289
     1
 69
     0
  7
Standard
140
0.18
170
     5
 62
     0
 63
   257
283
     0
 90
        4
 91
        0
  1

274
    -2
284
     1
 64
     0
275
    -2
285
     1
 65
     0
276
    -2
286
     1
 66
     0
277
    -2
287
     1
 67
     0
278
    -2
288
     1
 68
     0
279
    -2
289
     1
 69
     0
  0
VISUALSTYLE
  5
2F
102
{ACAD_REACTORS
330
2A
102
}
330
2A
100
AcDbVisualStyle
  2
2dWireframe
 70
     4
177
     3
291
     0
 70
    58
 90
        0
176
     1
 90
        2
176
     1
 90
        0
176
     1
 90
        0
176
     1
 40
0.6
176
     1
 40
30.0
176
     1
 62
     7
420
 16777215
176
     1
 90
        1
176
     1
 90
        4
176
     1
 62
     7
176
     1
 62
   257
176
     1
 90
        1
176
     1
 90
        1
176
     1
 40
1.0
176
     1
 90
        0
176
     1
 62
   257
176
     1
 40
1.0
176
     1
 90
        1
176
     1
 90
        6
176
     1
 90
        2
176
     1
 62
     7
176
     1
 90
        5
176
     1
 90
        0
176
     1
 90
        0
176
     1
290
     0
176
     1
 90
        1
176
     1
 40
0.0
176
     1
 90
        0
176
     1
290
     1
176
     1
290
     1
176
     1
290
     0
176
     1
290
     0
176
     1
290
     0
176
     1
290
     0
176
     1
290
     0
176
     1
290
     0
176
     1
290
     0
176
     1
 90
       50
176
     1
 40
0.0
176
     1
 40
1.0
176
     1
 90
        0
176
     1
 62
    18
420
        0
176
     1
 90
       50
176
     1
 90
        3
176
     1
 62
     5
420
      255
176
     1
290
     0
176
     1
 90
       50
176
     1
 90
       50
176
     1
 90
       50
176
     1
290
     0
176
     1
 90
       50
176
     1
 62
   256
176
     0
 40
1.0
176
     0
 90
        2
176
     1
  1
strokes_ogs.tif
176
     1
290
     0
176
     1
 40
1.0
176
     1
 40
1.0
176
     1
  0
VISUALSTYLE
  5
32
102
{ACAD_REACTORS
330
2A
102
}
330
2A
100
AcDbVisualStyle
  2
Basic
 70
     7
177
     3
291
     1
 70
    58
 90
        1
176
     1
 90
        0
176
     1
 90
        1
176
     1
 90
        0
176
     1
 40
0.6
176
     1
 40
30.0
176
     1
 62
     7
420
 16777215
176
     1
 90
        0
176
     1
 90
        4
176
     1
 62
     7
176
     1
 62
   257
176
     1
 90
        1
176
     1
 90
        1
176
     1
 40
1.0
176
     1
 90
        8
176
     1
 62
     7
176
     1
 40
1.0
176
     1
 90
        1
176
     1
 90
        6
176
     1
 90
        2
176
     1
 62
     7
176
     1
 90
        5
176
     1
 90
        0
176
     1
 90
        0
176
     1
290
     0
176
     1
 90
        1
176
     1
 40
0.0
176
     1
 90
        0
176
     1
290
     0
176
     1
290
     1
176
     1
290
     1
176
     1
290
     0
176
     1
290
     0
176
     1
290
     0
176
     1
290
     0
176
     1
290
     0
176
     1
290
     0
176
     1
 90
       50
176
     1
 40
0.0
176
     1
 40
1.0
176
     1
 90
        0
176
     1
 62
    18
420
        0
176
     1
 90
       50
176
     1
 90
        3
176
     1
 62
     5
420
      255
176
     1
290
     0
176
     1
 90
       50
176
     1
 90
       50
176
     1
 90
       50
176
     1
290
     0
176
     1
 90
       50
176
     1
 62
   256
176
     0
 40
1.0
176
     0
 90
        2
176
     1
  1
strokes_ogs.tif
176
     1
290
     0
176
     1
 40
1.0
176
     1
 40
1.0
176
     1
  0
VISUALSTYLE
  5
36
102
{ACAD_REACTORS
330
2A
102
}
330
2A
100
AcDbVisualStyle
  2
Brighten
 70
    12
177
     3
291
     1
 70
    58
 90
        2
176
     1
 90
        2
176
     1
 90
        0
176
     1
 90
        0
176
     1
 40
0.6
176
     1
 40
30.0
176
     1
 62
     7
420
 16777215
176
     1
 90
        1
176
     1
 90
        4
176
     1
 62
     7
176
     1
 62
   257
176
     1
 90
        1
176
     1
 90
        1
176
     1
 40
1.0
176
     1
 90
        8
176
     1
 62
     7
176
     1
 40
1.0
176
     1
 90
        1
176
     1
 90
        6
176
     1
 90
        2
176
     1
 62
     7
176
     1
 90
        5
176
     1
 90
        0
176
     1
 90
        0
176
     1
290
     0
176
     1
 90
        1
176
     1
 40
50.0
176
     1
 90
        0
176
     1
290
     0
176
     1
290
     1
176
     1
290
     1
176
     1
290
     0
176
     1
290
     0
176
     1
290
     0
176
     1
290
     0
176
     1
290
     0
176
     1
290
     0
176
     1
 90
       50
176
     1
 40
0.0
176
     1
 40
1.0
176
     1
 90
        0
176
     1
 62
    18
420
        0
176
     1
 90
       50
176
     1
 90
        3
176
     1
 62
     5
420
      255
176
     1
290
     0
176
     1
 90
       50
176
     1
 90
       50
176
     1
 90
       50
176
     1
290
     0
176
     1
 90
       50
176
     1
 62
   256
176
     0
 40
1.0
176
     0
 90
        2
176
     1
  1
strokes_ogs.tif
176
     1
290
     0
176
     1
 40
1.0
176
     1
 40
1.0
176
     1
  0
VISUALSTYLE
  5
3A
102
{ACAD_REACTORS
330
2A
102
}
330
2A
100
AcDbVisualStyle
  2
ColorChange
 70
    16
177
     3
291
     1
 70
    58
 90
        2
176
     1
 90
        2
176
     1
 90
        3
176
     1
 90
        0
176
     1
 40
0.6
176
     1
 40
30.0
176
     1
 62
     8
420
  8421504
176
     1
 90
        1
176
     1
 90
        4
176
     1
 62
     7
176
     1
 62
   257
176
     1
 90
        1
176
     1
 90
        1
176
     1
 40
1.0
176
     1
 90
        8
176
     1
 62
     8
420
  8421504
176
     1
 40
1.0
176
     1
 90
        1
176
     1
 90
        6
176
     1
 90
        2
176
     1
 62
     7
176
     1
 90
        5
176
     1
 90
        0
176
     1
 90
        0
176
     1
290
     0
176
     1
 90
        1
176
     1
 40
0.0
176
     1
 90
        0
176
     1
290
     0
176
     1
290
     1
176
     1
290
     1
176
     1
290
     0
176
     1
290
     0
176
     1
290
     0
176
     1
290
     0
176
     1
290
     0
176
     1
290
     0
176
     1
 90
       50
176
     1
 40
0.0
176
     1
 40
1.0
176
     1
 90
        0
176
     1
 62
    18
420
        0
176
     1
 90
       50
176
     1
 90
        3
176
     1
 62
     5
420
      255
176
     1
290
     0
176
     1
 90
       50
176
     1
 90
       50
176
     1
 90
       50
176
     1
290
     0
176
     1
 90
       50
176
     1
 62
   256
176
     0
 40
1.0
176
     0
 90
        2
176
     1
  1
strokes_ogs.tif
176
     1
290
     0
176
     1
 40
1.0
176
     1
 40
1.0
176
     1
  0
VISUALSTYLE
  5
34
102
{ACAD_REACTORS
330
2A
102
}
330
2A
100
AcDbVisualStyle
  2
Conceptual
 70
     9
177
     3
291
     0
 70
    58
 90
        3
176
     1
 90
        2
176
     1
 90
        0
176
     1
 90
        0
176
     1
 40
0.6
176
     1
 40
30.0
176
     1
 62
     7
420
 16777215
176
     1
 90
        2
176
     1
 90
        2
176
     1
 62
     7
176
     1
 62
   257
176
     1
 90
        1
176
     1
 90
        1
176
     1
 40
179.0
176
     1
 90
        8
176
     1
 62
     7
176
     1
 40
1.0
176
     1
 90
        1
176
     1
 90
        6
176
     1
 90
        2
176
     1
 62
     7
176
     1
 90
        3
176
     1
 90
        0
176
     1
 90
        0
176
     1
290
     0
176
     1
 90
        1
176
     1
 40
0.0
176
     1
 90
        0
176
     1
290
     0
176
     1
290
     1
176
     1
290
     1
176
     1
290
     0
176
     1
290
     0
176
     1
290
     0
176
     1
290
     0
176
     1
290
     0
176
     1
290
     0
176
     1
 90
       50
176
     1
 40
0.0
176
     1
 40
1.0
176
     1
 90
        0
176
     1
 62
    18
420
        0
176
     1
 90
       50
176
     1
 90
        3
176
     1
 62
     5
420
      255
176
     1
290
     0
176
     1
 90
       50
176
     1
 90
       50
176
     1
 90
       50
176
     1
290
     0
176
     1
 90
       50
176
     1
 62
   256
176
     0
 40
1.0
176
     0
 90
        2
176
     1
  1
strokes_ogs.tif
176
     1
290
     0
176
     1
 40
1.0
176
     1
 40
1.0
176
     1
  0
VISUALSTYLE
  5
35
102
{ACAD_REACTORS
330
2A
102
}
330
2A
100
AcDbVisualStyle
  2
Dim
 70
    11
177
     3
291
     1
 70
    58
 90
        2
176
     1
 90
        2
176
     1
 90
        0
176
     1
 90
        0
176
     1
 40
0.6
176
     1
 40
30.0
176
     1
 62
     7
420
 16777215
176
     1
 90
        1
176
     1
 90
        4
176
     1
 62
     7
176
     1
 62
   257
176
     1
 90
        1
176
     1
 90
        1
176
     1
 40
1.0
176
     1
 90
        8
176
     1
 62
     7
176
     1
 40
1.0
176
     1
 90
        1
176
     1
 90
        6
176
     1
 90
        2
176
     1
 62
     7
176
     1
 90
        5
176
     1
 90
        0
176
     1
 90
        0
176
     1
290
     0
176
     1
 90
        1
176
     1
 40
-50.0
176
     1
 90
        0
176
     1
290
     0
176
     1
290
     1
176
     1
290
     1
176
     1
290
     0
176
     1
290
     0
176
     1
290
     0
176
     1
290
     0
176
     1
290
     0
176
     1
290
     0
176
     1
 90
       50
176
     1
 40
0.0
176
     1
 40
1.0
176
     1
 90
        0
176
     1
 62
    18
420
        0
176
     1
 90
       50
176
     1
 90
        3
176
     1
 62
     5
420
      255
176
     1
290
     0
176
     1
 90
       50
176
     1
 90
       50
176
     1
 90
       50
176
     1
290
     0
176
     1
 90
       50
176
     1
 62
   256
176
     0
 40
1.0
176
     0
 90
        2
176
     1
  1
strokes_ogs.tif
176
     1
290
     0
176
     1
 40
1.0
176
     1
 40
1.0
176
     1
  0
VISUALSTYLE
  5
3D
102
{ACAD_REACTORS
330
2A
102
}
330
2A
100
AcDbVisualStyle
  2
EdgeColorOff
 70
    22
177
     3
291
     1
 70
    58
 90
        2
176
     0
 90
        2
176
     0
 90
        0
176
     0
 90
        0
176
     0
 40
0.6
176
     0
 40
30.0
176
     0
 62
     7
420
 16777215
176
     0
 90
        1
176
     0
 90
        4
176
     0
 62
     7
176
     0
 62
   257
176
     0
 90
        1
176
     0
 90
        1
176
     0
 40
1.0
176
     0
 90
        8
176
     2
 62
     7
176
     0
 40
1.0
176
     0
 90
        1
176
     0
 90
        6
176
     0
 90
        2
176
     0
 62
     7
176
     0
 90
        5
176
     0
 90
        0
176
     0
 90
        0
176
     0
290
     0
176
     0
 90
        1
176
     0
 40
0.0
176
     0
 90
        0
176
     0
290
     0
176
     0
290
     1
176
     0
290
     1
176
     0
290
     0
176
     0
290
     0
176
     0
290
     0
176
     0
290
     0
176
     0
290
     0
176
     0
290
     0
176
     0
 90
       50
176
     0
 40
0.0
176
     0
 40
1.0
176
     0
 90
        0
176
     0
 62
    18
420
        0
176
     0
 90
       50
176
     0
 90
        3
176
     0
 62
     5
420
      255
176
     0
290
     0
176
     0
 90
       50
176
     0
 90
       50
176
     0
 90
       50
176
     0
290
     0
176
     0
 90
       50
176
     0
 62
   256
176
     0
 40
1.0
176
     0
 90
        2
176
     0
  1
strokes_ogs.tif
176
     0
290
     0
176
     0
 40
1.0
176
     0
 40
1.0
176
     0
  0
VISUALSTYLE
  5
39
102
{ACAD_REACTORS
330
2A
102
}
330
2A
100
AcDbVisualStyle
  2
Facepattern
 70
    15
177
     3
291
     1
 70
    58
 90
        2
176
     1
 90
        2
176
     1
 90
        0
176
     1
 90
        0
176
     1
 40
0.6
176
     1
 40
30.0
176
     1
 62
     7
420
 16777215
176
     1
 90
        1
176
     1
 90
        4
176
     1
 62
     7
176
     1
 62
   257
176
     1
 90
        1
176
     1
 90
        1
176
     1
 40
1.0
176
     1
 90
        8
176
     1
 62
     7
176
     1
 40
1.0
176
     1
 90
        1
176
     1
 90
        6
176
     1
 90
        2
176
     1
 62
     7
176
     1
 90
        5
176
     1
 90
        0
176
     1
 90
        0
176
     1
290
     0
176
     1
 90
        1
176
     1
 40
0.0
176
     1
 90
        0
176
     1
290
     0
176
     1
290
     1
176
     1
290
     1
176
     1
290
     0
176
     1
290
     0
176
     1
290
     0
176
     1
290
     0
176
     1
290
     0
176
     1
290
     0
176
     1
 90
       50
176
     1
 40
0.0
176
     1
 40
1.0
176
     1
 90
        0
176
     1
 62
    18
420
        0
176
     1
 90
       50
176
     1
 90
        3
176
     1
 62
     5
420
      255
176
     1
290
     0
176
     1
 90
       50
176
     1
 90
       50
176
     1
 90
       50
176
     1
290
     0
176
     1
 90
       50
176
     1
 62
   256
176
     0
 40
1.0
176
     0
 90
        2
176
     1
  1
strokes_ogs.tif
176
     1
290
     0
176
     1
 40
1.0
176
     1
 40
1.0
176
     1
  0
VISUALSTYLE
  5
2B
102
{ACAD_REACTORS
330
2A
102
}
330
2A
100
AcDbVisualStyle
  2
Flat
 70
     0
177
     3
291
     1
 70
    58
 90
        2
176
     1
 90
        1
176
     1
 90
        1
176
     1
 90
        2
176
     1
 40
0.6
176
     1
 40
30.0
176
     1
 62
     7
420
 16777215
176
     1
 90
        0
176
     1
 90
        0
176
     1
 62
     7
176
     1
 62
   257
176
     1
 90
        1
176
     1
 90
        1
176
     1
 40
1.0
176
     1
 90
        8
176
     1
 62
     7
176
     1
 40
1.0
176
     1
 90
        1
176
     1
 90
        6
176
     1
 90
        2
176
     1
 62
     7
176
     1
 90
        5
176
     1
 90
        0
176
     1
 90
        0
176
     1
290
     0
176
     1
 90
       13
176
     1
 40
0.0
176
     1
 90
        0
176
     1
290
     0
176
     1
290
     1
176
     1
290
     1
176
     1
290
     0
176
     1
290
     0
176
     1
290
     0
176
     1
290
     0
176
     1
290
     0
176
     1
290
     0
176
     1
 90
       50
176
     1
 40
0.0
176
     1
 40
1.0
176
     1
 90
        0
176
     1
 62
    18
420
        0
176
     1
 90
       50
176
     1
 90
        3
176
     1
 62
     5
420
      255
176
     1
290
     0
176
     1
 90
       50
176
     1
 90
       50
176
     1
 90
       50
176
     1
290
     0
176
     1
 90
       50
176
     1
 62
   256
176
     0
 40
1.0
176
     0
 90
        2
176
     1
  1
strokes_ogs.tif
176
     1
290
     0
176
     1
 40
1.0
176
     1
 40
1.0
176
     1
  0
VISUALSTYLE
  5
2C
102
{ACAD_REACTORS
330
2A
102
}
330
2A
100
AcDbVisualStyle
  2
FlatWithEdges
 70
     1
177
     3
291
     1
 70
    58
 90
        2
176
     1
 90
        1
176
     1
 90
        1
176
     1
 90
        2
176
     1
 40
0.6
176
     1
 40
30.0
176
     1
 62
     7
420
 16777215
176
     1
 90
        1
176
     1
 90
        0
176
     1
 62
     7
176
     1
 62
   257
176
     1
 90
        1
176
     1
 90
        1
176
     1
 40
1.0
176
     1
 90
        0
176
     1
 62
   257
176
     1
 40
1.0
176
     1
 90
        1
176
     1
 90
        6
176
     1
 90
        2
176
     1
 62
     7
176
     1
 90
        5
176
     1
 90
        0
176
     1
 90
        0
176
     1
290
     0
176
     1
 90
       13
176
     1
 40
0.0
176
     1
 90
        0
176
     1
290
     0
176
     1
290
     1
176
     1
290
     1
176
     1
290
     0
176
     1
290
     0
176
     1
290
     0
176
     1
290
     0
176
     1
290
     0
176
     1
290
     0
176
     1
 90
       50
176
     1
 40
0.0
176
     1
 40
1.0
176
     1
 90
        0
176
     1
 62
    18
420
        0
176
     1
 90
       50
176
     1
 90
        3
176
     1
 62
     5
420
      255
176
     1
290
     0
176
     1
 90
       50
176
     1
 90
       50
176
     1
 90
       50
176
     1
290
     0
176
     1
 90
       50
176
     1
 62
   256
176
     0
 40
1.0
176
     0
 90
        2
176
     1
  1
strokes_ogs.tif
176
     1
290
     0
176
     1
 40
1.0
176
     1
 40
1.0
176
     1
  0
VISUALSTYLE
  5
2D
102
{ACAD_REACTORS
330
2A
102
}
330
2A
100
AcDbVisualStyle
  2
Gouraud
 70
     2
177
     3
291
     1
 70
    58
 90
        2
176
     1
 90
        2
176
     1
 90
        1
176
     1
 90
        2
176
     1
 40
0.6
176
     1
 40
30.0
176
     1
 62
     7
420
 16777215
176
     1
 90
        0
176
     1
 90
        0
176
     1
 62
     7
176
     1
 62
   257
176
     1
 90
        1
176
     1
 90
        1
176
     1
 40
1.0
176
     1
 90
        0
176
     1
 62
     7
176
     1
 40
1.0
176
     1
 90
        1
176
     1
 90
        6
176
     1
 90
        2
176
     1
 62
     7
176
     1
 90
        5
176
     1
 90
        0
176
     1
 90
        0
176
     1
290
     0
176
     1
 90
       13
176
     1
 40
0.0
176
     1
 90
        0
176
     1
290
     0
176
     1
290
     1
176
     1
290
     1
176
     1
290
     0
176
     1
290
     0
176
     1
290
     0
176
     1
290
     0
176
     1
290
     0
176
     1
290
     0
176
     1
 90
       50
176
     1
 40
0.0
176
     1
 40
1.0
176
     1
 90
        0
176
     1
 62
    18
420
        0
176
     1
 90
       50
176
     1
 90
        3
176
     1
 62
     5
420
      255
176
     1
290
     0
176
     1
 90
       50
176
     1
 90
       50
176
     1
 90
       50
176
     1
290
     0
176
     1
 90
       50
176
     1
 62
   256
176
     0
 40
1.0
176
     0
 90
        2
176
     1
  1
strokes_ogs.tif
176
     1
290
     0
176
     1
 40
1.0
176
     1
 40
1.0
176
     1
  0
VISUALSTYLE
  5
2E
102
{ACAD_REACTORS
330
2A
102
}
330
2A
100
AcDbVisualStyle
  2
GouraudWithEdges
 70
     3
177
     3
291
     1
 70
    58
 90
        2
176
     1
 90
        2
176
     1
 90
        1
176
     1
 90
        2
176
     1
 40
0.6
176
     1
 40
30.0
176
     1
 62
     7
420
 16777215
176
     1
 90
        1
176
     1
 90
        0
176
     1
 62
     7
176
     1
 62
   257
176
     1
 90
        1
176
     1
 90
        1
176
     1
 40
1.0
176
     1
 90
        0
176
     1
 62
   257
176
     1
 40
1.0
176
     1
 90
        1
176
     1
 90
        6
176
     1
 90
        2
176
     1
 62
     7
176
     1
 90
        5
176
     1
 90
        0
176
     1
 90
        0
176
     1
290
     0
176
     1
 90
       13
176
     1
 40
0.0
176
     1
 90
        0
176
     1
290
     0
176
     1
290
     1
176
     1
290
     1
176
     1
290
     0
176
     1
290
     0
176
     1
290
     0
176
     1
290
     0
176
     1
290
     0
176
     1
290
     0
176
     1
 90
       50
176
     1
 40
0.0
176
     1
 40
1.0
176
     1
 90
        0
176
     1
 62
    18
420
        0
176
     1
 90
       50
176
     1
 90
        3
176
     1
 62
     5
420
      255
176
     1
290
     0
176
     1
 90
       50
176
     1
 90
       50
176
     1
 90
       50
176
     1
290
     0
176
     1
 90
       50
176
     1
 62
   256
176
     0
 40
1.0
176
     0
 90
        2
176
     1
  1
strokes_ogs.tif
176
     1
290
     0
176
     1
 40
1.0
176
     1
 40
1.0
176
     1
  0
VISUALSTYLE
  5
31
102
{ACAD_REACTORS
330
2A
102
}
330
2A
100
AcDbVisualStyle
  2
Hidden
 70
     6
177
     3
291
     0
 70
    58
 90
        1
176
     1
 90
        2
176
     1
 90
        2
176
     1
 90
        0
176
     1
 40
0.6
176
     1
 40
30.0
176
     1
 62
     7
420
 16777215
176
     1
 90
        2
176
     1
 90
        2
176
     1
 62
     7
176
     1
 62
   257
176
     1
 90
        2
176
     1
 90
        1
176
     1
 40
40.0
176
     1
 90
        0
176
     1
 62
   257
176
     1
 40
1.0
176
     1
 90
        1
176
     1
 90
        6
176
     1
 90
        2
176
     1
 62
     7
176
     1
 90
        3
176
     1
 90
        0
176
     1
 90
        0
176
     1
290
     0
176
     1
 90
        1
176
     1
 40
0.0
176
     1
 90
        0
176
     1
290
     0
176
     1
290
     1
176
     1
290
     1
176
     1
290
     0
176
     1
290
     0
176
     1
290
     0
176
     1
290
     0
176
     1
290
     0
176
     1
290
     0
176
     1
 90
       50
176
     1
 40
0.0
176
     1
 40
1.0
176
     1
 90
        0
176
     1
 62
    18
420
        0
176
     1
 90
       50
176
     1
 90
        3
176
     1
 62
     5
420
      255
176
     1
290
     0
176
     1
 90
       50
176
     1
 90
       50
176
     1
 90
       50
176
     1
290
     0
176
     1
 90
       50
176
     1
 62
   256
176
     0
 40
1.0
176
     0
 90
        2
176
     1
  1
strokes_ogs.tif
176
     1
290
     0
176
     1
 40
1.0
176
     1
 40
1.0
176
     1
  0
VISUALSTYLE
  5
3B
102
{ACAD_REACTORS
330
2A
102
}
330
2A
100
AcDbVisualStyle
  2
JitterOff
 70
    20
177
     3
291
     1
 70
    58
 90
        2
176
     0
 90
        2
176
     0
 90
        0
176
     0
 90
        0
176
     0
 40
0.6
176
     0
 40
30.0
176
     0
 62
     7
420
 16777215
176
     0
 90
        1
176
     0
 90
        4
176
     0
 62
     7
176
     0
 62
   257
176
     0
 90
        1
176
     0
 90
        1
176
     0
 40
1.0
176
     0
 90
       10
176
     2
 62
     7
176
     0
 40
1.0
176
     0
 90
        1
176
     0
 90
        6
176
     0
 90
        2
176
     0
 62
     7
176
     0
 90
        5
176
     0
 90
        0
176
     0
 90
        0
176
     0
290
     0
176
     0
 90
        1
176
     0
 40
0.0
176
     0
 90
        0
176
     0
290
     0
176
     0
290
     1
176
     0
290
     1
176
     0
290
     0
176
     0
290
     0
176
     0
290
     0
176
     0
290
     0
176
     0
290
     0
176
     0
290
     0
176
     0
 90
       50
176
     0
 40
0.0
176
     0
 40
1.0
176
     0
 90
        0
176
     0
 62
    18
420
        0
176
     0
 90
       50
176
     0
 90
        3
176
     0
 62
     5
420
      255
176
     0
290
     0
176
     0
 90
       50
176
     0
 90
       50
176
     0
 90
       50
176
     0
290
     0
176
     0
 90
       50
176
     0
 62
   256
176
     0
 40
1.0
176
     0
 90
        2
176
     0
  1
strokes_ogs.tif
176
     0
290
     0
176
     0
 40
1.0
176
     0
 40
1.0
176
     0
  0
VISUALSTYLE
  5
38
102
{ACAD_REACTORS
330
2A
102
}
330
2A
100
AcDbVisualStyle
  2
Linepattern
 70
    14
177
     3
291
     1
 70
    58
 90
        2
176
     1
 90
        2
176
     1
 90
        0
176
     1
 90
        0
176
     1
 40
0.6
176
     1
 40
30.0
176
     1
 62
     7
420
 16777215
176
     1
 90
        1
176
     1
 90
        4
176
     1
 62
     7
176
     1
 62
   257
176
     1
 90
        7
176
     1
 90
        7
176
     1
 40
1.0
176
     1
 90
        8
176
     1
 62
     7
176
     1
 40
1.0
176
     1
 90
        1
176
     1
 90
        6
176
     1
 90
        2
176
     1
 62
     7
176
     1
 90
        5
176
     1
 90
        0
176
     1
 90
        0
176
     1
290
     0
176
     1
 90
        1
176
     1
 40
0.0
176
     1
 90
        0
176
     1
290
     0
176
     1
290
     1
176
     1
290
     1
176
     1
290
     0
176
     1
290
     0
176
     1
290
     0
176
     1
290
     0
176
     1
290
     0
176
     1
290
     0
176
     1
 90
       50
176
     1
 40
0.0
176
     1
 40
1.0
176
     1
 90
        0
176
     1
 62
    18
420
        0
176
     1
 90
       50
176
     1
 90
        3
176
     1
 62
     5
420
      255
176
     1
290
     0
176
     1
 90
       50
176
     1
 90
       50
176
     1
 90
       50
176
     1
290
     0
176
     1
 90
       50
176
     1
 62
   256
176
     0
 40
1.0
176
     0
 90
        2
176
     1
  1
strokes_ogs.tif
176
     1
290
     0
176
     1
 40
1.0
176
     1
 40
1.0
176
     1
  0
VISUALSTYLE
  5
3C
102
{ACAD_REACTORS
330
2A
102
}
330
2A
100
AcDbVisualStyle
  2
OverhangOff
 70
    21
177
     3
291
     1
 70
    58
 90
        2
176
     0
 90
        2
176
     0
 90
        0
176
     0
 90
        0
176
     0
 40
0.6
176
     0
 40
30.0
176
     0
 62
     7
420
 16777215
176
     0
 90
        1
176
     0
 90
        4
176
     0
 62
     7
176
     0
 62
   257
176
     0
 90
        1
176
     0
 90
        1
176
     0
 40
1.0
176
     0
 90
        9
176
     2
 62
     7
176
     0
 40
1.0
176
     0
 90
        1
176
     0
 90
        6
176
     0
 90
        2
176
     0
 62
     7
176
     0
 90
        5
176
     0
 90
        0
176
     0
 90
        0
176
     0
290
     0
176
     0
 90
        1
176
     0
 40
0.0
176
     0
 90
        0
176
     0
290
     0
176
     0
290
     1
176
     0
290
     1
176
     0
290
     0
176
     0
290
     0
176
     0
290
     0
176
     0
290
     0
176
     0
290
     0
176
     0
290
     0
176
     0
 90
       50
176
     0
 40
0.0
176
     0
 40
1.0
176
     0
 90
        0
176
     0
 62
    18
420
        0
176
     0
 90
       50
176
     0
 90
        3
176
     0
 62
     5
420
      255
176
     0
290
     0
176
     0
 90
       50
176
     0
 90
       50
176
     0
 90
       50
176
     0
290
     0
176
     0
 90
       50
176
     0
 62
   256
176
     0
 40
1.0
176
     0
 90
        2
176
     0
  1
strokes_ogs.tif
176
     0
290
     0
176
     0
 40
1.0
176
     0
 40
1.0
176
     0
  0
VISUALSTYLE
  5
33
102
{ACAD_REACTORS
330
2A
102
}
330
2A
100
AcDbVisualStyle
  2
Realistic
 70
     8
177
     3
291
     0
 70
    58
 90
        2
176
     1
 90
        3
176
     1
 90
        0
176
     1
 90
        2
176
     1
 40
0.6
176
     1
 40
30.0
176
     1
 62
     7
420
 16777215
176
     1
 90
        0
176
     1
 90
        0
176
     1
 62
     7
176
     1
 62
   257
176
     1
 90
        1
176
     1
 90
        1
176
     1
 40
1.0
176
     1
 90
        8
176
     1
 62
   257
176
     1
 40
1.0
176
     1
 90
        1
176
     1
 90
        6
176
     1
 90
        2
176
     1
 62
     7
176
     1
 90
        3
176
     1
 90
        0
176
     1
 90
        0
176
     1
290
     0
176
     1
 90
       13
176
     1
 40
0.0
176
     1
 90
        0
176
     1
290
     0
176
     1
290
     1
176
     1
290
     1
176
     1
290
     0
176
     1
290
     0
176
     1
290
     0
176
     1
290
     0
176
     1
290
     0
176
     1
290
     0
176
     1
 90
       50
176
     1
 40
0.0
176
     1
 40
1.0
176
     1
 90
        0
176
     1
 62
    18
420
        0
176
     1
 90
       50
176
     1
 90
        3
176
     1
 62
     5
420
      255
176
     1
290
     0
176
     1
 90
       50
176
     1
 90
       50
176
     1
 90
       50
176
     1
290
     0
176
     1
 90
       50
176
     1
 62
   256
176
     0
 40
1.0
176
     0
 90
        2
176
     1
  1
strokes_ogs.tif
176
     1
290
     0
176
     1
 40
1.0
176
     1
 40
1.0
176
     1
  0
VISUALSTYLE
  5
42
102
{ACAD_REACTORS
330
2A
102
}
330
2A
100
AcDbVisualStyle
  2
Shaded
 70
    27
177
     3
291
     0
 70
    58
 90
        2
176
     1
 90
        2
176
     1
 90
        1
176
     1
 90
        2
176
     1
 40
0.6
176
     1
 40
30.0
176
     1
 62
     7
420
 16777215
176
     1
 90
        0
176
     1
 90
        4
176
     1
 62
     7
176
     1
 62
   257
176
     1
 90
        1
176
     1
 90
        1
176
     1
 40
1.0
176
     1
 90
        8
176
     1
 62
   257
176
     1
 40
1.0
176
     1
 90
        1
176
     1
 90
        6
176
     1
 90
        2
176
     1
 62
     8
420
  7895160
176
     1
 90
        3
176
     1
 90
        0
176
     1
 90
        0
176
     1
290
     0
176
     1
 90
        5
176
     1
 40
0.0
176
     1
 90
        0
176
     1
290
     0
176
     1
290
     1
176
     1
290
     1
176
     1
290
     0
176
     1
290
     0
176
     1
290
     0
176
     1
290
     0
176
     1
290
     0
176
     1
290
     0
176
     1
 90
       50
176
     1
 40
0.0
176
     1
 40
1.0
176
     1
 90
        0
176
     1
 62
    18
420
        0
176
     1
 90
       50
176
     1
 90
        3
176
     1
 62
     5
420
      255
176
     1
290
     0
176
     1
 90
       50
176
     1
 90
       50
176
     1
 90
       50
176
     1
290
     0
176
     1
 90
       50
176
     1
 62
   256
176
     0
 40
1.0
176
     0
 90
        2
176
     1
  1
strokes_ogs.tif
176
     1
290
     0
176
     1
 40
1.0
176
     1
 40
1.0
176
     1
  0
VISUALSTYLE
  5
41
102
{ACAD_REACTORS
330
2A
102
}
330
2A
100
AcDbVisualStyle
  2
Shaded with edges
 70
    26
177
     3
291
     0
 70
    58
 90
        2
176
     1
 90
        2
176
     1
 90
        1
176
     1
 90
        2
176
     1
 40
0.6
176
     1
 40
30.0
176
     1
 62
     7
420
 16777215
176
     1
 90
        1
176
     1
 90
       10
176
     1
 62
     7
176
     1
 62
   257
176
     1
 90
        2
176
     1
 90
        1
176
     1
 40
1.0
176
     1
 90
        8
176
     1
 62
   257
176
     1
 40
1.0
176
     1
 90
        1
176
     1
 90
        6
176
     1
 90
        2
176
     1
 62
     7
176
     1
 90
        3
176
     1
 90
        0
176
     1
 90
        0
176
     1
290
     0
176
     1
 90
        5
176
     1
 40
0.0
176
     1
 90
        0
176
     1
290
     0
176
     1
290
     1
176
     1
290
     1
176
     1
290
     0
176
     1
290
     0
176
     1
290
     0
176
     1
290
     0
176
     1
290
     0
176
     1
290
     0
176
     1
 90
       50
176
     1
 40
0.0
176
     1
 40
1.0
176
     1
 90
        0
176
     1
 62
    18
420
        0
176
     1
 90
       50
176
     1
 90
        3
176
     1
 62
     5
420
      255
176
     1
290
     0
176
     1
 90
       50
176
     1
 90
       50
176
     1
 90
       50
176
     1
290
     0
176
     1
 90
       50
176
     1
 62
   256
176
     0
 40
1.0
176
     0
 90
        2
176
     1
  1
strokes_ogs.tif
176
     1
290
     0
176
     1
 40
1.0
176
     1
 40
1.0
176
     1
  0
VISUALSTYLE
  5
3E
102
{ACAD_REACTORS
330
2A
102
}
330
2A
100
AcDbVisualStyle
  2
Shades of Gray
 70
    23
177
     3
291
     0
 70
    58
 90
        2
176
     1
 90
        2
176
     1
 90
        3
176
     1
 90
        0
176
     1
 40
0.6
176
     1
 40
30.0
176
     1
 62
     7
420
 16777215
176
     1
 90
        2
176
     1
 90
        2
176
     1
 62
     7
176
     1
 62
     7
176
     1
 90
        1
176
     1
 90
        1
176
     1
 40
40.0
176
     1
 90
        8
176
     1
 62
     7
176
     1
 40
1.0
176
     1
 90
        1
176
     1
 90
        6
176
     1
 90
        2
176
     1
 62
     7
176
     1
 90
        3
176
     1
 90
        0
176
     1
 90
        0
176
     1
290
     0
176
     1
 90
        1
176
     1
 40
0.0
176
     1
 90
        0
176
     1
290
     0
176
     1
290
     1
176
     1
290
     1
176
     1
290
     0
176
     1
290
     0
176
     1
290
     0
176
     1
290
     0
176
     1
290
     0
176
     1
290
     0
176
     1
 90
       50
176
     1
 40
0.0
176
     1
 40
1.0
176
     1
 90
        0
176
     1
 62
    18
420
        0
176
     1
 90
       50
176
     1
 90
        3
176
     1
 62
     5
420
      255
176
     1
290
     0
176
     1
 90
       50
176
     1
 90
       50
176
     1
 90
       50
176
     1
290
     0
176
     1
 90
       50
176
     1
 62
   256
176
     0
 40
1.0
176
     0
 90
        2
176
     1
  1
strokes_ogs.tif
176
     1
290
     0
176
     1
 40
1.0
176
     1
 40
1.0
176
     1
  0
VISUALSTYLE
  5
3F
102
{ACAD_REACTORS
330
2A
102
}
330
2A
100
AcDbVisualStyle
  2
Sketchy
 70
    24
177
     3
291
     0
 70
    58
 90
        1
176
     1
 90
        2
176
     1
 90
        2
176
     1
 90
        0
176
     1
 40
0.6
176
     1
 40
30.0
176
     1
 62
     7
420
 16777215
176
     1
 90
        2
176
     1
 90
        2
176
     1
 62
     7
176
     1
 62
     7
176
     1
 90
        1
176
     1
 90
        1
176
     1
 40
40.0
176
     1
 90
       11
176
     1
 62
     7
176
     1
 40
1.0
176
     1
 90
        1
176
     1
 90
        6
176
     1
 90
        2
176
     1
 62
     7
176
     1
 90
        6
176
     1
 90
        0
176
     1
 90
        0
176
     1
290
     0
176
     1
 90
        1
176
     1
 40
0.0
176
     1
 90
        0
176
     1
290
     0
176
     1
290
     1
176
     1
290
     1
176
     1
290
     0
176
     1
290
     0
176
     1
290
     0
176
     1
290
     0
176
     1
290
     0
176
     1
290
     0
176
     1
 90
       50
176
     1
 40
0.0
176
     1
 40
1.0
176
     1
 90
        0
176
     1
 62
    18
420
        0
176
     1
 90
       50
176
     1
 90
        3
176
     1
 62
     5
420
      255
176
     1
290
     0
176
     1
 90
       50
176
     1
 90
       50
176
     1
 90
       50
176
     1
290
     0
176
     1
 90
       50
176
     1
 62
   256
176
     0
 40
1.0
176
     0
 90
        2
176
     1
  1
strokes_ogs.tif
176
     1
290
     0
176
     1
 40
1.0
176
     1
 40
1.0
176
     1
  0
VISUALSTYLE
  5
37
102
{ACAD_REACTORS
330
2A
102
}
330
2A
100
AcDbVisualStyle
  2
Thicken
 70
    13
177
     3
291
     1
 70
    58
 90
        2
176
     1
 90
        2
176
     1
 90
        0
176
     1
 90
        0
176
     1
 40
0.6
176
     1
 40
30.0
176
     1
 62
     7
420
 16777215
176
     1
 90
        1
176
     1
 90
        4
176
     1
 62
     7
176
     1
 62
   257
176
     1
 90
        1
176
     1
 90
        1
176
     1
 40
1.0
176
     1
 90
       12
176
     1
 62
     7
176
     1
 40
1.0
176
     1
 90
        1
176
     1
 90
        6
176
     1
 90
        2
176
     1
 62
     7
176
     1
 90
        5
176
     1
 90
        0
176
     1
 90
        0
176
     1
290
     0
176
     1
 90
        1
176
     1
 40
0.0
176
     1
 90
        0
176
     1
290
     0
176
     1
290
     1
176
     1
290
     1
176
     1
290
     0
176
     1
290
     0
176
     1
290
     0
176
     1
290
     0
176
     1
290
     0
176
     1
290
     0
176
     1
 90
       50
176
     1
 40
0.0
176
     1
 40
1.0
176
     1
 90
        0
176
     1
 62
    18
420
        0
176
     1
 90
       50
176
     1
 90
        3
176
     1
 62
     5
420
      255
176
     1
290
     0
176
     1
 90
       50
176
     1
 90
       50
176
     1
 90
       50
176
     1
290
     0
176
     1
 90
       50
176
     1
 62
   256
176
     0
 40
1.0
176
     0
 90
        2
176
     1
  1
strokes_ogs.tif
176
     1
290
     0
176
     1
 40
1.0
176
     1
 40
1.0
176
     1
  0
VISUALSTYLE
  5
30
102
{ACAD_REACTORS
330
2A
102
}
330
2A
100
AcDbVisualStyle
  2
Wireframe
 70
     5
177
     3
291
     0
 70
    58
 90
        0
176
     1
 90
        2
176
     1
 90
        0
176
     1
 90
        0
176
     1
 40
0.6
176
     1
 40
30.0
176
     1
 62
     7
420
 16777215
176
     1
 90
        1
176
     1
 90
        4
176
     1
 62
     7
176
     1
 62
   257
176
     1
 90
        1
176
     1
 90
        1
176
     1
 40
1.0
176
     1
 90
        0
176
     1
 62
   257
176
     1
 40
1.0
176
     1
 90
        1
176
     1
 90
        6
176
     1
 90
        2
176
     1
 62
     7
176
     1
 90
        3
176
     1
 90
        0
176
     1
 90
        0
176
     1
290
     0
176
     1
 90
        1
176
     1
 40
0.0
176
     1
 90
        0
176
     1
290
     0
176
     1
290
     1
176
     1
290
     1
176
     1
290
     0
176
     1
290
     0
176
     1
290
     0
176
     1
290
     0
176
     1
290
     0
176
     1
290
     0
176
     1
 90
       50
176
     1
 40
0.0
176
     1
 40
1.0
176
     1
 90
        0
176
     1
 62
    18
420
        0
176
     1
 90
       50
176
     1
 90
        3
176
     1
 62
     5
420
      255
176
     1
290
     0
176
     1
 90
       50
176
     1
 90
       50
176
     1
 90
       50
176
     1
290
     0
176
     1
 90
       50
176
     1
 62
   256
176
     0
 40
1.0
176
     0
 90
        2
176
     1
  1
strokes_ogs.tif
176
     1
290
     0
176
     1
 40
1.0
176
     1
 40
1.0
176
     1
  0
VISUALSTYLE
  5
40
102
{ACAD_REACTORS
330
2A
102
}
330
2A
100
AcDbVisualStyle
  2
X-Ray
 70
    25
177
     3
291
     0
 70
    58
 90
        2
176
     1
 90
        2
176
     1
 90
        1
176
     1
 90
        1
176
     1
 40
0.5
176
     1
 40
30.0
176
     1
 62
     7
420
 16777215
176
     1
 90
        1
176
     1
 90
        0
176
     1
 62
     7
176
     1
 62
   257
176
     1
 90
        1
176
     1
 90
        1
176
     1
 40
1.0
176
     1
 90
        8
176
     1
 62
     7
176
     1
 40
1.0
176
     1
 90
        1
176
     1
 90
        6
176
     1
 90
        2
176
     1
 62
     7
176
     1
 90
        3
176
     1
 90
        0
176
     1
 90
        0
176
     1
290
     0
176
     1
 90
       13
176
     1
 40
0.0
176
     1
 90
        0
176
     1
290
     0
176
     1
290
     1
176
     1
290
     1
176
     1
290
     0
176
     1
290
     0
176
     1
290
     0
176
     1
290
     0
176
     1
290
     0
176
     1
290
     0
176
     1
 90
       50
176
     1
 40
0.0
176
     1
 40
1.0
176
     1
 90
        0
176
     1
 62
    18
420
        0
176
     1
 90
       50
176
     1
 90
        3
176
     1
 62
     5
420
      255
176
     1
290
     0
176
     1
 90
       50
176
     1
 90
       50
176
     1
 90
       50
176
     1
290
     0
176
     1
 90
       50
176
     1
 62
   256
176
     0
 40
1.0
176
     0
 90
        2
176
     1
  1
strokes_ogs.tif
176
     1
290
     0
176
     1
 40
1.0
176
     1
 40
1.0
176
     1
  0
DICTIONARYVAR
  5
18F
102
{ACAD_REACTORS
330
18E
102
}
330
18E
100
DictionaryVariables
280
     0
  1
1:1
  0
DICTIONARYVAR
  5
194
102
{ACAD_REACTORS
330
18E
102
}
330
18E
100
DictionaryVariables
280
     0
  1
Standard
  0
DICTIONARYVAR
  5
193
102
{ACAD_REACTORS
330
18E
102
}
330
18E
100
DictionaryVariables
280
     0
  1
Standard
  0
DICTIONARY
  5
190
330
6A
100
AcDbDictionary
280
     1
281
     1
  3
ACAD_ROUNDTRIP_2008_TABLESTYLE_CELLSTYLEMAP
360
191
  0
CELLSTYLEMAP
  5
191
102
{ACAD_REACTORS
330
190
102
}
330
190
100
AcDbCellStyleMap
 90
        3
300
CELLSTYLE
  1
TABLEFORMAT_BEGIN
 90
        5
170
     1
 91
        0
 92
    32768
 62
   257
 93
        1
300
CONTENTFORMAT
  1
CONTENTFORMAT_BEGIN
 90
        0
 91
        0
 92
        4
 93
        0
300

 40
0.0
140
1.0
 94
        5
 62
     0
340
11
144
0.25
309
CONTENTFORMAT_END
171
     1
301
MARGIN
  1
CELLMARGIN_BEGIN
 40
0.06
 40
0.06
 40
0.06
 40
0.06
 40
0.06
 40
0.06
309
CELLMARGIN_END
 94
        6
 95
        1
302
GRIDFORMAT
  1
GRIDFORMAT_BEGIN
 90
        0
 91
        1
 62
     0
 92
       -2
340
14
 93
        0
 40
0.045
309
GRIDFORMAT_END
 95
        2
302
GRIDFORMAT
  1
GRIDFORMAT_BEGIN
 90
        0
 91
        1
 62
     0
 92
       -2
340
14
 93
        0
 40
0.045
309
GRIDFORMAT_END
 95
        4
302
GRIDFORMAT
  1
GRIDFORMAT_BEGIN
 90
        0
 91
        1
 62
     0
 92
       -2
340
14
 93
        0
 40
0.045
309
GRIDFORMAT_END
 95
        8
302
GRIDFORMAT
  1
GRIDFORMAT_BEGIN
 90
        0
 91
        1
 62
     0
 92
       -2
340
14
 93
        0
 40
0.045
309
GRIDFORMAT_END
 95
       16
302
GRIDFORMAT
  1
GRIDFORMAT_BEGIN
 90
        0
 91
        1
 62
     0
 92
       -2
340
14
 93
        0
 40
0.045
309
GRIDFORMAT_END
 95
       32
302
GRIDFORMAT
  1
GRIDFORMAT_BEGIN
 90
        0
 91
        1
 62
     0
 92
       -2
340
14
 93
        0
 40
0.045
309
GRIDFORMAT_END
309
TABLEFORMAT_END
  1
CELLSTYLE_BEGIN
 90
        1
 91
        1
300
_TITLE
309
CELLSTYLE_END
300
CELLSTYLE
  1
TABLEFORMAT_BEGIN
 90
        5
170
     1
 91
        0
 92
        0
 62
   257
 93
        1
300
CONTENTFORMAT
  1
CONTENTFORMAT_BEGIN
 90
        0
 91
        0
 92
        4
 93
        0
300

 40
0.0
140
1.0
 94
        5
 62
     0
340
11
144
0.18
309
CONTENTFORMAT_END
171
     1
301
MARGIN
  1
CELLMARGIN_BEGIN
 40
0.06
 40
0.06
 40
0.06
 40
0.06
 40
0.06
 40
0.06
309
CELLMARGIN_END
 94
        6
 95
        1
302
GRIDFORMAT
  1
GRIDFORMAT_BEGIN
 90
        0
 91
        1
 62
     0
 92
       -2
340
14
 93
        0
 40
0.045
309
GRIDFORMAT_END
 95
        2
302
GRIDFORMAT
  1
GRIDFORMAT_BEGIN
 90
        0
 91
        1
 62
     0
 92
       -2
340
14
 93
        0
 40
0.045
309
GRIDFORMAT_END
 95
        4
302
GRIDFORMAT
  1
GRIDFORMAT_BEGIN
 90
        0
 91
        1
 62
     0
 92
       -2
340
14
 93
        0
 40
0.045
309
GRIDFORMAT_END
 95
        8
302
GRIDFORMAT
  1
GRIDFORMAT_BEGIN
 90
        0
 91
        1
 62
     0
 92
       -2
340
14
 93
        0
 40
0.045
309
GRIDFORMAT_END
 95
       16
302
GRIDFORMAT
  1
GRIDFORMAT_BEGIN
 90
        0
 91
        1
 62
     0
 92
       -2
340
14
 93
        0
 40
0.045
309
GRIDFORMAT_END
 95
       32
302
GRIDFORMAT
  1
GRIDFORMAT_BEGIN
 90
        0
 91
        1
 62
     0
 92
       -2
340
14
 93
        0
 40
0.045
309
GRIDFORMAT_END
309
TABLEFORMAT_END
  1
CELLSTYLE_BEGIN
 90
        2
 91
        1
300
_HEADER
309
CELLSTYLE_END
300
CELLSTYLE
  1
TABLEFORMAT_BEGIN
 90
        5
170
     1
 91
        0
 92
        0
 62
   257
 93
        1
300
CONTENTFORMAT
  1
CONTENTFORMAT_BEGIN
 90
        0
 91
        0
 92
        4
 93
        0
300

 40
0.0
140
1.0
 94
        2
 62
     0
340
11
144
0.18
309
CONTENTFORMAT_END
171
     1
301
MARGIN
  1
CELLMARGIN_BEGIN
 40
0.06
 40
0.06
 40
0.06
 40
0.06
 40
0.06
 40
0.06
309
CELLMARGIN_END
 94
        6
 95
        1
302
GRIDFORMAT
  1
GRIDFORMAT_BEGIN
 90
        0
 91
        1
 62
     0
 92
       -2
340
14
 93
        0
 40
0.045
309
GRIDFORMAT_END
 95
        2
302
GRIDFORMAT
  1
GRIDFORMAT_BEGIN
 90
        0
 91
        1
 62
     0
 92
       -2
340
14
 93
        0
 40
0.045
309
GRIDFORMAT_END
 95
        4
302
GRIDFORMAT
  1
GRIDFORMAT_BEGIN
 90
        0
 91
        1
 62
     0
 92
       -2
340
14
 93
        0
 40
0.045
309
GRIDFORMAT_END
 95
        8
302
GRIDFORMAT
  1
GRIDFORMAT_BEGIN
 90
        0
 91
        1
 62
     0
 92
       -2
340
14
 93
        0
 40
0.045
309
GRIDFORMAT_END
 95
       16
302
GRIDFORMAT
  1
GRIDFORMAT_BEGIN
 90
        0
 91
        1
 62
     0
 92
       -2
340
14
 93
        0
 40
0.045
309
GRIDFORMAT_END
 95
       32
302
GRIDFORMAT
  1
GRIDFORMAT_BEGIN
 90
        0
 91
        1
 62
     0
 92
       -2
340
14
 93
        0
 40
0.045
309
GRIDFORMAT_END
309
TABLEFORMAT_END
  1
CELLSTYLE_BEGIN
 90
        3
 91
        2
300
_DATA
309
CELLSTYLE_END
  0
ENDSEC
  0
EOF