0
SECTION
  2
HEADER
  9
$ACADVER
  1
AC1027
  9
$ACADMAINTVER
 70
     8
  9
$DWGCODEPAGE
  3
ANSI_1252
  9
$REQUIREDVERSIONS
160
                 0
  9
$COMMENTS
  1
File was created by Cadenas
  9
$CUSTOMPROPERTYTAG
  1
NN
  9
$CUSTOMPROPERTY
  1
Special Duty Flange Bearing - Inch - Gray Iron Non-Expansion
  9
$CUSTOMPROPERTYTAG
  1
NT
  9
$CUSTOMPROPERTY
  1
Special Duty
  9
$CUSTOMPROPERTYTAG
  1
NB
  9
$CUSTOMPROPERTY
  1
104016
  9
$CUSTOMPROPERTYTAG
  1
NBSYN
  9
$CUSTOMPROPERTY
  1
$PN.
  9
$CUSTOMPROPERTYTAG
  1
LINA
  9
$CUSTOMPROPERTY
  1
104016
  9
$CUSTOMPROPERTYTAG
  1
SS
  9
$CUSTOMPROPERTY
  1
5-15/16
  9
$CUSTOMPROPERTYTAG
  1
PN
  9
$CUSTOMPROPERTY
  1
104016
  9
$CUSTOMPROPERTYTAG
  1
TYPE
  9
$CUSTOMPROPERTY
  1
Gray Iron Non-Expansion
  9
$CUSTOMPROPERTYTAG
  1
DESCRIPTION
  9
$CUSTOMPROPERTY
  1
F4B-SD-515
  9
$CUSTOMPROPERTYTAG
  1
WEIGHT
  9
$CUSTOMPROPERTY
  1
560
  9
$CUSTOMPROPERTYTAG
  1
A
  9
$CUSTOMPROPERTY
  1
12
  9
$CUSTOMPROPERTYTAG
  1
B
  9
$CUSTOMPROPERTY
  1
25-1/2
  9
$CUSTOMPROPERTYTAG
  1
C
  9
$CUSTOMPROPERTY
  1
9
  9
$CUSTOMPROPERTYTAG
  1
D
  9
$CUSTOMPROPERTY
  1
22-1/2
  9
$CUSTOMPROPERTYTAG
  1
E
  9
$CUSTOMPROPERTY
  1
1-1/2
  9
$CUSTOMPROPERTYTAG
  1
F
  9
$CUSTOMPROPERTY
  1
1-1/4
  9
$CUSTOMPROPERTYTAG
  1
H
  9
$CUSTOMPROPERTY
  1
1-3/4
  9
$CUSTOMPROPERTYTAG
  1
J
  9
$CUSTOMPROPERTY
  1
15.910
  9
$CUSTOMPROPERTYTAG
  1
L
  9
$CUSTOMPROPERTY
  1
9-1/2
  9
$CUSTOMPROPERTYTAG
  1
EXP
  9
$CUSTOMPROPERTY
  1
5/8
  9
$CUSTOMPROPERTYTAG
  1
COMPANY
  9
$CUSTOMPROPERTY
  1
baldor
  9
$INSBASE
 10
0.0
 20
0.0
 30
0.0
  9
$EXTMIN
 10
1.000000000000000E+20
 20
1.000000000000000E+20
 30
1.000000000000000E+20
  9
$EXTMAX
 10
-1.000000000000000E+20
 20
-1.000000000000000E+20
 30
-1.000000000000000E+20
  9
$LIMMIN
 10
0.0
 20
0.0
  9
$LIMMAX
 10
12.0
 20
9.0
  9
$ORTHOMODE
 70
     0
  9
$REGENMODE
 70
     1
  9
$FILLMODE
 70
     1
  9
$QTEXTMODE
 70
     0
  9
$MIRRTEXT
 70
     1
  9
$LTSCALE
 40
1.0
  9
$ATTMODE
 70
     1
  9
$TEXTSIZE
 40
0.2
  9
$TRACEWID
 40
0.05
  9
$TEXTSTYLE
  7
Standard
  9
$CLAYER
  8
0
  9
$CELTYPE
  6
ByLayer
  9
$CECOLOR
 62
   256
  9
$CELTSCALE
 40
1.0
  9
$DISPSILH
 70
     0
  9
$DIMSCALE
 40
1.0
  9
$DIMASZ
 40
0.18
  9
$DIMEXO
 40
0.0625
  9
$DIMDLI
 40
0.38
  9
$DIMRND
 40
0.0
  9
$DIMDLE
 40
0.0
  9
$DIMEXE
 40
0.18
  9
$DIMTP
 40
0.0
  9
$DIMTM
 40
0.0
  9
$DIMTXT
 40
0.18
  9
$DIMCEN
 40
0.09
  9
$DIMTSZ
 40
0.0
  9
$DIMTOL
 70
     0
  9
$DIMLIM
 70
     0
  9
$DIMTIH
 70
     1
  9
$DIMTOH
 70
     1
  9
$DIMSE1
 70
     0
  9
$DIMSE2
 70
     0
  9
$DIMTAD
 70
     0
  9
$DIMZIN
 70
     0
  9
$DIMBLK
  1

  9
$DIMASO
 70
     1
  9
$DIMSHO
 70
     1
  9
$DIMPOST
  1

  9
$DIMAPOST
  1

  9
$DIMALT
 70
     0
  9
$DIMALTD
 70
     2
  9
$DIMALTF
 40
25.4
  9
$DIMLFAC
 40
1.0
  9
$DIMTOFL
 70
     0
  9
$DIMTVP
 40
0.0
  9
$DIMTIX
 70
     0
  9
$DIMSOXD
 70
     0
  9
$DIMSAH
 70
     0
  9
$DIMBLK1
  1

  9
$DIMBLK2
  1

  9
$DIMSTYLE
  2
Standard
  9
$DIMCLRD
 70
     0
  9
$DIMCLRE
 70
     0
  9
$DIMCLRT
 70
     0
  9
$DIMTFAC
 40
1.0
  9
$DIMGAP
 40
0.09
  9
$DIMJUST
 70
     0
  9
$DIMSD1
 70
     0
  9
$DIMSD2
 70
     0
  9
$DIMTOLJ
 70
     1
  9
$DIMTZIN
 70
     0
  9
$DIMALTZ
 70
     0
  9
$DIMALTTZ
 70
     0
  9
$DIMUPT
 70
     0
  9
$DIMDEC
 70
     4
  9
$DIMTDEC
 70
     4
  9
$DIMALTU
 70
     2
  9
$DIMALTTD
 70
     2
  9
$DIMTXSTY
  7
Standard
  9
$DIMAUNIT
 70
     0
  9
$DIMADEC
 70
     0
  9
$DIMALTRND
 40
0.0
  9
$DIMAZIN
 70
     0
  9
$DIMDSEP
 70
    46
  9
$DIMATFIT
 70
     3
  9
$DIMFRAC
 70
     0
  9
$DIMLDRBLK
  1

  9
$DIMLUNIT
 70
     2
  9
$DIMLWD
 70
    -2
  9
$DIMLWE
 70
    -2
  9
$DIMTMOVE
 70
     0
  9
$DIMFXL
 40
1.0
  9
$DIMFXLON
 70
     0
  9
$DIMJOGANG
 40
0.7853981633974483
  9
$DIMTFILL
 70
     0
  9
$DIMTFILLCLR
 70
     0
  9
$DIMARCSYM
 70
     0
  9
$DIMLTYPE
  6

  9
$DIMLTEX1
  6

  9
$DIMLTEX2
  6

  9
$DIMTXTDIRECTION
 70
     0
  9
$LUNITS
 70
     2
  9
$LUPREC
 70
     4
  9
$SKETCHINC
 40
0.1
  9
$FILLETRAD
 40
0.5
  9
$AUNITS
 70
     0
  9
$AUPREC
 70
     0
  9
$MENU
  1
.
  9
$ELEVATION
 40
0.0
  9
$PELEVATION
 40
0.0
  9
$THICKNESS
 40
0.0
  9
$LIMCHECK
 70
     0
  9
$CHAMFERA
 40
0.0
  9
$CHAMFERB
 40
0.0
  9
$CHAMFERC
 40
0.0
  9
$CHAMFERD
 40
0.0
  9
$SKPOLY
 70
     0
  9
$TDCREATE
 40
2458169.000222384
  9
$TDUCREATE
 40
2458168.958555717
  9
$TDUPDATE
 40
2458169.000222384
  9
$TDUUPDATE
 40
2458168.958555717
  9
$TDINDWG
 40
0.0000000116
  9
$TDUSRTIMER
 40
0.0000000116
  9
$USRTIMER
 70
     1
  9
$ANGBASE
 50
0.0
  9
$ANGDIR
 70
     0
  9
$PDMODE
 70
     0
  9
$PDSIZE
 40
0.0
  9
$PLINEWID
 40
0.0
  9
$SPLFRAME
 70
     0
  9
$SPLINETYPE
 70
     6
  9
$SPLINESEGS
 70
     8
  9
$HANDSEED
  5
1A2
  9
$SURFTAB1
 70
     6
  9
$SURFTAB2
 70
     6
  9
$SURFTYPE
 70
     6
  9
$SURFU
 70
     6
  9
$SURFV
 70
     6
  9
$UCSBASE
  2

  9
$UCSNAME
  2

  9
$UCSORG
 10
0.0
 20
0.0
 30
0.0
  9
$UCSXDIR
 10
1.0
 20
0.0
 30
0.0
  9
$UCSYDIR
 10
0.0
 20
1.0
 30
0.0
  9
$UCSORTHOREF
  2

  9
$UCSORTHOVIEW
 70
     0
  9
$UCSORGTOP
 10
0.0
 20
0.0
 30
0.0
  9
$UCSORGBOTTOM
 10
0.0
 20
0.0
 30
0.0
  9
$UCSORGLEFT
 10
0.0
 20
0.0
 30
0.0
  9
$UCSORGRIGHT
 10
0.0
 20
0.0
 30
0.0
  9
$UCSORGFRONT
 10
0.0
 20
0.0
 30
0.0
  9
$UCSORGBACK
 10
0.0
 20
0.0
 30
0.0
  9
$PUCSBASE
  2

  9
$PUCSNAME
  2

  9
$PUCSORG
 10
0.0
 20
0.0
 30
0.0
  9
$PUCSXDIR
 10
1.0
 20
0.0
 30
0.0
  9
$PUCSYDIR
 10
0.0
 20
1.0
 30
0.0
  9
$PUCSORTHOREF
  2

  9
$PUCSORTHOVIEW
 70
     0
  9
$PUCSORGTOP
 10
0.0
 20
0.0
 30
0.0
  9
$PUCSORGBOTTOM
 10
0.0
 20
0.0
 30
0.0
  9
$PUCSORGLEFT
 10
0.0
 20
0.0
 30
0.0
  9
$PUCSORGRIGHT
 10
0.0
 20
0.0
 30
0.0
  9
$PUCSORGFRONT
 10
0.0
 20
0.0
 30
0.0
  9
$PUCSORGBACK
 10
0.0
 20
0.0
 30
0.0
  9
$USERI1
 70
     0
  9
$USERI2
 70
     0
  9
$USERI3
 70
     0
  9
$USERI4
 70
     0
  9
$USERI5
 70
     0
  9
$USERR1
 40
0.0
  9
$USERR2
 40
0.0
  9
$USERR3
 40
0.0
  9
$USERR4
 40
0.0
  9
$USERR5
 40
0.0
  9
$WORLDVIEW
 70
     1
  9
$SHADEDGE
 70
     3
  9
$SHADEDIF
 70
    70
  9
$TILEMODE
 70
     1
  9
$MAXACTVP
 70
    64
  9
$PINSBASE
 10
0.0
 20
0.0
 30
0.0
  9
$PLIMCHECK
 70
     0
  9
$PEXTMIN
 10
1.000000000000000E+20
 20
1.000000000000000E+20
 30
1.000000000000000E+20
  9
$PEXTMAX
 10
-1.000000000000000E+20
 20
-1.000000000000000E+20
 30
-1.000000000000000E+20
  9
$PLIMMIN
 10
0.0
 20
0.0
  9
$PLIMMAX
 10
12.0
 20
9.0
  9
$UNITMODE
 70
     0
  9
$VISRETAIN
 70
     1
  9
$PLINEGEN
 70
     0
  9
$PSLTSCALE
 70
     1
  9
$TREEDEPTH
 70
  3020
  9
$CMLSTYLE
  2
Standard
  9
$CMLJUST
 70
     0
  9
$CMLSCALE
 40
1.0
  9
$PROXYGRAPHICS
 70
     1
  9
$MEASUREMENT
 70
     0
  9
$CELWEIGHT
370
    -1
  9
$ENDCAPS
280
     0
  9
$JOINSTYLE
280
     0
  9
$LWDISPLAY
290
     0
  9
$INSUNITS
 70
     1
  9
$HYPERLINKBASE
  1

  9
$STYLESHEET
  1

  9
$XEDIT
290
     1
  9
$CEPSNTYPE
380
     0
  9
$PSTYLEMODE
290
     1
  9
$FINGERPRINTGUID
  2
{61FB4812-4F97-4CB3-9EA8-E9CFF229BC6F}
  9
$VERSIONGUID
  2
{FAEB1C32-E019-11D5-929B-00C0DF256EC4}
  9
$EXTNAMES
290
     1
  9
$PSVPSCALE
 40
0.0
  9
$OLESTARTUP
290
     0
  9
$SORTENTS
280
   127
  9
$INDEXCTL
280
     0
  9
$HIDETEXT
280
     1
  9
$XCLIPFRAME
280
     2
  9
$HALOGAP
280
     0
  9
$OBSCOLOR
 70
   257
  9
$OBSLTYPE
280
     0
  9
$INTERSECTIONDISPLAY
280
     0
  9
$INTERSECTIONCOLOR
 70
   257
  9
$DIMASSOC
280
     2
  9
$PROJECTNAME
  1

  9
$CAMERADISPLAY
290
     0
  9
$LENSLENGTH
 40
50.0
  9
$CAMERAHEIGHT
 40
0.0
  9
$STEPSPERSEC
 40
2.0
  9
$STEPSIZE
 40
6.0
  9
$3DDWFPREC
 40
2.0
  9
$PSOLWIDTH
 40
0.25
  9
$PSOLHEIGHT
 40
4.0
  9
$LOFTANG1
 40
1.570796326794897
  9
$LOFTANG2
 40
1.570796326794897
  9
$LOFTMAG1
 40
0.0
  9
$LOFTMAG2
 40
0.0
  9
$LOFTPARAM
 70
     7
  9
$LOFTNORMALS
280
     1
  9
$LATITUDE
 40
37.795
  9
$LONGITUDE
 40
-122.394
  9
$NORTHDIRECTION
 40
0.0
  9
$TIMEZONE
 70
 -8000
  9
$LIGHTGLYPHDISPLAY
280
     1
  9
$TILEMODELIGHTSYNCH
280
     1
  9
$CMATERIAL
347
44
  9
$SOLIDHIST
280
     0
  9
$SHOWHIST
280
     1
  9
$DWFFRAME
280
     2
  9
$DGNFRAME
280
     2
  9
$REALWORLDSCALE
290
     1
  9
$INTERFERECOLOR
 62
   256
  9
$CSHADOW
280
     0
  9
$SHADOWPLANELOCATION
 40
0.0
  0
ENDSEC
  0
SECTION
  2
CLASSES
  0
CLASS
  1
ACDBDICTIONARYWDFLT
  2
AcDbDictionaryWithDefault
  3
ObjectDBX Classes
 90
        0
 91
        4
280
     0
281
     0
  0
CLASS
  1
VISUALSTYLE
  2
AcDbVisualStyle
  3
ObjectDBX Classes
 90
     4095
 91
        4
280
     0
281
     0
  0
CLASS
  1
MATERIAL
  2
AcDbMaterial
  3
ObjectDBX Classes
 90
     1153
 91
        4
280
     0
281
     0
  0
CLASS
  1
SCALE
  2
AcDbScale
  3
ObjectDBX Classes
 90
     1153
 91
        4
280
     0
281
     0
  0
CLASS
  1
TABLESTYLE
  2
AcDbTableStyle
  3
ObjectDBX Classes
 90
     4095
 91
        4
280
     0
281
     0
  0
CLASS
  1
MLEADERSTYLE
  2
AcDbMLeaderStyle
  3
ACDB_MLEADERSTYLE_CLASS
 90
     4095
 91
        4
280
     0
281
     0
  0
CLASS
  1
SUN
  2
AcDbSun
  3
SCENEOE
 90
     1153
 91
        4
280
     0
281
     0
  0
CLASS
  1
DICTIONARYVAR
  2
AcDbDictionaryVar
  3
ObjectDBX Classes
 90
        0
 91
        4
280
     0
281
     0
  0
CLASS
  1
CELLSTYLEMAP
  2
AcDbCellStyleMap
  3
ObjectDBX Classes
 90
     1152
 91
        4
280
     0
281
     0
  0
ENDSEC
  0
SECTION
  2
TABLES
  0
TABLE
  2
VPORT
  5
8
330
0
100
AcDbSymbolTable
 70
     1
  0
VPORT
  5
29
330
8
100
AcDbSymbolTableRecord
100
AcDbViewportTableRecord
  2
*Active
 70
     0
 10
0.0
 20
0.0
 11
1.0
 21
1.0
 12
0.0
 22
0.0
 13
0.0
 23
0.0
 14
0.5
 24
0.5
 15
0.5
 25
0.5
 16
0.0
 26
0.0
 36
1.0
 17
0.0
 27
-0.0000000000000018
 37
0.0
 40
26.00840074006961
 41
1.000048989282773
 42
50.0
 43
0.0
 44
0.0
 50
0.0
 51
0.0
 71
     0
 72
   100
 73
     1
 74
     3
 75
     0
 76
     0
 77
     0
 78
     0
281
     0
 65
     1
110
0.0
120
0.0
130
0.0
111
1.0
121
0.0
131
0.0
112
0.0
122
1.0
132
0.0
 79
     0
146
0.0
348
2F
 60
     3
 61
     5
292
     1
282
     1
141
0.0
142
0.0
 63
   250
361
6D
  0
ENDTAB
  0
TABLE
  2
LTYPE
  5
5
330
0
100
AcDbSymbolTable
 70
     3
  0
LTYPE
  5
14
330
5
100
AcDbSymbolTableRecord
100
AcDbLinetypeTableRecord
  2
ByBlock
 70
     0
  3

 72
    65
 73
     0
 40
0.0
  0
LTYPE
  5
15
330
5
100
AcDbSymbolTableRecord
100
AcDbLinetypeTableRecord
  2
ByLayer
 70
     0
  3

 72
    65
 73
     0
 40
0.0
  0
LTYPE
  5
16
330
5
100
AcDbSymbolTableRecord
100
AcDbLinetypeTableRecord
  2
Continuous
 70
     0
  3
Solid line
 72
    65
 73
     0
 40
0.0
  0
LTYPE
  5
D1
330
5
100
AcDbSymbolTableRecord
100
AcDbLinetypeTableRecord
  2
Center
 70
     0
  3

 72
    65
 73
     4
 40
1.5
 49
0.45
 74
     0
 49
-0.5
 74
     0
 49
0.05
 74
     0
 49
-0.5
 74
     0
  0
LTYPE
  5
FE
330
5
100
AcDbSymbolTableRecord
100
AcDbLinetypeTableRecord
  2
Dashed
 70
     0
  3

 72
    65
 73
     2
 40
2.0
 49
1.0
 74
     0
 49
-1.0
 74
     0
  0
ENDTAB
  0
TABLE
  2
LAYER
  5
2
330
0
100
AcDbSymbolTable
 70
     7
  0
LAYER
  5
10
330
2
100
AcDbSymbolTableRecord
100
AcDbLayerTableRecord
  2
0
 70
     0
 62
     7
  6
Continuous
370
    -3
390
F
347
46
348
0
  0
LAYER
  5
72
330
2
100
AcDbSymbolTableRecord
100
AcDbLayerTableRecord
  2
AM_6
 70
     0
 62
    -2
  6
Continuous
370
    35
390
F
347
46
348
0
  0
LAYER
  5
A7
330
2
100
AcDbSymbolTableRecord
100
AcDbLayerTableRecord
  2
AM_4
 70
     0
 62
     3
  6
Continuous
370
    25
390
F
347
46
348
0
  0
LAYER
  5
D2
330
2
100
AcDbSymbolTableRecord
100
AcDbLayerTableRecord
  2
AM_7
 70
     0
 62
     7
  6
Center
370
    25
390
F
347
46
348
0
  0
LAYER
  5
FF
330
2
100
AcDbSymbolTableRecord
100
AcDbLayerTableRecord
  2
AM_9
 70
     0
 62
     6
  6
Dashed
370
    25
390
F
347
46
348
0
  0
LAYER
  5
18A
330
2
100
AcDbSymbolTableRecord
100
AcDbLayerTableRecord
  2
AM_5
 70
     0
 62
     3
  6
Continuous
370
    25
390
F
347
46
348
0
  0
LAYER
  5
195
330
2
100
AcDbSymbolTableRecord
100
AcDbLayerTableRecord
  2
ConnectionPoints
 70
     0
 62
     7
  6
Continuous
370
    50
390
F
347
46
348
0
  0
ENDTAB
  0
TABLE
  2
STYLE
  5
3
330
0
100
AcDbSymbolTable
 70
     1
  0
STYLE
  5
11
330
3
100
AcDbSymbolTableRecord
100
AcDbTextStyleTableRecord
  2
Standard
 70
     0
 40
0.0
 41
1.0
 50
0.0
 71
     0
 42
0.2
  3
txt
  4

  0
ENDTAB
  0
TABLE
  2
VIEW
  5
6
330
0
100
AcDbSymbolTable
 70
     0
  0
ENDTAB
  0
TABLE
  2
UCS
  5
7
330
0
100
AcDbSymbolTable
 70
     0
  0
ENDTAB
  0
TABLE
  2
APPID
  5
9
330
0
100
AcDbSymbolTable
 70
     1
  0
APPID
  5
12
330
9
100
AcDbSymbolTableRecord
100
AcDbRegAppTableRecord
  2
ACAD
 70
     0
  0
ENDTAB
  0
TABLE
  2
DIMSTYLE
  5
A
330
0
100
AcDbSymbolTable
 70
     1
100
AcDbDimStyleTable
  0
DIMSTYLE
105
27
330
A
100
AcDbSymbolTableRecord
100
AcDbDimStyleTableRecord
  2
Standard
 70
     0
178
     0
340
11
  0
ENDTAB
  0
TABLE
  2
BLOCK_RECORD
  5
1
330
0
100
AcDbSymbolTable
 70
     5
  0
BLOCK_RECORD
  5
1F
330
1
100
AcDbSymbolTableRecord
100
AcDbBlockTableRecord
  2
*Model_Space
340
22
 70
     0
280
     1
281
     0
  0
BLOCK_RECORD
  5
1B
330
1
100
AcDbSymbolTableRecord
100
AcDbBlockTableRecord
  2
*Paper_Space
340
1E
 70
     0
280
     1
281
     0
  0
BLOCK_RECORD
  5
23
330
1
100
AcDbSymbolTableRecord
100
AcDbBlockTableRecord
  2
*Paper_Space0
340
26
 70
     0
280
     1
281
     0
  0
BLOCK_RECORD
  5
6E
330
1
100
AcDbSymbolTableRecord
100
AcDbBlockTableRecord
  2
1_104016_0
340
0
102
{BLKREFS
331
6F
102
}
 70
     0
280
     1
281
     0
  0
BLOCK_RECORD
  5
88
330
1
100
AcDbSymbolTableRecord
100
AcDbBlockTableRecord
  2
2_5_15_16_SD_0_in_104016_0
340
0
102
{BLKREFS
331
89
102
}
 70
     0
280
     1
281
     0
  0
BLOCK_RECORD
  5
AC
330
1
100
AcDbSymbolTableRecord
100
AcDbBlockTableRecord
  2
3_III_0_in_104016_0
340
0
102
{BLKREFS
331
AD
102
}
 70
     0
280
     1
281
     0
  0
BLOCK_RECORD
  5
D7
330
1
100
AcDbSymbolTableRecord
100
AcDbBlockTableRecord
  2
4_F4B_SD_515_0_in_104016_0
340
0
102
{BLKREFS
331
D8
102
}
 70
     0
280
     1
281
     0
  0
ENDTAB
  0
ENDSEC
  0
SECTION
  2
BLOCKS
  0
BLOCK
  5
20
330
1F
100
AcDbEntity
  8
0
100
AcDbBlockBegin
  2
*Model_Space
 70
     0
 10
0.0
 20
0.0
 30
0.0
  3
*Model_Space
  1

  0
ENDBLK
  5
21
330
1F
100
AcDbEntity
  8
0
100
AcDbBlockEnd
  0
BLOCK
  5
1C
330
1B
100
AcDbEntity
 67
     1
  8
0
100
AcDbBlockBegin
  2
*Paper_Space
 70
     0
 10
0.0
 20
0.0
 30
0.0
  3
*Paper_Space
  1

  0
ENDBLK
  5
1D
330
1B
100
AcDbEntity
 67
     1
  8
0
100
AcDbBlockEnd
  0
BLOCK
  5
24
330
23
100
AcDbEntity
  8
0
100
AcDbBlockBegin
  2
*Paper_Space0
 70
     0
 10
0.0
 20
0.0
 30
0.0
  3
*Paper_Space0
  1

  0
ENDBLK
  5
25
330
23
100
AcDbEntity
  8
0
100
AcDbBlockEnd
  0
BLOCK
  5
70
330
6E
100
AcDbEntity
  8
0
100
AcDbBlockBegin
  2
1_104016_0
 70
     2
 10
0.0
 20
0.0
 30
0.0
  3
1_104016_0
  1

  0
ATTDEF
  5
73
330
6E
100
AcDbEntity
  8
AM_6
100
AcDbText
 10
17.74984062400389
 20
12.74921604905373
 30
0.0
 40
0.5
  1
Special Duty Flange Bearing - Inch - Gray Iron Non-Expansion
100
AcDbAttributeDefinition
  3

  2
NN
 70
     8
280
     0
  0
ATTDEF
  5
74
330
6E
100
AcDbEntity
  8
AM_6
100
AcDbText
 10
17.74984062400389
 20
12.24921604905373
 30
0.0
 40
0.5
  1
Special Duty
100
AcDbAttributeDefinition
  3

  2
NT
 70
     8
280
     0
  0
ATTDEF
  5
75
330
6E
100
AcDbEntity
  8
AM_6
100
AcDbText
 10
17.74984062400389
 20
11.74921604905373
 30
0.0
 40
0.5
  1
104016
100
AcDbAttributeDefinition
  3

  2
NB
 70
     8
280
     0
  0
ATTDEF
  5
76
330
6E
100
AcDbEntity
  8
AM_6
100
AcDbText
 10
17.74984062400389
 20
11.24921604905373
 30
0.0
 40
0.5
  1
$PN.
100
AcDbAttributeDefinition
  3

  2
NBSYN
 70
     8
280
     0
  0
ATTDEF
  5
77
330
6E
100
AcDbEntity
  8
AM_6
100
AcDbText
 10
17.74984062400389
 20
10.74921604905373
 30
0.0
 40
0.5
  1
104016
100
AcDbAttributeDefinition
  3

  2
LINA
 70
     8
280
     0
  0
ATTDEF
  5
78
330
6E
100
AcDbEntity
  8
AM_6
100
AcDbText
 10
17.74984062400389
 20
10.24921604905373
 30
0.0
 40
0.5
  1
5-15/16
100
AcDbAttributeDefinition
  3

  2
SS
 70
     8
280
     0
  0
ATTDEF
  5
79
330
6E
100
AcDbEntity
  8
AM_6
100
AcDbText
 10
17.74984062400389
 20
9.749216049053729
 30
0.0
 40
0.5
  1
104016
100
AcDbAttributeDefinition
  3

  2
PN
 70
     8
280
     0
  0
ATTDEF
  5
7A
330
6E
100
AcDbEntity
  8
AM_6
100
AcDbText
 10
17.74984062400389
 20
9.249216049053729
 30
0.0
 40
0.5
  1
Gray Iron Non-Expansion
100
AcDbAttributeDefinition
  3

  2
TYPE
 70
     8
280
     0
  0
ATTDEF
  5
7B
330
6E
100
AcDbEntity
  8
AM_6
100
AcDbText
 10
17.74984062400389
 20
8.749216049053729
 30
0.0
 40
0.5
  1
F4B-SD-515
100
AcDbAttributeDefinition
  3

  2
DESCRIPTION
 70
     8
280
     0
  0
ATTDEF
  5
7C
330
6E
100
AcDbEntity
  8
AM_6
100
AcDbText
 10
17.74984062400389
 20
8.249216049053729
 30
0.0
 40
0.5
  1
560
100
AcDbAttributeDefinition
  3

  2
WEIGHT
 70
     8
280
     0
  0
ATTDEF
  5
7D
330
6E
100
AcDbEntity
  8
AM_6
100
AcDbText
 10
17.74984062400389
 20
7.749216049053729
 30
0.0
 40
0.5
  1
12
100
AcDbAttributeDefinition
  3

  2
A
 70
     8
280
     0
  0
ATTDEF
  5
7E
330
6E
100
AcDbEntity
  8
AM_6
100
AcDbText
 10
17.74984062400389
 20
7.249216049053729
 30
0.0
 40
0.5
  1
25-1/2
100
AcDbAttributeDefinition
  3

  2
B
 70
     8
280
     0
  0
ATTDEF
  5
7F
330
6E
100
AcDbEntity
  8
AM_6
100
AcDbText
 10
17.74984062400389
 20
6.749216049053729
 30
0.0
 40
0.5
  1
9
100
AcDbAttributeDefinition
  3

  2
C
 70
     8
280
     0
  0
ATTDEF
  5
80
330
6E
100
AcDbEntity
  8
AM_6
100
AcDbText
 10
17.74984062400389
 20
6.249216049053729
 30
0.0
 40
0.5
  1
22-1/2
100
AcDbAttributeDefinition
  3

  2
D
 70
     8
280
     0
  0
ATTDEF
  5
81
330
6E
100
AcDbEntity
  8
AM_6
100
AcDbText
 10
17.74984062400389
 20
5.749216049053729
 30
0.0
 40
0.5
  1
1-1/2
100
AcDbAttributeDefinition
  3

  2
E
 70
     8
280
     0
  0
ATTDEF
  5
82
330
6E
100
AcDbEntity
  8
AM_6
100
AcDbText
 10
17.74984062400389
 20
5.249216049053729
 30
0.0
 40
0.5
  1
1-1/4
100
AcDbAttributeDefinition
  3

  2
F
 70
     8
280
     0
  0
ATTDEF
  5
83
330
6E
100
AcDbEntity
  8
AM_6
100
AcDbText
 10
17.74984062400389
 20
4.749216049053729
 30
0.0
 40
0.5
  1
1-3/4
100
AcDbAttributeDefinition
  3

  2
H
 70
     8
280
     0
  0
ATTDEF
  5
84
330
6E
100
AcDbEntity
  8
AM_6
100
AcDbText
 10
17.74984062400389
 20
4.249216049053729
 30
0.0
 40
0.5
  1
15.910
100
AcDbAttributeDefinition
  3

  2
J
 70
     8
280
     0
  0
ATTDEF
  5
85
330
6E
100
AcDbEntity
  8
AM_6
100
AcDbText
 10
17.74984062400389
 20
3.749216049053729
 30
0.0
 40
0.5
  1
9-1/2
100
AcDbAttributeDefinition
  3

  2
L
 70
     8
280
     0
  0
ATTDEF
  5
86
330
6E
100
AcDbEntity
  8
AM_6
100
AcDbText
 10
17.74984062400389
 20
3.249216049053729
 30
0.0
 40
0.5
  1
5/8
100
AcDbAttributeDefinition
  3

  2
EXP
 70
     8
280
     0
  0
ATTDEF
  5
87
330
6E
100
AcDbEntity
  8
AM_6
100
AcDbText
 10
17.74984062400389
 20
2.749216049053729
 30
0.0
 40
0.5
  1
baldor
100
AcDbAttributeDefinition
  3

  2
COMPANY
 70
     8
280
     0
  0
INSERT
  5
89
330
6E
100
AcDbEntity
  8
0
100
AcDbBlockReference
  2
2_5_15_16_SD_0_in_104016_0
 10
0.0
 20
0.0
 30
0.0
  0
INSERT
  5
AD
330
6E
100
AcDbEntity
  8
0
100
AcDbBlockReference
  2
3_III_0_in_104016_0
 10
0.0
 20
0.0
 30
0.0
  0
INSERT
  5
D8
330
6E
100
AcDbEntity
  8
0
100
AcDbBlockReference
  2
4_F4B_SD_515_0_in_104016_0
 10
0.0
 20
0.0
 30
0.0
  0
ENDBLK
  5
71
330
6E
100
AcDbEntity
  8
0
100
AcDbBlockEnd
  0
BLOCK
  5
8A
330
88
100
AcDbEntity
  8
0
100
AcDbBlockBegin
  2
2_5_15_16_SD_0_in_104016_0
 70
     2
 10
0.0
 20
0.0
 30
0.0
  3
2_5_15_16_SD_0_in_104016_0
  1

  0
ATTDEF
  5
8C
330
88
100
AcDbEntity
  8
AM_6
100
AcDbText
 10
8.7109375
 20
3.7109375
 30
0.0
 40
0.5
  1
Special Duty Flange Bearing - Inch - Body - Insert - Ring
100
AcDbAttributeDefinition
  3

  2
NN
 70
     8
280
     0
  0
ATTDEF
  5
8D
330
88
100
AcDbEntity
  8
AM_6
100
AcDbText
 10
8.7109375
 20
3.2109375
 30
0.0
 40
0.5
  1
Special Duty
100
AcDbAttributeDefinition
  3

  2
NT
 70
     8
280
     0
  0
ATTDEF
  5
8E
330
88
100
AcDbEntity
  8
AM_6
100
AcDbText
 10
8.7109375
 20
2.7109375
 30
0.0
 40
0.5
  1
5-15/16-SD
100
AcDbAttributeDefinition
  3

  2
NB
 70
     8
280
     0
  0
ATTDEF
  5
8F
330
88
100
AcDbEntity
  8
AM_6
100
AcDbText
 10
8.7109375
 20
2.2109375
 30
0.0
 40
0.5
  1
$SS.-SD
100
AcDbAttributeDefinition
  3

  2
NBSYN
 70
     8
280
     0
  0
ATTDEF
  5
90
330
88
100
AcDbEntity
  8
AM_6
100
AcDbText
 10
8.7109375
 20
1.7109375
 30
0.0
 40
0.5
  1
5-15/16
100
AcDbAttributeDefinition
  3

  2
LINA
 70
     8
280
     0
  0
ATTDEF
  5
91
330
88
100
AcDbEntity
  8
AM_6
100
AcDbText
 10
8.7109375
 20
1.2109375
 30
0.0
 40
0.5
  1
5-15/16
100
AcDbAttributeDefinition
  3

  2
SS
 70
     8
280
     0
  0
ATTDEF
  5
92
330
88
100
AcDbEntity
  8
AM_6
100
AcDbText
 10
8.7109375
 20
0.7109375000000004
 30
0.0
 40
0.5
  1
III
100
AcDbAttributeDefinition
  3

  2
PN1
 70
     8
280
     0
  0
ATTDEF
  5
93
330
88
100
AcDbEntity
  8
AM_6
100
AcDbText
 10
8.7109375
 20
0.2109375000000004
 30
0.0
 40
0.5
  1
12
100
AcDbAttributeDefinition
  3

  2
A
 70
     8
280
     0
  0
ATTDEF
  5
94
330
88
100
AcDbEntity
  8
AM_6
100
AcDbText
 10
8.7109375
 20
-0.2890624999999996
 30
0.0
 40
0.5
  1
12.00000
100
AcDbAttributeDefinition
  3

  2
A1
 70
     8
280
     0
  0
ATTDEF
  5
95
330
88
100
AcDbEntity
  8
AM_6
100
AcDbText
 10
8.7109375
 20
-0.7890624999999996
 30
0.0
 40
0.5
  1
25-1/2
100
AcDbAttributeDefinition
  3

  2
B
 70
     8
280
     0
  0
ATTDEF
  5
96
330
88
100
AcDbEntity
  8
AM_6
100
AcDbText
 10
8.7109375
 20
-1.2890625
 30
0.0
 40
0.5
  1
25.50000
100
AcDbAttributeDefinition
  3

  2
B1
 70
     8
280
     0
  0
ATTDEF
  5
97
330
88
100
AcDbEntity
  8
AM_6
100
AcDbText
 10
8.7109375
 20
-1.7890625
 30
0.0
 40
0.5
  1
9
100
AcDbAttributeDefinition
  3

  2
C
 70
     8
280
     0
  0
ATTDEF
  5
98
330
88
100
AcDbEntity
  8
AM_6
100
AcDbText
 10
8.7109375
 20
-2.2890625
 30
0.0
 40
0.5
  1
9.00000
100
AcDbAttributeDefinition
  3

  2
C1
 70
     8
280
     0
  0
ATTDEF
  5
99
330
88
100
AcDbEntity
  8
AM_6
100
AcDbText
 10
8.7109375
 20
-2.7890625
 30
0.0
 40
0.5
  1
22-1/2
100
AcDbAttributeDefinition
  3

  2
D
 70
     8
280
     0
  0
ATTDEF
  5
9A
330
88
100
AcDbEntity
  8
AM_6
100
AcDbText
 10
8.7109375
 20
-3.2890625
 30
0.0
 40
0.5
  1
22.50000
100
AcDbAttributeDefinition
  3

  2
D1
 70
     8
280
     0
  0
ATTDEF
  5
9B
330
88
100
AcDbEntity
  8
AM_6
100
AcDbText
 10
8.7109375
 20
-3.7890625
 30
0.0
 40
0.5
  1
1-1/2
100
AcDbAttributeDefinition
  3

  2
E
 70
     8
280
     0
  0
ATTDEF
  5
9C
330
88
100
AcDbEntity
  8
AM_6
100
AcDbText
 10
8.7109375
 20
-4.2890625
 30
0.0
 40
0.5
  1
1.50000
100
AcDbAttributeDefinition
  3

  2
E1
 70
     8
280
     0
  0
ATTDEF
  5
9D
330
88
100
AcDbEntity
  8
AM_6
100
AcDbText
 10
8.7109375
 20
-4.7890625
 30
0.0
 40
0.5
  1
1-1/4
100
AcDbAttributeDefinition
  3

  2
F
 70
     8
280
     0
  0
ATTDEF
  5
9E
330
88
100
AcDbEntity
  8
AM_6
100
AcDbText
 10
8.7109375
 20
-5.2890625
 30
0.0
 40
0.5
  1
1.25000
100
AcDbAttributeDefinition
  3

  2
F1
 70
     8
280
     0
  0
ATTDEF
  5
9F
330
88
100
AcDbEntity
  8
AM_6
100
AcDbText
 10
8.7109375
 20
-5.7890625
 30
0.0
 40
0.5
  1
1-3/4
100
AcDbAttributeDefinition
  3

  2
H
 70
     8
280
     0
  0
ATTDEF
  5
A0
330
88
100
AcDbEntity
  8
AM_6
100
AcDbText
 10
8.7109375
 20
-6.2890625
 30
0.0
 40
0.5
  1
1.75000
100
AcDbAttributeDefinition
  3

  2
H1
 70
     8
280
     0
  0
ATTDEF
  5
A1
330
88
100
AcDbEntity
  8
AM_6
100
AcDbText
 10
8.7109375
 20
-6.7890625
 30
0.0
 40
0.5
  1
15.910
100
AcDbAttributeDefinition
  3

  2
J
 70
     8
280
     0
  0
ATTDEF
  5
A2
330
88
100
AcDbEntity
  8
AM_6
100
AcDbText
 10
8.7109375
 20
-7.2890625
 30
0.0
 40
0.5
  1
15.91000
100
AcDbAttributeDefinition
  3

  2
J1
 70
     8
280
     0
  0
ATTDEF
  5
A3
330
88
100
AcDbEntity
  8
AM_6
100
AcDbText
 10
8.7109375
 20
-7.7890625
 30
0.0
 40
0.5
  1
9-1/2
100
AcDbAttributeDefinition
  3

  2
L
 70
     8
280
     0
  0
ATTDEF
  5
A4
330
88
100
AcDbEntity
  8
AM_6
100
AcDbText
 10
8.7109375
 20
-8.2890625
 30
0.0
 40
0.5
  1
9.50000
100
AcDbAttributeDefinition
  3

  2
L1
 70
     8
280
     0
  0
ATTDEF
  5
A5
330
88
100
AcDbEntity
  8
AM_6
100
AcDbText
 10
8.7109375
 20
-8.7890625
 30
0.0
 40
0.5
  1
5/8
100
AcDbAttributeDefinition
  3

  2
EXP
 70
     8
280
     0
  0
ATTDEF
  5
A6
330
88
100
AcDbEntity
  8
AM_6
100
AcDbText
 10
8.7109375
 20
-9.2890625
 30
0.0
 40
0.5
  1
baldor
100
AcDbAttributeDefinition
  3

  2
COMPANY
 70
     8
280
     0
  0
CIRCLE
  5
A8
330
88
100
AcDbEntity
  8
AM_4
100
AcDbCircle
 10
0.0
 20
0.0
 30
0.0
 40
3.067708333333333
  0
CIRCLE
  5
A9
330
88
100
AcDbEntity
  8
AM_4
100
AcDbCircle
 10
0.0
 20
0.0
 30
0.0
 40
3.7109375
  0
CIRCLE
  5
AA
330
88
100
AcDbEntity
  8
AM_4
100
AcDbCircle
 10
0.0
 20
0.0
 30
0.0
 40
3.5625
  0
CIRCLE
  5
AB
330
88
100
AcDbEntity
  8
AM_4
100
AcDbCircle
 10
0.0000000000000002
 20
-0.0000000000000002
 30
0.0
 40
2.96875
  0
ENDBLK
  5
8B
330
88
100
AcDbEntity
  8
0
100
AcDbBlockEnd
  0
BLOCK
  5
AE
330
AC
100
AcDbEntity
  8
0
100
AcDbBlockBegin
  2
3_III_0_in_104016_0
 70
     2
 10
0.0
 20
0.0
 30
0.0
  3
3_III_0_in_104016_0
  1

  0
ATTDEF
  5
B0
330
AC
100
AcDbEntity
  8
AM_6
100
AcDbText
 10
10.11538461538461
 20
4.871794871794871
 30
0.0
 40
0.5
  1
Special Duty Flange Bearing - Inch - Body - Insert
100
AcDbAttributeDefinition
  3

  2
NN
 70
     8
280
     0
  0
ATTDEF
  5
B1
330
AC
100
AcDbEntity
  8
AM_6
100
AcDbText
 10
10.11538461538461
 20
4.371794871794871
 30
0.0
 40
0.5
  1
Special Duty
100
AcDbAttributeDefinition
  3

  2
NT
 70
     8
280
     0
  0
ATTDEF
  5
B2
330
AC
100
AcDbEntity
  8
AM_6
100
AcDbText
 10
10.11538461538461
 20
3.871794871794871
 30
0.0
 40
0.5
  1
III
100
AcDbAttributeDefinition
  3

  2
NB
 70
     8
280
     0
  0
ATTDEF
  5
B3
330
AC
100
AcDbEntity
  8
AM_6
100
AcDbText
 10
10.11538461538461
 20
3.371794871794871
 30
0.0
 40
0.5
  1
$PN1.
100
AcDbAttributeDefinition
  3

  2
NBSYN
 70
     8
280
     0
  0
ATTDEF
  5
B4
330
AC
100
AcDbEntity
  8
AM_6
100
AcDbText
 10
10.11538461538461
 20
2.871794871794871
 30
0.0
 40
0.5
  1
III
100
AcDbAttributeDefinition
  3

  2
LINA
 70
     8
280
     0
  0
ATTDEF
  5
B5
330
AC
100
AcDbEntity
  8
AM_6
100
AcDbText
 10
10.11538461538461
 20
2.371794871794871
 30
0.0
 40
0.5
  1
5-15/16
100
AcDbAttributeDefinition
  3

  2
SS
 70
     8
280
     0
  0
ATTDEF
  5
B6
330
AC
100
AcDbEntity
  8
AM_6
100
AcDbText
 10
10.11538461538461
 20
1.871794871794871
 30
0.0
 40
0.5
  1
5.93750
100
AcDbAttributeDefinition
  3

  2
SS1
 70
     8
280
     0
  0
ATTDEF
  5
B7
330
AC
100
AcDbEntity
  8
AM_6
100
AcDbText
 10
10.11538461538461
 20
1.371794871794871
 30
0.0
 40
0.5
  1
III
100
AcDbAttributeDefinition
  3

  2
PN1
 70
     8
280
     0
  0
ATTDEF
  5
B8
330
AC
100
AcDbEntity
  8
AM_6
100
AcDbText
 10
10.11538461538461
 20
0.8717948717948714
 30
0.0
 40
0.5
  1
104017
100
AcDbAttributeDefinition
  3

  2
PN2
 70
     8
280
     0
  0
ATTDEF
  5
B9
330
AC
100
AcDbEntity
  8
AM_6
100
AcDbText
 10
10.11538461538461
 20
0.3717948717948714
 30
0.0
 40
0.5
  1
F4B-SD-515
100
AcDbAttributeDefinition
  3

  2
DESCRIPTION1
 70
     8
280
     0
  0
ATTDEF
  5
BA
330
AC
100
AcDbEntity
  8
AM_6
100
AcDbText
 10
10.11538461538461
 20
-0.1282051282051286
 30
0.0
 40
0.5
  1
F4B-SD-515E
100
AcDbAttributeDefinition
  3

  2
DESCRIPTION2
 70
     8
280
     0
  0
ATTDEF
  5
BB
330
AC
100
AcDbEntity
  8
AM_6
100
AcDbText
 10
10.11538461538461
 20
-0.6282051282051286
 30
0.0
 40
0.5
  1
560
100
AcDbAttributeDefinition
  3

  2
WEIGHT1
 70
     8
280
     0
  0
ATTDEF
  5
BC
330
AC
100
AcDbEntity
  8
AM_6
100
AcDbText
 10
10.11538461538461
 20
-1.128205128205129
 30
0.0
 40
0.5
  1
560
100
AcDbAttributeDefinition
  3

  2
WEIGHT2
 70
     8
280
     0
  0
ATTDEF
  5
BD
330
AC
100
AcDbEntity
  8
AM_6
100
AcDbText
 10
10.11538461538461
 20
-1.628205128205129
 30
0.0
 40
0.5
  1
12
100
AcDbAttributeDefinition
  3

  2
A
 70
     8
280
     0
  0
ATTDEF
  5
BE
330
AC
100
AcDbEntity
  8
AM_6
100
AcDbText
 10
10.11538461538461
 20
-2.128205128205129
 30
0.0
 40
0.5
  1
12.00000
100
AcDbAttributeDefinition
  3

  2
A1
 70
     8
280
     0
  0
ATTDEF
  5
BF
330
AC
100
AcDbEntity
  8
AM_6
100
AcDbText
 10
10.11538461538461
 20
-2.628205128205129
 30
0.0
 40
0.5
  1
25-1/2
100
AcDbAttributeDefinition
  3

  2
B
 70
     8
280
     0
  0
ATTDEF
  5
C0
330
AC
100
AcDbEntity
  8
AM_6
100
AcDbText
 10
10.11538461538461
 20
-3.128205128205129
 30
0.0
 40
0.5
  1
25.50000
100
AcDbAttributeDefinition
  3

  2
B1
 70
     8
280
     0
  0
ATTDEF
  5
C1
330
AC
100
AcDbEntity
  8
AM_6
100
AcDbText
 10
10.11538461538461
 20
-3.628205128205129
 30
0.0
 40
0.5
  1
9
100
AcDbAttributeDefinition
  3

  2
C
 70
     8
280
     0
  0
ATTDEF
  5
C2
330
AC
100
AcDbEntity
  8
AM_6
100
AcDbText
 10
10.11538461538461
 20
-4.128205128205129
 30
0.0
 40
0.5
  1
9.00000
100
AcDbAttributeDefinition
  3

  2
C1
 70
     8
280
     0
  0
ATTDEF
  5
C3
330
AC
100
AcDbEntity
  8
AM_6
100
AcDbText
 10
10.11538461538461
 20
-4.628205128205129
 30
0.0
 40
0.5
  1
22-1/2
100
AcDbAttributeDefinition
  3

  2
D
 70
     8
280
     0
  0
ATTDEF
  5
C4
330
AC
100
AcDbEntity
  8
AM_6
100
AcDbText
 10
10.11538461538461
 20
-5.128205128205129
 30
0.0
 40
0.5
  1
22.50000
100
AcDbAttributeDefinition
  3

  2
D1
 70
     8
280
     0
  0
ATTDEF
  5
C5
330
AC
100
AcDbEntity
  8
AM_6
100
AcDbText
 10
10.11538461538461
 20
-5.628205128205129
 30
0.0
 40
0.5
  1
1-1/2
100
AcDbAttributeDefinition
  3

  2
E
 70
     8
280
     0
  0
ATTDEF
  5
C6
330
AC
100
AcDbEntity
  8
AM_6
100
AcDbText
 10
10.11538461538461
 20
-6.128205128205129
 30
0.0
 40
0.5
  1
1.50000
100
AcDbAttributeDefinition
  3

  2
E1
 70
     8
280
     0
  0
ATTDEF
  5
C7
330
AC
100
AcDbEntity
  8
AM_6
100
AcDbText
 10
10.11538461538461
 20
-6.628205128205129
 30
0.0
 40
0.5
  1
1-1/4
100
AcDbAttributeDefinition
  3

  2
F
 70
     8
280
     0
  0
ATTDEF
  5
C8
330
AC
100
AcDbEntity
  8
AM_6
100
AcDbText
 10
10.11538461538461
 20
-7.128205128205129
 30
0.0
 40
0.5
  1
1.25000
100
AcDbAttributeDefinition
  3

  2
F1
 70
     8
280
     0
  0
ATTDEF
  5
C9
330
AC
100
AcDbEntity
  8
AM_6
100
AcDbText
 10
10.11538461538461
 20
-7.628205128205129
 30
0.0
 40
0.5
  1
1-3/4
100
AcDbAttributeDefinition
  3

  2
H
 70
     8
280
     0
  0
ATTDEF
  5
CA
330
AC
100
AcDbEntity
  8
AM_6
100
AcDbText
 10
10.11538461538461
 20
-8.128205128205128
 30
0.0
 40
0.5
  1
1.75000
100
AcDbAttributeDefinition
  3

  2
H1
 70
     8
280
     0
  0
ATTDEF
  5
CB
330
AC
100
AcDbEntity
  8
AM_6
100
AcDbText
 10
10.11538461538461
 20
-8.628205128205128
 30
0.0
 40
0.5
  1
15.910
100
AcDbAttributeDefinition
  3

  2
J
 70
     8
280
     0
  0
ATTDEF
  5
CC
330
AC
100
AcDbEntity
  8
AM_6
100
AcDbText
 10
10.11538461538461
 20
-9.128205128205128
 30
0.0
 40
0.5
  1
15.91000
100
AcDbAttributeDefinition
  3

  2
J1
 70
     8
280
     0
  0
ATTDEF
  5
CD
330
AC
100
AcDbEntity
  8
AM_6
100
AcDbText
 10
10.11538461538461
 20
-9.628205128205128
 30
0.0
 40
0.5
  1
9-1/2
100
AcDbAttributeDefinition
  3

  2
L
 70
     8
280
     0
  0
ATTDEF
  5
CE
330
AC
100
AcDbEntity
  8
AM_6
100
AcDbText
 10
10.11538461538461
 20
-10.12820512820513
 30
0.0
 40
0.5
  1
9.50000
100
AcDbAttributeDefinition
  3

  2
L1
 70
     8
280
     0
  0
ATTDEF
  5
CF
330
AC
100
AcDbEntity
  8
AM_6
100
AcDbText
 10
10.11538461538461
 20
-10.62820512820513
 30
0.0
 40
0.5
  1
5/8
100
AcDbAttributeDefinition
  3

  2
EXP
 70
     8
280
     0
  0
ATTDEF
  5
D0
330
AC
100
AcDbEntity
  8
AM_6
100
AcDbText
 10
10.11538461538461
 20
-11.12820512820513
 30
0.0
 40
0.5
  1
baldor
100
AcDbAttributeDefinition
  3

  2
COMPANY
 70
     8
280
     0
  0
LINE
  5
D3
330
AC
100
AcDbEntity
  8
AM_7
100
AcDbLine
 10
-5.115384615384615
 20
0.0
 30
0.0
 11
5.115384615384615
 21
0.0
 31
0.0
  0
CIRCLE
  5
D4
330
AC
100
AcDbEntity
  8
AM_4
100
AcDbCircle
 10
0.0
 20
0.0
 30
0.0
 40
4.871794871794871
  0
CIRCLE
  5
D5
330
AC
100
AcDbEntity
  8
AM_4
100
AcDbCircle
 10
0.0
 20
0.0
 30
0.0
 40
4.555128205128206
  0
CIRCLE
  5
D6
330
AC
100
AcDbEntity
  8
AM_4
100
AcDbCircle
 10
0.0
 20
0.0
 30
0.0
 40
3.9009375
  0
ENDBLK
  5
AF
330
AC
100
AcDbEntity
  8
0
100
AcDbBlockEnd
  0
BLOCK
  5
D9
330
D7
100
AcDbEntity
  8
0
100
AcDbBlockBegin
  2
4_F4B_SD_515_0_in_104016_0
 70
     2
 10
0.0
 20
0.0
 30
0.0
  3
4_F4B_SD_515_0_in_104016_0
  1

  0
ATTDEF
  5
DB
330
D7
100
AcDbEntity
  8
AM_6
100
AcDbText
 10
17.74984062400389
 20
12.74921604905373
 30
0.0
 40
0.5
  1
Special Duty Flange Bearing - Inch - Body
100
AcDbAttributeDefinition
  3

  2
NN
 70
     8
280
     0
  0
ATTDEF
  5
DC
330
D7
100
AcDbEntity
  8
AM_6
100
AcDbText
 10
17.74984062400389
 20
12.24921604905373
 30
0.0
 40
0.5
  1
Special Duty
100
AcDbAttributeDefinition
  3

  2
NT
 70
     8
280
     0
  0
ATTDEF
  5
DD
330
D7
100
AcDbEntity
  8
AM_6
100
AcDbText
 10
17.74984062400389
 20
11.74921604905373
 30
0.0
 40
0.5
  1
F4B-SD-515
100
AcDbAttributeDefinition
  3

  2
NB
 70
     8
280
     0
  0
ATTDEF
  5
DE
330
D7
100
AcDbEntity
  8
AM_6
100
AcDbText
 10
17.74984062400389
 20
11.24921604905373
 30
0.0
 40
0.5
  1
$PN.
100
AcDbAttributeDefinition
  3

  2
NBSYN
 70
     8
280
     0
  0
ATTDEF
  5
DF
330
D7
100
AcDbEntity
  8
AM_6
100
AcDbText
 10
17.74984062400389
 20
10.74921604905373
 30
0.0
 40
0.5
  1
F4B-SD-515
100
AcDbAttributeDefinition
  3

  2
LINA
 70
     8
280
     0
  0
ATTDEF
  5
E0
330
D7
100
AcDbEntity
  8
AM_6
100
AcDbText
 10
17.74984062400389
 20
10.24921604905373
 30
0.0
 40
0.5
  1
5-15/16
100
AcDbAttributeDefinition
  3

  2
SS
 70
     8
280
     0
  0
ATTDEF
  5
E1
330
D7
100
AcDbEntity
  8
AM_6
100
AcDbText
 10
17.74984062400389
 20
9.749216049053729
 30
0.0
 40
0.5
  1
5.93750
100
AcDbAttributeDefinition
  3

  2
SS1
 70
     8
280
     0
  0
ATTDEF
  5
E2
330
D7
100
AcDbEntity
  8
AM_6
100
AcDbText
 10
17.74984062400389
 20
9.249216049053729
 30
0.0
 40
0.5
  1
Gray Iron Non-Expansion
100
AcDbAttributeDefinition
  3

  2
TYPE
 70
     8
280
     0
  0
ATTDEF
  5
E3
330
D7
100
AcDbEntity
  8
AM_6
100
AcDbText
 10
17.74984062400389
 20
8.749216049053729
 30
0.0
 40
0.5
  1
F4B-SD-515
100
AcDbAttributeDefinition
  3

  2
PN1
 70
     8
280
     0
  0
ATTDEF
  5
E4
330
D7
100
AcDbEntity
  8
AM_6
100
AcDbText
 10
17.74984062400389
 20
8.249216049053729
 30
0.0
 40
0.5
  1
F4B-SD-515
100
AcDbAttributeDefinition
  3

  2
DESCRIPTION1
 70
     8
280
     0
  0
ATTDEF
  5
E5
330
D7
100
AcDbEntity
  8
AM_6
100
AcDbText
 10
17.74984062400389
 20
7.749216049053729
 30
0.0
 40
0.5
  1
F4B-SD-515E
100
AcDbAttributeDefinition
  3

  2
PN2
 70
     8
280
     0
  0
ATTDEF
  5
E6
330
D7
100
AcDbEntity
  8
AM_6
100
AcDbText
 10
17.74984062400389
 20
7.249216049053729
 30
0.0
 40
0.5
  1
F4B-SD-515E
100
AcDbAttributeDefinition
  3

  2
DESCRIPTION2
 70
     8
280
     0
  0
ATTDEF
  5
E7
330
D7
100
AcDbEntity
  8
AM_6
100
AcDbText
 10
17.74984062400389
 20
6.749216049053729
 30
0.0
 40
0.5
  1
560
100
AcDbAttributeDefinition
  3

  2
WEIGHT1
 70
     8
280
     0
  0
ATTDEF
  5
E8
330
D7
100
AcDbEntity
  8
AM_6
100
AcDbText
 10
17.74984062400389
 20
6.249216049053729
 30
0.0
 40
0.5
  1
560
100
AcDbAttributeDefinition
  3

  2
WEIGHT2
 70
     8
280
     0
  0
ATTDEF
  5
E9
330
D7
100
AcDbEntity
  8
AM_6
100
AcDbText
 10
17.74984062400389
 20
5.749216049053729
 30
0.0
 40
0.5
  1
12
100
AcDbAttributeDefinition
  3

  2
A
 70
     8
280
     0
  0
ATTDEF
  5
EA
330
D7
100
AcDbEntity
  8
AM_6
100
AcDbText
 10
17.74984062400389
 20
5.249216049053729
 30
0.0
 40
0.5
  1
12.00000
100
AcDbAttributeDefinition
  3

  2
A1
 70
     8
280
     0
  0
ATTDEF
  5
EB
330
D7
100
AcDbEntity
  8
AM_6
100
AcDbText
 10
17.74984062400389
 20
4.749216049053729
 30
0.0
 40
0.5
  1
25-1/2
100
AcDbAttributeDefinition
  3

  2
B
 70
     8
280
     0
  0
ATTDEF
  5
EC
330
D7
100
AcDbEntity
  8
AM_6
100
AcDbText
 10
17.74984062400389
 20
4.249216049053729
 30
0.0
 40
0.5
  1
25.50000
100
AcDbAttributeDefinition
  3

  2
B1
 70
     8
280
     0
  0
ATTDEF
  5
ED
330
D7
100
AcDbEntity
  8
AM_6
100
AcDbText
 10
17.74984062400389
 20
3.749216049053729
 30
0.0
 40
0.5
  1
9
100
AcDbAttributeDefinition
  3

  2
C
 70
     8
280
     0
  0
ATTDEF
  5
EE
330
D7
100
AcDbEntity
  8
AM_6
100
AcDbText
 10
17.74984062400389
 20
3.249216049053729
 30
0.0
 40
0.5
  1
9.00000
100
AcDbAttributeDefinition
  3

  2
C1
 70
     8
280
     0
  0
ATTDEF
  5
EF
330
D7
100
AcDbEntity
  8
AM_6
100
AcDbText
 10
17.74984062400389
 20
2.749216049053729
 30
0.0
 40
0.5
  1
22-1/2
100
AcDbAttributeDefinition
  3

  2
D
 70
     8
280
     0
  0
ATTDEF
  5
F0
330
D7
100
AcDbEntity
  8
AM_6
100
AcDbText
 10
17.74984062400389
 20
2.249216049053729
 30
0.0
 40
0.5
  1
22.50000
100
AcDbAttributeDefinition
  3

  2
D1
 70
     8
280
     0
  0
ATTDEF
  5
F1
330
D7
100
AcDbEntity
  8
AM_6
100
AcDbText
 10
17.74984062400389
 20
1.749216049053729
 30
0.0
 40
0.5
  1
1.0000
100
AcDbAttributeDefinition
  3

  2
D11
 70
     8
280
     0
  0
ATTDEF
  5
F2
330
D7
100
AcDbEntity
  8
AM_6
100
AcDbText
 10
17.74984062400389
 20
1.249216049053729
 30
0.0
 40
0.5
  1
1-1/2
100
AcDbAttributeDefinition
  3

  2
E
 70
     8
280
     0
  0
ATTDEF
  5
F3
330
D7
100
AcDbEntity
  8
AM_6
100
AcDbText
 10
17.74984062400389
 20
0.7492160490537287
 30
0.0
 40
0.5
  1
1.50000
100
AcDbAttributeDefinition
  3

  2
E1
 70
     8
280
     0
  0
ATTDEF
  5
F4
330
D7
100
AcDbEntity
  8
AM_6
100
AcDbText
 10
17.74984062400389
 20
0.2492160490537287
 30
0.0
 40
0.5
  1
1-1/4
100
AcDbAttributeDefinition
  3

  2
F
 70
     8
280
     0
  0
ATTDEF
  5
F5
330
D7
100
AcDbEntity
  8
AM_6
100
AcDbText
 10
17.74984062400389
 20
-0.2507839509462713
 30
0.0
 40
0.5
  1
1.25000
100
AcDbAttributeDefinition
  3

  2
F1
 70
     8
280
     0
  0
ATTDEF
  5
F6
330
D7
100
AcDbEntity
  8
AM_6
100
AcDbText
 10
17.74984062400389
 20
-0.7507839509462713
 30
0.0
 40
0.5
  1
1-3/4
100
AcDbAttributeDefinition
  3

  2
H
 70
     8
280
     0
  0
ATTDEF
  5
F7
330
D7
100
AcDbEntity
  8
AM_6
100
AcDbText
 10
17.74984062400389
 20
-1.250783950946271
 30
0.0
 40
0.5
  1
1.75000
100
AcDbAttributeDefinition
  3

  2
H1
 70
     8
280
     0
  0
ATTDEF
  5
F8
330
D7
100
AcDbEntity
  8
AM_6
100
AcDbText
 10
17.74984062400389
 20
-1.750783950946271
 30
0.0
 40
0.5
  1
15.910
100
AcDbAttributeDefinition
  3

  2
J
 70
     8
280
     0
  0
ATTDEF
  5
F9
330
D7
100
AcDbEntity
  8
AM_6
100
AcDbText
 10
17.74984062400389
 20
-2.250783950946271
 30
0.0
 40
0.5
  1
15.91000
100
AcDbAttributeDefinition
  3

  2
J1
 70
     8
280
     0
  0
ATTDEF
  5
FA
330
D7
100
AcDbEntity
  8
AM_6
100
AcDbText
 10
17.74984062400389
 20
-2.750783950946271
 30
0.0
 40
0.5
  1
9-1/2
100
AcDbAttributeDefinition
  3

  2
L
 70
     8
280
     0
  0
ATTDEF
  5
FB
330
D7
100
AcDbEntity
  8
AM_6
100
AcDbText
 10
17.74984062400389
 20
-3.250783950946271
 30
0.0
 40
0.5
  1
9.50000
100
AcDbAttributeDefinition
  3

  2
L1
 70
     8
280
     0
  0
ATTDEF
  5
FC
330
D7
100
AcDbEntity
  8
AM_6
100
AcDbText
 10
17.74984062400389
 20
-3.750783950946271
 30
0.0
 40
0.5
  1
5/8
100
AcDbAttributeDefinition
  3

  2
EXP
 70
     8
280
     0
  0
ATTDEF
  5
FD
330
D7
100
AcDbEntity
  8
AM_6
100
AcDbText
 10
17.74984062400389
 20
-4.250783950946271
 30
0.0
 40
0.5
  1
baldor
100
AcDbAttributeDefinition
  3

  2
COMPANY
 70
     8
280
     0
  0
ARC
  5
100
330
D7
100
AcDbEntity
  8
AM_9
100
AcDbCircle
 10
-0.0000000000055156
 20
-0.0637499999998716
 30
0.0
 40
12.66250000000551
100
AcDbArc
 50
356.4400549096426
 51
0.0000008537736463
  0
ARC
  5
101
330
D7
100
AcDbEntity
  8
AM_9
100
AcDbCircle
 10
0.0000000000051514
 20
-0.0637499999998836
 30
0.0
 40
12.66250000000515
100
AcDbArc
 50
180.0
 51
183.5599450903573
  0
ARC
  5
102
330
D7
100
AcDbEntity
  8
AM_9
100
AcDbCircle
 10
0.0000000000003659
 20
0.0637499999999696
 30
0.0
 40
12.66249999999964
100
AcDbArc
 50
0.0
 51
3.559945090358553
  0
ARC
  5
103
330
D7
100
AcDbEntity
  8
AM_9
100
AcDbCircle
 10
-0.0000000000004778
 20
0.0637499999999731
 30
0.0
 40
12.66249999999952
100
AcDbArc
 50
176.4400549096415
 51
180.0
  0
ARC
  5
104
330
D7
100
AcDbEntity
  8
AM_9
100
AcDbCircle
 10
-0.0000000000000001
 20
0.0637500000003293
 30
0.0
 40
9.937499999999682
100
AcDbArc
 50
85.60882299001705
 51
94.39117700998295
  0
LINE
  5
105
330
D7
100
AcDbEntity
  8
AM_9
100
AcDbLine
 10
-0.7608695652173915
 20
9.819594328140754
 30
0.0
 11
-0.7608695652173915
 21
9.816780881523949
 31
0.0
  0
LINE
  5
106
330
D7
100
AcDbEntity
  8
AM_9
100
AcDbLine
 10
0.7608695652173915
 20
9.816733218480433
 30
0.0
 11
0.7608695652173915
 21
9.819594328140754
 31
0.0
  0
LWPOLYLINE
  5
107
330
D7
100
AcDbEntity
  8
AM_9
100
AcDbPolyline
 90
        5
 70
     0
 43
0.0
 10
0.7608695646611212
 20
9.816725032286847
 10
0.7608568559741513
 20
9.816814486505788
 10
0.7496422689686033
 20
9.819636092725416
 10
0.7165387736001463
 20
9.822927171254012
 10
0.7067166130408232
 20
9.823666616921358
  0
LWPOLYLINE
  5
108
330
D7
100
AcDbEntity
  8
AM_9
100
AcDbPolyline
 90
        6
 70
     0
 43
0.0
 10
-0.7608695640912456
 20
9.81672359355164
 10
-0.7591961137846637
 20
9.8157331124794
 10
-0.7395095071414988
 20
9.813550557442705
 10
-0.6996827138201178
 20
9.811961940864997
 10
-0.6385614504789677
 20
9.810846075230177
 10
-0.5377197429937
 20
9.810083347924218
  0
LINE
  5
109
330
D7
100
AcDbEntity
  8
AM_9
100
AcDbLine
 10
-9.341971735165519
 20
-0.85
 30
0.0
 11
-9.75383165601972
 21
-0.85
 31
0.0
  0
ARC
  5
10A
330
D7
100
AcDbEntity
  8
AM_9
100
AcDbCircle
 10
-0.0000000000000009
 20
-0.0637500000000006
 30
0.0
 40
9.374999999999998
100
AcDbArc
 50
184.8108569430984
 51
355.1891430569016
  0
LINE
  5
10B
330
D7
100
AcDbEntity
  8
AM_9
100
AcDbLine
 10
9.753831656667526
 20
-0.85
 30
0.0
 11
9.341971735165517
 21
-0.85
 31
0.0
  0
ARC
  5
10C
330
D7
100
AcDbEntity
  8
AM_9
100
AcDbCircle
 10
0.0000000000000178
 20
0.0637500000000202
 30
0.0
 40
9.374999999999986
100
AcDbArc
 50
4.810856943098297
 51
175.1891430569017
  0
LINE
  5
10D
330
D7
100
AcDbEntity
  8
AM_9
100
AcDbLine
 10
-9.341971737138797
 20
0.85
 30
0.0
 11
-9.75383165557909
 21
0.85
 31
0.0
  0
LWPOLYLINE
  5
10E
330
D7
100
AcDbEntity
  8
AM_9
100
AcDbPolyline
 90
       15
 70
     0
 43
0.0
 10
-0.5377197429937
 20
9.810083347924218
 10
-0.4412146853578587
 20
9.809837339565556
 10
-0.3292290247035184
 20
9.809785209450256
 10
-0.2111646232202857
 20
9.809825212786345
 10
-0.0836222459356075
 20
9.809874526499526
 10
0.0426941026579152
 20
9.809882657944236
 10
0.1714179328762425
 20
9.809843026315193
 10
0.2917423551597437
 20
9.809792945335818
 10
0.4071317261767581
 20
9.809804352292266
 10
0.5078984521694834
 20
9.809975532934342
 10
0.5969439508919427
 20
9.810432454177823
 10
0.6667874702991722
 20
9.811257253011465
 10
0.7194476371126132
 20
9.812588921725524
 10
0.750502849499212
 20
9.814404253270197
 10
0.7608695646611212
 20
9.816725032286847
  0
LINE
  5
10F
330
D7
100
AcDbEntity
  8
AM_9
100
AcDbLine
 10
9.75383165668938
 20
0.85
 30
0.0
 11
9.341971737138795
 21
0.85
 31
0.0
  0
LWPOLYLINE
  5
110
330
D7
100
AcDbEntity
  8
AM_9
100
AcDbPolyline
 90
        4
 70
     0
 43
0.0
 10
-0.7066301198380273
 20
9.82367286741644
 10
-0.7330675869979247
 20
9.821505225530268
 10
-0.75706938116543
 20
9.818360911576061
 10
-0.7608695640912456
 20
9.81672359355164
  0
LINE
  5
111
330
D7
100
AcDbEntity
  8
AM_7
100
AcDbLine
 10
-8.61125
 20
7.955
 30
0.0
 11
-7.29875
 21
7.955
 31
0.0
  0
LINE
  5
112
330
D7
100
AcDbEntity
  8
AM_7
100
AcDbLine
 10
-7.955
 20
7.29875
 30
0.0
 11
-7.955
 21
8.61125
 31
0.0
  0
LINE
  5
113
330
D7
100
AcDbEntity
  8
AM_7
100
AcDbLine
 10
7.29875
 20
7.955
 30
0.0
 11
8.61125
 21
7.955
 31
0.0
  0
LINE
  5
114
330
D7
100
AcDbEntity
  8
AM_7
100
AcDbLine
 10
7.955
 20
7.29875
 30
0.0
 11
7.955
 21
8.61125
 31
0.0
  0
LINE
  5
115
330
D7
100
AcDbEntity
  8
AM_7
100
AcDbLine
 10
7.29875
 20
-7.955
 30
0.0
 11
8.61125
 21
-7.955
 31
0.0
  0
LINE
  5
116
330
D7
100
AcDbEntity
  8
AM_7
100
AcDbLine
 10
7.955
 20
-8.61125
 30
0.0
 11
7.955
 21
-7.29875
 31
0.0
  0
LINE
  5
117
330
D7
100
AcDbEntity
  8
AM_7
100
AcDbLine
 10
-8.61125
 20
-7.955
 30
0.0
 11
-7.29875
 21
-7.955
 31
0.0
  0
LINE
  5
118
330
D7
100
AcDbEntity
  8
AM_7
100
AcDbLine
 10
-7.955
 20
-8.61125
 30
0.0
 11
-7.955
 21
-7.29875
 31
0.0
  0
LINE
  5
119
330
D7
100
AcDbEntity
  8
AM_7
100
AcDbLine
 10
11.25
 20
1.841666666666667
 30
0.0
 11
11.25
 21
-1.40685
 31
0.0
  0
LINE
  5
11A
330
D7
100
AcDbEntity
  8
AM_7
100
AcDbLine
 10
-11.25
 20
1.841666666666667
 30
0.0
 11
-11.25
 21
-1.40685
 31
0.0
  0
LINE
  5
11B
330
D7
100
AcDbEntity
  8
AM_7
100
AcDbLine
 10
0.0
 20
10.6875
 30
0.0
 11
-0.0000000000000027
 21
-9.994660747688226
 31
0.0
  0
LINE
  5
11C
330
D7
100
AcDbEntity
  8
AM_7
100
AcDbLine
 10
-9.93091074768823
 20
-0.063749999999998
 30
0.0
 11
9.930910747688227
 21
-0.063749999999998
 31
0.0
  0
LINE
  5
11D
330
D7
100
AcDbEntity
  8
AM_7
100
AcDbLine
 10
-9.930910747688241
 20
0.0637499999999944
 30
0.0
 11
9.93091074768823
 21
0.0637499999999944
 31
0.0
  0
CIRCLE
  5
11E
330
D7
100
AcDbEntity
  8
AM_4
100
AcDbCircle
 10
-7.955
 20
7.955
 30
0.0
 40
0.625
  0
CIRCLE
  5
11F
330
D7
100
AcDbEntity
  8
AM_4
100
AcDbCircle
 10
7.955
 20
7.955
 30
0.0
 40
0.625
  0
LWPOLYLINE
  5
120
330
D7
100
AcDbEntity
  8
AM_4
100
AcDbPolyline
 90
       59
 70
     0
 43
0.0
 10
-12.7216351150314
 20
0.85
 10
-12.71544386345345
 20
0.9380764123268269
 10
-12.61154157329874
 20
1.87261105115936
 10
-12.43894258853628
 20
2.79827811865937
 10
-12.19905075731828
 20
3.707514075546066
 10
-11.92155342012453
 20
4.519478151683933
 10
-11.58872088571028
 20
5.313555529874687
 10
-11.20316186492893
 20
6.084528613994203
 10
-10.76748506863387
 20
6.827179807918345
 10
-10.28429920767848
 20
7.536291515522988
 10
-9.753679232599858
 20
8.21065545529945
 10
-9.176763559822893
 20
8.849821528785688
 10
-8.557740759552777
 20
9.449730347243191
 10
-7.900799401994679
 20
10.00632252193345
 10
-7.210128057353784
 20
10.51553866411796
 10
-6.48618621218182
 20
10.97627027767018
 10
-5.730207346786419
 20
11.38846137481713
 10
-4.947487916796868
 20
11.74966774169008
 10
-4.143324377842445
 20
12.05744516442028
 10
-3.323013185552433
 20
12.309349429139
 10
-2.487372166447615
 20
12.50448321153836
 10
-1.637567147206959
 20
12.64320775432484
 10
-0.7794051176896641
 20
12.72496978949708
 10
0.0813069322450734
 20
12.74921604905373
 10
0.9387620127380542
 20
12.71539326499342
 10
1.791888557988192
 20
12.62292580877122
 10
2.63970887654287
 20
12.47254045056324
 10
3.476560163217214
 20
12.265637271414
 10
4.296779612826348
 20
12.00361635236798
 10
5.094704420185399
 20
11.68787777446972
 10
5.86913167869155
 20
11.31823368154023
 10
6.619380640741127
 20
10.89569307639047
 10
7.340571133666526
 20
10.42345159269504
 10
8.02782298480013
 20
9.904704864128547
 10
8.676256021474327
 20
9.342648524365586
 10
9.284671814626487
 20
8.737504719259654
 10
9.852763291959613
 20
8.090449994969745
 10
10.37698317179876
 20
7.406115434190196
 10
10.85378417246895
 20
6.689132119615323
 10
11.27961901229521
 20
5.944131133939455
 10
11.35702046613761
 20
5.794875851278551
 10
11.43490915696493
 20
5.639623442390414
 10
11.51328120125853
 20
5.47785140184971
 10
11.59213112755267
 20
5.308954315270032
 10
11.67145140498065
 20
5.132223894295253
 10
11.75123178894349
 20
4.946822358092527
 10
11.831458392553
 20
4.751746237467569
 10
11.9121123348588
 20
4.545776030746
 10
11.99316771384496
 20
4.327404324486777
 10
12.07458845941494
 20
4.094729971043694
 10
12.15632324107614
 20
3.845296511125242
 10
12.23829680421932
 20
3.575834354641614
 10
12.32039428687735
 20
3.281826414647778
 10
12.40243050015938
 20
2.956724148228271
 10
12.48408317122282
 20
2.590399076202562
 10
12.5647254637729
 20
2.165680959886974
 10
12.64290563191063
 20
1.649071612332974
 10
12.71402724204384
 20
0.9570847865090858
 10
12.7216351150314
 20
0.8499999999999911
  0
ARC
  5
121
330
D7
100
AcDbEntity
  8
AM_4
100
AcDbCircle
 10
0.0
 20
0.0637499999999527
 30
0.0
 40
12.6625
100
AcDbArc
 50
3.559945090358553
 51
176.4400549096415
  0
LWPOLYLINE
  5
122
330
D7
100
AcDbEntity
  8
AM_4
100
AcDbPolyline
 90
       59
 70
     0
 43
0.0
 10
12.7216351150314
 20
-0.8499999999999989
 10
12.71544386345345
 20
-0.938076412326793
 10
12.61154157329875
 20
-1.872611051159289
 10
12.4389425885363
 20
-2.798278118659264
 10
12.19905075731832
 20
-3.707514075545927
 10
11.92155342012458
 20
-4.519478151683799
 10
11.58872088571034
 20
-5.313555529874558
 10
11.203161864929
 20
-6.084528613994078
 10
10.76748506863394
 20
-6.827179807918227
 10
10.28429920767856
 20
-7.536291515522878
 10
9.753679232599945
 20
-8.21065545529935
 10
9.176763559822987
 20
-8.849821528785592
 10
8.557740759552875
 20
-9.449730347243104
 10
7.900799401994783
 20
-10.00632252193337
 10
7.210128057353891
 20
-10.51553866411789
 10
6.48618621218193
 20
-10.97627027767012
 10
5.730207346786533
 20
-11.38846137481707
 10
4.947487916796986
 20
-11.74966774169003
 10
4.143324377842563
 20
-12.05744516442024
 10
3.323013185552553
 20
-12.30934942913897
 10
2.487372166447738
 20
-12.50448321153834
 10
1.637567147207084
 20
-12.64320775432482
 10
0.7794051176897895
 20
-12.72496978949708
 10
-0.0813069322449475
 20
-12.74921604905373
 10
-0.9387620127379281
 20
-12.71539326499343
 10
-1.791888557988067
 20
-12.62292580877124
 10
-2.639708876542745
 20
-12.47254045056327
 10
-3.476560163217092
 20
-12.26563727141403
 10
-4.296779612826229
 20
-12.00361635236803
 10
-5.094704420185281
 20
-11.68787777446978
 10
-5.869131678691438
 20
-11.3182336815403
 10
-6.619380640741018
 20
-10.89569307639054
 10
-7.340571133666423
 20
-10.42345159269511
 10
-8.02782298480003
 20
-9.904704864128627
 10
-8.676256021474233
 20
-9.342648524365673
 10
-9.284671814626398
 20
-8.737504719259745
 10
-9.852763291959533
 20
-8.090449994969843
 10
-10.37698317179868
 20
-7.406115434190299
 10
-10.85378417246887
 20
-6.689132119615432
 10
-11.27961901229515
 20
-5.944131133939567
 10
-11.35702046613745
 20
-5.794875851278881
 10
-11.4349091569647
 20
-5.639623442390889
 10
-11.51328120125822
 20
-5.477851401850363
 10
-11.59213112755247
 20
-5.308954315270484
 10
-11.67145140498056
 20
-5.132223894295474
 10
-11.75123178894347
 20
-4.946822358092555
 10
-11.83145839255281
 20
-4.751746237468033
 10
-11.91211233485879
 20
-4.545776030746008
 10
-11.99316771384514
 20
-4.32740432448627
 10
-12.07458845941507
 20
-4.094729971043304
 10
-12.15632324107623
 20
-3.845296511124974
 10
-12.2382968042194
 20
-3.575834354641355
 10
-12.32039428687744
 20
-3.281826414647436
 10
-12.40243050015932
 20
-2.956724148228543
 10
-12.48408317122268
 20
-2.590399076203258
 10
-12.5647254637726
 20
-2.165680959888674
 10
-12.64290563191033
 20
-1.649071612335311
 10
-12.71402724204359
 20
-0.9570847865123535
 10
-12.7216351150314
 20
-0.8499999999999611
  0
CIRCLE
  5
123
330
D7
100
AcDbEntity
  8
AM_4
100
AcDbCircle
 10
7.955
 20
-7.955
 30
0.0
 40
0.625
  0
CIRCLE
  5
124
330
D7
100
AcDbEntity
  8
AM_4
100
AcDbCircle
 10
-7.955
 20
-7.955
 30
0.0
 40
0.625
  0
ARC
  5
125
330
D7
100
AcDbEntity
  8
AM_4
100
AcDbCircle
 10
0.0
 20
-0.0637499999999953
 30
0.0
 40
12.6625
100
AcDbArc
 50
183.5599450903582
 51
356.4400549096418
  0
ARC
  5
126
330
D7
100
AcDbEntity
  8
AM_4
100
AcDbCircle
 10
0.0
 20
-0.0637500000000006
 30
0.0
 40
9.9375
100
AcDbArc
 50
184.5379561928408
 51
355.4620438071592
  0
ARC
  5
127
330
D7
100
AcDbEntity
  8
AM_4
100
AcDbCircle
 10
-0.0000000000000018
 20
0.0637499999999975
 30
0.0
 40
9.937500000000014
100
AcDbArc
 50
4.537956192841086
 51
85.60882299001717
  0
ARC
  5
128
330
D7
100
AcDbEntity
  8
AM_4
100
AcDbCircle
 10
-0.0000000000000004
 20
0.0637500000000006
 30
0.0
 40
9.937500000000009
100
AcDbArc
 50
94.39117700998283
 51
175.462043807159
  0
LINE
  5
129
330
D7
100
AcDbEntity
  8
AM_4
100
AcDbLine
 10
10.8244
 20
1.7
 30
0.0
 11
10.75
 21
1.625599999999999
 31
0.0
  0
LINE
  5
12A
330
D7
100
AcDbEntity
  8
AM_4
100
AcDbLine
 10
11.75
 20
1.625599999999999
 30
0.0
 11
11.6756
 21
1.7
 31
0.0
  0
LINE
  5
12B
330
D7
100
AcDbEntity
  8
AM_4
100
AcDbLine
 10
11.6756
 20
1.7
 30
0.0
 11
10.8244
 21
1.7
 31
0.0
  0
LINE
  5
12C
330
D7
100
AcDbEntity
  8
AM_4
100
AcDbLine
 10
10.75
 20
1.625599999999999
 30
0.0
 11
10.75
 21
1.380333333333333
 31
0.0
  0
LINE
  5
12D
330
D7
100
AcDbEntity
  8
AM_4
100
AcDbLine
 10
11.75
 20
1.380333333333333
 30
0.0
 11
11.75
 21
1.625599999999999
 31
0.0
  0
LINE
  5
12E
330
D7
100
AcDbEntity
  8
AM_4
100
AcDbLine
 10
11.75
 20
1.625599999999999
 30
0.0
 11
10.75
 21
1.625599999999999
 31
0.0
  0
LINE
  5
12F
330
D7
100
AcDbEntity
  8
AM_4
100
AcDbLine
 10
-11.6756
 20
1.7
 30
0.0
 11
-11.75
 21
1.625599999999999
 31
0.0
  0
LINE
  5
130
330
D7
100
AcDbEntity
  8
AM_4
100
AcDbLine
 10
-10.75
 20
1.625599999999999
 30
0.0
 11
-10.8244
 21
1.7
 31
0.0
  0
LINE
  5
131
330
D7
100
AcDbEntity
  8
AM_4
100
AcDbLine
 10
-10.8244
 20
1.7
 30
0.0
 11
-11.6756
 21
1.7
 31
0.0
  0
LINE
  5
132
330
D7
100
AcDbEntity
  8
AM_4
100
AcDbLine
 10
-11.75
 20
1.625599999999999
 30
0.0
 11
-11.75
 21
1.380333333333333
 31
0.0
  0
LINE
  5
133
330
D7
100
AcDbEntity
  8
AM_4
100
AcDbLine
 10
-10.75
 20
1.380333333333333
 30
0.0
 11
-10.75
 21
1.625599999999999
 31
0.0
  0
LINE
  5
134
330
D7
100
AcDbEntity
  8
AM_4
100
AcDbLine
 10
-10.75
 20
1.625599999999999
 30
0.0
 11
-11.75
 21
1.625599999999999
 31
0.0
  0
LINE
  5
135
330
D7
100
AcDbEntity
  8
AM_4
100
AcDbLine
 10
10.75
 20
0.06375
 30
0.0
 11
10.75
 21
-0.06375
 31
0.0
  0
LINE
  5
136
330
D7
100
AcDbEntity
  8
AM_4
100
AcDbLine
 10
11.75
 20
-0.06375
 30
0.0
 11
11.75
 21
0.06375
 31
0.0
  0
LINE
  5
137
330
D7
100
AcDbEntity
  8
AM_4
100
AcDbLine
 10
-11.75
 20
0.06375
 30
0.0
 11
-11.75
 21
-0.06375
 31
0.0
  0
LINE
  5
138
330
D7
100
AcDbEntity
  8
AM_4
100
AcDbLine
 10
-10.75
 20
-0.06375
 30
0.0
 11
-10.75
 21
0.06375
 31
0.0
  0
LINE
  5
139
330
D7
100
AcDbEntity
  8
AM_4
100
AcDbLine
 10
-12.0455
 20
-1.380333333333333
 30
0.0
 11
-12.0455
 21
-0.85
 31
0.0
  0
LINE
  5
13A
330
D7
100
AcDbEntity
  8
AM_4
100
AcDbLine
 10
12.0455
 20
-0.85
 30
0.0
 11
12.0455
 21
-1.380333333333333
 31
0.0
  0
LINE
  5
13B
330
D7
100
AcDbEntity
  8
AM_4
100
AcDbLine
 10
12.0455
 20
0.85
 30
0.0
 11
12.0455
 21
1.380333333333333
 31
0.0
  0
LINE
  5
13C
330
D7
100
AcDbEntity
  8
AM_4
100
AcDbLine
 10
-10.4545
 20
1.380333333333333
 30
0.0
 11
-12.0455
 21
1.380333333333335
 31
0.0
  0
LINE
  5
13D
330
D7
100
AcDbEntity
  8
AM_4
100
AcDbLine
 10
12.0455
 20
-1.380333333333333
 30
0.0
 11
10.4545
 21
-1.380333333333333
 31
0.0
  0
LINE
  5
13E
330
D7
100
AcDbEntity
  8
AM_4
100
AcDbLine
 10
10.4545
 20
-1.380333333333333
 30
0.0
 11
10.4545
 21
-0.85
 31
0.0
  0
LINE
  5
13F
330
D7
100
AcDbEntity
  8
AM_4
100
AcDbLine
 10
-10.4545
 20
-1.380333333333333
 30
0.0
 11
-12.0455
 21
-1.380333333333333
 31
0.0
  0
LINE
  5
140
330
D7
100
AcDbEntity
  8
AM_4
100
AcDbLine
 10
-12.0455
 20
1.380333333333335
 30
0.0
 11
-12.0455
 21
0.85
 31
0.0
  0
LINE
  5
141
330
D7
100
AcDbEntity
  8
AM_4
100
AcDbLine
 10
12.0455
 20
1.380333333333333
 30
0.0
 11
10.4545
 21
1.380333333333332
 31
0.0
  0
LINE
  5
142
330
D7
100
AcDbEntity
  8
AM_4
100
AcDbLine
 10
10.4545
 20
1.380333333333332
 30
0.0
 11
10.4545
 21
0.85
 31
0.0
  0
LINE
  5
143
330
D7
100
AcDbEntity
  8
AM_4
100
AcDbLine
 10
-10.4545
 20
-0.85
 30
0.0
 11
-10.4545
 21
-1.380333333333333
 31
0.0
  0
LINE
  5
144
330
D7
100
AcDbEntity
  8
AM_4
100
AcDbLine
 10
-10.4545
 20
0.85
 30
0.0
 11
-10.4545
 21
1.380333333333333
 31
0.0
  0
LWPOLYLINE
  5
145
330
D7
100
AcDbEntity
  8
AM_4
100
AcDbPolyline
 90
        3
 70
     0
 43
0.0
 10
-10.4545
 20
0.921051194192986
 10
-10.64936896553251
 20
0.8695014592265493
 10
-10.85225
 20
0.85
  0
LWPOLYLINE
  5
146
330
D7
100
AcDbEntity
  8
AM_4
100
AcDbPolyline
 90
        4
 70
     0
 43
0.0
 10
-10.85225
 20
1.380333333333334
 10
-10.82395753811097
 20
1.379946194792075
 10
-10.63893729423767
 20
1.358820992037788
 10
-10.4545
 20
1.309282139140347
  0
LWPOLYLINE
  5
147
330
D7
100
AcDbEntity
  8
AM_4
100
AcDbPolyline
 90
        3
 70
     0
 43
0.0
 10
12.0455
 20
0.9210511941929861
 10
11.85063103446748
 20
0.8695014592265499
 10
11.64775
 20
0.85
  0
LWPOLYLINE
  5
148
330
D7
100
AcDbEntity
  8
AM_4
100
AcDbPolyline
 90
        4
 70
     0
 43
0.0
 10
11.64775
 20
1.380333333333333
 10
11.67604246188903
 20
1.379946194792074
 10
11.86106270576233
 20
1.358820992037787
 10
12.0455
 20
1.309282139140347
  0
LWPOLYLINE
  5
149
330
D7
100
AcDbEntity
  8
AM_4
100
AcDbPolyline
 90
        4
 70
     0
 43
0.0
 10
-10.85225
 20
0.85
 10
-10.88054246188903
 20
0.8503871385412586
 10
-11.06556270576233
 20
0.8715123412955454
 10
-11.25
 20
0.9210511941929849
  0
LWPOLYLINE
  5
14A
330
D7
100
AcDbEntity
  8
AM_4
100
AcDbPolyline
 90
        4
 70
     0
 43
0.0
 10
-11.64775
 20
-0.85
 10
-11.67604246188903
 20
-0.8503871385412632
 10
-11.86106270576233
 20
-0.8715123412955503
 10
-12.0455
 20
-0.9210511941929898
  0
LWPOLYLINE
  5
14B
330
D7
100
AcDbEntity
  8
AM_4
100
AcDbPolyline
 90
        3
 70
     0
 43
0.0
 10
-12.0455
 20
-1.309282139140344
 10
-11.85063103446748
 20
-1.36083187410678
 10
-11.64775
 20
-1.380333333333333
  0
LWPOLYLINE
  5
14C
330
D7
100
AcDbEntity
  8
AM_4
100
AcDbPolyline
 90
        4
 70
     0
 43
0.0
 10
-11.64775
 20
-1.380333333333333
 10
-11.61945753811097
 20
-1.37994619479207
 10
-11.43443729423767
 20
-1.358820992037783
 10
-11.25
 20
-1.309282139140343
  0
LWPOLYLINE
  5
14D
330
D7
100
AcDbEntity
  8
AM_4
100
AcDbPolyline
 90
        3
 70
     0
 43
0.0
 10
11.25
 20
1.309282139140347
 10
11.44486896553251
 20
1.360831874106783
 10
11.64775
 20
1.380333333333333
  0
LWPOLYLINE
  5
14E
330
D7
100
AcDbEntity
  8
AM_4
100
AcDbPolyline
 90
        3
 70
     0
 43
0.0
 10
-11.25
 20
-0.92105119419299
 10
-11.44486896553252
 20
-0.8695014592265535
 10
-11.64775
 20
-0.85
  0
LWPOLYLINE
  5
14F
330
D7
100
AcDbEntity
  8
AM_4
100
AcDbPolyline
 90
        3
 70
     0
 43
0.0
 10
-10.4545
 20
-0.9210511941929909
 10
-10.64936896553251
 20
-0.8695014592265543
 10
-10.85225
 20
-0.85
  0
LWPOLYLINE
  5
150
330
D7
100
AcDbEntity
  8
AM_4
100
AcDbPolyline
 90
        4
 70
     0
 43
0.0
 10
-10.85225
 20
-0.85
 10
-10.88054246188903
 20
-0.8503871385412637
 10
-11.06556270576233
 20
-0.8715123412955506
 10
-11.25
 20
-0.92105119419299
  0
LINE
  5
151
330
D7
100
AcDbEntity
  8
AM_4
100
AcDbLine
 10
-11.25
 20
-1.309282139140343
 30
0.0
 11
-11.25
 21
-0.92105119419299
 31
0.0
  0
LWPOLYLINE
  5
152
330
D7
100
AcDbEntity
  8
AM_4
100
AcDbPolyline
 90
        3
 70
     0
 43
0.0
 10
-11.25
 20
-1.309282139140343
 10
-11.05513103446749
 20
-1.360831874106779
 10
-10.85225
 20
-1.380333333333333
  0
LWPOLYLINE
  5
153
330
D7
100
AcDbEntity
  8
AM_4
100
AcDbPolyline
 90
        4
 70
     0
 43
0.0
 10
-10.85225
 20
-1.380333333333333
 10
-10.82395753811097
 20
-1.37994619479207
 10
-10.63893729423767
 20
-1.358820992037783
 10
-10.4545
 20
-1.309282139140342
  0
LWPOLYLINE
  5
154
330
D7
100
AcDbEntity
  8
AM_4
100
AcDbPolyline
 90
        4
 70
     0
 43
0.0
 10
-11.64775
 20
0.85
 10
-11.67604246188903
 20
0.8503871385412581
 10
-11.86106270576233
 20
0.8715123412955452
 10
-12.0455
 20
0.9210511941929848
  0
LWPOLYLINE
  5
155
330
D7
100
AcDbEntity
  8
AM_4
100
AcDbPolyline
 90
        3
 70
     0
 43
0.0
 10
-11.25
 20
0.9210511941929849
 10
-11.44486896553251
 20
0.869501459226549
 10
-11.64775
 20
0.85
  0
LINE
  5
156
330
D7
100
AcDbEntity
  8
AM_4
100
AcDbLine
 10
-11.25
 20
1.309282139140348
 30
0.0
 11
-11.25
 21
0.9210511941929849
 31
0.0
  0
LWPOLYLINE
  5
157
330
D7
100
AcDbEntity
  8
AM_4
100
AcDbPolyline
 90
        3
 70
     0
 43
0.0
 10
-12.0455
 20
1.309282139140348
 10
-11.85063103446749
 20
1.360831874106784
 10
-11.64775
 20
1.380333333333334
  0
LWPOLYLINE
  5
158
330
D7
100
AcDbEntity
  8
AM_4
100
AcDbPolyline
 90
        4
 70
     0
 43
0.0
 10
10.85225
 20
0.85
 10
10.82395753811096
 20
0.8503871385412598
 10
10.63893729423767
 20
0.8715123412955474
 10
10.4545
 20
0.9210511941929872
  0
LINE
  5
159
330
D7
100
AcDbEntity
  8
AM_4
100
AcDbLine
 10
11.25
 20
1.309282139140347
 30
0.0
 11
11.25
 21
0.9210511941929862
 31
0.0
  0
LWPOLYLINE
  5
15A
330
D7
100
AcDbEntity
  8
AM_4
100
AcDbPolyline
 90
        4
 70
     0
 43
0.0
 10
10.85225
 20
1.380333333333333
 10
10.88054246188903
 20
1.379946194792073
 10
11.06556270576233
 20
1.358820992037787
 10
11.25
 20
1.309282139140347
  0
LWPOLYLINE
  5
15B
330
D7
100
AcDbEntity
  8
AM_4
100
AcDbPolyline
 90
        3
 70
     0
 43
0.0
 10
10.4545
 20
1.309282139140346
 10
10.64936896553251
 20
1.360831874106783
 10
10.85225
 20
1.380333333333333
  0
LWPOLYLINE
  5
15C
330
D7
100
AcDbEntity
  8
AM_4
100
AcDbPolyline
 90
        3
 70
     0
 43
0.0
 10
11.25
 20
-0.921051194192986
 10
11.05513103446749
 20
-0.8695014592265498
 10
10.85225
 20
-0.85
  0
LWPOLYLINE
  5
15D
330
D7
100
AcDbEntity
  8
AM_4
100
AcDbPolyline
 90
        4
 70
     0
 43
0.0
 10
10.85225
 20
-0.85
 10
10.82395753811096
 20
-0.8503871385412597
 10
10.63893729423767
 20
-0.8715123412955472
 10
10.4545
 20
-0.921051194192987
  0
LWPOLYLINE
  5
15E
330
D7
100
AcDbEntity
  8
AM_4
100
AcDbPolyline
 90
        3
 70
     0
 43
0.0
 10
10.4545
 20
-1.309282139140346
 10
10.64936896553251
 20
-1.360831874106783
 10
10.85225
 20
-1.380333333333333
  0
LWPOLYLINE
  5
15F
330
D7
100
AcDbEntity
  8
AM_4
100
AcDbPolyline
 90
        4
 70
     0
 43
0.0
 10
11.64775
 20
0.85
 10
11.61945753811097
 20
0.8503871385412594
 10
11.43443729423767
 20
0.8715123412955466
 10
11.25
 20
0.9210511941929862
  0
LWPOLYLINE
  5
160
330
D7
100
AcDbEntity
  8
AM_4
100
AcDbPolyline
 90
        3
 70
     0
 43
0.0
 10
11.25
 20
0.9210511941929862
 10
11.05513103446749
 20
0.86950145922655
 10
10.85225
 20
0.85
  0
LWPOLYLINE
  5
161
330
D7
100
AcDbEntity
  8
AM_4
100
AcDbPolyline
 90
        3
 70
     0
 43
0.0
 10
12.0455
 20
-0.9210511941929859
 10
11.85063103446748
 20
-0.8695014592265495
 10
11.64775
 20
-0.85
  0
LWPOLYLINE
  5
162
330
D7
100
AcDbEntity
  8
AM_4
100
AcDbPolyline
 90
        4
 70
     0
 43
0.0
 10
11.64775
 20
-0.85
 10
11.61945753811097
 20
-0.8503871385412592
 10
11.43443729423767
 20
-0.8715123412955464
 10
11.25
 20
-0.921051194192986
  0
LINE
  5
163
330
D7
100
AcDbEntity
  8
AM_4
100
AcDbLine
 10
11.25
 20
-1.309282139140347
 30
0.0
 11
11.25
 21
-0.921051194192986
 31
0.0
  0
LWPOLYLINE
  5
164
330
D7
100
AcDbEntity
  8
AM_4
100
AcDbPolyline
 90
        4
 70
     0
 43
0.0
 10
11.64775
 20
-1.380333333333333
 10
11.67604246188903
 20
-1.379946194792074
 10
11.86106270576233
 20
-1.358820992037787
 10
12.0455
 20
-1.309282139140347
  0
LWPOLYLINE
  5
165
330
D7
100
AcDbEntity
  8
AM_4
100
AcDbPolyline
 90
        4
 70
     0
 43
0.0
 10
-11.64775
 20
1.380333333333334
 10
-11.61945753811097
 20
1.379946194792075
 10
-11.43443729423767
 20
1.358820992037788
 10
-11.25
 20
1.309282139140348
  0
LWPOLYLINE
  5
166
330
D7
100
AcDbEntity
  8
AM_4
100
AcDbPolyline
 90
        3
 70
     0
 43
0.0
 10
-11.25
 20
1.309282139140348
 10
-11.05513103446749
 20
1.360831874106784
 10
-10.85225
 20
1.380333333333334
  0
LWPOLYLINE
  5
167
330
D7
100
AcDbEntity
  8
AM_4
100
AcDbPolyline
 90
        3
 70
     0
 43
0.0
 10
11.25
 20
-1.309282139140347
 10
11.44486896553252
 20
-1.360831874106783
 10
11.64775
 20
-1.380333333333333
  0
LWPOLYLINE
  5
168
330
D7
100
AcDbEntity
  8
AM_4
100
AcDbPolyline
 90
        4
 70
     0
 43
0.0
 10
10.85225
 20
-1.380333333333333
 10
10.88054246188903
 20
-1.379946194792073
 10
11.06556270576233
 20
-1.358820992037787
 10
11.25
 20
-1.309282139140347
  0
LINE
  5
169
330
D7
100
AcDbEntity
  8
AM_4
100
AcDbLine
 10
-0.7608695652173915
 20
10.625
 30
0.0
 11
-0.7608695652173915
 21
10.39772727272727
 31
0.0
  0
LINE
  5
16A
330
D7
100
AcDbEntity
  8
AM_4
100
AcDbLine
 10
0.7608695652173915
 20
10.39772727272727
 30
0.0
 11
0.7608695652173915
 21
10.625
 31
0.0
  0
LINE
  5
16B
330
D7
100
AcDbEntity
  8
AM_4
100
AcDbLine
 10
0.7608695652173915
 20
10.625
 30
0.0
 11
-0.7608695652173915
 21
10.625
 31
0.0
  0
LINE
  5
16C
330
D7
100
AcDbEntity
  8
AM_4
100
AcDbLine
 10
-0.7608695652173915
 20
10.275
 30
0.0
 11
-0.7608695652173915
 21
9.819594328140754
 31
0.0
  0
LINE
  5
16D
330
D7
100
AcDbEntity
  8
AM_4
100
AcDbLine
 10
0.7608695652173915
 20
9.819594328140754
 30
0.0
 11
0.7608695652173915
 21
10.275
 31
0.0
  0
LINE
  5
16E
330
D7
100
AcDbEntity
  8
AM_4
100
AcDbLine
 10
-0.8749999999999998
 20
10.39772727272727
 30
0.0
 11
-0.8749999999999998
 21
10.275
 31
0.0
  0
LINE
  5
16F
330
D7
100
AcDbEntity
  8
AM_4
100
AcDbLine
 10
0.8749999999999998
 20
10.275
 30
0.0
 11
0.8749999999999998
 21
10.39772727272727
 31
0.0
  0
LINE
  5
170
330
D7
100
AcDbEntity
  8
AM_4
100
AcDbLine
 10
0.8749999999999998
 20
10.275
 30
0.0
 11
-0.8749999999999998
 21
10.275
 31
0.0
  0
LINE
  5
171
330
D7
100
AcDbEntity
  8
AM_4
100
AcDbLine
 10
0.8749999999999998
 20
10.39772727272727
 30
0.0
 11
-0.8749999999999998
 21
10.39772727272727
 31
0.0
  0
ARC
  5
172
330
D7
100
AcDbEntity
  8
AM_4
100
AcDbCircle
 10
-0.0000000000030305
 20
0.0000000000000914
 30
0.0
 40
12.74999999999697
100
AcDbArc
 50
176.1774462707251
 51
179.7135199087597
  0
LINE
  5
173
330
D7
100
AcDbEntity
  8
AM_4
100
AcDbLine
 10
-9.741033897966117
 20
0.85
 30
0.0
 11
-12.7216351150314
 21
0.85
 31
0.0
  0
LINE
  5
174
330
D7
100
AcDbEntity
  8
AM_4
100
AcDbLine
 10
9.74103389796611
 20
-0.85
 30
0.0
 11
12.72163511503139
 21
-0.85
 31
0.0
  0
ARC
  5
175
330
D7
100
AcDbEntity
  8
AM_4
100
AcDbCircle
 10
0.0000000000069882
 20
-0.0000000000001528
 30
0.0
 40
12.74999999999301
100
AcDbArc
 50
356.1774462707241
 51
359.7135199087584
  0
ARC
  5
176
330
D7
100
AcDbEntity
  8
AM_4
100
AcDbCircle
 10
-0.0000000000042153
 20
-0.0000000000002201
 30
0.0
 40
12.74999999999578
100
AcDbArc
 50
180.286480091239
 51
183.8225537292747
  0
LINE
  5
177
330
D7
100
AcDbEntity
  8
AM_4
100
AcDbLine
 10
-12.7216351150314
 20
-0.8499999999999982
 30
0.0
 11
-9.74103389796611
 21
-0.85
 31
0.0
  0
LINE
  5
178
330
D7
100
AcDbEntity
  8
AM_4
100
AcDbLine
 10
12.7216351150314
 20
0.8499999999999901
 30
0.0
 11
9.741033897966117
 21
0.85
 31
0.0
  0
ARC
  5
179
330
D7
100
AcDbEntity
  8
AM_4
100
AcDbCircle
 10
-0.0000000000039506
 20
-0.0000000000001704
 30
0.0
 40
12.75000000000395
100
AcDbArc
 50
0.2864800912415493
 51
3.822553729273835
  0
ARC
  5
17A
330
D7
100
AcDbEntity
  8
AM_4
100
AcDbCircle
 10
0.0000000000011475
 20
-0.0637500000000389
 30
0.0
 40
9.772713567060196
100
AcDbArc
 50
355.38536078511
 51
0.0
  0
ARC
  5
17B
330
D7
100
AcDbEntity
  8
AM_4
100
AcDbCircle
 10
-0.0000000000012292
 20
-0.0637500000000418
 30
0.0
 40
9.772713567060114
100
AcDbArc
 50
180.0
 51
184.6146392148901
  0
ARC
  5
17C
330
D7
100
AcDbEntity
  8
AM_4
100
AcDbCircle
 10
-0.0000000000000027
 20
-0.0637500000000006
 30
0.0
 40
9.785469894194662
100
AcDbArc
 50
184.6089506322666
 51
355.3857892306671
  0
ARC
  5
17D
330
D7
100
AcDbEntity
  8
AM_4
100
AcDbCircle
 10
-0.0000000000000373
 20
0.0637500000000154
 30
0.0
 40
9.772713567061311
100
AcDbArc
 50
175.3853607851104
 51
180.0
  0
ARC
  5
17E
330
D7
100
AcDbEntity
  8
AM_4
100
AcDbCircle
 10
0.0000000000005009
 20
0.0637500000000348
 30
0.0
 40
9.772713567060848
100
AcDbArc
 50
0.0
 51
4.614639214889716
  0
ARC
  5
17F
330
D7
100
AcDbEntity
  8
AM_4
100
AcDbCircle
 10
0.0000000000000036
 20
0.0637500000000033
 30
0.0
 40
9.785469894194664
100
AcDbArc
 50
4.611147207875698
 51
85.86806932672566
  0
ARC
  5
180
330
D7
100
AcDbEntity
  8
AM_4
100
AcDbCircle
 10
0.0000000000000031
 20
0.0637499999999953
 30
0.0
 40
9.785469894194673
100
AcDbArc
 50
94.12813160861913
 51
175.3908818988604
  0
LWPOLYLINE
  5
181
330
D7
100
AcDbEntity
  8
AM_4
100
AcDbPolyline
 90
       16
 70
     0
 43
0.0
 10
0.7067166130408232
 20
9.823666616921358
 10
0.6642993371889615
 20
9.826353541865913
 10
0.5914315353503837
 20
9.829918187421356
 10
0.5040160186809305
 20
9.833211525237127
 10
0.3995520752783958
 20
9.836202532515781
 10
0.2868448246057883
 20
9.838524424714091
 10
0.1626130275593539
 20
9.84014438841947
 10
0.0374013450781421
 20
9.840857972969115
 10
-0.0924970600928992
 20
9.840654820272817
 10
-0.2161020535481935
 20
9.839561504567676
 10
-0.3370448447748953
 20
9.837596260855962
 10
-0.4452126761641111
 20
9.835004359856491
 10
-0.543685122710099
 20
9.831821559595737
 10
-0.6242721889248181
 20
9.828430107602749
 10
-0.6892090682007181
 20
9.824857308609168
 10
-0.7066301198380273
 20
9.82367286741644
  0
ARC
  5
182
330
D7
100
AcDbEntity
  8
AM_4
100
AcDbCircle
 10
0.0000000000000018
 20
-0.0637499999999998
 30
0.0
 40
9.45801023589355
100
AcDbArc
 50
180.0
 51
0.0
  0
ARC
  5
183
330
D7
100
AcDbEntity
  8
AM_4
100
AcDbCircle
 10
-0.0000000000000018
 20
0.0637500000000015
 30
0.0
 40
9.458010235893552
100
AcDbArc
 50
0.0
 51
180.0
  0
LINE
  5
184
330
D7
100
AcDbEntity
  8
AM_4
100
AcDbLine
 10
4.871377752786866
 20
0.0637500000000006
 30
0.0
 11
12.74984062400389
 21
0.06375
 31
0.0
  0
ARC
  5
185
330
D7
100
AcDbEntity
  8
AM_4
100
AcDbCircle
 10
-0.0000000000000018
 20
0.0637499999999998
 30
0.0
 40
9.018669281061406
100
AcDbArc
 50
0.0
 51
180.0
  0
LINE
  5
186
330
D7
100
AcDbEntity
  8
AM_4
100
AcDbLine
 10
-4.871377752786866
 20
0.06375
 30
0.0
 11
-12.74984062400389
 21
0.06375
 31
0.0
  0
LINE
  5
187
330
D7
100
AcDbEntity
  8
AM_4
100
AcDbLine
 10
-12.74984062400389
 20
-0.0637499999999748
 30
0.0
 11
-4.871377752786866
 21
-0.0637500000000006
 31
0.0
  0
ARC
  5
188
330
D7
100
AcDbEntity
  8
AM_4
100
AcDbCircle
 10
0.0
 20
-0.0637499999999998
 30
0.0
 40
9.018669281061403
100
AcDbArc
 50
180.0
 51
0.0
  0
LINE
  5
189
330
D7
100
AcDbEntity
  8
AM_4
100
AcDbLine
 10
12.74984062400389
 20
-0.0637499999999222
 30
0.0
 11
4.871377752786866
 21
-0.06375
 31
0.0
  0
LINE
  5
18B
330
D7
100
AcDbEntity
  8
AM_5
100
AcDbLine
 10
11.6756
 20
1.7
 30
0.0
 11
11.6756
 21
-0.7968750000000002
 31
0.0
  0
LINE
  5
18C
330
D7
100
AcDbEntity
  8
AM_5
100
AcDbLine
 10
11.75
 20
-0.7968750000000002
 30
0.0
 11
11.6756
 21
-0.7968750000000002
 31
0.0
  0
LINE
  5
18D
330
D7
100
AcDbEntity
  8
AM_5
100
AcDbLine
 10
11.75
 20
-0.7968750000000002
 30
0.0
 11
10.75
 21
-0.7968750000000002
 31
0.0
  0
LINE
  5
18E
330
D7
100
AcDbEntity
  8
AM_5
100
AcDbLine
 10
10.8244
 20
1.7
 30
0.0
 11
10.8244
 21
-0.7968750000000002
 31
0.0
  0
LINE
  5
18F
330
D7
100
AcDbEntity
  8
AM_5
100
AcDbLine
 10
10.75
 20
-0.7968750000000002
 30
0.0
 11
10.8244
 21
-0.7968750000000002
 31
0.0
  0
LINE
  5
190
330
D7
100
AcDbEntity
  8
AM_5
100
AcDbLine
 10
-10.8244
 20
1.7
 30
0.0
 11
-10.8244
 21
-0.7968750000000002
 31
0.0
  0
LINE
  5
191
330
D7
100
AcDbEntity
  8
AM_5
100
AcDbLine
 10
-10.75
 20
-0.7968750000000002
 30
0.0
 11
-10.8244
 21
-0.7968750000000002
 31
0.0
  0
LINE
  5
192
330
D7
100
AcDbEntity
  8
AM_5
100
AcDbLine
 10
-10.75
 20
-0.7968750000000002
 30
0.0
 11
-11.75
 21
-0.7968750000000002
 31
0.0
  0
LINE
  5
193
330
D7
100
AcDbEntity
  8
AM_5
100
AcDbLine
 10
-11.6756
 20
1.7
 30
0.0
 11
-11.6756
 21
-0.7968750000000002
 31
0.0
  0
LINE
  5
194
330
D7
100
AcDbEntity
  8
AM_5
100
AcDbLine
 10
-11.75
 20
-0.7968750000000002
 30
0.0
 11
-11.6756
 21
-0.7968750000000002
 31
0.0
  0
ENDBLK
  5
DA
330
D7
100
AcDbEntity
  8
0
100
AcDbBlockEnd
  0
ENDSEC
  0
SECTION
  2
ENTITIES
  0
INSERT
  5
6F
330
1F
100
AcDbEntity
  8
0
100
AcDbBlockReference
  2
1_104016_0
 10
0.0
 20
0.0
 30
0.0
  0
POINT
  5
196
330
1F
100
AcDbEntity
  8
ConnectionPoints
100
AcDbPoint
 10
0.0
 20
0.0
 30
-3.25
  0
POINT
  5
197
330
1F
100
AcDbEntity
  8
ConnectionPoints
100
AcDbPoint
 10
0.0
 20
0.0
 30
0.0
  0
POINT
  5
198
330
1F
100
AcDbEntity
  8
ConnectionPoints
100
AcDbPoint
 10
0.0
 20
0.0
 30
-3.25
  0
ENDSEC
  0
SECTION
  2
OBJECTS
  0
DICTIONARY
  5
C
330
0
100
AcDbDictionary
281
     1
  3
ACAD_DETAILVIEWSTYLE
350
1A0
  3
ACAD_GROUP
350
D
  3
ACAD_LAYOUT
350
1A
  3
ACAD_MATERIAL
350
43
  3
ACAD_MLEADERSTYLE
350
6B
  3
ACAD_MLINESTYLE
350
17
  3
ACAD_PLOTSETTINGS
350
19
  3
ACAD_PLOTSTYLENAME
350
E
  3
ACAD_SCALELIST
350
47
  3
ACAD_SECTIONVIEWSTYLE
350
1A1
  3
ACAD_TABLESTYLE
350
69
  3
ACAD_VISUALSTYLE
350
2A
  3
ACDB_RECOMPOSE_DATA
350
19D
  3
AcDbVariableDictionary
350
199
  0
SUN
  5
6D
330
29
100
AcDbSun
 90
        1
290
     0
 63
     7
421
 16777215
 40
1.0
291
     1
 91
  2455826
 92
 54000000
292
     0
 70
     2
 71
   256
280
     1
  0
DICTIONARY
  5
1A0
102
{ACAD_REACTORS
330
C
102
}
330
C
100
AcDbDictionary
281
     1
  0
DICTIONARY
  5
D
102
{ACAD_REACTORS
330
C
102
}
330
C
100
AcDbDictionary
281
     1
  0
DICTIONARY
  5
1A
102
{ACAD_REACTORS
330
C
102
}
330
C
100
AcDbDictionary
281
     1
  3
Layout1
350
1E
  3
Layout2
350
26
  3
Model
350
22
  0
DICTIONARY
  5
43
102
{ACAD_REACTORS
330
C
102
}
330
C
100
AcDbDictionary
281
     1
  3
ByBlock
350
45
  3
ByLayer
350
44
  3
Global
350
46
  0
DICTIONARY
  5
6B
102
{ACAD_REACTORS
330
C
102
}
330
C
100
AcDbDictionary
281
     1
  3
Standard
350
6C
  0
DICTIONARY
  5
17
102
{ACAD_REACTORS
330
C
102
}
330
C
100
AcDbDictionary
281
     1
  3
Standard
350
18
  0
DICTIONARY
  5
19
102
{ACAD_REACTORS
330
C
102
}
330
C
100
AcDbDictionary
281
     1
  0
ACDBDICTIONARYWDFLT
  5
E
102
{ACAD_REACTORS
330
C
102
}
330
C
100
AcDbDictionary
281
     1
  3
Normal
350
F
100
AcDbDictionaryWithDefault
340
F
  0
DICTIONARY
  5
47
102
{ACAD_REACTORS
330
C
102
}
330
C
100
AcDbDictionary
281
     1
  3
A0
350
48
  3
A1
350
49
  3
A2
350
4A
  3
A3
350
4B
  3
A4
350
4C
  3
A5
350
4D
  3
A6
350
4E
  3
A7
350
4F
  3
A8
350
50
  3
A9
350
51
  3
B0
350
52
  3
B1
350
53
  3
B2
350
54
  3
B3
350
55
  3
B4
350
56
  3
B5
350
57
  3
B6
350
58
  3
B7
350
59
  3
B8
350
5A
  3
B9
350
5B
  3
C0
350
5C
  3
C1
350
5D
  3
C2
350
5E
  3
C3
350
5F
  3
C4
350
60
  3
C5
350
61
  3
C6
350
62
  3
C7
350
63
  3
C8
350
64
  3
C9
350
65
  3
D0
350
66
  3
D1
350
67
  3
D2
350
68
  0
DICTIONARY
  5
1A1
102
{ACAD_REACTORS
330
C
102
}
330
C
100
AcDbDictionary
281
     1
  0
DICTIONARY
  5
69
102
{ACAD_REACTORS
330
C
102
}
330
C
100
AcDbDictionary
281
     1
  3
Standard
350
6A
  0
DICTIONARY
  5
2A
102
{ACAD_REACTORS
330
C
102
}
330
C
100
AcDbDictionary
281
     1
  3
2dWireframe
350
2F
  3
Basic
350
32
  3
Brighten
350
36
  3
ColorChange
350
3A
  3
Conceptual
350
34
  3
Dim
350
35
  3
EdgeColorOff
350
3D
  3
Facepattern
350
39
  3
Flat
350
2B
  3
FlatWithEdges
350
2C
  3
Gouraud
350
2D
  3
GouraudWithEdges
350
2E
  3
Hidden
350
31
  3
JitterOff
350
3B
  3
Linepattern
350
38
  3
OverhangOff
350
3C
  3
Realistic
350
33
  3
Shaded
350
42
  3
Shaded with edges
350
41
  3
Shades of Gray
350
3E
  3
Sketchy
350
3F
  3
Thicken
350
37
  3
Wireframe
350
30
  3
X-Ray
350
40
  0
XRECORD
  5
19D
102
{ACAD_REACTORS
330
C
102
}
330
C
100
AcDbXrecord
280
     1
 90
        1
330
6A
  0
DICTIONARY
  5
199
102
{ACAD_REACTORS
330
C
102
}
330
C
100
AcDbDictionary
281
     1
  3
CANNOSCALE
350
19A
  3
CMLEADERSTYLE
350
19F
  3
CTABLESTYLE
350
19E
  0
LAYOUT
  5
1E
102
{ACAD_REACTORS
330
1A
102
}
330
1A
100
AcDbPlotSettings
  1

  2
none_device
  4

  6

 40
0.0
 41
0.0
 42
0.0
 43
0.0
 44
0.0
 45
0.0
 46
0.0
 47
0.0
 48
0.0
 49
0.0
140
0.0
141
0.0
142
1.0
143
1.0
 70
   688
 72
     0
 73
     0
 74
     5
  7

 75
    16
 76
     0
 77
     2
 78
   300
147
1.0
148
0.0
149
0.0
100
AcDbLayout
  1
Layout1
 70
     1
 71
     1
 10
0.0
 20
0.0
 11
12.0
 21
9.0
 12
0.0
 22
0.0
 32
0.0
 14
1.000000000000000E+20
 24
1.000000000000000E+20
 34
1.000000000000000E+20
 15
-1.000000000000000E+20
 25
-1.000000000000000E+20
 35
-1.000000000000000E+20
146
0.0
 13
0.0
 23
0.0
 33
0.0
 16
1.0
 26
0.0
 36
0.0
 17
0.0
 27
1.0
 37
0.0
 76
     0
330
1B
  0
LAYOUT
  5
26
102
{ACAD_REACTORS
330
1A
102
}
330
1A
100
AcDbPlotSettings
  1

  2
none_device
  4

  6

 40
0.0
 41
0.0
 42
0.0
 43
0.0
 44
0.0
 45
0.0
 46
0.0
 47
0.0
 48
0.0
 49
0.0
140
0.0
141
0.0
142
1.0
143
1.0
 70
   688
 72
     0
 73
     0
 74
     5
  7

 75
    16
 76
     0
 77
     2
 78
   300
147
1.0
148
0.0
149
0.0
100
AcDbLayout
  1
Layout2
 70
     1
 71
     2
 10
0.0
 20
0.0
 11
0.0
 21
0.0
 12
0.0
 22
0.0
 32
0.0
 14
0.0
 24
0.0
 34
0.0
 15
0.0
 25
0.0
 35
0.0
146
0.0
 13
0.0
 23
0.0
 33
0.0
 16
1.0
 26
0.0
 36
0.0
 17
0.0
 27
1.0
 37
0.0
 76
     0
330
23
  0
LAYOUT
  5
22
102
{ACAD_REACTORS
330
1A
102
}
330
1A
100
AcDbPlotSettings
  1

  2
none_device
  4
Letter_(8.50_x_11.00_Inches)
  6

 40
6.35
 41
6.35
 42
6.35000508
 43
6.35000508
 44
215.9
 45
279.4
 46
0.0
 47
0.0
 48
0.0
 49
0.0
140
0.0
141
0.0
142
1.0
143
1.0
 70
  1712
 72
     0
 73
     0
 74
     0
  7

 75
     0
 76
     0
 77
     2
 78
   300
147
1.0
148
0.0
149
0.0
100
AcDbLayout
  1
Model
 70
     1
 71
     0
 10
0.0
 20
0.0
 11
12.0
 21
9.0
 12
0.0
 22
0.0
 32
0.0
 14
1.000000000000000E+20
 24
1.000000000000000E+20
 34
1.000000000000000E+20
 15
-1.000000000000000E+20
 25
-1.000000000000000E+20
 35
-1.000000000000000E+20
146
0.0
 13
0.0
 23
0.0
 33
0.0
 16
1.0
 26
0.0
 36
0.0
 17
0.0
 27
1.0
 37
0.0
 76
     0
330
1F
331
29
  0
MATERIAL
  5
45
102
{ACAD_REACTORS
330
43
102
}
330
43
100
AcDbMaterial
  1
ByBlock
 72
     1
 94
      127
  0
MATERIAL
  5
44
102
{ACAD_REACTORS
330
43
102
}
330
43
100
AcDbMaterial
  1
ByLayer
 72
     1
 94
      127
  0
MATERIAL
  5
46
102
{ACAD_REACTORS
330
43
102
}
330
43
100
AcDbMaterial
  1
Global
 72
     1
 94
      127
  0
MLEADERSTYLE
  5
6C
102
{ACAD_REACTORS
330
6B
102
}
330
6B
100
AcDbMLeaderStyle
179
     2
170
     2
171
     1
172
     0
 90
        2
 40
0.0
 41
0.0
173
     1
 91
-1056964608
340
14
 92
       -2
290
     1
 42
0.09
291
     1
 43
0.36
  3
Standard
341
0
 44
0.18
300

342
11
174
     1
178
     6
175
     1
176
     0
 93
-1056964608
 45
0.18
292
     0
297
     0
 46
0.18
343
0
 94
-1056964608
 47
1.0
 49
1.0
140
1.0
293
     1
141
0.0
294
     1
177
     0
142
1.0
295
     0
296
     0
143
0.125
271
     0
272
     9
273
     9
298
     0
  0
MLINESTYLE
  5
18
102
{ACAD_REACTORS
330
17
102
}
330
17
100
AcDbMlineStyle
  2
Standard
 70
     0
  3

 62
   256
 51
90.0
 52
90.0
 71
     2
 49
0.5
 62
   256
  6
BYLAYER
 49
-0.5
 62
   256
  6
BYLAYER
  0
ACDBPLACEHOLDER
  5
F
102
{ACAD_REACTORS
330
E
102
}
330
E
  0
SCALE
  5
48
102
{ACAD_REACTORS
330
47
102
}
330
47
100
AcDbScale
 70
     0
300
1:1
140
1.0
141
1.0
290
     1
  0
SCALE
  5
49
102
{ACAD_REACTORS
330
47
102
}
330
47
100
AcDbScale
 70
     0
300
1:2
140
1.0
141
2.0
290
     0
  0
SCALE
  5
4A
102
{ACAD_REACTORS
330
47
102
}
330
47
100
AcDbScale
 70
     0
300
1:4
140
1.0
141
4.0
290
     0
  0
SCALE
  5
4B
102
{ACAD_REACTORS
330
47
102
}
330
47
100
AcDbScale
 70
     0
300
1:5
140
1.0
141
5.0
290
     0
  0
SCALE
  5
4C
102
{ACAD_REACTORS
330
47
102
}
330
47
100
AcDbScale
 70
     0
300
1:8
140
1.0
141
8.0
290
     0
  0
SCALE
  5
4D
102
{ACAD_REACTORS
330
47
102
}
330
47
100
AcDbScale
 70
     0
300
1:10
140
1.0
141
10.0
290
     0
  0
SCALE
  5
4E
102
{ACAD_REACTORS
330
47
102
}
330
47
100
AcDbScale
 70
     0
300
1:16
140
1.0
141
16.0
290
     0
  0
SCALE
  5
4F
102
{ACAD_REACTORS
330
47
102
}
330
47
100
AcDbScale
 70
     0
300
1:20
140
1.0
141
20.0
290
     0
  0
SCALE
  5
50
102
{ACAD_REACTORS
330
47
102
}
330
47
100
AcDbScale
 70
     0
300
1:30
140
1.0
141
30.0
290
     0
  0
SCALE
  5
51
102
{ACAD_REACTORS
330
47
102
}
330
47
100
AcDbScale
 70
     0
300
1:40
140
1.0
141
40.0
290
     0
  0
SCALE
  5
52
102
{ACAD_REACTORS
330
47
102
}
330
47
100
AcDbScale
 70
     0
300
1:50
140
1.0
141
50.0
290
     0
  0
SCALE
  5
53
102
{ACAD_REACTORS
330
47
102
}
330
47
100
AcDbScale
 70
     0
300
1:100
140
1.0
141
100.0
290
     0
  0
SCALE
  5
54
102
{ACAD_REACTORS
330
47
102
}
330
47
100
AcDbScale
 70
     0
300
2:1
140
2.0
141
1.0
290
     0
  0
SCALE
  5
55
102
{ACAD_REACTORS
330
47
102
}
330
47
100
AcDbScale
 70
     0
300
4:1
140
4.0
141
1.0
290
     0
  0
SCALE
  5
56
102
{ACAD_REACTORS
330
47
102
}
330
47
100
AcDbScale
 70
     0
300
8:1
140
8.0
141
1.0
290
     0
  0
SCALE
  5
57
102
{ACAD_REACTORS
330
47
102
}
330
47
100
AcDbScale
 70
     0
300
10:1
140
10.0
141
1.0
290
     0
  0
SCALE
  5
58
102
{ACAD_REACTORS
330
47
102
}
330
47
100
AcDbScale
 70
     0
300
100:1
140
100.0
141
1.0
290
     0
  0
SCALE
  5
59
102
{ACAD_REACTORS
330
47
102
}
330
47
100
AcDbScale
 70
     0
300
1/128" = 1'-0"
140
0.0078125
141
12.0
290
     0
  0
SCALE
  5
5A
102
{ACAD_REACTORS
330
47
102
}
330
47
100
AcDbScale
 70
     0
300
1/64" = 1'-0"
140
0.015625
141
12.0
290
     0
  0
SCALE
  5
5B
102
{ACAD_REACTORS
330
47
102
}
330
47
100
AcDbScale
 70
     0
300
1/32" = 1'-0"
140
0.03125
141
12.0
290
     0
  0
SCALE
  5
5C
102
{ACAD_REACTORS
330
47
102
}
330
47
100
AcDbScale
 70
     0
300
1/16" = 1'-0"
140
0.0625
141
12.0
290
     0
  0
SCALE
  5
5D
102
{ACAD_REACTORS
330
47
102
}
330
47
100
AcDbScale
 70
     0
300
3/32" = 1'-0"
140
0.09375
141
12.0
290
     0
  0
SCALE
  5
5E
102
{ACAD_REACTORS
330
47
102
}
330
47
100
AcDbScale
 70
     0
300
1/8" = 1'-0"
140
0.125
141
12.0
290
     0
  0
SCALE
  5
5F
102
{ACAD_REACTORS
330
47
102
}
330
47
100
AcDbScale
 70
     0
300
3/16" = 1'-0"
140
0.1875
141
12.0
290
     0
  0
SCALE
  5
60
102
{ACAD_REACTORS
330
47
102
}
330
47
100
AcDbScale
 70
     0
300
1/4" = 1'-0"
140
0.25
141
12.0
290
     0
  0
SCALE
  5
61
102
{ACAD_REACTORS
330
47
102
}
330
47
100
AcDbScale
 70
     0
300
3/8" = 1'-0"
140
0.375
141
12.0
290
     0
  0
SCALE
  5
62
102
{ACAD_REACTORS
330
47
102
}
330
47
100
AcDbScale
 70
     0
300
1/2" = 1'-0"
140
0.5
141
12.0
290
     0
  0
SCALE
  5
63
102
{ACAD_REACTORS
330
47
102
}
330
47
100
AcDbScale
 70
     0
300
3/4" = 1'-0"
140
0.75
141
12.0
290
     0
  0
SCALE
  5
64
102
{ACAD_REACTORS
330
47
102
}
330
47
100
AcDbScale
 70
     0
300
1" = 1'-0"
140
1.0
141
12.0
290
     0
  0
SCALE
  5
65
102
{ACAD_REACTORS
330
47
102
}
330
47
100
AcDbScale
 70
     0
300
1-1/2" = 1'-0"
140
1.5
141
12.0
290
     0
  0
SCALE
  5
66
102
{ACAD_REACTORS
330
47
102
}
330
47
100
AcDbScale
 70
     0
300
3" = 1'-0"
140
3.0
141
12.0
290
     0
  0
SCALE
  5
67
102
{ACAD_REACTORS
330
47
102
}
330
47
100
AcDbScale
 70
     0
300
6" = 1'-0"
140
6.0
141
12.0
290
     0
  0
SCALE
  5
68
102
{ACAD_REACTORS
330
47
102
}
330
47
100
AcDbScale
 70
     0
300
1'-0" = 1'-0"
140
12.0
141
12.0
290
     0
  0
TABLESTYLE
  5
6A
102
{ACAD_REACTORS
330
69
102
}
102
{ACAD_XDICTIONARY
360
19B
102
}
330
69
100
AcDbTableStyle
  3
Standard
 70
     0
 71
     0
 40
0.06
 41
0.06
280
     0
281
     0
  7
Standard
140
0.18
170
     2
 62
     0
 63
   257
283
     0
 90
        4
 91
        0
  1

274
    -2
284
     1
 64
     0
275
    -2
285
     1
 65
     0
276
    -2
286
     1
 66
     0
277
    -2
287
     1
 67
     0
278
    -2
288
     1
 68
     0
279
    -2
289
     1
 69
     0
  7
Standard
140
0.25
170
     5
 62
     0
 63
   257
283
     0
 90
        4
 91
        0
  1

274
    -2
284
     1
 64
     0
275
    -2
285
     1
 65
     0
276
    -2
286
     1
 66
     0
277
    -2
287
     1
 67
     0
278
    -2
288
     1
 68
     0
279
    -2
289
     1
 69
     0
  7
Standard
140
0.18
170
     5
 62
     0
 63
   257
283
     0
 90
        4
 91
        0
  1

274
    -2
284
     1
 64
     0
275
    -2
285
     1
 65
     0
276
    -2
286
     1
 66
     0
277
    -2
287
     1
 67
     0
278
    -2
288
     1
 68
     0
279
    -2
289
     1
 69
     0
  0
VISUALSTYLE
  5
2F
102
{ACAD_REACTORS
330
2A
102
}
330
2A
100
AcDbVisualStyle
  2
2dWireframe
 70
     4
177
     3
291
     0
 70
    58
 90
        0
176
     1
 90
        2
176
     1
 90
        0
176
     1
 90
        0
176
     1
 40
0.6
176
     1
 40
30.0
176
     1
 62
     7
420
 16777215
176
     1
 90
        1
176
     1
 90
        4
176
     1
 62
     7
176
     1
 62
   257
176
     1
 90
        1
176
     1
 90
        1
176
     1
 40
1.0
176
     1
 90
        0
176
     1
 62
   257
176
     1
 40
1.0
176
     1
 90
        1
176
     1
 90
        6
176
     1
 90
        2
176
     1
 62
     7
176
     1
 90
        5
176
     1
 90
        0
176
     1
 90
        0
176
     1
290
     0
176
     1
 90
        1
176
     1
 40
0.0
176
     1
 90
        0
176
     1
290
     1
176
     1
290
     1
176
     1
290
     0
176
     1
290
     0
176
     1
290
     0
176
     1
290
     0
176
     1
290
     0
176
     1
290
     0
176
     1
290
     0
176
     1
 90
       50
176
     1
 40
0.0
176
     1
 40
1.0
176
     1
 90
        0
176
     1
 62
    18
420
        0
176
     1
 90
       50
176
     1
 90
        3
176
     1
 62
     5
420
      255
176
     1
290
     0
176
     1
 90
       50
176
     1
 90
       50
176
     1
 90
       50
176
     1
290
     0
176
     1
 90
       50
176
     1
 62
   256
176
     0
 40
1.0
176
     0
 90
        2
176
     1
  1
strokes_ogs.tif
176
     1
290
     0
176
     1
 40
1.0
176
     1
 40
1.0
176
     1
  0
VISUALSTYLE
  5
32
102
{ACAD_REACTORS
330
2A
102
}
330
2A
100
AcDbVisualStyle
  2
Basic
 70
     7
177
     3
291
     1
 70
    58
 90
        1
176
     1
 90
        0
176
     1
 90
        1
176
     1
 90
        0
176
     1
 40
0.6
176
     1
 40
30.0
176
     1
 62
     7
420
 16777215
176
     1
 90
        0
176
     1
 90
        4
176
     1
 62
     7
176
     1
 62
   257
176
     1
 90
        1
176
     1
 90
        1
176
     1
 40
1.0
176
     1
 90
        8
176
     1
 62
     7
176
     1
 40
1.0
176
     1
 90
        1
176
     1
 90
        6
176
     1
 90
        2
176
     1
 62
     7
176
     1
 90
        5
176
     1
 90
        0
176
     1
 90
        0
176
     1
290
     0
176
     1
 90
        1
176
     1
 40
0.0
176
     1
 90
        0
176
     1
290
     0
176
     1
290
     1
176
     1
290
     1
176
     1
290
     0
176
     1
290
     0
176
     1
290
     0
176
     1
290
     0
176
     1
290
     0
176
     1
290
     0
176
     1
 90
       50
176
     1
 40
0.0
176
     1
 40
1.0
176
     1
 90
        0
176
     1
 62
    18
420
        0
176
     1
 90
       50
176
     1
 90
        3
176
     1
 62
     5
420
      255
176
     1
290
     0
176
     1
 90
       50
176
     1
 90
       50
176
     1
 90
       50
176
     1
290
     0
176
     1
 90
       50
176
     1
 62
   256
176
     0
 40
1.0
176
     0
 90
        2
176
     1
  1
strokes_ogs.tif
176
     1
290
     0
176
     1
 40
1.0
176
     1
 40
1.0
176
     1
  0
VISUALSTYLE
  5
36
102
{ACAD_REACTORS
330
2A
102
}
330
2A
100
AcDbVisualStyle
  2
Brighten
 70
    12
177
     3
291
     1
 70
    58
 90
        2
176
     1
 90
        2
176
     1
 90
        0
176
     1
 90
        0
176
     1
 40
0.6
176
     1
 40
30.0
176
     1
 62
     7
420
 16777215
176
     1
 90
        1
176
     1
 90
        4
176
     1
 62
     7
176
     1
 62
   257
176
     1
 90
        1
176
     1
 90
        1
176
     1
 40
1.0
176
     1
 90
        8
176
     1
 62
     7
176
     1
 40
1.0
176
     1
 90
        1
176
     1
 90
        6
176
     1
 90
        2
176
     1
 62
     7
176
     1
 90
        5
176
     1
 90
        0
176
     1
 90
        0
176
     1
290
     0
176
     1
 90
        1
176
     1
 40
50.0
176
     1
 90
        0
176
     1
290
     0
176
     1
290
     1
176
     1
290
     1
176
     1
290
     0
176
     1
290
     0
176
     1
290
     0
176
     1
290
     0
176
     1
290
     0
176
     1
290
     0
176
     1
 90
       50
176
     1
 40
0.0
176
     1
 40
1.0
176
     1
 90
        0
176
     1
 62
    18
420
        0
176
     1
 90
       50
176
     1
 90
        3
176
     1
 62
     5
420
      255
176
     1
290
     0
176
     1
 90
       50
176
     1
 90
       50
176
     1
 90
       50
176
     1
290
     0
176
     1
 90
       50
176
     1
 62
   256
176
     0
 40
1.0
176
     0
 90
        2
176
     1
  1
strokes_ogs.tif
176
     1
290
     0
176
     1
 40
1.0
176
     1
 40
1.0
176
     1
  0
VISUALSTYLE
  5
3A
102
{ACAD_REACTORS
330
2A
102
}
330
2A
100
AcDbVisualStyle
  2
ColorChange
 70
    16
177
     3
291
     1
 70
    58
 90
        2
176
     1
 90
        2
176
     1
 90
        3
176
     1
 90
        0
176
     1
 40
0.6
176
     1
 40
30.0
176
     1
 62
     8
420
  8421504
176
     1
 90
        1
176
     1
 90
        4
176
     1
 62
     7
176
     1
 62
   257
176
     1
 90
        1
176
     1
 90
        1
176
     1
 40
1.0
176
     1
 90
        8
176
     1
 62
     8
420
  8421504
176
     1
 40
1.0
176
     1
 90
        1
176
     1
 90
        6
176
     1
 90
        2
176
     1
 62
     7
176
     1
 90
        5
176
     1
 90
        0
176
     1
 90
        0
176
     1
290
     0
176
     1
 90
        1
176
     1
 40
0.0
176
     1
 90
        0
176
     1
290
     0
176
     1
290
     1
176
     1
290
     1
176
     1
290
     0
176
     1
290
     0
176
     1
290
     0
176
     1
290
     0
176
     1
290
     0
176
     1
290
     0
176
     1
 90
       50
176
     1
 40
0.0
176
     1
 40
1.0
176
     1
 90
        0
176
     1
 62
    18
420
        0
176
     1
 90
       50
176
     1
 90
        3
176
     1
 62
     5
420
      255
176
     1
290
     0
176
     1
 90
       50
176
     1
 90
       50
176
     1
 90
       50
176
     1
290
     0
176
     1
 90
       50
176
     1
 62
   256
176
     0
 40
1.0
176
     0
 90
        2
176
     1
  1
strokes_ogs.tif
176
     1
290
     0
176
     1
 40
1.0
176
     1
 40
1.0
176
     1
  0
VISUALSTYLE
  5
34
102
{ACAD_REACTORS
330
2A
102
}
330
2A
100
AcDbVisualStyle
  2
Conceptual
 70
     9
177
     3
291
     0
 70
    58
 90
        3
176
     1
 90
        2
176
     1
 90
        0
176
     1
 90
        0
176
     1
 40
0.6
176
     1
 40
30.0
176
     1
 62
     7
420
 16777215
176
     1
 90
        2
176
     1
 90
        2
176
     1
 62
     7
176
     1
 62
   257
176
     1
 90
        1
176
     1
 90
        1
176
     1
 40
179.0
176
     1
 90
        8
176
     1
 62
     7
176
     1
 40
1.0
176
     1
 90
        1
176
     1
 90
        6
176
     1
 90
        2
176
     1
 62
     7
176
     1
 90
        3
176
     1
 90
        0
176
     1
 90
        0
176
     1
290
     0
176
     1
 90
        1
176
     1
 40
0.0
176
     1
 90
        0
176
     1
290
     0
176
     1
290
     1
176
     1
290
     1
176
     1
290
     0
176
     1
290
     0
176
     1
290
     0
176
     1
290
     0
176
     1
290
     0
176
     1
290
     0
176
     1
 90
       50
176
     1
 40
0.0
176
     1
 40
1.0
176
     1
 90
        0
176
     1
 62
    18
420
        0
176
     1
 90
       50
176
     1
 90
        3
176
     1
 62
     5
420
      255
176
     1
290
     0
176
     1
 90
       50
176
     1
 90
       50
176
     1
 90
       50
176
     1
290
     0
176
     1
 90
       50
176
     1
 62
   256
176
     0
 40
1.0
176
     0
 90
        2
176
     1
  1
strokes_ogs.tif
176
     1
290
     0
176
     1
 40
1.0
176
     1
 40
1.0
176
     1
  0
VISUALSTYLE
  5
35
102
{ACAD_REACTORS
330
2A
102
}
330
2A
100
AcDbVisualStyle
  2
Dim
 70
    11
177
     3
291
     1
 70
    58
 90
        2
176
     1
 90
        2
176
     1
 90
        0
176
     1
 90
        0
176
     1
 40
0.6
176
     1
 40
30.0
176
     1
 62
     7
420
 16777215
176
     1
 90
        1
176
     1
 90
        4
176
     1
 62
     7
176
     1
 62
   257
176
     1
 90
        1
176
     1
 90
        1
176
     1
 40
1.0
176
     1
 90
        8
176
     1
 62
     7
176
     1
 40
1.0
176
     1
 90
        1
176
     1
 90
        6
176
     1
 90
        2
176
     1
 62
     7
176
     1
 90
        5
176
     1
 90
        0
176
     1
 90
        0
176
     1
290
     0
176
     1
 90
        1
176
     1
 40
-50.0
176
     1
 90
        0
176
     1
290
     0
176
     1
290
     1
176
     1
290
     1
176
     1
290
     0
176
     1
290
     0
176
     1
290
     0
176
     1
290
     0
176
     1
290
     0
176
     1
290
     0
176
     1
 90
       50
176
     1
 40
0.0
176
     1
 40
1.0
176
     1
 90
        0
176
     1
 62
    18
420
        0
176
     1
 90
       50
176
     1
 90
        3
176
     1
 62
     5
420
      255
176
     1
290
     0
176
     1
 90
       50
176
     1
 90
       50
176
     1
 90
       50
176
     1
290
     0
176
     1
 90
       50
176
     1
 62
   256
176
     0
 40
1.0
176
     0
 90
        2
176
     1
  1
strokes_ogs.tif
176
     1
290
     0
176
     1
 40
1.0
176
     1
 40
1.0
176
     1
  0
VISUALSTYLE
  5
3D
102
{ACAD_REACTORS
330
2A
102
}
330
2A
100
AcDbVisualStyle
  2
EdgeColorOff
 70
    22
177
     3
291
     1
 70
    58
 90
        2
176
     0
 90
        2
176
     0
 90
        0
176
     0
 90
        0
176
     0
 40
0.6
176
     0
 40
30.0
176
     0
 62
     7
420
 16777215
176
     0
 90
        1
176
     0
 90
        4
176
     0
 62
     7
176
     0
 62
   257
176
     0
 90
        1
176
     0
 90
        1
176
     0
 40
1.0
176
     0
 90
        8
176
     2
 62
     7
176
     0
 40
1.0
176
     0
 90
        1
176
     0
 90
        6
176
     0
 90
        2
176
     0
 62
     7
176
     0
 90
        5
176
     0
 90
        0
176
     0
 90
        0
176
     0
290
     0
176
     0
 90
        1
176
     0
 40
0.0
176
     0
 90
        0
176
     0
290
     0
176
     0
290
     1
176
     0
290
     1
176
     0
290
     0
176
     0
290
     0
176
     0
290
     0
176
     0
290
     0
176
     0
290
     0
176
     0
290
     0
176
     0
 90
       50
176
     0
 40
0.0
176
     0
 40
1.0
176
     0
 90
        0
176
     0
 62
    18
420
        0
176
     0
 90
       50
176
     0
 90
        3
176
     0
 62
     5
420
      255
176
     0
290
     0
176
     0
 90
       50
176
     0
 90
       50
176
     0
 90
       50
176
     0
290
     0
176
     0
 90
       50
176
     0
 62
   256
176
     0
 40
1.0
176
     0
 90
        2
176
     0
  1
strokes_ogs.tif
176
     0
290
     0
176
     0
 40
1.0
176
     0
 40
1.0
176
     0
  0
VISUALSTYLE
  5
39
102
{ACAD_REACTORS
330
2A
102
}
330
2A
100
AcDbVisualStyle
  2
Facepattern
 70
    15
177
     3
291
     1
 70
    58
 90
        2
176
     1
 90
        2
176
     1
 90
        0
176
     1
 90
        0
176
     1
 40
0.6
176
     1
 40
30.0
176
     1
 62
     7
420
 16777215
176
     1
 90
        1
176
     1
 90
        4
176
     1
 62
     7
176
     1
 62
   257
176
     1
 90
        1
176
     1
 90
        1
176
     1
 40
1.0
176
     1
 90
        8
176
     1
 62
     7
176
     1
 40
1.0
176
     1
 90
        1
176
     1
 90
        6
176
     1
 90
        2
176
     1
 62
     7
176
     1
 90
        5
176
     1
 90
        0
176
     1
 90
        0
176
     1
290
     0
176
     1
 90
        1
176
     1
 40
0.0
176
     1
 90
        0
176
     1
290
     0
176
     1
290
     1
176
     1
290
     1
176
     1
290
     0
176
     1
290
     0
176
     1
290
     0
176
     1
290
     0
176
     1
290
     0
176
     1
290
     0
176
     1
 90
       50
176
     1
 40
0.0
176
     1
 40
1.0
176
     1
 90
        0
176
     1
 62
    18
420
        0
176
     1
 90
       50
176
     1
 90
        3
176
     1
 62
     5
420
      255
176
     1
290
     0
176
     1
 90
       50
176
     1
 90
       50
176
     1
 90
       50
176
     1
290
     0
176
     1
 90
       50
176
     1
 62
   256
176
     0
 40
1.0
176
     0
 90
        2
176
     1
  1
strokes_ogs.tif
176
     1
290
     0
176
     1
 40
1.0
176
     1
 40
1.0
176
     1
  0
VISUALSTYLE
  5
2B
102
{ACAD_REACTORS
330
2A
102
}
330
2A
100
AcDbVisualStyle
  2
Flat
 70
     0
177
     3
291
     1
 70
    58
 90
        2
176
     1
 90
        1
176
     1
 90
        1
176
     1
 90
        2
176
     1
 40
0.6
176
     1
 40
30.0
176
     1
 62
     7
420
 16777215
176
     1
 90
        0
176
     1
 90
        0
176
     1
 62
     7
176
     1
 62
   257
176
     1
 90
        1
176
     1
 90
        1
176
     1
 40
1.0
176
     1
 90
        8
176
     1
 62
     7
176
     1
 40
1.0
176
     1
 90
        1
176
     1
 90
        6
176
     1
 90
        2
176
     1
 62
     7
176
     1
 90
        5
176
     1
 90
        0
176
     1
 90
        0
176
     1
290
     0
176
     1
 90
       13
176
     1
 40
0.0
176
     1
 90
        0
176
     1
290
     0
176
     1
290
     1
176
     1
290
     1
176
     1
290
     0
176
     1
290
     0
176
     1
290
     0
176
     1
290
     0
176
     1
290
     0
176
     1
290
     0
176
     1
 90
       50
176
     1
 40
0.0
176
     1
 40
1.0
176
     1
 90
        0
176
     1
 62
    18
420
        0
176
     1
 90
       50
176
     1
 90
        3
176
     1
 62
     5
420
      255
176
     1
290
     0
176
     1
 90
       50
176
     1
 90
       50
176
     1
 90
       50
176
     1
290
     0
176
     1
 90
       50
176
     1
 62
   256
176
     0
 40
1.0
176
     0
 90
        2
176
     1
  1
strokes_ogs.tif
176
     1
290
     0
176
     1
 40
1.0
176
     1
 40
1.0
176
     1
  0
VISUALSTYLE
  5
2C
102
{ACAD_REACTORS
330
2A
102
}
330
2A
100
AcDbVisualStyle
  2
FlatWithEdges
 70
     1
177
     3
291
     1
 70
    58
 90
        2
176
     1
 90
        1
176
     1
 90
        1
176
     1
 90
        2
176
     1
 40
0.6
176
     1
 40
30.0
176
     1
 62
     7
420
 16777215
176
     1
 90
        1
176
     1
 90
        0
176
     1
 62
     7
176
     1
 62
   257
176
     1
 90
        1
176
     1
 90
        1
176
     1
 40
1.0
176
     1
 90
        0
176
     1
 62
   257
176
     1
 40
1.0
176
     1
 90
        1
176
     1
 90
        6
176
     1
 90
        2
176
     1
 62
     7
176
     1
 90
        5
176
     1
 90
        0
176
     1
 90
        0
176
     1
290
     0
176
     1
 90
       13
176
     1
 40
0.0
176
     1
 90
        0
176
     1
290
     0
176
     1
290
     1
176
     1
290
     1
176
     1
290
     0
176
     1
290
     0
176
     1
290
     0
176
     1
290
     0
176
     1
290
     0
176
     1
290
     0
176
     1
 90
       50
176
     1
 40
0.0
176
     1
 40
1.0
176
     1
 90
        0
176
     1
 62
    18
420
        0
176
     1
 90
       50
176
     1
 90
        3
176
     1
 62
     5
420
      255
176
     1
290
     0
176
     1
 90
       50
176
     1
 90
       50
176
     1
 90
       50
176
     1
290
     0
176
     1
 90
       50
176
     1
 62
   256
176
     0
 40
1.0
176
     0
 90
        2
176
     1
  1
strokes_ogs.tif
176
     1
290
     0
176
     1
 40
1.0
176
     1
 40
1.0
176
     1
  0
VISUALSTYLE
  5
2D
102
{ACAD_REACTORS
330
2A
102
}
330
2A
100
AcDbVisualStyle
  2
Gouraud
 70
     2
177
     3
291
     1
 70
    58
 90
        2
176
     1
 90
        2
176
     1
 90
        1
176
     1
 90
        2
176
     1
 40
0.6
176
     1
 40
30.0
176
     1
 62
     7
420
 16777215
176
     1
 90
        0
176
     1
 90
        0
176
     1
 62
     7
176
     1
 62
   257
176
     1
 90
        1
176
     1
 90
        1
176
     1
 40
1.0
176
     1
 90
        0
176
     1
 62
     7
176
     1
 40
1.0
176
     1
 90
        1
176
     1
 90
        6
176
     1
 90
        2
176
     1
 62
     7
176
     1
 90
        5
176
     1
 90
        0
176
     1
 90
        0
176
     1
290
     0
176
     1
 90
       13
176
     1
 40
0.0
176
     1
 90
        0
176
     1
290
     0
176
     1
290
     1
176
     1
290
     1
176
     1
290
     0
176
     1
290
     0
176
     1
290
     0
176
     1
290
     0
176
     1
290
     0
176
     1
290
     0
176
     1
 90
       50
176
     1
 40
0.0
176
     1
 40
1.0
176
     1
 90
        0
176
     1
 62
    18
420
        0
176
     1
 90
       50
176
     1
 90
        3
176
     1
 62
     5
420
      255
176
     1
290
     0
176
     1
 90
       50
176
     1
 90
       50
176
     1
 90
       50
176
     1
290
     0
176
     1
 90
       50
176
     1
 62
   256
176
     0
 40
1.0
176
     0
 90
        2
176
     1
  1
strokes_ogs.tif
176
     1
290
     0
176
     1
 40
1.0
176
     1
 40
1.0
176
     1
  0
VISUALSTYLE
  5
2E
102
{ACAD_REACTORS
330
2A
102
}
330
2A
100
AcDbVisualStyle
  2
GouraudWithEdges
 70
     3
177
     3
291
     1
 70
    58
 90
        2
176
     1
 90
        2
176
     1
 90
        1
176
     1
 90
        2
176
     1
 40
0.6
176
     1
 40
30.0
176
     1
 62
     7
420
 16777215
176
     1
 90
        1
176
     1
 90
        0
176
     1
 62
     7
176
     1
 62
   257
176
     1
 90
        1
176
     1
 90
        1
176
     1
 40
1.0
176
     1
 90
        0
176
     1
 62
   257
176
     1
 40
1.0
176
     1
 90
        1
176
     1
 90
        6
176
     1
 90
        2
176
     1
 62
     7
176
     1
 90
        5
176
     1
 90
        0
176
     1
 90
        0
176
     1
290
     0
176
     1
 90
       13
176
     1
 40
0.0
176
     1
 90
        0
176
     1
290
     0
176
     1
290
     1
176
     1
290
     1
176
     1
290
     0
176
     1
290
     0
176
     1
290
     0
176
     1
290
     0
176
     1
290
     0
176
     1
290
     0
176
     1
 90
       50
176
     1
 40
0.0
176
     1
 40
1.0
176
     1
 90
        0
176
     1
 62
    18
420
        0
176
     1
 90
       50
176
     1
 90
        3
176
     1
 62
     5
420
      255
176
     1
290
     0
176
     1
 90
       50
176
     1
 90
       50
176
     1
 90
       50
176
     1
290
     0
176
     1
 90
       50
176
     1
 62
   256
176
     0
 40
1.0
176
     0
 90
        2
176
     1
  1
strokes_ogs.tif
176
     1
290
     0
176
     1
 40
1.0
176
     1
 40
1.0
176
     1
  0
VISUALSTYLE
  5
31
102
{ACAD_REACTORS
330
2A
102
}
330
2A
100
AcDbVisualStyle
  2
Hidden
 70
     6
177
     3
291
     0
 70
    58
 90
        1
176
     1
 90
        2
176
     1
 90
        2
176
     1
 90
        0
176
     1
 40
0.6
176
     1
 40
30.0
176
     1
 62
     7
420
 16777215
176
     1
 90
        2
176
     1
 90
        2
176
     1
 62
     7
176
     1
 62
   257
176
     1
 90
        2
176
     1
 90
        1
176
     1
 40
40.0
176
     1
 90
        0
176
     1
 62
   257
176
     1
 40
1.0
176
     1
 90
        1
176
     1
 90
        6
176
     1
 90
        2
176
     1
 62
     7
176
     1
 90
        3
176
     1
 90
        0
176
     1
 90
        0
176
     1
290
     0
176
     1
 90
        1
176
     1
 40
0.0
176
     1
 90
        0
176
     1
290
     0
176
     1
290
     1
176
     1
290
     1
176
     1
290
     0
176
     1
290
     0
176
     1
290
     0
176
     1
290
     0
176
     1
290
     0
176
     1
290
     0
176
     1
 90
       50
176
     1
 40
0.0
176
     1
 40
1.0
176
     1
 90
        0
176
     1
 62
    18
420
        0
176
     1
 90
       50
176
     1
 90
        3
176
     1
 62
     5
420
      255
176
     1
290
     0
176
     1
 90
       50
176
     1
 90
       50
176
     1
 90
       50
176
     1
290
     0
176
     1
 90
       50
176
     1
 62
   256
176
     0
 40
1.0
176
     0
 90
        2
176
     1
  1
strokes_ogs.tif
176
     1
290
     0
176
     1
 40
1.0
176
     1
 40
1.0
176
     1
  0
VISUALSTYLE
  5
3B
102
{ACAD_REACTORS
330
2A
102
}
330
2A
100
AcDbVisualStyle
  2
JitterOff
 70
    20
177
     3
291
     1
 70
    58
 90
        2
176
     0
 90
        2
176
     0
 90
        0
176
     0
 90
        0
176
     0
 40
0.6
176
     0
 40
30.0
176
     0
 62
     7
420
 16777215
176
     0
 90
        1
176
     0
 90
        4
176
     0
 62
     7
176
     0
 62
   257
176
     0
 90
        1
176
     0
 90
        1
176
     0
 40
1.0
176
     0
 90
       10
176
     2
 62
     7
176
     0
 40
1.0
176
     0
 90
        1
176
     0
 90
        6
176
     0
 90
        2
176
     0
 62
     7
176
     0
 90
        5
176
     0
 90
        0
176
     0
 90
        0
176
     0
290
     0
176
     0
 90
        1
176
     0
 40
0.0
176
     0
 90
        0
176
     0
290
     0
176
     0
290
     1
176
     0
290
     1
176
     0
290
     0
176
     0
290
     0
176
     0
290
     0
176
     0
290
     0
176
     0
290
     0
176
     0
290
     0
176
     0
 90
       50
176
     0
 40
0.0
176
     0
 40
1.0
176
     0
 90
        0
176
     0
 62
    18
420
        0
176
     0
 90
       50
176
     0
 90
        3
176
     0
 62
     5
420
      255
176
     0
290
     0
176
     0
 90
       50
176
     0
 90
       50
176
     0
 90
       50
176
     0
290
     0
176
     0
 90
       50
176
     0
 62
   256
176
     0
 40
1.0
176
     0
 90
        2
176
     0
  1
strokes_ogs.tif
176
     0
290
     0
176
     0
 40
1.0
176
     0
 40
1.0
176
     0
  0
VISUALSTYLE
  5
38
102
{ACAD_REACTORS
330
2A
102
}
330
2A
100
AcDbVisualStyle
  2
Linepattern
 70
    14
177
     3
291
     1
 70
    58
 90
        2
176
     1
 90
        2
176
     1
 90
        0
176
     1
 90
        0
176
     1
 40
0.6
176
     1
 40
30.0
176
     1
 62
     7
420
 16777215
176
     1
 90
        1
176
     1
 90
        4
176
     1
 62
     7
176
     1
 62
   257
176
     1
 90
        7
176
     1
 90
        7
176
     1
 40
1.0
176
     1
 90
        8
176
     1
 62
     7
176
     1
 40
1.0
176
     1
 90
        1
176
     1
 90
        6
176
     1
 90
        2
176
     1
 62
     7
176
     1
 90
        5
176
     1
 90
        0
176
     1
 90
        0
176
     1
290
     0
176
     1
 90
        1
176
     1
 40
0.0
176
     1
 90
        0
176
     1
290
     0
176
     1
290
     1
176
     1
290
     1
176
     1
290
     0
176
     1
290
     0
176
     1
290
     0
176
     1
290
     0
176
     1
290
     0
176
     1
290
     0
176
     1
 90
       50
176
     1
 40
0.0
176
     1
 40
1.0
176
     1
 90
        0
176
     1
 62
    18
420
        0
176
     1
 90
       50
176
     1
 90
        3
176
     1
 62
     5
420
      255
176
     1
290
     0
176
     1
 90
       50
176
     1
 90
       50
176
     1
 90
       50
176
     1
290
     0
176
     1
 90
       50
176
     1
 62
   256
176
     0
 40
1.0
176
     0
 90
        2
176
     1
  1
strokes_ogs.tif
176
     1
290
     0
176
     1
 40
1.0
176
     1
 40
1.0
176
     1
  0
VISUALSTYLE
  5
3C
102
{ACAD_REACTORS
330
2A
102
}
330
2A
100
AcDbVisualStyle
  2
OverhangOff
 70
    21
177
     3
291
     1
 70
    58
 90
        2
176
     0
 90
        2
176
     0
 90
        0
176
     0
 90
        0
176
     0
 40
0.6
176
     0
 40
30.0
176
     0
 62
     7
420
 16777215
176
     0
 90
        1
176
     0
 90
        4
176
     0
 62
     7
176
     0
 62
   257
176
     0
 90
        1
176
     0
 90
        1
176
     0
 40
1.0
176
     0
 90
        9
176
     2
 62
     7
176
     0
 40
1.0
176
     0
 90
        1
176
     0
 90
        6
176
     0
 90
        2
176
     0
 62
     7
176
     0
 90
        5
176
     0
 90
        0
176
     0
 90
        0
176
     0
290
     0
176
     0
 90
        1
176
     0
 40
0.0
176
     0
 90
        0
176
     0
290
     0
176
     0
290
     1
176
     0
290
     1
176
     0
290
     0
176
     0
290
     0
176
     0
290
     0
176
     0
290
     0
176
     0
290
     0
176
     0
290
     0
176
     0
 90
       50
176
     0
 40
0.0
176
     0
 40
1.0
176
     0
 90
        0
176
     0
 62
    18
420
        0
176
     0
 90
       50
176
     0
 90
        3
176
     0
 62
     5
420
      255
176
     0
290
     0
176
     0
 90
       50
176
     0
 90
       50
176
     0
 90
       50
176
     0
290
     0
176
     0
 90
       50
176
     0
 62
   256
176
     0
 40
1.0
176
     0
 90
        2
176
     0
  1
strokes_ogs.tif
176
     0
290
     0
176
     0
 40
1.0
176
     0
 40
1.0
176
     0
  0
VISUALSTYLE
  5
33
102
{ACAD_REACTORS
330
2A
102
}
330
2A
100
AcDbVisualStyle
  2
Realistic
 70
     8
177
     3
291
     0
 70
    58
 90
        2
176
     1
 90
        3
176
     1
 90
        0
176
     1
 90
        2
176
     1
 40
0.6
176
     1
 40
30.0
176
     1
 62
     7
420
 16777215
176
     1
 90
        0
176
     1
 90
        0
176
     1
 62
     7
176
     1
 62
   257
176
     1
 90
        1
176
     1
 90
        1
176
     1
 40
1.0
176
     1
 90
        8
176
     1
 62
   257
176
     1
 40
1.0
176
     1
 90
        1
176
     1
 90
        6
176
     1
 90
        2
176
     1
 62
     7
176
     1
 90
        3
176
     1
 90
        0
176
     1
 90
        0
176
     1
290
     0
176
     1
 90
       13
176
     1
 40
0.0
176
     1
 90
        0
176
     1
290
     0
176
     1
290
     1
176
     1
290
     1
176
     1
290
     0
176
     1
290
     0
176
     1
290
     0
176
     1
290
     0
176
     1
290
     0
176
     1
290
     0
176
     1
 90
       50
176
     1
 40
0.0
176
     1
 40
1.0
176
     1
 90
        0
176
     1
 62
    18
420
        0
176
     1
 90
       50
176
     1
 90
        3
176
     1
 62
     5
420
      255
176
     1
290
     0
176
     1
 90
       50
176
     1
 90
       50
176
     1
 90
       50
176
     1
290
     0
176
     1
 90
       50
176
     1
 62
   256
176
     0
 40
1.0
176
     0
 90
        2
176
     1
  1
strokes_ogs.tif
176
     1
290
     0
176
     1
 40
1.0
176
     1
 40
1.0
176
     1
  0
VISUALSTYLE
  5
42
102
{ACAD_REACTORS
330
2A
102
}
330
2A
100
AcDbVisualStyle
  2
Shaded
 70
    27
177
     3
291
     0
 70
    58
 90
        2
176
     1
 90
        2
176
     1
 90
        1
176
     1
 90
        2
176
     1
 40
0.6
176
     1
 40
30.0
176
     1
 62
     7
420
 16777215
176
     1
 90
        0
176
     1
 90
        4
176
     1
 62
     7
176
     1
 62
   257
176
     1
 90
        1
176
     1
 90
        1
176
     1
 40
1.0
176
     1
 90
        8
176
     1
 62
   257
176
     1
 40
1.0
176
     1
 90
        1
176
     1
 90
        6
176
     1
 90
        2
176
     1
 62
     8
420
  7895160
176
     1
 90
        3
176
     1
 90
        0
176
     1
 90
        0
176
     1
290
     0
176
     1
 90
        5
176
     1
 40
0.0
176
     1
 90
        0
176
     1
290
     0
176
     1
290
     1
176
     1
290
     1
176
     1
290
     0
176
     1
290
     0
176
     1
290
     0
176
     1
290
     0
176
     1
290
     0
176
     1
290
     0
176
     1
 90
       50
176
     1
 40
0.0
176
     1
 40
1.0
176
     1
 90
        0
176
     1
 62
    18
420
        0
176
     1
 90
       50
176
     1
 90
        3
176
     1
 62
     5
420
      255
176
     1
290
     0
176
     1
 90
       50
176
     1
 90
       50
176
     1
 90
       50
176
     1
290
     0
176
     1
 90
       50
176
     1
 62
   256
176
     0
 40
1.0
176
     0
 90
        2
176
     1
  1
strokes_ogs.tif
176
     1
290
     0
176
     1
 40
1.0
176
     1
 40
1.0
176
     1
  0
VISUALSTYLE
  5
41
102
{ACAD_REACTORS
330
2A
102
}
330
2A
100
AcDbVisualStyle
  2
Shaded with edges
 70
    26
177
     3
291
     0
 70
    58
 90
        2
176
     1
 90
        2
176
     1
 90
        1
176
     1
 90
        2
176
     1
 40
0.6
176
     1
 40
30.0
176
     1
 62
     7
420
 16777215
176
     1
 90
        1
176
     1
 90
       10
176
     1
 62
     7
176
     1
 62
   257
176
     1
 90
        2
176
     1
 90
        1
176
     1
 40
1.0
176
     1
 90
        8
176
     1
 62
   257
176
     1
 40
1.0
176
     1
 90
        1
176
     1
 90
        6
176
     1
 90
        2
176
     1
 62
     7
176
     1
 90
        3
176
     1
 90
        0
176
     1
 90
        0
176
     1
290
     0
176
     1
 90
        5
176
     1
 40
0.0
176
     1
 90
        0
176
     1
290
     0
176
     1
290
     1
176
     1
290
     1
176
     1
290
     0
176
     1
290
     0
176
     1
290
     0
176
     1
290
     0
176
     1
290
     0
176
     1
290
     0
176
     1
 90
       50
176
     1
 40
0.0
176
     1
 40
1.0
176
     1
 90
        0
176
     1
 62
    18
420
        0
176
     1
 90
       50
176
     1
 90
        3
176
     1
 62
     5
420
      255
176
     1
290
     0
176
     1
 90
       50
176
     1
 90
       50
176
     1
 90
       50
176
     1
290
     0
176
     1
 90
       50
176
     1
 62
   256
176
     0
 40
1.0
176
     0
 90
        2
176
     1
  1
strokes_ogs.tif
176
     1
290
     0
176
     1
 40
1.0
176
     1
 40
1.0
176
     1
  0
VISUALSTYLE
  5
3E
102
{ACAD_REACTORS
330
2A
102
}
330
2A
100
AcDbVisualStyle
  2
Shades of Gray
 70
    23
177
     3
291
     0
 70
    58
 90
        2
176
     1
 90
        2
176
     1
 90
        3
176
     1
 90
        0
176
     1
 40
0.6
176
     1
 40
30.0
176
     1
 62
     7
420
 16777215
176
     1
 90
        2
176
     1
 90
        2
176
     1
 62
     7
176
     1
 62
     7
176
     1
 90
        1
176
     1
 90
        1
176
     1
 40
40.0
176
     1
 90
        8
176
     1
 62
     7
176
     1
 40
1.0
176
     1
 90
        1
176
     1
 90
        6
176
     1
 90
        2
176
     1
 62
     7
176
     1
 90
        3
176
     1
 90
        0
176
     1
 90
        0
176
     1
290
     0
176
     1
 90
        1
176
     1
 40
0.0
176
     1
 90
        0
176
     1
290
     0
176
     1
290
     1
176
     1
290
     1
176
     1
290
     0
176
     1
290
     0
176
     1
290
     0
176
     1
290
     0
176
     1
290
     0
176
     1
290
     0
176
     1
 90
       50
176
     1
 40
0.0
176
     1
 40
1.0
176
     1
 90
        0
176
     1
 62
    18
420
        0
176
     1
 90
       50
176
     1
 90
        3
176
     1
 62
     5
420
      255
176
     1
290
     0
176
     1
 90
       50
176
     1
 90
       50
176
     1
 90
       50
176
     1
290
     0
176
     1
 90
       50
176
     1
 62
   256
176
     0
 40
1.0
176
     0
 90
        2
176
     1
  1
strokes_ogs.tif
176
     1
290
     0
176
     1
 40
1.0
176
     1
 40
1.0
176
     1
  0
VISUALSTYLE
  5
3F
102
{ACAD_REACTORS
330
2A
102
}
330
2A
100
AcDbVisualStyle
  2
Sketchy
 70
    24
177
     3
291
     0
 70
    58
 90
        1
176
     1
 90
        2
176
     1
 90
        2
176
     1
 90
        0
176
     1
 40
0.6
176
     1
 40
30.0
176
     1
 62
     7
420
 16777215
176
     1
 90
        2
176
     1
 90
        2
176
     1
 62
     7
176
     1
 62
     7
176
     1
 90
        1
176
     1
 90
        1
176
     1
 40
40.0
176
     1
 90
       11
176
     1
 62
     7
176
     1
 40
1.0
176
     1
 90
        1
176
     1
 90
        6
176
     1
 90
        2
176
     1
 62
     7
176
     1
 90
        6
176
     1
 90
        0
176
     1
 90
        0
176
     1
290
     0
176
     1
 90
        1
176
     1
 40
0.0
176
     1
 90
        0
176
     1
290
     0
176
     1
290
     1
176
     1
290
     1
176
     1
290
     0
176
     1
290
     0
176
     1
290
     0
176
     1
290
     0
176
     1
290
     0
176
     1
290
     0
176
     1
 90
       50
176
     1
 40
0.0
176
     1
 40
1.0
176
     1
 90
        0
176
     1
 62
    18
420
        0
176
     1
 90
       50
176
     1
 90
        3
176
     1
 62
     5
420
      255
176
     1
290
     0
176
     1
 90
       50
176
     1
 90
       50
176
     1
 90
       50
176
     1
290
     0
176
     1
 90
       50
176
     1
 62
   256
176
     0
 40
1.0
176
     0
 90
        2
176
     1
  1
strokes_ogs.tif
176
     1
290
     0
176
     1
 40
1.0
176
     1
 40
1.0
176
     1
  0
VISUALSTYLE
  5
37
102
{ACAD_REACTORS
330
2A
102
}
330
2A
100
AcDbVisualStyle
  2
Thicken
 70
    13
177
     3
291
     1
 70
    58
 90
        2
176
     1
 90
        2
176
     1
 90
        0
176
     1
 90
        0
176
     1
 40
0.6
176
     1
 40
30.0
176
     1
 62
     7
420
 16777215
176
     1
 90
        1
176
     1
 90
        4
176
     1
 62
     7
176
     1
 62
   257
176
     1
 90
        1
176
     1
 90
        1
176
     1
 40
1.0
176
     1
 90
       12
176
     1
 62
     7
176
     1
 40
1.0
176
     1
 90
        1
176
     1
 90
        6
176
     1
 90
        2
176
     1
 62
     7
176
     1
 90
        5
176
     1
 90
        0
176
     1
 90
        0
176
     1
290
     0
176
     1
 90
        1
176
     1
 40
0.0
176
     1
 90
        0
176
     1
290
     0
176
     1
290
     1
176
     1
290
     1
176
     1
290
     0
176
     1
290
     0
176
     1
290
     0
176
     1
290
     0
176
     1
290
     0
176
     1
290
     0
176
     1
 90
       50
176
     1
 40
0.0
176
     1
 40
1.0
176
     1
 90
        0
176
     1
 62
    18
420
        0
176
     1
 90
       50
176
     1
 90
        3
176
     1
 62
     5
420
      255
176
     1
290
     0
176
     1
 90
       50
176
     1
 90
       50
176
     1
 90
       50
176
     1
290
     0
176
     1
 90
       50
176
     1
 62
   256
176
     0
 40
1.0
176
     0
 90
        2
176
     1
  1
strokes_ogs.tif
176
     1
290
     0
176
     1
 40
1.0
176
     1
 40
1.0
176
     1
  0
VISUALSTYLE
  5
30
102
{ACAD_REACTORS
330
2A
102
}
330
2A
100
AcDbVisualStyle
  2
Wireframe
 70
     5
177
     3
291
     0
 70
    58
 90
        0
176
     1
 90
        2
176
     1
 90
        0
176
     1
 90
        0
176
     1
 40
0.6
176
     1
 40
30.0
176
     1
 62
     7
420
 16777215
176
     1
 90
        1
176
     1
 90
        4
176
     1
 62
     7
176
     1
 62
   257
176
     1
 90
        1
176
     1
 90
        1
176
     1
 40
1.0
176
     1
 90
        0
176
     1
 62
   257
176
     1
 40
1.0
176
     1
 90
        1
176
     1
 90
        6
176
     1
 90
        2
176
     1
 62
     7
176
     1
 90
        3
176
     1
 90
        0
176
     1
 90
        0
176
     1
290
     0
176
     1
 90
        1
176
     1
 40
0.0
176
     1
 90
        0
176
     1
290
     0
176
     1
290
     1
176
     1
290
     1
176
     1
290
     0
176
     1
290
     0
176
     1
290
     0
176
     1
290
     0
176
     1
290
     0
176
     1
290
     0
176
     1
 90
       50
176
     1
 40
0.0
176
     1
 40
1.0
176
     1
 90
        0
176
     1
 62
    18
420
        0
176
     1
 90
       50
176
     1
 90
        3
176
     1
 62
     5
420
      255
176
     1
290
     0
176
     1
 90
       50
176
     1
 90
       50
176
     1
 90
       50
176
     1
290
     0
176
     1
 90
       50
176
     1
 62
   256
176
     0
 40
1.0
176
     0
 90
        2
176
     1
  1
strokes_ogs.tif
176
     1
290
     0
176
     1
 40
1.0
176
     1
 40
1.0
176
     1
  0
VISUALSTYLE
  5
40
102
{ACAD_REACTORS
330
2A
102
}
330
2A
100
AcDbVisualStyle
  2
X-Ray
 70
    25
177
     3
291
     0
 70
    58
 90
        2
176
     1
 90
        2
176
     1
 90
        1
176
     1
 90
        1
176
     1
 40
0.5
176
     1
 40
30.0
176
     1
 62
     7
420
 16777215
176
     1
 90
        1
176
     1
 90
        0
176
     1
 62
     7
176
     1
 62
   257
176
     1
 90
        1
176
     1
 90
        1
176
     1
 40
1.0
176
     1
 90
        8
176
     1
 62
     7
176
     1
 40
1.0
176
     1
 90
        1
176
     1
 90
        6
176
     1
 90
        2
176
     1
 62
     7
176
     1
 90
        3
176
     1
 90
        0
176
     1
 90
        0
176
     1
290
     0
176
     1
 90
       13
176
     1
 40
0.0
176
     1
 90
        0
176
     1
290
     0
176
     1
290
     1
176
     1
290
     1
176
     1
290
     0
176
     1
290
     0
176
     1
290
     0
176
     1
290
     0
176
     1
290
     0
176
     1
290
     0
176
     1
 90
       50
176
     1
 40
0.0
176
     1
 40
1.0
176
     1
 90
        0
176
     1
 62
    18
420
        0
176
     1
 90
       50
176
     1
 90
        3
176
     1
 62
     5
420
      255
176
     1
290
     0
176
     1
 90
       50
176
     1
 90
       50
176
     1
 90
       50
176
     1
290
     0
176
     1
 90
       50
176
     1
 62
   256
176
     0
 40
1.0
176
     0
 90
        2
176
     1
  1
strokes_ogs.tif
176
     1
290
     0
176
     1
 40
1.0
176
     1
 40
1.0
176
     1
  0
DICTIONARYVAR
  5
19A
102
{ACAD_REACTORS
330
199
102
}
330
199
100
DictionaryVariables
280
     0
  1
1:1
  0
DICTIONARYVAR
  5
19F
102
{ACAD_REACTORS
330
199
102
}
330
199
100
DictionaryVariables
280
     0
  1
Standard
  0
DICTIONARYVAR
  5
19E
102
{ACAD_REACTORS
330
199
102
}
330
199
100
DictionaryVariables
280
     0
  1
Standard
  0
DICTIONARY
  5
19B
330
6A
100
AcDbDictionary
280
     1
281
     1
  3
ACAD_ROUNDTRIP_2008_TABLESTYLE_CELLSTYLEMAP
360
19C
  0
CELLSTYLEMAP
  5
19C
102
{ACAD_REACTORS
330
19B
102
}
330
19B
100
AcDbCellStyleMap
 90
        3
300
CELLSTYLE
  1
TABLEFORMAT_BEGIN
 90
        5
170
     1
 91
        0
 92
    32768
 62
   257
 93
        1
300
CONTENTFORMAT
  1
CONTENTFORMAT_BEGIN
 90
        0
 91
        0
 92
        4
 93
        0
300

 40
0.0
140
1.0
 94
        5
 62
     0
340
11
144
0.25
309
CONTENTFORMAT_END
171
     1
301
MARGIN
  1
CELLMARGIN_BEGIN
 40
0.06
 40
0.06
 40
0.06
 40
0.06
 40
0.06
 40
0.06
309
CELLMARGIN_END
 94
        6
 95
        1
302
GRIDFORMAT
  1
GRIDFORMAT_BEGIN
 90
        0
 91
        1
 62
     0
 92
       -2
340
14
 93
        0
 40
0.045
309
GRIDFORMAT_END
 95
        2
302
GRIDFORMAT
  1
GRIDFORMAT_BEGIN
 90
        0
 91
        1
 62
     0
 92
       -2
340
14
 93
        0
 40
0.045
309
GRIDFORMAT_END
 95
        4
302
GRIDFORMAT
  1
GRIDFORMAT_BEGIN
 90
        0
 91
        1
 62
     0
 92
       -2
340
14
 93
        0
 40
0.045
309
GRIDFORMAT_END
 95
        8
302
GRIDFORMAT
  1
GRIDFORMAT_BEGIN
 90
        0
 91
        1
 62
     0
 92
       -2
340
14
 93
        0
 40
0.045
309
GRIDFORMAT_END
 95
       16
302
GRIDFORMAT
  1
GRIDFORMAT_BEGIN
 90
        0
 91
        1
 62
     0
 92
       -2
340
14
 93
        0
 40
0.045
309
GRIDFORMAT_END
 95
       32
302
GRIDFORMAT
  1
GRIDFORMAT_BEGIN
 90
        0
 91
        1
 62
     0
 92
       -2
340
14
 93
        0
 40
0.045
309
GRIDFORMAT_END
309
TABLEFORMAT_END
  1
CELLSTYLE_BEGIN
 90
        1
 91
        1
300
_TITLE
309
CELLSTYLE_END
300
CELLSTYLE
  1
TABLEFORMAT_BEGIN
 90
        5
170
     1
 91
        0
 92
        0
 62
   257
 93
        1
300
CONTENTFORMAT
  1
CONTENTFORMAT_BEGIN
 90
        0
 91
        0
 92
        4
 93
        0
300

 40
0.0
140
1.0
 94
        5
 62
     0
340
11
144
0.18
309
CONTENTFORMAT_END
171
     1
301
MARGIN
  1
CELLMARGIN_BEGIN
 40
0.06
 40
0.06
 40
0.06
 40
0.06
 40
0.06
 40
0.06
309
CELLMARGIN_END
 94
        6
 95
        1
302
GRIDFORMAT
  1
GRIDFORMAT_BEGIN
 90
        0
 91
        1
 62
     0
 92
       -2
340
14
 93
        0
 40
0.045
309
GRIDFORMAT_END
 95
        2
302
GRIDFORMAT
  1
GRIDFORMAT_BEGIN
 90
        0
 91
        1
 62
     0
 92
       -2
340
14
 93
        0
 40
0.045
309
GRIDFORMAT_END
 95
        4
302
GRIDFORMAT
  1
GRIDFORMAT_BEGIN
 90
        0
 91
        1
 62
     0
 92
       -2
340
14
 93
        0
 40
0.045
309
GRIDFORMAT_END
 95
        8
302
GRIDFORMAT
  1
GRIDFORMAT_BEGIN
 90
        0
 91
        1
 62
     0
 92
       -2
340
14
 93
        0
 40
0.045
309
GRIDFORMAT_END
 95
       16
302
GRIDFORMAT
  1
GRIDFORMAT_BEGIN
 90
        0
 91
        1
 62
     0
 92
       -2
340
14
 93
        0
 40
0.045
309
GRIDFORMAT_END
 95
       32
302
GRIDFORMAT
  1
GRIDFORMAT_BEGIN
 90
        0
 91
        1
 62
     0
 92
       -2
340
14
 93
        0
 40
0.045
309
GRIDFORMAT_END
309
TABLEFORMAT_END
  1
CELLSTYLE_BEGIN
 90
        2
 91
        1
300
_HEADER
309
CELLSTYLE_END
300
CELLSTYLE
  1
TABLEFORMAT_BEGIN
 90
        5
170
     1
 91
        0
 92
        0
 62
   257
 93
        1
300
CONTENTFORMAT
  1
CONTENTFORMAT_BEGIN
 90
        0
 91
        0
 92
        4
 93
        0
300

 40
0.0
140
1.0
 94
        2
 62
     0
340
11
144
0.18
309
CONTENTFORMAT_END
171
     1
301
MARGIN
  1
CELLMARGIN_BEGIN
 40
0.06
 40
0.06
 40
0.06
 40
0.06
 40
0.06
 40
0.06
309
CELLMARGIN_END
 94
        6
 95
        1
302
GRIDFORMAT
  1
GRIDFORMAT_BEGIN
 90
        0
 91
        1
 62
     0
 92
       -2
340
14
 93
        0
 40
0.045
309
GRIDFORMAT_END
 95
        2
302
GRIDFORMAT
  1
GRIDFORMAT_BEGIN
 90
        0
 91
        1
 62
     0
 92
       -2
340
14
 93
        0
 40
0.045
309
GRIDFORMAT_END
 95
        4
302
GRIDFORMAT
  1
GRIDFORMAT_BEGIN
 90
        0
 91
        1
 62
     0
 92
       -2
340
14
 93
        0
 40
0.045
309
GRIDFORMAT_END
 95
        8
302
GRIDFORMAT
  1
GRIDFORMAT_BEGIN
 90
        0
 91
        1
 62
     0
 92
       -2
340
14
 93
        0
 40
0.045
309
GRIDFORMAT_END
 95
       16
302
GRIDFORMAT
  1
GRIDFORMAT_BEGIN
 90
        0
 91
        1
 62
     0
 92
       -2
340
14
 93
        0
 40
0.045
309
GRIDFORMAT_END
 95
       32
302
GRIDFORMAT
  1
GRIDFORMAT_BEGIN
 90
        0
 91
        1
 62
     0
 92
       -2
340
14
 93
        0
 40
0.045
309
GRIDFORMAT_END
309
TABLEFORMAT_END
  1
CELLSTYLE_BEGIN
 90
        3
 91
        2
300
_DATA
309
CELLSTYLE_END
  0
ENDSEC
  0
EOF