0
SECTION
  2
HEADER
  9
$ACADVER
  1
AC1027
  9
$ACADMAINTVER
 70
     8
  9
$DWGCODEPAGE
  3
ANSI_1252
  9
$REQUIREDVERSIONS
160
                 0
  9
$COMMENTS
  1
File was created by Cadenas
  9
$CUSTOMPROPERTYTAG
  1
NN
  9
$CUSTOMPROPERTY
  1
Special Duty Flange Bearing - Inch - Gray Iron Non-Expansion
  9
$CUSTOMPROPERTYTAG
  1
NT
  9
$CUSTOMPROPERTY
  1
Special Duty
  9
$CUSTOMPROPERTYTAG
  1
NB
  9
$CUSTOMPROPERTY
  1
104003
  9
$CUSTOMPROPERTYTAG
  1
NBSYN
  9
$CUSTOMPROPERTY
  1
$PN.
  9
$CUSTOMPROPERTYTAG
  1
LINA
  9
$CUSTOMPROPERTY
  1
104003
  9
$CUSTOMPROPERTYTAG
  1
SS
  9
$CUSTOMPROPERTY
  1
4
  9
$CUSTOMPROPERTYTAG
  1
PN
  9
$CUSTOMPROPERTY
  1
104003
  9
$CUSTOMPROPERTYTAG
  1
TYPE
  9
$CUSTOMPROPERTY
  1
Gray Iron Expansion
  9
$CUSTOMPROPERTYTAG
  1
DESCRIPTION
  9
$CUSTOMPROPERTY
  1
F4B-SD-400E
  9
$CUSTOMPROPERTYTAG
  1
WEIGHT
  9
$CUSTOMPROPERTY
  1
234
  9
$CUSTOMPROPERTYTAG
  1
A
  9
$CUSTOMPROPERTY
  1
8-1/2
  9
$CUSTOMPROPERTYTAG
  1
B
  9
$CUSTOMPROPERTY
  1
18
  9
$CUSTOMPROPERTYTAG
  1
C
  9
$CUSTOMPROPERTY
  1
6-3/4
  9
$CUSTOMPROPERTYTAG
  1
D
  9
$CUSTOMPROPERTY
  1
15-3/4
  9
$CUSTOMPROPERTYTAG
  1
E
  9
$CUSTOMPROPERTY
  1
0.87500
  9
$CUSTOMPROPERTYTAG
  1
F
  9
$CUSTOMPROPERTY
  1
1
  9
$CUSTOMPROPERTYTAG
  1
H
  9
$CUSTOMPROPERTY
  1
1-1/4
  9
$CUSTOMPROPERTYTAG
  1
J
  9
$CUSTOMPROPERTY
  1
11.137
  9
$CUSTOMPROPERTYTAG
  1
L
  9
$CUSTOMPROPERTY
  1
6-1/4
  9
$CUSTOMPROPERTYTAG
  1
EXP
  9
$CUSTOMPROPERTY
  1
1/4
  9
$CUSTOMPROPERTYTAG
  1
COMPANY
  9
$CUSTOMPROPERTY
  1
baldor
  9
$INSBASE
 10
0.0
 20
0.0
 30
0.0
  9
$EXTMIN
 10
1.000000000000000E+20
 20
1.000000000000000E+20
 30
1.000000000000000E+20
  9
$EXTMAX
 10
-1.000000000000000E+20
 20
-1.000000000000000E+20
 30
-1.000000000000000E+20
  9
$LIMMIN
 10
0.0
 20
0.0
  9
$LIMMAX
 10
12.0
 20
9.0
  9
$ORTHOMODE
 70
     0
  9
$REGENMODE
 70
     1
  9
$FILLMODE
 70
     1
  9
$QTEXTMODE
 70
     0
  9
$MIRRTEXT
 70
     1
  9
$LTSCALE
 40
1.0
  9
$ATTMODE
 70
     1
  9
$TEXTSIZE
 40
0.2
  9
$TRACEWID
 40
0.05
  9
$TEXTSTYLE
  7
Standard
  9
$CLAYER
  8
0
  9
$CELTYPE
  6
ByLayer
  9
$CECOLOR
 62
   256
  9
$CELTSCALE
 40
1.0
  9
$DISPSILH
 70
     0
  9
$DIMSCALE
 40
1.0
  9
$DIMASZ
 40
0.18
  9
$DIMEXO
 40
0.0625
  9
$DIMDLI
 40
0.38
  9
$DIMRND
 40
0.0
  9
$DIMDLE
 40
0.0
  9
$DIMEXE
 40
0.18
  9
$DIMTP
 40
0.0
  9
$DIMTM
 40
0.0
  9
$DIMTXT
 40
0.18
  9
$DIMCEN
 40
0.09
  9
$DIMTSZ
 40
0.0
  9
$DIMTOL
 70
     0
  9
$DIMLIM
 70
     0
  9
$DIMTIH
 70
     1
  9
$DIMTOH
 70
     1
  9
$DIMSE1
 70
     0
  9
$DIMSE2
 70
     0
  9
$DIMTAD
 70
     0
  9
$DIMZIN
 70
     0
  9
$DIMBLK
  1

  9
$DIMASO
 70
     1
  9
$DIMSHO
 70
     1
  9
$DIMPOST
  1

  9
$DIMAPOST
  1

  9
$DIMALT
 70
     0
  9
$DIMALTD
 70
     2
  9
$DIMALTF
 40
25.4
  9
$DIMLFAC
 40
1.0
  9
$DIMTOFL
 70
     0
  9
$DIMTVP
 40
0.0
  9
$DIMTIX
 70
     0
  9
$DIMSOXD
 70
     0
  9
$DIMSAH
 70
     0
  9
$DIMBLK1
  1

  9
$DIMBLK2
  1

  9
$DIMSTYLE
  2
Standard
  9
$DIMCLRD
 70
     0
  9
$DIMCLRE
 70
     0
  9
$DIMCLRT
 70
     0
  9
$DIMTFAC
 40
1.0
  9
$DIMGAP
 40
0.09
  9
$DIMJUST
 70
     0
  9
$DIMSD1
 70
     0
  9
$DIMSD2
 70
     0
  9
$DIMTOLJ
 70
     1
  9
$DIMTZIN
 70
     0
  9
$DIMALTZ
 70
     0
  9
$DIMALTTZ
 70
     0
  9
$DIMUPT
 70
     0
  9
$DIMDEC
 70
     4
  9
$DIMTDEC
 70
     4
  9
$DIMALTU
 70
     2
  9
$DIMALTTD
 70
     2
  9
$DIMTXSTY
  7
Standard
  9
$DIMAUNIT
 70
     0
  9
$DIMADEC
 70
     0
  9
$DIMALTRND
 40
0.0
  9
$DIMAZIN
 70
     0
  9
$DIMDSEP
 70
    46
  9
$DIMATFIT
 70
     3
  9
$DIMFRAC
 70
     0
  9
$DIMLDRBLK
  1

  9
$DIMLUNIT
 70
     2
  9
$DIMLWD
 70
    -2
  9
$DIMLWE
 70
    -2
  9
$DIMTMOVE
 70
     0
  9
$DIMFXL
 40
1.0
  9
$DIMFXLON
 70
     0
  9
$DIMJOGANG
 40
0.7853981633974483
  9
$DIMTFILL
 70
     0
  9
$DIMTFILLCLR
 70
     0
  9
$DIMARCSYM
 70
     0
  9
$DIMLTYPE
  6

  9
$DIMLTEX1
  6

  9
$DIMLTEX2
  6

  9
$DIMTXTDIRECTION
 70
     0
  9
$LUNITS
 70
     2
  9
$LUPREC
 70
     4
  9
$SKETCHINC
 40
0.1
  9
$FILLETRAD
 40
0.5
  9
$AUNITS
 70
     0
  9
$AUPREC
 70
     0
  9
$MENU
  1
.
  9
$ELEVATION
 40
0.0
  9
$PELEVATION
 40
0.0
  9
$THICKNESS
 40
0.0
  9
$LIMCHECK
 70
     0
  9
$CHAMFERA
 40
0.0
  9
$CHAMFERB
 40
0.0
  9
$CHAMFERC
 40
0.0
  9
$CHAMFERD
 40
0.0
  9
$SKPOLY
 70
     0
  9
$TDCREATE
 40
2458169.013041273
  9
$TDUCREATE
 40
2458168.971374607
  9
$TDUPDATE
 40
2458169.013041447
  9
$TDUUPDATE
 40
2458168.97137478
  9
$TDINDWG
 40
0.0000000116
  9
$TDUSRTIMER
 40
0.0000000116
  9
$USRTIMER
 70
     1
  9
$ANGBASE
 50
0.0
  9
$ANGDIR
 70
     0
  9
$PDMODE
 70
     0
  9
$PDSIZE
 40
0.0
  9
$PLINEWID
 40
0.0
  9
$SPLFRAME
 70
     0
  9
$SPLINETYPE
 70
     6
  9
$SPLINESEGS
 70
     8
  9
$HANDSEED
  5
197
  9
$SURFTAB1
 70
     6
  9
$SURFTAB2
 70
     6
  9
$SURFTYPE
 70
     6
  9
$SURFU
 70
     6
  9
$SURFV
 70
     6
  9
$UCSBASE
  2

  9
$UCSNAME
  2

  9
$UCSORG
 10
0.0
 20
0.0
 30
0.0
  9
$UCSXDIR
 10
1.0
 20
0.0
 30
0.0
  9
$UCSYDIR
 10
0.0
 20
1.0
 30
0.0
  9
$UCSORTHOREF
  2

  9
$UCSORTHOVIEW
 70
     0
  9
$UCSORGTOP
 10
0.0
 20
0.0
 30
0.0
  9
$UCSORGBOTTOM
 10
0.0
 20
0.0
 30
0.0
  9
$UCSORGLEFT
 10
0.0
 20
0.0
 30
0.0
  9
$UCSORGRIGHT
 10
0.0
 20
0.0
 30
0.0
  9
$UCSORGFRONT
 10
0.0
 20
0.0
 30
0.0
  9
$UCSORGBACK
 10
0.0
 20
0.0
 30
0.0
  9
$PUCSBASE
  2

  9
$PUCSNAME
  2

  9
$PUCSORG
 10
0.0
 20
0.0
 30
0.0
  9
$PUCSXDIR
 10
1.0
 20
0.0
 30
0.0
  9
$PUCSYDIR
 10
0.0
 20
1.0
 30
0.0
  9
$PUCSORTHOREF
  2

  9
$PUCSORTHOVIEW
 70
     0
  9
$PUCSORGTOP
 10
0.0
 20
0.0
 30
0.0
  9
$PUCSORGBOTTOM
 10
0.0
 20
0.0
 30
0.0
  9
$PUCSORGLEFT
 10
0.0
 20
0.0
 30
0.0
  9
$PUCSORGRIGHT
 10
0.0
 20
0.0
 30
0.0
  9
$PUCSORGFRONT
 10
0.0
 20
0.0
 30
0.0
  9
$PUCSORGBACK
 10
0.0
 20
0.0
 30
0.0
  9
$USERI1
 70
     0
  9
$USERI2
 70
     0
  9
$USERI3
 70
     0
  9
$USERI4
 70
     0
  9
$USERI5
 70
     0
  9
$USERR1
 40
0.0
  9
$USERR2
 40
0.0
  9
$USERR3
 40
0.0
  9
$USERR4
 40
0.0
  9
$USERR5
 40
0.0
  9
$WORLDVIEW
 70
     1
  9
$SHADEDGE
 70
     3
  9
$SHADEDIF
 70
    70
  9
$TILEMODE
 70
     1
  9
$MAXACTVP
 70
    64
  9
$PINSBASE
 10
0.0
 20
0.0
 30
0.0
  9
$PLIMCHECK
 70
     0
  9
$PEXTMIN
 10
1.000000000000000E+20
 20
1.000000000000000E+20
 30
1.000000000000000E+20
  9
$PEXTMAX
 10
-1.000000000000000E+20
 20
-1.000000000000000E+20
 30
-1.000000000000000E+20
  9
$PLIMMIN
 10
0.0
 20
0.0
  9
$PLIMMAX
 10
12.0
 20
9.0
  9
$UNITMODE
 70
     0
  9
$VISRETAIN
 70
     1
  9
$PLINEGEN
 70
     0
  9
$PSLTSCALE
 70
     1
  9
$TREEDEPTH
 70
  3020
  9
$CMLSTYLE
  2
Standard
  9
$CMLJUST
 70
     0
  9
$CMLSCALE
 40
1.0
  9
$PROXYGRAPHICS
 70
     1
  9
$MEASUREMENT
 70
     0
  9
$CELWEIGHT
370
    -1
  9
$ENDCAPS
280
     0
  9
$JOINSTYLE
280
     0
  9
$LWDISPLAY
290
     0
  9
$INSUNITS
 70
     1
  9
$HYPERLINKBASE
  1

  9
$STYLESHEET
  1

  9
$XEDIT
290
     1
  9
$CEPSNTYPE
380
     0
  9
$PSTYLEMODE
290
     1
  9
$FINGERPRINTGUID
  2
{30013066-6EF4-4442-B3F6-FCC1C3B980E1}
  9
$VERSIONGUID
  2
{FAEB1C32-E019-11D5-929B-00C0DF256EC4}
  9
$EXTNAMES
290
     1
  9
$PSVPSCALE
 40
0.0
  9
$OLESTARTUP
290
     0
  9
$SORTENTS
280
   127
  9
$INDEXCTL
280
     0
  9
$HIDETEXT
280
     1
  9
$XCLIPFRAME
280
     2
  9
$HALOGAP
280
     0
  9
$OBSCOLOR
 70
   257
  9
$OBSLTYPE
280
     0
  9
$INTERSECTIONDISPLAY
280
     0
  9
$INTERSECTIONCOLOR
 70
   257
  9
$DIMASSOC
280
     2
  9
$PROJECTNAME
  1

  9
$CAMERADISPLAY
290
     0
  9
$LENSLENGTH
 40
50.0
  9
$CAMERAHEIGHT
 40
0.0
  9
$STEPSPERSEC
 40
2.0
  9
$STEPSIZE
 40
6.0
  9
$3DDWFPREC
 40
2.0
  9
$PSOLWIDTH
 40
0.25
  9
$PSOLHEIGHT
 40
4.0
  9
$LOFTANG1
 40
1.570796326794897
  9
$LOFTANG2
 40
1.570796326794897
  9
$LOFTMAG1
 40
0.0
  9
$LOFTMAG2
 40
0.0
  9
$LOFTPARAM
 70
     7
  9
$LOFTNORMALS
280
     1
  9
$LATITUDE
 40
37.795
  9
$LONGITUDE
 40
-122.394
  9
$NORTHDIRECTION
 40
0.0
  9
$TIMEZONE
 70
 -8000
  9
$LIGHTGLYPHDISPLAY
280
     1
  9
$TILEMODELIGHTSYNCH
280
     1
  9
$CMATERIAL
347
44
  9
$SOLIDHIST
280
     0
  9
$SHOWHIST
280
     1
  9
$DWFFRAME
280
     2
  9
$DGNFRAME
280
     2
  9
$REALWORLDSCALE
290
     1
  9
$INTERFERECOLOR
 62
   256
  9
$CSHADOW
280
     0
  9
$SHADOWPLANELOCATION
 40
0.0
  0
ENDSEC
  0
SECTION
  2
CLASSES
  0
CLASS
  1
ACDBDICTIONARYWDFLT
  2
AcDbDictionaryWithDefault
  3
ObjectDBX Classes
 90
        0
 91
        4
280
     0
281
     0
  0
CLASS
  1
VISUALSTYLE
  2
AcDbVisualStyle
  3
ObjectDBX Classes
 90
     4095
 91
        4
280
     0
281
     0
  0
CLASS
  1
MATERIAL
  2
AcDbMaterial
  3
ObjectDBX Classes
 90
     1153
 91
        4
280
     0
281
     0
  0
CLASS
  1
SCALE
  2
AcDbScale
  3
ObjectDBX Classes
 90
     1153
 91
        4
280
     0
281
     0
  0
CLASS
  1
TABLESTYLE
  2
AcDbTableStyle
  3
ObjectDBX Classes
 90
     4095
 91
        4
280
     0
281
     0
  0
CLASS
  1
MLEADERSTYLE
  2
AcDbMLeaderStyle
  3
ACDB_MLEADERSTYLE_CLASS
 90
     4095
 91
        4
280
     0
281
     0
  0
CLASS
  1
SUN
  2
AcDbSun
  3
SCENEOE
 90
     1153
 91
        4
280
     0
281
     0
  0
CLASS
  1
DICTIONARYVAR
  2
AcDbDictionaryVar
  3
ObjectDBX Classes
 90
        0
 91
        4
280
     0
281
     0
  0
CLASS
  1
CELLSTYLEMAP
  2
AcDbCellStyleMap
  3
ObjectDBX Classes
 90
     1152
 91
        4
280
     0
281
     0
  0
ENDSEC
  0
SECTION
  2
TABLES
  0
TABLE
  2
VPORT
  5
8
330
0
100
AcDbSymbolTable
 70
     1
  0
VPORT
  5
29
330
8
100
AcDbSymbolTableRecord
100
AcDbViewportTableRecord
  2
*Active
 70
     0
 10
0.0
 20
0.0
 11
1.0
 21
1.0
 12
-0.8500000000000014
 22
0.0
 13
0.0
 23
0.0
 14
0.5
 24
0.5
 15
0.5
 25
0.5
 16
0.0
 26
0.0
 36
1.0
 17
0.0
 27
0.0
 37
0.0
 40
18.35999999999956
 41
0.730555555555573
 42
50.0
 43
0.0
 44
0.0
 50
0.0
 51
0.0
 71
     0
 72
   100
 73
     1
 74
     3
 75
     0
 76
     0
 77
     0
 78
     0
281
     0
 65
     1
110
0.0
120
0.0
130
0.0
111
1.0
121
0.0
131
0.0
112
0.0
122
1.0
132
0.0
 79
     0
146
0.0
348
2F
 60
     3
 61
     5
292
     1
282
     1
141
0.0
142
0.0
 63
   250
361
6D
  0
ENDTAB
  0
TABLE
  2
LTYPE
  5
5
330
0
100
AcDbSymbolTable
 70
     3
  0
LTYPE
  5
14
330
5
100
AcDbSymbolTableRecord
100
AcDbLinetypeTableRecord
  2
ByBlock
 70
     0
  3

 72
    65
 73
     0
 40
0.0
  0
LTYPE
  5
15
330
5
100
AcDbSymbolTableRecord
100
AcDbLinetypeTableRecord
  2
ByLayer
 70
     0
  3

 72
    65
 73
     0
 40
0.0
  0
LTYPE
  5
16
330
5
100
AcDbSymbolTableRecord
100
AcDbLinetypeTableRecord
  2
Continuous
 70
     0
  3
Solid line
 72
    65
 73
     0
 40
0.0
  0
LTYPE
  5
A7
330
5
100
AcDbSymbolTableRecord
100
AcDbLinetypeTableRecord
  2
Dashed
 70
     0
  3

 72
    65
 73
     2
 40
2.0
 49
1.0
 74
     0
 49
-1.0
 74
     0
  0
LTYPE
  5
122
330
5
100
AcDbSymbolTableRecord
100
AcDbLinetypeTableRecord
  2
Center
 70
     0
  3

 72
    65
 73
     4
 40
1.5
 49
0.45
 74
     0
 49
-0.5
 74
     0
 49
0.05
 74
     0
 49
-0.5
 74
     0
  0
ENDTAB
  0
TABLE
  2
LAYER
  5
2
330
0
100
AcDbSymbolTable
 70
     7
  0
LAYER
  5
10
330
2
100
AcDbSymbolTableRecord
100
AcDbLayerTableRecord
  2
0
 70
     0
 62
     7
  6
Continuous
370
    -3
390
F
347
46
348
0
  0
LAYER
  5
72
330
2
100
AcDbSymbolTableRecord
100
AcDbLayerTableRecord
  2
AM_6
 70
     0
 62
    -2
  6
Continuous
370
    35
390
F
347
46
348
0
  0
LAYER
  5
A8
330
2
100
AcDbSymbolTableRecord
100
AcDbLayerTableRecord
  2
AM_9
 70
     0
 62
     6
  6
Dashed
370
    25
390
F
347
46
348
0
  0
LAYER
  5
E8
330
2
100
AcDbSymbolTableRecord
100
AcDbLayerTableRecord
  2
AM_4
 70
     0
 62
     7
  6
Continuous
370
    50
390
F
347
46
348
0
  0
LAYER
  5
123
330
2
100
AcDbSymbolTableRecord
100
AcDbLayerTableRecord
  2
AM_7
 70
     0
 62
     7
  6
Center
370
    25
390
F
347
46
348
0
  0
LAYER
  5
184
330
2
100
AcDbSymbolTableRecord
100
AcDbLayerTableRecord
  2
AM_5
 70
     0
 62
     3
  6
Continuous
370
    25
390
F
347
46
348
0
  0
LAYER
  5
18A
330
2
100
AcDbSymbolTableRecord
100
AcDbLayerTableRecord
  2
ConnectionPoints
 70
     0
 62
     7
  6
Continuous
370
    50
390
F
347
46
348
0
  0
ENDTAB
  0
TABLE
  2
STYLE
  5
3
330
0
100
AcDbSymbolTable
 70
     1
  0
STYLE
  5
11
330
3
100
AcDbSymbolTableRecord
100
AcDbTextStyleTableRecord
  2
Standard
 70
     0
 40
0.0
 41
1.0
 50
0.0
 71
     0
 42
0.2
  3
txt
  4

  0
ENDTAB
  0
TABLE
  2
VIEW
  5
6
330
0
100
AcDbSymbolTable
 70
     0
  0
ENDTAB
  0
TABLE
  2
UCS
  5
7
330
0
100
AcDbSymbolTable
 70
     0
  0
ENDTAB
  0
TABLE
  2
APPID
  5
9
330
0
100
AcDbSymbolTable
 70
     1
  0
APPID
  5
12
330
9
100
AcDbSymbolTableRecord
100
AcDbRegAppTableRecord
  2
ACAD
 70
     0
  0
ENDTAB
  0
TABLE
  2
DIMSTYLE
  5
A
330
0
100
AcDbSymbolTable
 70
     1
100
AcDbDimStyleTable
  0
DIMSTYLE
105
27
330
A
100
AcDbSymbolTableRecord
100
AcDbDimStyleTableRecord
  2
Standard
 70
     0
178
     0
340
11
  0
ENDTAB
  0
TABLE
  2
BLOCK_RECORD
  5
1
330
0
100
AcDbSymbolTable
 70
     5
  0
BLOCK_RECORD
  5
1F
330
1
100
AcDbSymbolTableRecord
100
AcDbBlockTableRecord
  2
*Model_Space
340
22
 70
     0
280
     1
281
     0
  0
BLOCK_RECORD
  5
1B
330
1
100
AcDbSymbolTableRecord
100
AcDbBlockTableRecord
  2
*Paper_Space
340
1E
 70
     0
280
     1
281
     0
  0
BLOCK_RECORD
  5
23
330
1
100
AcDbSymbolTableRecord
100
AcDbBlockTableRecord
  2
*Paper_Space0
340
26
 70
     0
280
     1
281
     0
  0
BLOCK_RECORD
  5
6E
330
1
100
AcDbSymbolTableRecord
100
AcDbBlockTableRecord
  2
1_104003_2
340
0
102
{BLKREFS
331
6F
102
}
 70
     0
280
     1
281
     0
  0
BLOCK_RECORD
  5
88
330
1
100
AcDbSymbolTableRecord
100
AcDbBlockTableRecord
  2
2_4_SD_0_in_104003_2
340
0
102
{BLKREFS
331
89
102
}
 70
     0
280
     1
281
     0
  0
BLOCK_RECORD
  5
B9
330
1
100
AcDbSymbolTableRecord
100
AcDbBlockTableRecord
  2
3_104010I_0_in_104003_2
340
0
102
{BLKREFS
331
BA
102
}
 70
     0
280
     1
281
     0
  0
BLOCK_RECORD
  5
F5
330
1
100
AcDbSymbolTableRecord
100
AcDbBlockTableRecord
  2
4_F4B_SD_400E_0_in_104003_2
340
0
102
{BLKREFS
331
F6
102
}
 70
     0
280
     1
281
     0
  0
ENDTAB
  0
ENDSEC
  0
SECTION
  2
BLOCKS
  0
BLOCK
  5
20
330
1F
100
AcDbEntity
  8
0
100
AcDbBlockBegin
  2
*Model_Space
 70
     0
 10
0.0
 20
0.0
 30
0.0
  3
*Model_Space
  1

  0
ENDBLK
  5
21
330
1F
100
AcDbEntity
  8
0
100
AcDbBlockEnd
  0
BLOCK
  5
1C
330
1B
100
AcDbEntity
 67
     1
  8
0
100
AcDbBlockBegin
  2
*Paper_Space
 70
     0
 10
0.0
 20
0.0
 30
0.0
  3
*Paper_Space
  1

  0
ENDBLK
  5
1D
330
1B
100
AcDbEntity
 67
     1
  8
0
100
AcDbBlockEnd
  0
BLOCK
  5
24
330
23
100
AcDbEntity
  8
0
100
AcDbBlockBegin
  2
*Paper_Space0
 70
     0
 10
0.0
 20
0.0
 30
0.0
  3
*Paper_Space0
  1

  0
ENDBLK
  5
25
330
23
100
AcDbEntity
  8
0
100
AcDbBlockEnd
  0
BLOCK
  5
70
330
6E
100
AcDbEntity
  8
0
100
AcDbBlockBegin
  2
1_104003_2
 70
     2
 10
0.0
 20
0.0
 30
0.0
  3
1_104003_2
  1

  0
ATTDEF
  5
73
330
6E
100
AcDbEntity
  8
AM_6
100
AcDbText
 10
10.725
 20
8.999999999999783
 30
0.0
 40
0.5
  1
Special Duty Flange Bearing - Inch - Gray Iron Non-Expansion
100
AcDbAttributeDefinition
  3

  2
NN
 70
     8
280
     0
  0
ATTDEF
  5
74
330
6E
100
AcDbEntity
  8
AM_6
100
AcDbText
 10
10.725
 20
8.499999999999783
 30
0.0
 40
0.5
  1
Special Duty
100
AcDbAttributeDefinition
  3

  2
NT
 70
     8
280
     0
  0
ATTDEF
  5
75
330
6E
100
AcDbEntity
  8
AM_6
100
AcDbText
 10
10.725
 20
7.999999999999783
 30
0.0
 40
0.5
  1
104003
100
AcDbAttributeDefinition
  3

  2
NB
 70
     8
280
     0
  0
ATTDEF
  5
76
330
6E
100
AcDbEntity
  8
AM_6
100
AcDbText
 10
10.725
 20
7.499999999999783
 30
0.0
 40
0.5
  1
$PN.
100
AcDbAttributeDefinition
  3

  2
NBSYN
 70
     8
280
     0
  0
ATTDEF
  5
77
330
6E
100
AcDbEntity
  8
AM_6
100
AcDbText
 10
10.725
 20
6.999999999999783
 30
0.0
 40
0.5
  1
104003
100
AcDbAttributeDefinition
  3

  2
LINA
 70
     8
280
     0
  0
ATTDEF
  5
78
330
6E
100
AcDbEntity
  8
AM_6
100
AcDbText
 10
10.725
 20
6.499999999999783
 30
0.0
 40
0.5
  1
4
100
AcDbAttributeDefinition
  3

  2
SS
 70
     8
280
     0
  0
ATTDEF
  5
79
330
6E
100
AcDbEntity
  8
AM_6
100
AcDbText
 10
10.725
 20
5.999999999999783
 30
0.0
 40
0.5
  1
104003
100
AcDbAttributeDefinition
  3

  2
PN
 70
     8
280
     0
  0
ATTDEF
  5
7A
330
6E
100
AcDbEntity
  8
AM_6
100
AcDbText
 10
10.725
 20
5.499999999999783
 30
0.0
 40
0.5
  1
Gray Iron Expansion
100
AcDbAttributeDefinition
  3

  2
TYPE
 70
     8
280
     0
  0
ATTDEF
  5
7B
330
6E
100
AcDbEntity
  8
AM_6
100
AcDbText
 10
10.725
 20
4.999999999999783
 30
0.0
 40
0.5
  1
F4B-SD-400E
100
AcDbAttributeDefinition
  3

  2
DESCRIPTION
 70
     8
280
     0
  0
ATTDEF
  5
7C
330
6E
100
AcDbEntity
  8
AM_6
100
AcDbText
 10
10.725
 20
4.499999999999783
 30
0.0
 40
0.5
  1
234
100
AcDbAttributeDefinition
  3

  2
WEIGHT
 70
     8
280
     0
  0
ATTDEF
  5
7D
330
6E
100
AcDbEntity
  8
AM_6
100
AcDbText
 10
10.725
 20
3.999999999999783
 30
0.0
 40
0.5
  1
8-1/2
100
AcDbAttributeDefinition
  3

  2
A
 70
     8
280
     0
  0
ATTDEF
  5
7E
330
6E
100
AcDbEntity
  8
AM_6
100
AcDbText
 10
10.725
 20
3.499999999999783
 30
0.0
 40
0.5
  1
18
100
AcDbAttributeDefinition
  3

  2
B
 70
     8
280
     0
  0
ATTDEF
  5
7F
330
6E
100
AcDbEntity
  8
AM_6
100
AcDbText
 10
10.725
 20
2.999999999999783
 30
0.0
 40
0.5
  1
6-3/4
100
AcDbAttributeDefinition
  3

  2
C
 70
     8
280
     0
  0
ATTDEF
  5
80
330
6E
100
AcDbEntity
  8
AM_6
100
AcDbText
 10
10.725
 20
2.499999999999783
 30
0.0
 40
0.5
  1
15-3/4
100
AcDbAttributeDefinition
  3

  2
D
 70
     8
280
     0
  0
ATTDEF
  5
81
330
6E
100
AcDbEntity
  8
AM_6
100
AcDbText
 10
10.725
 20
1.999999999999783
 30
0.0
 40
0.5
  1
0.87500
100
AcDbAttributeDefinition
  3

  2
E
 70
     8
280
     0
  0
ATTDEF
  5
82
330
6E
100
AcDbEntity
  8
AM_6
100
AcDbText
 10
10.725
 20
1.499999999999783
 30
0.0
 40
0.5
  1
1
100
AcDbAttributeDefinition
  3

  2
F
 70
     8
280
     0
  0
ATTDEF
  5
83
330
6E
100
AcDbEntity
  8
AM_6
100
AcDbText
 10
10.725
 20
0.9999999999997833
 30
0.0
 40
0.5
  1
1-1/4
100
AcDbAttributeDefinition
  3

  2
H
 70
     8
280
     0
  0
ATTDEF
  5
84
330
6E
100
AcDbEntity
  8
AM_6
100
AcDbText
 10
10.725
 20
0.4999999999997833
 30
0.0
 40
0.5
  1
11.137
100
AcDbAttributeDefinition
  3

  2
J
 70
     8
280
     0
  0
ATTDEF
  5
85
330
6E
100
AcDbEntity
  8
AM_6
100
AcDbText
 10
10.725
 20
-0.0000000000002167
 30
0.0
 40
0.5
  1
6-1/4
100
AcDbAttributeDefinition
  3

  2
L
 70
     8
280
     0
  0
ATTDEF
  5
86
330
6E
100
AcDbEntity
  8
AM_6
100
AcDbText
 10
10.725
 20
-0.5000000000002167
 30
0.0
 40
0.5
  1
1/4
100
AcDbAttributeDefinition
  3

  2
EXP
 70
     8
280
     0
  0
ATTDEF
  5
87
330
6E
100
AcDbEntity
  8
AM_6
100
AcDbText
 10
10.725
 20
-1.000000000000217
 30
0.0
 40
0.5
  1
baldor
100
AcDbAttributeDefinition
  3

  2
COMPANY
 70
     8
280
     0
  0
INSERT
  5
89
330
6E
100
AcDbEntity
  8
0
100
AcDbBlockReference
  2
2_4_SD_0_in_104003_2
 10
0.0
 20
0.0
 30
0.0
  0
INSERT
  5
BA
330
6E
100
AcDbEntity
  8
0
100
AcDbBlockReference
  2
3_104010I_0_in_104003_2
 10
0.0
 20
0.0
 30
0.0
  0
INSERT
  5
F6
330
6E
100
AcDbEntity
  8
0
100
AcDbBlockReference
  2
4_F4B_SD_400E_0_in_104003_2
 10
0.0
 20
0.0
 30
0.0
  0
ENDBLK
  5
71
330
6E
100
AcDbEntity
  8
0
100
AcDbBlockEnd
  0
BLOCK
  5
8A
330
88
100
AcDbEntity
  8
0
100
AcDbBlockBegin
  2
2_4_SD_0_in_104003_2
 70
     2
 10
0.0
 20
0.0
 30
0.0
  3
2_4_SD_0_in_104003_2
  1

  0
ATTDEF
  5
8C
330
88
100
AcDbEntity
  8
AM_6
100
AcDbText
 10
7.125
 20
2.5
 30
0.0
 40
0.5
  1
Special Duty Flange Bearing - Inch - Body - Insert - Ring
100
AcDbAttributeDefinition
  3

  2
NN
 70
     8
280
     0
  0
ATTDEF
  5
8D
330
88
100
AcDbEntity
  8
AM_6
100
AcDbText
 10
7.125
 20
2.0
 30
0.0
 40
0.5
  1
Special Duty
100
AcDbAttributeDefinition
  3

  2
NT
 70
     8
280
     0
  0
ATTDEF
  5
8E
330
88
100
AcDbEntity
  8
AM_6
100
AcDbText
 10
7.125
 20
1.5
 30
0.0
 40
0.5
  1
4-SD
100
AcDbAttributeDefinition
  3

  2
NB
 70
     8
280
     0
  0
ATTDEF
  5
8F
330
88
100
AcDbEntity
  8
AM_6
100
AcDbText
 10
7.125
 20
1.0
 30
0.0
 40
0.5
  1
$SS.-SD
100
AcDbAttributeDefinition
  3

  2
NBSYN
 70
     8
280
     0
  0
ATTDEF
  5
90
330
88
100
AcDbEntity
  8
AM_6
100
AcDbText
 10
7.125
 20
0.5
 30
0.0
 40
0.5
  1
4
100
AcDbAttributeDefinition
  3

  2
LINA
 70
     8
280
     0
  0
ATTDEF
  5
91
330
88
100
AcDbEntity
  8
AM_6
100
AcDbText
 10
7.125
 20
0.0
 30
0.0
 40
0.5
  1
4
100
AcDbAttributeDefinition
  3

  2
SS
 70
     8
280
     0
  0
ATTDEF
  5
92
330
88
100
AcDbEntity
  8
AM_6
100
AcDbText
 10
7.125
 20
-0.5
 30
0.0
 40
0.5
  1
104010I
100
AcDbAttributeDefinition
  3

  2
PN1
 70
     8
280
     0
  0
ATTDEF
  5
93
330
88
100
AcDbEntity
  8
AM_6
100
AcDbText
 10
7.125
 20
-1.0
 30
0.0
 40
0.5
  1
8-1/2
100
AcDbAttributeDefinition
  3

  2
A
 70
     8
280
     0
  0
ATTDEF
  5
94
330
88
100
AcDbEntity
  8
AM_6
100
AcDbText
 10
7.125
 20
-1.5
 30
0.0
 40
0.5
  1
8.50000
100
AcDbAttributeDefinition
  3

  2
A1
 70
     8
280
     0
  0
ATTDEF
  5
95
330
88
100
AcDbEntity
  8
AM_6
100
AcDbText
 10
7.125
 20
-2.0
 30
0.0
 40
0.5
  1
18
100
AcDbAttributeDefinition
  3

  2
B
 70
     8
280
     0
  0
ATTDEF
  5
96
330
88
100
AcDbEntity
  8
AM_6
100
AcDbText
 10
7.125
 20
-2.5
 30
0.0
 40
0.5
  1
18.00000
100
AcDbAttributeDefinition
  3

  2
B1
 70
     8
280
     0
  0
ATTDEF
  5
97
330
88
100
AcDbEntity
  8
AM_6
100
AcDbText
 10
7.125
 20
-3.0
 30
0.0
 40
0.5
  1
6-3/4
100
AcDbAttributeDefinition
  3

  2
C
 70
     8
280
     0
  0
ATTDEF
  5
98
330
88
100
AcDbEntity
  8
AM_6
100
AcDbText
 10
7.125
 20
-3.5
 30
0.0
 40
0.5
  1
6.75000
100
AcDbAttributeDefinition
  3

  2
C1
 70
     8
280
     0
  0
ATTDEF
  5
99
330
88
100
AcDbEntity
  8
AM_6
100
AcDbText
 10
7.125
 20
-4.0
 30
0.0
 40
0.5
  1
15-3/4
100
AcDbAttributeDefinition
  3

  2
D
 70
     8
280
     0
  0
ATTDEF
  5
9A
330
88
100
AcDbEntity
  8
AM_6
100
AcDbText
 10
7.125
 20
-4.5
 30
0.0
 40
0.5
  1
15.75000
100
AcDbAttributeDefinition
  3

  2
D1
 70
     8
280
     0
  0
ATTDEF
  5
9B
330
88
100
AcDbEntity
  8
AM_6
100
AcDbText
 10
7.125
 20
-5.0
 30
0.0
 40
0.5
  1
0.87500
100
AcDbAttributeDefinition
  3

  2
E
 70
     8
280
     0
  0
ATTDEF
  5
9C
330
88
100
AcDbEntity
  8
AM_6
100
AcDbText
 10
7.125
 20
-5.5
 30
0.0
 40
0.5
  1
0.87500
100
AcDbAttributeDefinition
  3

  2
E1
 70
     8
280
     0
  0
ATTDEF
  5
9D
330
88
100
AcDbEntity
  8
AM_6
100
AcDbText
 10
7.125
 20
-6.0
 30
0.0
 40
0.5
  1
1
100
AcDbAttributeDefinition
  3

  2
F
 70
     8
280
     0
  0
ATTDEF
  5
9E
330
88
100
AcDbEntity
  8
AM_6
100
AcDbText
 10
7.125
 20
-6.5
 30
0.0
 40
0.5
  1
1.00000
100
AcDbAttributeDefinition
  3

  2
F1
 70
     8
280
     0
  0
ATTDEF
  5
9F
330
88
100
AcDbEntity
  8
AM_6
100
AcDbText
 10
7.125
 20
-7.0
 30
0.0
 40
0.5
  1
1-1/4
100
AcDbAttributeDefinition
  3

  2
H
 70
     8
280
     0
  0
ATTDEF
  5
A0
330
88
100
AcDbEntity
  8
AM_6
100
AcDbText
 10
7.125
 20
-7.5
 30
0.0
 40
0.5
  1
1.25000
100
AcDbAttributeDefinition
  3

  2
H1
 70
     8
280
     0
  0
ATTDEF
  5
A1
330
88
100
AcDbEntity
  8
AM_6
100
AcDbText
 10
7.125
 20
-8.0
 30
0.0
 40
0.5
  1
11.137
100
AcDbAttributeDefinition
  3

  2
J
 70
     8
280
     0
  0
ATTDEF
  5
A2
330
88
100
AcDbEntity
  8
AM_6
100
AcDbText
 10
7.125
 20
-8.5
 30
0.0
 40
0.5
  1
11.13700
100
AcDbAttributeDefinition
  3

  2
J1
 70
     8
280
     0
  0
ATTDEF
  5
A3
330
88
100
AcDbEntity
  8
AM_6
100
AcDbText
 10
7.125
 20
-9.0
 30
0.0
 40
0.5
  1
6-1/4
100
AcDbAttributeDefinition
  3

  2
L
 70
     8
280
     0
  0
ATTDEF
  5
A4
330
88
100
AcDbEntity
  8
AM_6
100
AcDbText
 10
7.125
 20
-9.5
 30
0.0
 40
0.5
  1
6.25000
100
AcDbAttributeDefinition
  3

  2
L1
 70
     8
280
     0
  0
ATTDEF
  5
A5
330
88
100
AcDbEntity
  8
AM_6
100
AcDbText
 10
7.125
 20
-10.0
 30
0.0
 40
0.5
  1
1/4
100
AcDbAttributeDefinition
  3

  2
EXP
 70
     8
280
     0
  0
ATTDEF
  5
A6
330
88
100
AcDbEntity
  8
AM_6
100
AcDbText
 10
7.125
 20
-10.5
 30
0.0
 40
0.5
  1
baldor
100
AcDbAttributeDefinition
  3

  2
COMPANY
 70
     8
280
     0
  0
LINE
  5
A9
330
88
100
AcDbEntity
  8
AM_9
100
AcDbLine
 10
2.058333333333334
 20
2.0
 30
0.0
 11
-6.308333333333334
 21
2.0
 31
0.0
  0
LINE
  5
AA
330
88
100
AcDbEntity
  8
AM_9
100
AcDbLine
 10
-6.308333333333334
 20
-2.0
 30
0.0
 11
2.058333333333334
 21
-2.0
 31
0.0
  0
LINE
  5
AB
330
88
100
AcDbEntity
  8
AM_9
100
AcDbLine
 10
2.058333333333334
 20
-2.0
 30
0.0
 11
2.058333333333334
 21
2.0
 31
0.0
  0
ARC
  5
AC
330
88
100
AcDbEntity
  8
AM_9
100
AcDbCircle
 10
2.058333333333332
 20
2.066666666666668
 30
0.0
 40
0.066666666666668
100
AcDbArc
 50
270.0
 51
0.0
  0
ARC
  5
AD
330
88
100
AcDbEntity
  8
AM_9
100
AcDbCircle
 10
2.058333333333332
 20
-2.066666666666668
 30
0.0
 40
0.0666666666666678
100
AcDbArc
 50
0.0
 51
90.0
  0
LINE
  5
AE
330
88
100
AcDbEntity
  8
AM_9
100
AcDbLine
 10
-6.308333333333334
 20
-2.0
 30
0.0
 11
-6.308333333333334
 21
2.0
 31
0.0
  0
ARC
  5
AF
330
88
100
AcDbEntity
  8
AM_9
100
AcDbCircle
 10
-6.308333333333333
 20
2.066666666666667
 30
0.0
 40
0.0666666666666673
100
AcDbArc
 50
180.0
 51
270.0
  0
ARC
  5
B0
330
88
100
AcDbEntity
  8
AM_9
100
AcDbCircle
 10
-6.308333333333333
 20
-2.066666666666667
 30
0.0
 40
0.0666666666666673
100
AcDbArc
 50
90.0
 51
180.0
  0
LINE
  5
B1
330
88
100
AcDbEntity
  8
AM_9
100
AcDbLine
 10
2.025
 20
2.5
 30
0.0
 11
-6.275
 21
2.5
 31
0.0
  0
LINE
  5
B2
330
88
100
AcDbEntity
  8
AM_9
100
AcDbLine
 10
-6.275
 20
-2.5
 30
0.0
 11
2.025
 21
-2.5
 31
0.0
  0
LINE
  5
B3
330
88
100
AcDbEntity
  8
AM_9
100
AcDbLine
 10
2.025
 20
-2.5
 30
0.0
 11
2.025
 21
2.5
 31
0.0
  0
ARC
  5
B4
330
88
100
AcDbEntity
  8
AM_9
100
AcDbCircle
 10
2.025000000000001
 20
2.4
 30
0.0
 40
0.0999999999999992
100
AcDbArc
 50
0.0
 51
90.0
  0
ARC
  5
B5
330
88
100
AcDbEntity
  8
AM_9
100
AcDbCircle
 10
2.025000000000001
 20
-2.4
 30
0.0
 40
0.0999999999999996
100
AcDbArc
 50
270.0
 51
0.0
  0
LINE
  5
B6
330
88
100
AcDbEntity
  8
AM_9
100
AcDbLine
 10
-6.275
 20
-2.5
 30
0.0
 11
-6.275
 21
2.5
 31
0.0
  0
ARC
  5
B7
330
88
100
AcDbEntity
  8
AM_9
100
AcDbCircle
 10
-6.274999999999999
 20
2.399999999999999
 30
0.0
 40
0.100000000000001
100
AcDbArc
 50
90.0
 51
180.0
  0
ARC
  5
B8
330
88
100
AcDbEntity
  8
AM_9
100
AcDbCircle
 10
-6.274999999999999
 20
-2.399999999999999
 30
0.0
 40
0.1000000000000005
100
AcDbArc
 50
180.0
 51
270.0
  0
ENDBLK
  5
8B
330
88
100
AcDbEntity
  8
0
100
AcDbBlockEnd
  0
BLOCK
  5
BB
330
B9
100
AcDbEntity
  8
0
100
AcDbBlockBegin
  2
3_104010I_0_in_104003_2
 70
     2
 10
0.0
 20
0.0
 30
0.0
  3
3_104010I_0_in_104003_2
  1

  0
ATTDEF
  5
BD
330
B9
100
AcDbEntity
  8
AM_6
100
AcDbText
 10
7.125
 20
3.205128205128205
 30
0.0
 40
0.5
  1
Special Duty Flange Bearing - Inch - Body - Insert
100
AcDbAttributeDefinition
  3

  2
NN
 70
     8
280
     0
  0
ATTDEF
  5
BE
330
B9
100
AcDbEntity
  8
AM_6
100
AcDbText
 10
7.125
 20
2.705128205128205
 30
0.0
 40
0.5
  1
Special Duty
100
AcDbAttributeDefinition
  3

  2
NT
 70
     8
280
     0
  0
ATTDEF
  5
BF
330
B9
100
AcDbEntity
  8
AM_6
100
AcDbText
 10
7.125
 20
2.205128205128205
 30
0.0
 40
0.5
  1
104010I
100
AcDbAttributeDefinition
  3

  2
NB
 70
     8
280
     0
  0
ATTDEF
  5
C0
330
B9
100
AcDbEntity
  8
AM_6
100
AcDbText
 10
7.125
 20
1.705128205128205
 30
0.0
 40
0.5
  1
$PN1.
100
AcDbAttributeDefinition
  3

  2
NBSYN
 70
     8
280
     0
  0
ATTDEF
  5
C1
330
B9
100
AcDbEntity
  8
AM_6
100
AcDbText
 10
7.125
 20
1.205128205128205
 30
0.0
 40
0.5
  1
104010I
100
AcDbAttributeDefinition
  3

  2
LINA
 70
     8
280
     0
  0
ATTDEF
  5
C2
330
B9
100
AcDbEntity
  8
AM_6
100
AcDbText
 10
7.125
 20
0.7051282051282053
 30
0.0
 40
0.5
  1
4
100
AcDbAttributeDefinition
  3

  2
SS
 70
     8
280
     0
  0
ATTDEF
  5
C3
330
B9
100
AcDbEntity
  8
AM_6
100
AcDbText
 10
7.125
 20
0.2051282051282053
 30
0.0
 40
0.5
  1
4.00000
100
AcDbAttributeDefinition
  3

  2
SS1
 70
     8
280
     0
  0
ATTDEF
  5
C4
330
B9
100
AcDbEntity
  8
AM_6
100
AcDbText
 10
7.125
 20
-0.2948717948717947
 30
0.0
 40
0.5
  1
104010I
100
AcDbAttributeDefinition
  3

  2
PN1
 70
     8
280
     0
  0
ATTDEF
  5
C5
330
B9
100
AcDbEntity
  8
AM_6
100
AcDbText
 10
7.125
 20
-0.7948717948717947
 30
0.0
 40
0.5
  1
104003
100
AcDbAttributeDefinition
  3

  2
PN2
 70
     8
280
     0
  0
ATTDEF
  5
C6
330
B9
100
AcDbEntity
  8
AM_6
100
AcDbText
 10
7.125
 20
-1.294871794871795
 30
0.0
 40
0.5
  1
F4B-SD-400
100
AcDbAttributeDefinition
  3

  2
DESCRIPTION1
 70
     8
280
     0
  0
ATTDEF
  5
C7
330
B9
100
AcDbEntity
  8
AM_6
100
AcDbText
 10
7.125
 20
-1.794871794871795
 30
0.0
 40
0.5
  1
F4B-SD-400E
100
AcDbAttributeDefinition
  3

  2
DESCRIPTION2
 70
     8
280
     0
  0
ATTDEF
  5
C8
330
B9
100
AcDbEntity
  8
AM_6
100
AcDbText
 10
7.125
 20
-2.294871794871795
 30
0.0
 40
0.5
  1
229
100
AcDbAttributeDefinition
  3

  2
WEIGHT1
 70
     8
280
     0
  0
ATTDEF
  5
C9
330
B9
100
AcDbEntity
  8
AM_6
100
AcDbText
 10
7.125
 20
-2.794871794871795
 30
0.0
 40
0.5
  1
234
100
AcDbAttributeDefinition
  3

  2
WEIGHT2
 70
     8
280
     0
  0
ATTDEF
  5
CA
330
B9
100
AcDbEntity
  8
AM_6
100
AcDbText
 10
7.125
 20
-3.294871794871795
 30
0.0
 40
0.5
  1
8-1/2
100
AcDbAttributeDefinition
  3

  2
A
 70
     8
280
     0
  0
ATTDEF
  5
CB
330
B9
100
AcDbEntity
  8
AM_6
100
AcDbText
 10
7.125
 20
-3.794871794871795
 30
0.0
 40
0.5
  1
8.50000
100
AcDbAttributeDefinition
  3

  2
A1
 70
     8
280
     0
  0
ATTDEF
  5
CC
330
B9
100
AcDbEntity
  8
AM_6
100
AcDbText
 10
7.125
 20
-4.294871794871795
 30
0.0
 40
0.5
  1
18
100
AcDbAttributeDefinition
  3

  2
B
 70
     8
280
     0
  0
ATTDEF
  5
CD
330
B9
100
AcDbEntity
  8
AM_6
100
AcDbText
 10
7.125
 20
-4.794871794871795
 30
0.0
 40
0.5
  1
18.00000
100
AcDbAttributeDefinition
  3

  2
B1
 70
     8
280
     0
  0
ATTDEF
  5
CE
330
B9
100
AcDbEntity
  8
AM_6
100
AcDbText
 10
7.125
 20
-5.294871794871795
 30
0.0
 40
0.5
  1
6-3/4
100
AcDbAttributeDefinition
  3

  2
C
 70
     8
280
     0
  0
ATTDEF
  5
CF
330
B9
100
AcDbEntity
  8
AM_6
100
AcDbText
 10
7.125
 20
-5.794871794871795
 30
0.0
 40
0.5
  1
6.75000
100
AcDbAttributeDefinition
  3

  2
C1
 70
     8
280
     0
  0
ATTDEF
  5
D0
330
B9
100
AcDbEntity
  8
AM_6
100
AcDbText
 10
7.125
 20
-6.294871794871795
 30
0.0
 40
0.5
  1
15-3/4
100
AcDbAttributeDefinition
  3

  2
D
 70
     8
280
     0
  0
ATTDEF
  5
D1
330
B9
100
AcDbEntity
  8
AM_6
100
AcDbText
 10
7.125
 20
-6.794871794871795
 30
0.0
 40
0.5
  1
15.75000
100
AcDbAttributeDefinition
  3

  2
D1
 70
     8
280
     0
  0
ATTDEF
  5
D2
330
B9
100
AcDbEntity
  8
AM_6
100
AcDbText
 10
7.125
 20
-7.294871794871795
 30
0.0
 40
0.5
  1
0.87500
100
AcDbAttributeDefinition
  3

  2
E
 70
     8
280
     0
  0
ATTDEF
  5
D3
330
B9
100
AcDbEntity
  8
AM_6
100
AcDbText
 10
7.125
 20
-7.794871794871795
 30
0.0
 40
0.5
  1
0.87500
100
AcDbAttributeDefinition
  3

  2
E1
 70
     8
280
     0
  0
ATTDEF
  5
D4
330
B9
100
AcDbEntity
  8
AM_6
100
AcDbText
 10
7.125
 20
-8.294871794871796
 30
0.0
 40
0.5
  1
1
100
AcDbAttributeDefinition
  3

  2
F
 70
     8
280
     0
  0
ATTDEF
  5
D5
330
B9
100
AcDbEntity
  8
AM_6
100
AcDbText
 10
7.125
 20
-8.794871794871796
 30
0.0
 40
0.5
  1
1.00000
100
AcDbAttributeDefinition
  3

  2
F1
 70
     8
280
     0
  0
ATTDEF
  5
D6
330
B9
100
AcDbEntity
  8
AM_6
100
AcDbText
 10
7.125
 20
-9.294871794871796
 30
0.0
 40
0.5
  1
1-1/4
100
AcDbAttributeDefinition
  3

  2
H
 70
     8
280
     0
  0
ATTDEF
  5
D7
330
B9
100
AcDbEntity
  8
AM_6
100
AcDbText
 10
7.125
 20
-9.794871794871796
 30
0.0
 40
0.5
  1
1.25000
100
AcDbAttributeDefinition
  3

  2
H1
 70
     8
280
     0
  0
ATTDEF
  5
D8
330
B9
100
AcDbEntity
  8
AM_6
100
AcDbText
 10
7.125
 20
-10.2948717948718
 30
0.0
 40
0.5
  1
11.137
100
AcDbAttributeDefinition
  3

  2
J
 70
     8
280
     0
  0
ATTDEF
  5
D9
330
B9
100
AcDbEntity
  8
AM_6
100
AcDbText
 10
7.125
 20
-10.7948717948718
 30
0.0
 40
0.5
  1
11.13700
100
AcDbAttributeDefinition
  3

  2
J1
 70
     8
280
     0
  0
ATTDEF
  5
DA
330
B9
100
AcDbEntity
  8
AM_6
100
AcDbText
 10
7.125
 20
-11.2948717948718
 30
0.0
 40
0.5
  1
6-1/4
100
AcDbAttributeDefinition
  3

  2
L
 70
     8
280
     0
  0
ATTDEF
  5
DB
330
B9
100
AcDbEntity
  8
AM_6
100
AcDbText
 10
7.125
 20
-11.7948717948718
 30
0.0
 40
0.5
  1
6.25000
100
AcDbAttributeDefinition
  3

  2
L1
 70
     8
280
     0
  0
ATTDEF
  5
DC
330
B9
100
AcDbEntity
  8
AM_6
100
AcDbText
 10
7.125
 20
-12.2948717948718
 30
0.0
 40
0.5
  1
1/4
100
AcDbAttributeDefinition
  3

  2
EXP
 70
     8
280
     0
  0
ATTDEF
  5
DD
330
B9
100
AcDbEntity
  8
AM_6
100
AcDbText
 10
7.125
 20
-12.7948717948718
 30
0.0
 40
0.5
  1
baldor
100
AcDbAttributeDefinition
  3

  2
COMPANY
 70
     8
280
     0
  0
LINE
  5
DE
330
B9
100
AcDbEntity
  8
AM_9
100
AcDbLine
 10
2.000000000000003
 20
2.5
 30
0.0
 11
-6.250000000000003
 21
2.5
 31
0.0
  0
LINE
  5
DF
330
B9
100
AcDbEntity
  8
AM_9
100
AcDbLine
 10
-6.250000000000003
 20
-2.5
 30
0.0
 11
2.000000000000003
 21
-2.5
 31
0.0
  0
LINE
  5
E0
330
B9
100
AcDbEntity
  8
AM_9
100
AcDbLine
 10
2.000000000000003
 20
-2.5
 30
0.0
 11
2.000000000000003
 21
2.5
 31
0.0
  0
ARC
  5
E1
330
B9
100
AcDbEntity
  8
AM_9
100
AcDbCircle
 10
1.999999999999998
 20
2.625000000000001
 30
0.0
 40
0.1250000000000013
100
AcDbArc
 50
270.0
 51
0.0
  0
ARC
  5
E2
330
B9
100
AcDbEntity
  8
AM_9
100
AcDbCircle
 10
1.999999999999998
 20
-2.625000000000001
 30
0.0
 40
0.1250000000000016
100
AcDbArc
 50
0.0
 51
90.0
  0
LINE
  5
E3
330
B9
100
AcDbEntity
  8
AM_9
100
AcDbLine
 10
-6.250000000000003
 20
-2.5
 30
0.0
 11
-6.250000000000003
 21
2.5
 31
0.0
  0
ARC
  5
E4
330
B9
100
AcDbEntity
  8
AM_9
100
AcDbCircle
 10
-6.249999999999996
 20
2.625000000000004
 30
0.0
 40
0.1250000000000036
100
AcDbArc
 50
180.0
 51
270.0
  0
ARC
  5
E5
330
B9
100
AcDbEntity
  8
AM_9
100
AcDbCircle
 10
-6.249999999999996
 20
-2.625000000000004
 30
0.0
 40
0.1250000000000036
100
AcDbArc
 50
90.0
 51
180.0
  0
LINE
  5
E6
330
B9
100
AcDbEntity
  8
AM_9
100
AcDbLine
 10
1.249999999999998
 20
3.205128205128205
 30
0.0
 11
-5.499999999999997
 21
3.205128205128205
 31
0.0
  0
LINE
  5
E7
330
B9
100
AcDbEntity
  8
AM_9
100
AcDbLine
 10
-5.499999999999997
 20
-3.205128205128205
 30
0.0
 11
1.249999999999998
 21
-3.205128205128205
 31
0.0
  0
LINE
  5
E9
330
B9
100
AcDbEntity
  8
AM_4
100
AcDbLine
 10
-5.499999999999997
 20
3.205128205128205
 30
0.0
 11
-6.166666666666665
 21
3.205128205128205
 31
0.0
  0
LINE
  5
EA
330
B9
100
AcDbEntity
  8
AM_4
100
AcDbLine
 10
1.916666666666665
 20
3.205128205128205
 30
0.0
 11
1.249999999999998
 21
3.205128205128205
 31
0.0
  0
LINE
  5
EB
330
B9
100
AcDbEntity
  8
AM_4
100
AcDbLine
 10
1.249999999999998
 20
-3.205128205128205
 30
0.0
 11
1.916666666666665
 21
-3.205128205128205
 31
0.0
  0
LINE
  5
EC
330
B9
100
AcDbEntity
  8
AM_4
100
AcDbLine
 10
-6.166666666666665
 20
-3.205128205128205
 30
0.0
 11
-5.499999999999997
 21
-3.205128205128205
 31
0.0
  0
LINE
  5
ED
330
B9
100
AcDbEntity
  8
AM_4
100
AcDbLine
 10
2.125
 20
-2.99679487489928
 30
0.0
 11
2.125
 21
2.99679487489928
 31
0.0
  0
LINE
  5
EE
330
B9
100
AcDbEntity
  8
AM_4
100
AcDbLine
 10
1.916666666666665
 20
-3.205128205128205
 30
0.0
 11
1.916666666666665
 21
3.205128205128205
 31
0.0
  0
ARC
  5
EF
330
B9
100
AcDbEntity
  8
AM_4
100
AcDbCircle
 10
1.916666666666664
 20
2.99679487179487
 30
0.0
 40
0.2083333333333357
100
AcDbArc
 50
0.0
 51
90.0
  0
ARC
  5
F0
330
B9
100
AcDbEntity
  8
AM_4
100
AcDbCircle
 10
1.916666666666664
 20
-2.99679487179487
 30
0.0
 40
0.2083333333333357
100
AcDbArc
 50
270.0
 51
0.0
  0
LINE
  5
F1
330
B9
100
AcDbEntity
  8
AM_4
100
AcDbLine
 10
-6.166666666666665
 20
-3.205128205128205
 30
0.0
 11
-6.166666666666665
 21
3.205128205128205
 31
0.0
  0
LINE
  5
F2
330
B9
100
AcDbEntity
  8
AM_4
100
AcDbLine
 10
-6.375
 20
-2.996794871794872
 30
0.0
 11
-6.375
 21
2.996794871794872
 31
0.0
  0
ARC
  5
F3
330
B9
100
AcDbEntity
  8
AM_4
100
AcDbCircle
 10
-6.166666666666668
 20
2.996794871794873
 30
0.0
 40
0.2083333333333326
100
AcDbArc
 50
90.0
 51
180.0
  0
ARC
  5
F4
330
B9
100
AcDbEntity
  8
AM_4
100
AcDbCircle
 10
-6.166666666666668
 20
-2.996794871794873
 30
0.0
 40
0.2083333333333321
100
AcDbArc
 50
180.0
 51
270.0
  0
ENDBLK
  5
BC
330
B9
100
AcDbEntity
  8
0
100
AcDbBlockEnd
  0
BLOCK
  5
F7
330
F5
100
AcDbEntity
  8
0
100
AcDbBlockBegin
  2
4_F4B_SD_400E_0_in_104003_2
 70
     2
 10
0.0
 20
0.0
 30
0.0
  3
4_F4B_SD_400E_0_in_104003_2
  1

  0
ATTDEF
  5
F9
330
F5
100
AcDbEntity
  8
AM_6
100
AcDbText
 10
10.725
 20
8.999999999999783
 30
0.0
 40
0.5
  1
Special Duty Flange Bearing - Inch - Body
100
AcDbAttributeDefinition
  3

  2
NN
 70
     8
280
     0
  0
ATTDEF
  5
FA
330
F5
100
AcDbEntity
  8
AM_6
100
AcDbText
 10
10.725
 20
8.499999999999783
 30
0.0
 40
0.5
  1
Special Duty
100
AcDbAttributeDefinition
  3

  2
NT
 70
     8
280
     0
  0
ATTDEF
  5
FB
330
F5
100
AcDbEntity
  8
AM_6
100
AcDbText
 10
10.725
 20
7.999999999999783
 30
0.0
 40
0.5
  1
F4B-SD-400E
100
AcDbAttributeDefinition
  3

  2
NB
 70
     8
280
     0
  0
ATTDEF
  5
FC
330
F5
100
AcDbEntity
  8
AM_6
100
AcDbText
 10
10.725
 20
7.499999999999783
 30
0.0
 40
0.5
  1
$PN.
100
AcDbAttributeDefinition
  3

  2
NBSYN
 70
     8
280
     0
  0
ATTDEF
  5
FD
330
F5
100
AcDbEntity
  8
AM_6
100
AcDbText
 10
10.725
 20
6.999999999999783
 30
0.0
 40
0.5
  1
F4B-SD-400E
100
AcDbAttributeDefinition
  3

  2
LINA
 70
     8
280
     0
  0
ATTDEF
  5
FE
330
F5
100
AcDbEntity
  8
AM_6
100
AcDbText
 10
10.725
 20
6.499999999999783
 30
0.0
 40
0.5
  1
4
100
AcDbAttributeDefinition
  3

  2
SS
 70
     8
280
     0
  0
ATTDEF
  5
FF
330
F5
100
AcDbEntity
  8
AM_6
100
AcDbText
 10
10.725
 20
5.999999999999783
 30
0.0
 40
0.5
  1
4.00000
100
AcDbAttributeDefinition
  3

  2
SS1
 70
     8
280
     0
  0
ATTDEF
  5
100
330
F5
100
AcDbEntity
  8
AM_6
100
AcDbText
 10
10.725
 20
5.499999999999783
 30
0.0
 40
0.5
  1
Gray Iron Expansion
100
AcDbAttributeDefinition
  3

  2
TYPE
 70
     8
280
     0
  0
ATTDEF
  5
101
330
F5
100
AcDbEntity
  8
AM_6
100
AcDbText
 10
10.725
 20
4.999999999999783
 30
0.0
 40
0.5
  1
F4B-SD-400
100
AcDbAttributeDefinition
  3

  2
PN1
 70
     8
280
     0
  0
ATTDEF
  5
102
330
F5
100
AcDbEntity
  8
AM_6
100
AcDbText
 10
10.725
 20
4.499999999999783
 30
0.0
 40
0.5
  1
F4B-SD-400
100
AcDbAttributeDefinition
  3

  2
DESCRIPTION1
 70
     8
280
     0
  0
ATTDEF
  5
103
330
F5
100
AcDbEntity
  8
AM_6
100
AcDbText
 10
10.725
 20
3.999999999999783
 30
0.0
 40
0.5
  1
F4B-SD-400E
100
AcDbAttributeDefinition
  3

  2
PN2
 70
     8
280
     0
  0
ATTDEF
  5
104
330
F5
100
AcDbEntity
  8
AM_6
100
AcDbText
 10
10.725
 20
3.499999999999783
 30
0.0
 40
0.5
  1
F4B-SD-400E
100
AcDbAttributeDefinition
  3

  2
DESCRIPTION2
 70
     8
280
     0
  0
ATTDEF
  5
105
330
F5
100
AcDbEntity
  8
AM_6
100
AcDbText
 10
10.725
 20
2.999999999999783
 30
0.0
 40
0.5
  1
229
100
AcDbAttributeDefinition
  3

  2
WEIGHT1
 70
     8
280
     0
  0
ATTDEF
  5
106
330
F5
100
AcDbEntity
  8
AM_6
100
AcDbText
 10
10.725
 20
2.499999999999783
 30
0.0
 40
0.5
  1
234
100
AcDbAttributeDefinition
  3

  2
WEIGHT2
 70
     8
280
     0
  0
ATTDEF
  5
107
330
F5
100
AcDbEntity
  8
AM_6
100
AcDbText
 10
10.725
 20
1.999999999999783
 30
0.0
 40
0.5
  1
8-1/2
100
AcDbAttributeDefinition
  3

  2
A
 70
     8
280
     0
  0
ATTDEF
  5
108
330
F5
100
AcDbEntity
  8
AM_6
100
AcDbText
 10
10.725
 20
1.499999999999783
 30
0.0
 40
0.5
  1
8.50000
100
AcDbAttributeDefinition
  3

  2
A1
 70
     8
280
     0
  0
ATTDEF
  5
109
330
F5
100
AcDbEntity
  8
AM_6
100
AcDbText
 10
10.725
 20
0.9999999999997833
 30
0.0
 40
0.5
  1
18
100
AcDbAttributeDefinition
  3

  2
B
 70
     8
280
     0
  0
ATTDEF
  5
10A
330
F5
100
AcDbEntity
  8
AM_6
100
AcDbText
 10
10.725
 20
0.4999999999997833
 30
0.0
 40
0.5
  1
18.00000
100
AcDbAttributeDefinition
  3

  2
B1
 70
     8
280
     0
  0
ATTDEF
  5
10B
330
F5
100
AcDbEntity
  8
AM_6
100
AcDbText
 10
10.725
 20
-0.0000000000002167
 30
0.0
 40
0.5
  1
6-3/4
100
AcDbAttributeDefinition
  3

  2
C
 70
     8
280
     0
  0
ATTDEF
  5
10C
330
F5
100
AcDbEntity
  8
AM_6
100
AcDbText
 10
10.725
 20
-0.5000000000002167
 30
0.0
 40
0.5
  1
6.75000
100
AcDbAttributeDefinition
  3

  2
C1
 70
     8
280
     0
  0
ATTDEF
  5
10D
330
F5
100
AcDbEntity
  8
AM_6
100
AcDbText
 10
10.725
 20
-1.000000000000217
 30
0.0
 40
0.5
  1
15-3/4
100
AcDbAttributeDefinition
  3

  2
D
 70
     8
280
     0
  0
ATTDEF
  5
10E
330
F5
100
AcDbEntity
  8
AM_6
100
AcDbText
 10
10.725
 20
-1.500000000000217
 30
0.0
 40
0.5
  1
15.75000
100
AcDbAttributeDefinition
  3

  2
D1
 70
     8
280
     0
  0
ATTDEF
  5
10F
330
F5
100
AcDbEntity
  8
AM_6
100
AcDbText
 10
10.725
 20
-2.000000000000217
 30
0.0
 40
0.5
  1
0.7500
100
AcDbAttributeDefinition
  3

  2
D11
 70
     8
280
     0
  0
ATTDEF
  5
110
330
F5
100
AcDbEntity
  8
AM_6
100
AcDbText
 10
10.725
 20
-2.500000000000217
 30
0.0
 40
0.5
  1
0.87500
100
AcDbAttributeDefinition
  3

  2
E
 70
     8
280
     0
  0
ATTDEF
  5
111
330
F5
100
AcDbEntity
  8
AM_6
100
AcDbText
 10
10.725
 20
-3.000000000000217
 30
0.0
 40
0.5
  1
0.87500
100
AcDbAttributeDefinition
  3

  2
E1
 70
     8
280
     0
  0
ATTDEF
  5
112
330
F5
100
AcDbEntity
  8
AM_6
100
AcDbText
 10
10.725
 20
-3.500000000000217
 30
0.0
 40
0.5
  1
1
100
AcDbAttributeDefinition
  3

  2
F
 70
     8
280
     0
  0
ATTDEF
  5
113
330
F5
100
AcDbEntity
  8
AM_6
100
AcDbText
 10
10.725
 20
-4.000000000000217
 30
0.0
 40
0.5
  1
1.00000
100
AcDbAttributeDefinition
  3

  2
F1
 70
     8
280
     0
  0
ATTDEF
  5
114
330
F5
100
AcDbEntity
  8
AM_6
100
AcDbText
 10
10.725
 20
-4.500000000000217
 30
0.0
 40
0.5
  1
1-1/4
100
AcDbAttributeDefinition
  3

  2
H
 70
     8
280
     0
  0
ATTDEF
  5
115
330
F5
100
AcDbEntity
  8
AM_6
100
AcDbText
 10
10.725
 20
-5.000000000000217
 30
0.0
 40
0.5
  1
1.25000
100
AcDbAttributeDefinition
  3

  2
H1
 70
     8
280
     0
  0
ATTDEF
  5
116
330
F5
100
AcDbEntity
  8
AM_6
100
AcDbText
 10
10.725
 20
-5.500000000000217
 30
0.0
 40
0.5
  1
11.137
100
AcDbAttributeDefinition
  3

  2
J
 70
     8
280
     0
  0
ATTDEF
  5
117
330
F5
100
AcDbEntity
  8
AM_6
100
AcDbText
 10
10.725
 20
-6.000000000000217
 30
0.0
 40
0.5
  1
11.13700
100
AcDbAttributeDefinition
  3

  2
J1
 70
     8
280
     0
  0
ATTDEF
  5
118
330
F5
100
AcDbEntity
  8
AM_6
100
AcDbText
 10
10.725
 20
-6.500000000000217
 30
0.0
 40
0.5
  1
6-1/4
100
AcDbAttributeDefinition
  3

  2
L
 70
     8
280
     0
  0
ATTDEF
  5
119
330
F5
100
AcDbEntity
  8
AM_6
100
AcDbText
 10
10.725
 20
-7.000000000000217
 30
0.0
 40
0.5
  1
6.25000
100
AcDbAttributeDefinition
  3

  2
L1
 70
     8
280
     0
  0
ATTDEF
  5
11A
330
F5
100
AcDbEntity
  8
AM_6
100
AcDbText
 10
10.725
 20
-7.500000000000217
 30
0.0
 40
0.5
  1
1/4
100
AcDbAttributeDefinition
  3

  2
EXP
 70
     8
280
     0
  0
ATTDEF
  5
11B
330
F5
100
AcDbEntity
  8
AM_6
100
AcDbText
 10
10.725
 20
-8.000000000000217
 30
0.0
 40
0.5
  1
baldor
100
AcDbAttributeDefinition
  3

  2
COMPANY
 70
     8
280
     0
  0
LINE
  5
11C
330
F5
100
AcDbEntity
  8
AM_9
100
AcDbLine
 10
1.249999999999999
 20
3.205128205128205
 30
0.0
 11
-5.5
 21
3.205128205128205
 31
0.0
  0
LINE
  5
11D
330
F5
100
AcDbEntity
  8
AM_9
100
AcDbLine
 10
-5.5
 20
-3.205128205128205
 30
0.0
 11
1.25
 21
-3.205128205128205
 31
0.0
  0
LINE
  5
11E
330
F5
100
AcDbEntity
  8
AM_9
100
AcDbLine
 10
1.25
 20
-5.068500000000001
 30
0.0
 11
0.0000000000000003
 21
-5.068500000000001
 31
0.0
  0
LINE
  5
11F
330
F5
100
AcDbEntity
  8
AM_9
100
AcDbLine
 10
0.0000000000000003
 20
-6.0685
 30
0.0
 11
1.25
 21
-6.0685
 31
0.0
  0
LINE
  5
120
330
F5
100
AcDbEntity
  8
AM_9
100
AcDbLine
 10
1.25
 20
6.0685
 30
0.0
 11
0.0000000000000003
 21
6.0685
 31
0.0
  0
LINE
  5
121
330
F5
100
AcDbEntity
  8
AM_9
100
AcDbLine
 10
0.0000000000000003
 20
5.068500000000001
 30
0.0
 11
1.25
 21
5.068500000000001
 31
0.0
  0
LINE
  5
124
330
F5
100
AcDbEntity
  8
AM_7
100
AcDbLine
 10
-5.837500000000001
 20
0.045
 30
0.0
 11
1.5875
 21
0.045
 31
0.0
  0
LINE
  5
125
330
F5
100
AcDbEntity
  8
AM_7
100
AcDbLine
 10
-2.25
 20
1.3
 30
0.0
 11
-2.25
 21
-0.9897950000000001
 31
0.0
  0
LINE
  5
126
330
F5
100
AcDbEntity
  8
AM_7
100
AcDbLine
 10
-5.8375
 20
-0.045
 30
0.0
 11
1.587500000000001
 21
-0.045
 31
0.0
  0
LINE
  5
127
330
F5
100
AcDbEntity
  8
AM_7
100
AcDbLine
 10
5.725
 20
0.0
 30
0.0
 11
-7.425
 21
0.0
 31
0.0
  0
LINE
  5
128
330
F5
100
AcDbEntity
  8
AM_7
100
AcDbLine
 10
-0.0625000000000004
 20
5.5685
 30
0.0
 11
1.3125
 21
5.5685
 31
0.0
  0
LINE
  5
129
330
F5
100
AcDbEntity
  8
AM_7
100
AcDbLine
 10
-0.0625000000000004
 20
-5.5685
 30
0.0
 11
1.3125
 21
-5.5685
 31
0.0
  0
LINE
  5
12A
330
F5
100
AcDbEntity
  8
AM_7
100
AcDbLine
 10
-2.75
 20
7.481249999999999
 30
0.0
 11
-2.75
 21
6.51875
 31
0.0
  0
LINE
  5
12B
330
F5
100
AcDbEntity
  8
AM_4
100
AcDbLine
 10
-3.293478260869565
 20
7.192499999999999
 30
0.0
 11
-3.293478260869565
 21
6.889286784062151
 31
0.0
  0
LINE
  5
12C
330
F5
100
AcDbEntity
  8
AM_4
100
AcDbLine
 10
-2.206521739130435
 20
6.870653751808915
 30
0.0
 11
-2.206521739130435
 21
7.192499999999999
 31
0.0
  0
LINE
  5
12D
330
F5
100
AcDbEntity
  8
AM_4
100
AcDbLine
 10
-2.206521739130435
 20
7.437499999999999
 30
0.0
 11
-3.293478260869565
 21
7.437499999999999
 31
0.0
  0
LINE
  5
12E
330
F5
100
AcDbEntity
  8
AM_4
100
AcDbLine
 10
-3.293478260869565
 20
7.437499999999999
 30
0.0
 11
-3.293478260869565
 21
7.27840909090909
 31
0.0
  0
LINE
  5
12F
330
F5
100
AcDbEntity
  8
AM_4
100
AcDbLine
 10
-2.206521739130435
 20
7.27840909090909
 30
0.0
 11
-2.206521739130435
 21
7.437499999999999
 31
0.0
  0
LINE
  5
130
330
F5
100
AcDbEntity
  8
AM_4
100
AcDbLine
 10
-2.125
 20
7.192499999999999
 30
0.0
 11
-3.375
 21
7.192499999999999
 31
0.0
  0
LINE
  5
131
330
F5
100
AcDbEntity
  8
AM_4
100
AcDbLine
 10
-2.125
 20
7.27840909090909
 30
0.0
 11
-3.375
 21
7.27840909090909
 31
0.0
  0
LINE
  5
132
330
F5
100
AcDbEntity
  8
AM_4
100
AcDbLine
 10
-3.375
 20
7.27840909090909
 30
0.0
 11
-3.375
 21
7.192499999999999
 31
0.0
  0
LINE
  5
133
330
F5
100
AcDbEntity
  8
AM_4
100
AcDbLine
 10
-2.125
 20
7.192499999999999
 30
0.0
 11
-2.125
 21
7.27840909090909
 31
0.0
  0
LINE
  5
134
330
F5
100
AcDbEntity
  8
AM_4
100
AcDbLine
 10
-5.5
 20
6.353283032867257
 30
0.0
 11
-5.500000000000001
 21
0.0450000000000008
 31
0.0
  0
ARC
  5
135
330
F5
100
AcDbEntity
  8
AM_4
100
AcDbCircle
 10
-5.185
 20
6.353283032867257
 30
0.0
 40
0.3149999999999996
100
AcDbArc
 50
101.5436470091856
 51
180.0
  0
LINE
  5
136
330
F5
100
AcDbEntity
  8
AM_4
100
AcDbLine
 10
-5.499999999999999
 20
-6.353283032867258
 30
0.0
 11
-5.5
 21
-0.045
 31
0.0
  0
ARC
  5
137
330
F5
100
AcDbEntity
  8
AM_4
100
AcDbCircle
 10
-5.184999999999993
 20
-6.353283032867256
 30
0.0
 40
0.3150000000000057
100
AcDbArc
 50
180.0
 51
258.4563529908129
  0
ARC
  5
138
330
F5
100
AcDbEntity
  8
AM_4
100
AcDbCircle
 10
-2.946875000000018
 20
-4.60471790890287
 30
0.0
 40
11.49922943950365
100
AcDbArc
 50
77.171957253924
 51
86.31675843825197
  0
ARC
  5
139
330
F5
100
AcDbEntity
  8
AM_4
100
AcDbCircle
 10
-2.946874999999942
 20
-4.60471790890315
 30
0.0
 40
11.49922943950393
100
AcDbArc
 50
91.71889901455525
 51
101.5436470091855
  0
LINE
  5
13A
330
F5
100
AcDbEntity
  8
AM_4
100
AcDbLine
 10
-5.248036025755145
 20
6.661911384541234
 30
0.0
 11
-5.248036025755146
 21
0.0450000000000008
 31
0.0
  0
LWPOLYLINE
  5
13B
330
F5
100
AcDbEntity
  8
AM_4
100
AcDbPolyline
 90
       21
 70
     0
 43
0.0
 10
-2.206521739174514
 20
6.87065375180825
 10
-2.207319694862989
 20
6.870641716717587
 10
-2.220255850687784
 20
6.870451900505456
 10
-2.247650840901006
 20
6.870082831330506
 10
-2.290293367858798
 20
6.869597267870927
 10
-2.344610285487853
 20
6.869135508622159
 10
-2.412162227663684
 20
6.868806101793322
 10
-2.487276264229477
 20
6.868758335727063
 10
-2.572116930145909
 20
6.869107405294649
 10
-2.659531661534012
 20
6.869913830947999
 10
-2.752060295814017
 20
6.871260937137672
 10
-2.841926069365501
 20
6.873054586216324
 10
-2.931724379700163
 20
6.875324048815677
 10
-3.013967990235781
 20
6.877820603872113
 10
-3.090978157757716
 20
6.880520238319543
 10
-3.156338403684418
 20
6.883085834535341
 10
-3.21187784399815
 20
6.885463735015194
 10
-3.252924311601
 20
6.887337826801406
 10
-3.280666257520615
 20
6.888660606872504
 10
-3.292761319986853
 20
6.889251489129999
 10
-3.293478260798341
 20
6.889286784058643
  0
ARC
  5
13C
330
F5
100
AcDbEntity
  8
AM_4
100
AcDbCircle
 10
-2.946875000000007
 20
4.604717908902657
 30
0.0
 40
11.49922943950344
100
AcDbArc
 50
258.4563529908143
 51
282.8280427460743
  0
LINE
  5
13D
330
F5
100
AcDbEntity
  8
AM_4
100
AcDbLine
 10
-5.248036025755147
 20
-6.661911384541237
 30
0.0
 11
-5.248036025755148
 21
-0.045
 31
0.0
  0
ARC
  5
13E
330
F5
100
AcDbEntity
  8
AM_4
100
AcDbCircle
 10
-0.3937499999999946
 20
7.001249999999912
 30
0.0
 40
0.3937499999999945
100
AcDbArc
 50
270.0
 51
0.0
  0
LINE
  5
13F
330
F5
100
AcDbEntity
  8
AM_4
100
AcDbLine
 10
-0.3937499999996261
 20
6.607499999999917
 30
0.0
 11
-0.3937499999996261
 21
0.6
 31
0.0
  0
ARC
  5
140
330
F5
100
AcDbEntity
  8
AM_4
100
AcDbCircle
 10
-0.3937500000000002
 20
-7.001250000000001
 30
0.0
 40
0.3937500000000004
100
AcDbArc
 50
0.0
 51
90.0
  0
LINE
  5
141
330
F5
100
AcDbEntity
  8
AM_4
100
AcDbLine
 10
-0.3937499999999996
 20
-6.6075
 30
0.0
 11
-0.3937499999999996
 21
-0.6
 31
0.0
  0
LINE
  5
142
330
F5
100
AcDbEntity
  8
AM_4
100
AcDbLine
 10
-1.693149999999999
 20
0.9712333333333334
 30
0.0
 11
-2.806850000000001
 21
0.9712333333333334
 31
0.0
  0
LINE
  5
143
330
F5
100
AcDbEntity
  8
AM_4
100
AcDbLine
 10
-2.806850000000001
 20
0.9712333333333334
 30
0.0
 11
-2.892994994796485
 21
0.9214974973982442
 31
0.0
  0
LINE
  5
144
330
F5
100
AcDbEntity
  8
AM_4
100
AcDbLine
 10
-2.892994994796485
 20
0.6497358359350892
 30
0.0
 11
-2.806850000000001
 21
0.6
 31
0.0
  0
LINE
  5
145
330
F5
100
AcDbEntity
  8
AM_4
100
AcDbLine
 10
-1.693149999999999
 20
0.6
 30
0.0
 11
-1.607005005203513
 21
0.6497358359350895
 31
0.0
  0
LINE
  5
146
330
F5
100
AcDbEntity
  8
AM_4
100
AcDbLine
 10
-2.806850000000001
 20
-0.6
 30
0.0
 11
-2.892994994796485
 21
-0.6497358359350894
 31
0.0
  0
LINE
  5
147
330
F5
100
AcDbEntity
  8
AM_4
100
AcDbLine
 10
-1.607005005203513
 20
0.9214974973982438
 30
0.0
 11
-1.693149999999999
 21
0.9712333333333334
 31
0.0
  0
LINE
  5
148
330
F5
100
AcDbEntity
  8
AM_4
100
AcDbLine
 10
-1.607005005203513
 20
-0.6497358359350897
 30
0.0
 11
-1.693149999999999
 21
-0.6
 31
0.0
  0
LINE
  5
149
330
F5
100
AcDbEntity
  8
AM_4
100
AcDbLine
 10
-1.693149999999999
 20
-0.9712333333333334
 30
0.0
 11
-2.806850000000001
 21
-0.9712333333333334
 31
0.0
  0
LINE
  5
14A
330
F5
100
AcDbEntity
  8
AM_4
100
AcDbLine
 10
-2.892994994796485
 20
-0.921497497398244
 30
0.0
 11
-2.806850000000001
 21
-0.9712333333333334
 31
0.0
  0
LINE
  5
14B
330
F5
100
AcDbEntity
  8
AM_4
100
AcDbLine
 10
-1.693149999999999
 20
-0.9712333333333334
 30
0.0
 11
-1.607005005203513
 21
-0.9214974973982438
 31
0.0
  0
LINE
  5
14C
330
F5
100
AcDbEntity
  8
AM_4
100
AcDbLine
 10
-2.625
 20
1.14045
 30
0.0
 11
-2.625
 21
0.9712333333333334
 31
0.0
  0
LINE
  5
14D
330
F5
100
AcDbEntity
  8
AM_4
100
AcDbLine
 10
-1.874999999999999
 20
0.9712333333333334
 30
0.0
 11
-1.874999999999999
 21
1.14045
 31
0.0
  0
LINE
  5
14E
330
F5
100
AcDbEntity
  8
AM_4
100
AcDbLine
 10
-1.874999999999999
 20
1.14045
 30
0.0
 11
-2.625
 21
1.14045
 31
0.0
  0
LINE
  5
14F
330
F5
100
AcDbEntity
  8
AM_4
100
AcDbLine
 10
-1.934549999999999
 20
1.2
 30
0.0
 11
-2.56545
 21
1.2
 31
0.0
  0
LINE
  5
150
330
F5
100
AcDbEntity
  8
AM_4
100
AcDbLine
 10
-2.56545
 20
1.2
 30
0.0
 11
-2.625
 21
1.14045
 31
0.0
  0
LINE
  5
151
330
F5
100
AcDbEntity
  8
AM_4
100
AcDbLine
 10
-1.874999999999999
 20
1.14045
 30
0.0
 11
-1.934549999999999
 21
1.2
 31
0.0
  0
LINE
  5
152
330
F5
100
AcDbEntity
  8
AM_4
100
AcDbLine
 10
-2.625
 20
0.0450000000000001
 30
0.0
 11
-2.625
 21
-0.0450000000000001
 31
0.0
  0
LINE
  5
153
330
F5
100
AcDbEntity
  8
AM_4
100
AcDbLine
 10
-1.874999999999999
 20
-0.0450000000000001
 30
0.0
 11
-1.874999999999999
 21
0.0450000000000001
 31
0.0
  0
LWPOLYLINE
  5
154
330
F5
100
AcDbEntity
  8
AM_4
100
AcDbPolyline
 90
        4
 70
     0
 43
0.0
 10
-1.607005005203513
 20
-0.6497358359350897
 10
-1.685760359998343
 20
-0.6136510214585846
 10
-1.726486852090514
 20
-0.6035121184803663
 10
-1.767753753902634
 20
-0.6
  0
LWPOLYLINE
  5
155
330
F5
100
AcDbEntity
  8
AM_4
100
AcDbPolyline
 90
        4
 70
     0
 43
0.0
 10
-1.767753753902634
 20
-0.9712333333333334
 10
-1.756320553592636
 20
-0.970962386672129
 10
-1.681544990289134
 20
-0.9561748788726161
 10
-1.607005005203513
 20
-0.9214974973982439
  0
LINE
  5
156
330
F5
100
AcDbEntity
  8
AM_4
100
AcDbLine
 10
-1.607005005203513
 20
-0.9214974973982439
 30
0.0
 11
-1.607005005203513
 21
-0.6497358359350897
 31
0.0
  0
LWPOLYLINE
  5
157
330
F5
100
AcDbEntity
  8
AM_4
100
AcDbPolyline
 90
        4
 70
     0
 43
0.0
 10
-1.767753753902634
 20
-0.6
 10
-1.779186954212634
 20
-0.6002709466612046
 10
-1.853962517516135
 20
-0.6150584544607176
 10
-1.928502502601756
 20
-0.6497358359350901
  0
LWPOLYLINE
  5
158
330
F5
100
AcDbEntity
  8
AM_4
100
AcDbPolyline
 90
        4
 70
     0
 43
0.0
 10
-1.928502502601756
 20
-0.9214974973982435
 10
-1.849747147806925
 20
-0.9575823118747488
 10
-1.809020655714755
 20
-0.9677212148529671
 10
-1.767753753902634
 20
-0.9712333333333334
  0
LWPOLYLINE
  5
159
330
F5
100
AcDbEntity
  8
AM_4
100
AcDbPolyline
 90
        4
 70
     0
 43
0.0
 10
-2.25
 20
0.9712333333333334
 10
-2.126744054674774
 20
0.9634518453923888
 10
-2.003488109349548
 20
0.94113919510294
 10
-1.928502502601756
 20
0.9214974973982435
  0
LWPOLYLINE
  5
15A
330
F5
100
AcDbEntity
  8
AM_4
100
AcDbPolyline
 90
        4
 70
     0
 43
0.0
 10
-1.928502502601756
 20
0.6497358359350899
 10
-2.003488109349548
 20
0.6300941382303933
 10
-2.125094423991973
 20
0.607988630492799
 10
-2.25
 20
0.6
  0
LWPOLYLINE
  5
15B
330
F5
100
AcDbEntity
  8
AM_4
100
AcDbPolyline
 90
        4
 70
     0
 43
0.0
 10
-2.571497497398243
 20
0.9214974973982434
 10
-2.453630273481308
 20
0.9504116761511021
 10
-2.332415956201513
 20
0.9677311833796604
 10
-2.25
 20
0.9712333333333334
  0
LWPOLYLINE
  5
15C
330
F5
100
AcDbEntity
  8
AM_4
100
AcDbPolyline
 90
        4
 70
     0
 43
0.0
 10
-1.928502502601756
 20
-0.6497358359350901
 10
-2.003488109349548
 20
-0.6300941382303935
 10
-2.125094423991973
 20
-0.6079886304927993
 10
-2.25
 20
-0.6
  0
LWPOLYLINE
  5
15D
330
F5
100
AcDbEntity
  8
AM_4
100
AcDbPolyline
 90
        4
 70
     0
 43
0.0
 10
-2.25
 20
-0.9712333333333334
 10
-2.126744054674774
 20
-0.9634518453923888
 10
-2.003488109349548
 20
-0.94113919510294
 10
-1.928502502601756
 20
-0.9214974973982435
  0
LINE
  5
15E
330
F5
100
AcDbEntity
  8
AM_4
100
AcDbLine
 10
-1.928502502601756
 20
-0.9214974973982435
 30
0.0
 11
-1.928502502601756
 21
-0.6497358359350901
 31
0.0
  0
LWPOLYLINE
  5
15F
330
F5
100
AcDbEntity
  8
AM_4
100
AcDbPolyline
 90
        4
 70
     0
 43
0.0
 10
-2.25
 20
0.6
 10
-2.332415956201513
 20
0.603502149953673
 10
-2.452466232543884
 20
0.6205914276005619
 10
-2.571497497398243
 20
0.6497358359350901
  0
LWPOLYLINE
  5
160
330
F5
100
AcDbEntity
  8
AM_4
100
AcDbPolyline
 90
        4
 70
     0
 43
0.0
 10
-2.732246246097365
 20
-0.6
 10
-2.743679446407364
 20
-0.6002709466612046
 10
-2.818455009710865
 20
-0.6150584544607173
 10
-2.892994994796485
 20
-0.6497358359350895
  0
LINE
  5
161
330
F5
100
AcDbEntity
  8
AM_4
100
AcDbLine
 10
-2.892994994796485
 20
-0.921497497398244
 30
0.0
 11
-2.892994994796485
 21
-0.6497358359350895
 31
0.0
  0
LWPOLYLINE
  5
162
330
F5
100
AcDbEntity
  8
AM_4
100
AcDbPolyline
 90
        4
 70
     0
 43
0.0
 10
-2.892994994796485
 20
-0.921497497398244
 10
-2.814239640001655
 20
-0.9575823118747488
 10
-2.773513147909485
 20
-0.9677212148529671
 10
-2.732246246097365
 20
-0.9712333333333334
  0
LINE
  5
163
330
F5
100
AcDbEntity
  8
AM_4
100
AcDbLine
 10
-2.571497497398243
 20
-0.9214974973982434
 30
0.0
 11
-2.571497497398243
 21
-0.6497358359350901
 31
0.0
  0
LINE
  5
164
330
F5
100
AcDbEntity
  8
AM_4
100
AcDbLine
 10
-1.928502502601756
 20
0.9214974973982435
 30
0.0
 11
-1.928502502601756
 21
0.6497358359350899
 31
0.0
  0
LWPOLYLINE
  5
165
330
F5
100
AcDbEntity
  8
AM_4
100
AcDbPolyline
 90
        4
 70
     0
 43
0.0
 10
-1.767753753902634
 20
0.6
 10
-1.779186954212634
 20
0.6002709466612045
 10
-1.853962517516135
 20
0.6150584544607175
 10
-1.928502502601756
 20
0.6497358359350899
  0
LWPOLYLINE
  5
166
330
F5
100
AcDbEntity
  8
AM_4
100
AcDbPolyline
 90
        4
 70
     0
 43
0.0
 10
-1.607005005203513
 20
0.6497358359350895
 10
-1.685760359998343
 20
0.6136510214585845
 10
-1.726486852090514
 20
0.6035121184803662
 10
-1.767753753902634
 20
0.6
  0
LINE
  5
167
330
F5
100
AcDbEntity
  8
AM_4
100
AcDbLine
 10
-1.607005005203513
 20
0.9214974973982439
 30
0.0
 11
-1.607005005203513
 21
0.6497358359350895
 31
0.0
  0
LWPOLYLINE
  5
168
330
F5
100
AcDbEntity
  8
AM_4
100
AcDbPolyline
 90
        4
 70
     0
 43
0.0
 10
-1.767753753902634
 20
0.9712333333333337
 10
-1.756320553592636
 20
0.970962386672129
 10
-1.681544990289134
 20
0.9561748788726162
 10
-1.607005005203513
 20
0.9214974973982439
  0
LWPOLYLINE
  5
169
330
F5
100
AcDbEntity
  8
AM_4
100
AcDbPolyline
 90
        4
 70
     0
 43
0.0
 10
-1.928502502601756
 20
0.9214974973982435
 10
-1.849747147806925
 20
0.9575823118747488
 10
-1.809020655714755
 20
0.9677212148529671
 10
-1.767753753902634
 20
0.9712333333333337
  0
LINE
  5
16A
330
F5
100
AcDbEntity
  8
AM_4
100
AcDbLine
 10
-2.892994994796485
 20
0.9214974973982439
 30
0.0
 11
-2.892994994796485
 21
0.6497358359350894
 31
0.0
  0
LWPOLYLINE
  5
16B
330
F5
100
AcDbEntity
  8
AM_4
100
AcDbPolyline
 90
        4
 70
     0
 43
0.0
 10
-2.732246246097365
 20
0.6
 10
-2.743679446407364
 20
0.6002709466612045
 10
-2.818455009710865
 20
0.6150584544607174
 10
-2.892994994796485
 20
0.6497358359350894
  0
LWPOLYLINE
  5
16C
330
F5
100
AcDbEntity
  8
AM_4
100
AcDbPolyline
 90
        4
 70
     0
 43
0.0
 10
-2.571497497398243
 20
0.6497358359350901
 10
-2.650252852193074
 20
0.6136510214585845
 10
-2.690979344285244
 20
0.6035121184803661
 10
-2.732246246097365
 20
0.6
  0
LINE
  5
16D
330
F5
100
AcDbEntity
  8
AM_4
100
AcDbLine
 10
-2.571497497398243
 20
0.9214974973982434
 30
0.0
 11
-2.571497497398243
 21
0.6497358359350901
 31
0.0
  0
LWPOLYLINE
  5
16E
330
F5
100
AcDbEntity
  8
AM_4
100
AcDbPolyline
 90
        4
 70
     0
 43
0.0
 10
-2.732246246097365
 20
0.9712333333333337
 10
-2.720813045787365
 20
0.9709623866721288
 10
-2.646037482483864
 20
0.9561748788726159
 10
-2.571497497398243
 20
0.9214974973982434
  0
LWPOLYLINE
  5
16F
330
F5
100
AcDbEntity
  8
AM_4
100
AcDbPolyline
 90
        4
 70
     0
 43
0.0
 10
-2.892994994796485
 20
0.9214974973982439
 10
-2.814239640001655
 20
0.9575823118747488
 10
-2.773513147909485
 20
0.9677212148529671
 10
-2.732246246097365
 20
0.9712333333333337
  0
LWPOLYLINE
  5
170
330
F5
100
AcDbEntity
  8
AM_4
100
AcDbPolyline
 90
        4
 70
     0
 43
0.0
 10
-2.571497497398243
 20
-0.9214974973982434
 10
-2.453630273481308
 20
-0.9504116761511021
 10
-2.332415956201513
 20
-0.9677311833796604
 10
-2.25
 20
-0.9712333333333334
  0
LWPOLYLINE
  5
171
330
F5
100
AcDbEntity
  8
AM_4
100
AcDbPolyline
 90
        4
 70
     0
 43
0.0
 10
-2.732246246097365
 20
-0.9712333333333334
 10
-2.720813045787365
 20
-0.9709623866721288
 10
-2.646037482483864
 20
-0.9561748788726158
 10
-2.571497497398243
 20
-0.9214974973982434
  0
LWPOLYLINE
  5
172
330
F5
100
AcDbEntity
  8
AM_4
100
AcDbPolyline
 90
        4
 70
     0
 43
0.0
 10
-2.25
 20
-0.6
 10
-2.332415956201513
 20
-0.6035021499536731
 10
-2.452466232543884
 20
-0.620591427600562
 10
-2.571497497398243
 20
-0.6497358359350901
  0
LWPOLYLINE
  5
173
330
F5
100
AcDbEntity
  8
AM_4
100
AcDbPolyline
 90
        4
 70
     0
 43
0.0
 10
-2.571497497398243
 20
-0.6497358359350901
 10
-2.650252852193074
 20
-0.6136510214585846
 10
-2.690979344285245
 20
-0.6035121184803663
 10
-2.732246246097365
 20
-0.6
  0
LINE
  5
174
330
F5
100
AcDbEntity
  8
AM_4
100
AcDbLine
 10
0.0
 20
8.9825
 30
0.0
 11
0.0
 21
0.6
 31
0.0
  0
LINE
  5
175
330
F5
100
AcDbEntity
  8
AM_4
100
AcDbLine
 10
-5.5
 20
-0.045
 30
0.0
 11
1.25
 21
-0.045
 31
0.0
  0
LINE
  5
176
330
F5
100
AcDbEntity
  8
AM_4
100
AcDbLine
 10
1.249999999999999
 20
-8.9825
 30
0.0
 11
1.25
 21
-0.045
 31
0.0
  0
LINE
  5
177
330
F5
100
AcDbEntity
  8
AM_4
100
AcDbLine
 10
-3.375
 20
0.5999999999999961
 30
0.0
 11
0.0437208869577625
 21
0.6000000000000008
 31
0.0
  0
LINE
  5
178
330
F5
100
AcDbEntity
  8
AM_4
100
AcDbLine
 10
-3.375
 20
0.045
 30
0.0
 11
-3.375
 21
0.5999999999999961
 31
0.0
  0
LINE
  5
179
330
F5
100
AcDbEntity
  8
AM_4
100
AcDbLine
 10
1.24749824559555
 20
8.999999999994012
 30
0.0
 11
0.0025017544044507
 21
8.999999999994012
 31
0.0
  0
LINE
  5
17A
330
F5
100
AcDbEntity
  8
AM_4
100
AcDbLine
 10
0.002500000000025
 20
8.999999999982956
 30
0.0
 11
0.0437208869576033
 21
0.5999999999997381
 31
0.0
  0
LINE
  5
17B
330
F5
100
AcDbEntity
  8
AM_4
100
AcDbLine
 10
-3.375
 20
-0.6
 30
0.0
 11
-3.375
 21
-0.0450000000000813
 31
0.0
  0
LINE
  5
17C
330
F5
100
AcDbEntity
  8
AM_4
100
AcDbLine
 10
-3.375
 20
-0.6
 30
0.0
 11
0.0437208869576637
 21
-0.5999999999999981
 31
0.0
  0
LINE
  5
17D
330
F5
100
AcDbEntity
  8
AM_4
100
AcDbLine
 10
0.0025017544044485
 20
-8.999999999994806
 30
0.0
 11
1.247498245595551
 21
-8.999999999994806
 31
0.0
  0
LWPOLYLINE
  5
17E
330
F5
100
AcDbEntity
  8
AM_4
100
AcDbPolyline
 90
       48
 70
     0
 43
0.0
 10
1.247499999999975
 20
-8.999999999982956
 10
1.247492260987883
 20
-8.994629675876856
 10
1.247460553808821
 20
-8.973198206287345
 10
1.247406271980684
 20
-8.936595144654836
 10
1.247327912903382
 20
-8.884522063781995
 10
1.2472244430532
 20
-8.81713348069206
 10
1.247094828906422
 20
-8.734583912408269
 10
1.246932612847151
 20
-8.633835978656597
 10
1.24673882434115
 20
-8.51720104303952
 10
1.246511216772789
 20
-8.385019882333665
 10
1.246247543526442
 20
-8.237633273315655
 10
1.245953953963783
 20
-8.079921193428863
 10
1.245620153244157
 20
-7.908114739536515
 10
1.245243109800291
 20
-7.722675993671244
 10
1.244819792064911
 20
-7.524067037865687
 10
1.244331700272437
 20
-7.3060810699563
 10
1.243785334774113
 20
-7.074530271648319
 10
1.243176234436644
 20
-6.830066602785243
 10
1.242499938126733
 20
-6.573342023210565
 10
1.241772714727486
 20
-6.312302817295363
 10
1.240969882522505
 20
-6.040134056977489
 10
1.240085705589069
 20
-5.75755331164761
 10
1.239114448004461
 20
-5.465278150696389
 10
1.238016023400457
 20
-5.154632117176105
 10
1.236806243451513
 20
-4.834272997453594
 10
1.235474764138589
 20
-4.505090480401202
 10
1.234011241442645
 20
-4.167974254891271
 10
1.233520881737813
 20
-4.060234605409469
 10
1.23299795619932
 20
-3.948061926107167
 10
1.232438573126047
 20
-3.831058393593735
 10
1.231838094282945
 20
-3.708761031556178
 10
1.231190927234617
 20
-3.580625489067692
 10
1.230490239102974
 20
-3.446004216806879
 10
1.229727552826013
 20
-3.304116483127245
 10
1.228892162328916
 20
-3.15400616982872
 10
1.227970258620614
 20
-2.994480669625836
 10
1.226943574895453
 20
-2.82401943417493
 10
1.225787190514901
 20
-2.640631541993892
 10
1.22446577199085
 20
-2.441622833860541
 10
1.222926679895481
 20
-2.223191417039499
 10
1.221086141114628
 20
-1.979668119157032
 10
1.218797889328506
 20
-1.701933684986731
 10
1.215768039387159
 20
-1.373597236613612
 10
1.211243841938242
 20
-0.9594190646036439
 10
1.20715317905859
 20
-0.6564664357885123
 10
1.201765495129587
 20
-0.3524317147859071
 10
1.197958325032557
 20
-0.1987363634489477
 10
1.191248323823196
 20
-0.0450000000000018
  0
LINE
  5
17F
330
F5
100
AcDbEntity
  8
AM_4
100
AcDbLine
 10
0.0437208869577506
 20
-0.5999999999999394
 30
0.0
 11
0.0024999999999999
 21
-8.999999999999783
 31
0.0
  0
LINE
  5
180
330
F5
100
AcDbEntity
  8
AM_4
100
AcDbLine
 10
-0.0000000000000011
 20
-8.982499999999998
 30
0.0
 11
-0.0000000000000011
 21
-0.6
 31
0.0
  0
LWPOLYLINE
  5
181
330
F5
100
AcDbEntity
  8
AM_4
100
AcDbPolyline
 90
       41
 70
     0
 43
0.0
 10
1.191248323823194
 20
0.0450000000000002
 10
1.197071124187638
 20
0.1699337705637532
 10
1.203132260149114
 20
0.4197582015781305
 10
1.20734905877896
 20
0.6695108313808946
 10
1.211797779454087
 20
1.002004477554981
 10
1.215400111182149
 20
1.333244151272843
 10
1.218454613006988
 20
1.662540534978373
 10
1.221199791639308
 20
1.993679990495405
 10
1.223639402793728
 20
2.322123975296703
 10
1.22582943750692
 20
2.64717646050893
 10
1.228017963629328
 20
3.002157659578156
 10
1.229993293804392
 20
3.352259998031716
 10
1.231779540241651
 20
3.696585082328441
 10
1.233400815150643
 20
4.034234518927166
 10
1.234920117966646
 20
4.374386929835541
 10
1.236302012610283
 20
4.706848142758856
 10
1.23755753007015
 20
5.030719228257452
 10
1.238697701334843
 20
5.345101256891665
 10
1.239706298659005
 20
5.641222188188801
 10
1.240624921436702
 20
5.927853518563165
 10
1.241459539938731
 20
6.204266985692766
 10
1.242216124435893
 20
6.469734327255616
 10
1.242920360532112
 20
6.731202696751459
 10
1.243555285178461
 20
6.980596106372484
 10
1.244125494218042
 20
7.217248896565562
 10
1.24463558349396
 20
7.440495407777573
 10
1.245078674036782
 20
7.644369308010146
 10
1.245474028147793
 20
7.835212958849472
 10
1.245824774025674
 20
8.012550138119632
 10
1.24613403986911
 20
8.175904623644708
 10
1.24641264744594
 20
8.329209170577677
 10
1.246654106916447
 20
8.467415953028954
 10
1.246860771362824
 20
8.59016756827893
 10
1.24703499386726
 20
8.697106613607998
 10
1.247175566177085
 20
8.785739118778551
 10
1.247289419097646
 20
8.85927015378381
 10
1.247377691401493
 20
8.917529255791255
 10
1.247441521861177
 20
8.960345961968365
 10
1.24748280431633
 20
8.988194740544493
 10
1.247499697591142
 20
8.99962558290495
 10
1.247499999999999
 20
8.999999999999783
  0
LINE
  5
182
330
F5
100
AcDbEntity
  8
AM_4
100
AcDbLine
 10
1.25
 20
0.0450000000000011
 30
0.0
 11
-5.500000000000001
 21
0.0450000000000008
 31
0.0
  0
LINE
  5
183
330
F5
100
AcDbEntity
  8
AM_4
100
AcDbLine
 10
1.25
 20
8.982499999999998
 30
0.0
 11
1.25
 21
0.0450000000000011
 31
0.0
  0
LINE
  5
185
330
F5
100
AcDbEntity
  8
AM_5
100
AcDbLine
 10
-2.565450000000001
 20
1.199999999999999
 30
0.0
 11
-2.565450000000001
 21
-0.5625
 31
0.0
  0
LINE
  5
186
330
F5
100
AcDbEntity
  8
AM_5
100
AcDbLine
 10
-2.625
 20
-0.5625
 30
0.0
 11
-2.565450000000001
 21
-0.5625
 31
0.0
  0
LINE
  5
187
330
F5
100
AcDbEntity
  8
AM_5
100
AcDbLine
 10
-2.625
 20
-0.5625
 30
0.0
 11
-1.875000000000001
 21
-0.5625
 31
0.0
  0
LINE
  5
188
330
F5
100
AcDbEntity
  8
AM_5
100
AcDbLine
 10
-1.934550000000001
 20
1.200000000000002
 30
0.0
 11
-1.934550000000001
 21
-0.5625
 31
0.0
  0
LINE
  5
189
330
F5
100
AcDbEntity
  8
AM_5
100
AcDbLine
 10
-1.875000000000001
 20
-0.5625
 30
0.0
 11
-1.934550000000001
 21
-0.5625
 31
0.0
  0
ENDBLK
  5
F8
330
F5
100
AcDbEntity
  8
0
100
AcDbBlockEnd
  0
ENDSEC
  0
SECTION
  2
ENTITIES
  0
INSERT
  5
6F
330
1F
100
AcDbEntity
  8
0
100
AcDbBlockReference
  2
1_104003_2
 10
0.0
 20
0.0
 30
0.0
  0
POINT
  5
18B
330
1F
100
AcDbEntity
  8
ConnectionPoints
100
AcDbPoint
 10
2.125
 20
0.0
 30
-0.0000000000000001
  0
POINT
  5
18C
330
1F
100
AcDbEntity
  8
ConnectionPoints
100
AcDbPoint
 10
0.0
 20
0.0
 30
0.0
  0
POINT
  5
18D
330
1F
100
AcDbEntity
  8
ConnectionPoints
100
AcDbPoint
 10
2.125
 20
0.0
 30
-0.0000000000000001
  0
ENDSEC
  0
SECTION
  2
OBJECTS
  0
DICTIONARY
  5
C
330
0
100
AcDbDictionary
281
     1
  3
ACAD_DETAILVIEWSTYLE
350
195
  3
ACAD_GROUP
350
D
  3
ACAD_LAYOUT
350
1A
  3
ACAD_MATERIAL
350
43
  3
ACAD_MLEADERSTYLE
350
6B
  3
ACAD_MLINESTYLE
350
17
  3
ACAD_PLOTSETTINGS
350
19
  3
ACAD_PLOTSTYLENAME
350
E
  3
ACAD_SCALELIST
350
47
  3
ACAD_SECTIONVIEWSTYLE
350
196
  3
ACAD_TABLESTYLE
350
69
  3
ACAD_VISUALSTYLE
350
2A
  3
ACDB_RECOMPOSE_DATA
350
192
  3
AcDbVariableDictionary
350
18E
  0
SUN
  5
6D
330
29
100
AcDbSun
 90
        1
290
     0
 63
     7
421
 16777215
 40
1.0
291
     1
 91
  2455826
 92
 54000000
292
     0
 70
     2
 71
   256
280
     1
  0
DICTIONARY
  5
195
102
{ACAD_REACTORS
330
C
102
}
330
C
100
AcDbDictionary
281
     1
  0
DICTIONARY
  5
D
102
{ACAD_REACTORS
330
C
102
}
330
C
100
AcDbDictionary
281
     1
  0
DICTIONARY
  5
1A
102
{ACAD_REACTORS
330
C
102
}
330
C
100
AcDbDictionary
281
     1
  3
Layout1
350
1E
  3
Layout2
350
26
  3
Model
350
22
  0
DICTIONARY
  5
43
102
{ACAD_REACTORS
330
C
102
}
330
C
100
AcDbDictionary
281
     1
  3
ByBlock
350
45
  3
ByLayer
350
44
  3
Global
350
46
  0
DICTIONARY
  5
6B
102
{ACAD_REACTORS
330
C
102
}
330
C
100
AcDbDictionary
281
     1
  3
Standard
350
6C
  0
DICTIONARY
  5
17
102
{ACAD_REACTORS
330
C
102
}
330
C
100
AcDbDictionary
281
     1
  3
Standard
350
18
  0
DICTIONARY
  5
19
102
{ACAD_REACTORS
330
C
102
}
330
C
100
AcDbDictionary
281
     1
  0
ACDBDICTIONARYWDFLT
  5
E
102
{ACAD_REACTORS
330
C
102
}
330
C
100
AcDbDictionary
281
     1
  3
Normal
350
F
100
AcDbDictionaryWithDefault
340
F
  0
DICTIONARY
  5
47
102
{ACAD_REACTORS
330
C
102
}
330
C
100
AcDbDictionary
281
     1
  3
A0
350
48
  3
A1
350
49
  3
A2
350
4A
  3
A3
350
4B
  3
A4
350
4C
  3
A5
350
4D
  3
A6
350
4E
  3
A7
350
4F
  3
A8
350
50
  3
A9
350
51
  3
B0
350
52
  3
B1
350
53
  3
B2
350
54
  3
B3
350
55
  3
B4
350
56
  3
B5
350
57
  3
B6
350
58
  3
B7
350
59
  3
B8
350
5A
  3
B9
350
5B
  3
C0
350
5C
  3
C1
350
5D
  3
C2
350
5E
  3
C3
350
5F
  3
C4
350
60
  3
C5
350
61
  3
C6
350
62
  3
C7
350
63
  3
C8
350
64
  3
C9
350
65
  3
D0
350
66
  3
D1
350
67
  3
D2
350
68
  0
DICTIONARY
  5
196
102
{ACAD_REACTORS
330
C
102
}
330
C
100
AcDbDictionary
281
     1
  0
DICTIONARY
  5
69
102
{ACAD_REACTORS
330
C
102
}
330
C
100
AcDbDictionary
281
     1
  3
Standard
350
6A
  0
DICTIONARY
  5
2A
102
{ACAD_REACTORS
330
C
102
}
330
C
100
AcDbDictionary
281
     1
  3
2dWireframe
350
2F
  3
Basic
350
32
  3
Brighten
350
36
  3
ColorChange
350
3A
  3
Conceptual
350
34
  3
Dim
350
35
  3
EdgeColorOff
350
3D
  3
Facepattern
350
39
  3
Flat
350
2B
  3
FlatWithEdges
350
2C
  3
Gouraud
350
2D
  3
GouraudWithEdges
350
2E
  3
Hidden
350
31
  3
JitterOff
350
3B
  3
Linepattern
350
38
  3
OverhangOff
350
3C
  3
Realistic
350
33
  3
Shaded
350
42
  3
Shaded with edges
350
41
  3
Shades of Gray
350
3E
  3
Sketchy
350
3F
  3
Thicken
350
37
  3
Wireframe
350
30
  3
X-Ray
350
40
  0
XRECORD
  5
192
102
{ACAD_REACTORS
330
C
102
}
330
C
100
AcDbXrecord
280
     1
 90
        1
330
6A
  0
DICTIONARY
  5
18E
102
{ACAD_REACTORS
330
C
102
}
330
C
100
AcDbDictionary
281
     1
  3
CANNOSCALE
350
18F
  3
CMLEADERSTYLE
350
194
  3
CTABLESTYLE
350
193
  0
LAYOUT
  5
1E
102
{ACAD_REACTORS
330
1A
102
}
330
1A
100
AcDbPlotSettings
  1

  2
none_device
  4

  6

 40
0.0
 41
0.0
 42
0.0
 43
0.0
 44
0.0
 45
0.0
 46
0.0
 47
0.0
 48
0.0
 49
0.0
140
0.0
141
0.0
142
1.0
143
1.0
 70
   688
 72
     0
 73
     0
 74
     5
  7

 75
    16
 76
     0
 77
     2
 78
   300
147
1.0
148
0.0
149
0.0
100
AcDbLayout
  1
Layout1
 70
     1
 71
     1
 10
0.0
 20
0.0
 11
12.0
 21
9.0
 12
0.0
 22
0.0
 32
0.0
 14
1.000000000000000E+20
 24
1.000000000000000E+20
 34
1.000000000000000E+20
 15
-1.000000000000000E+20
 25
-1.000000000000000E+20
 35
-1.000000000000000E+20
146
0.0
 13
0.0
 23
0.0
 33
0.0
 16
1.0
 26
0.0
 36
0.0
 17
0.0
 27
1.0
 37
0.0
 76
     0
330
1B
  0
LAYOUT
  5
26
102
{ACAD_REACTORS
330
1A
102
}
330
1A
100
AcDbPlotSettings
  1

  2
none_device
  4

  6

 40
0.0
 41
0.0
 42
0.0
 43
0.0
 44
0.0
 45
0.0
 46
0.0
 47
0.0
 48
0.0
 49
0.0
140
0.0
141
0.0
142
1.0
143
1.0
 70
   688
 72
     0
 73
     0
 74
     5
  7

 75
    16
 76
     0
 77
     2
 78
   300
147
1.0
148
0.0
149
0.0
100
AcDbLayout
  1
Layout2
 70
     1
 71
     2
 10
0.0
 20
0.0
 11
0.0
 21
0.0
 12
0.0
 22
0.0
 32
0.0
 14
0.0
 24
0.0
 34
0.0
 15
0.0
 25
0.0
 35
0.0
146
0.0
 13
0.0
 23
0.0
 33
0.0
 16
1.0
 26
0.0
 36
0.0
 17
0.0
 27
1.0
 37
0.0
 76
     0
330
23
  0
LAYOUT
  5
22
102
{ACAD_REACTORS
330
1A
102
}
330
1A
100
AcDbPlotSettings
  1

  2
none_device
  4
Letter_(8.50_x_11.00_Inches)
  6

 40
6.35
 41
6.35
 42
6.35000508
 43
6.35000508
 44
215.9
 45
279.4
 46
0.0
 47
0.0
 48
0.0
 49
0.0
140
0.0
141
0.0
142
1.0
143
1.0
 70
  1712
 72
     0
 73
     0
 74
     0
  7

 75
     0
 76
     0
 77
     2
 78
   300
147
1.0
148
0.0
149
0.0
100
AcDbLayout
  1
Model
 70
     1
 71
     0
 10
0.0
 20
0.0
 11
12.0
 21
9.0
 12
0.0
 22
0.0
 32
0.0
 14
1.000000000000000E+20
 24
1.000000000000000E+20
 34
1.000000000000000E+20
 15
-1.000000000000000E+20
 25
-1.000000000000000E+20
 35
-1.000000000000000E+20
146
0.0
 13
0.0
 23
0.0
 33
0.0
 16
1.0
 26
0.0
 36
0.0
 17
0.0
 27
1.0
 37
0.0
 76
     0
330
1F
331
29
  0
MATERIAL
  5
45
102
{ACAD_REACTORS
330
43
102
}
330
43
100
AcDbMaterial
  1
ByBlock
 72
     1
 94
      127
  0
MATERIAL
  5
44
102
{ACAD_REACTORS
330
43
102
}
330
43
100
AcDbMaterial
  1
ByLayer
 72
     1
 94
      127
  0
MATERIAL
  5
46
102
{ACAD_REACTORS
330
43
102
}
330
43
100
AcDbMaterial
  1
Global
 72
     1
 94
      127
  0
MLEADERSTYLE
  5
6C
102
{ACAD_REACTORS
330
6B
102
}
330
6B
100
AcDbMLeaderStyle
179
     2
170
     2
171
     1
172
     0
 90
        2
 40
0.0
 41
0.0
173
     1
 91
-1056964608
340
14
 92
       -2
290
     1
 42
0.09
291
     1
 43
0.36
  3
Standard
341
0
 44
0.18
300

342
11
174
     1
178
     6
175
     1
176
     0
 93
-1056964608
 45
0.18
292
     0
297
     0
 46
0.18
343
0
 94
-1056964608
 47
1.0
 49
1.0
140
1.0
293
     1
141
0.0
294
     1
177
     0
142
1.0
295
     0
296
     0
143
0.125
271
     0
272
     9
273
     9
298
     0
  0
MLINESTYLE
  5
18
102
{ACAD_REACTORS
330
17
102
}
330
17
100
AcDbMlineStyle
  2
Standard
 70
     0
  3

 62
   256
 51
90.0
 52
90.0
 71
     2
 49
0.5
 62
   256
  6
BYLAYER
 49
-0.5
 62
   256
  6
BYLAYER
  0
ACDBPLACEHOLDER
  5
F
102
{ACAD_REACTORS
330
E
102
}
330
E
  0
SCALE
  5
48
102
{ACAD_REACTORS
330
47
102
}
330
47
100
AcDbScale
 70
     0
300
1:1
140
1.0
141
1.0
290
     1
  0
SCALE
  5
49
102
{ACAD_REACTORS
330
47
102
}
330
47
100
AcDbScale
 70
     0
300
1:2
140
1.0
141
2.0
290
     0
  0
SCALE
  5
4A
102
{ACAD_REACTORS
330
47
102
}
330
47
100
AcDbScale
 70
     0
300
1:4
140
1.0
141
4.0
290
     0
  0
SCALE
  5
4B
102
{ACAD_REACTORS
330
47
102
}
330
47
100
AcDbScale
 70
     0
300
1:5
140
1.0
141
5.0
290
     0
  0
SCALE
  5
4C
102
{ACAD_REACTORS
330
47
102
}
330
47
100
AcDbScale
 70
     0
300
1:8
140
1.0
141
8.0
290
     0
  0
SCALE
  5
4D
102
{ACAD_REACTORS
330
47
102
}
330
47
100
AcDbScale
 70
     0
300
1:10
140
1.0
141
10.0
290
     0
  0
SCALE
  5
4E
102
{ACAD_REACTORS
330
47
102
}
330
47
100
AcDbScale
 70
     0
300
1:16
140
1.0
141
16.0
290
     0
  0
SCALE
  5
4F
102
{ACAD_REACTORS
330
47
102
}
330
47
100
AcDbScale
 70
     0
300
1:20
140
1.0
141
20.0
290
     0
  0
SCALE
  5
50
102
{ACAD_REACTORS
330
47
102
}
330
47
100
AcDbScale
 70
     0
300
1:30
140
1.0
141
30.0
290
     0
  0
SCALE
  5
51
102
{ACAD_REACTORS
330
47
102
}
330
47
100
AcDbScale
 70
     0
300
1:40
140
1.0
141
40.0
290
     0
  0
SCALE
  5
52
102
{ACAD_REACTORS
330
47
102
}
330
47
100
AcDbScale
 70
     0
300
1:50
140
1.0
141
50.0
290
     0
  0
SCALE
  5
53
102
{ACAD_REACTORS
330
47
102
}
330
47
100
AcDbScale
 70
     0
300
1:100
140
1.0
141
100.0
290
     0
  0
SCALE
  5
54
102
{ACAD_REACTORS
330
47
102
}
330
47
100
AcDbScale
 70
     0
300
2:1
140
2.0
141
1.0
290
     0
  0
SCALE
  5
55
102
{ACAD_REACTORS
330
47
102
}
330
47
100
AcDbScale
 70
     0
300
4:1
140
4.0
141
1.0
290
     0
  0
SCALE
  5
56
102
{ACAD_REACTORS
330
47
102
}
330
47
100
AcDbScale
 70
     0
300
8:1
140
8.0
141
1.0
290
     0
  0
SCALE
  5
57
102
{ACAD_REACTORS
330
47
102
}
330
47
100
AcDbScale
 70
     0
300
10:1
140
10.0
141
1.0
290
     0
  0
SCALE
  5
58
102
{ACAD_REACTORS
330
47
102
}
330
47
100
AcDbScale
 70
     0
300
100:1
140
100.0
141
1.0
290
     0
  0
SCALE
  5
59
102
{ACAD_REACTORS
330
47
102
}
330
47
100
AcDbScale
 70
     0
300
1/128" = 1'-0"
140
0.0078125
141
12.0
290
     0
  0
SCALE
  5
5A
102
{ACAD_REACTORS
330
47
102
}
330
47
100
AcDbScale
 70
     0
300
1/64" = 1'-0"
140
0.015625
141
12.0
290
     0
  0
SCALE
  5
5B
102
{ACAD_REACTORS
330
47
102
}
330
47
100
AcDbScale
 70
     0
300
1/32" = 1'-0"
140
0.03125
141
12.0
290
     0
  0
SCALE
  5
5C
102
{ACAD_REACTORS
330
47
102
}
330
47
100
AcDbScale
 70
     0
300
1/16" = 1'-0"
140
0.0625
141
12.0
290
     0
  0
SCALE
  5
5D
102
{ACAD_REACTORS
330
47
102
}
330
47
100
AcDbScale
 70
     0
300
3/32" = 1'-0"
140
0.09375
141
12.0
290
     0
  0
SCALE
  5
5E
102
{ACAD_REACTORS
330
47
102
}
330
47
100
AcDbScale
 70
     0
300
1/8" = 1'-0"
140
0.125
141
12.0
290
     0
  0
SCALE
  5
5F
102
{ACAD_REACTORS
330
47
102
}
330
47
100
AcDbScale
 70
     0
300
3/16" = 1'-0"
140
0.1875
141
12.0
290
     0
  0
SCALE
  5
60
102
{ACAD_REACTORS
330
47
102
}
330
47
100
AcDbScale
 70
     0
300
1/4" = 1'-0"
140
0.25
141
12.0
290
     0
  0
SCALE
  5
61
102
{ACAD_REACTORS
330
47
102
}
330
47
100
AcDbScale
 70
     0
300
3/8" = 1'-0"
140
0.375
141
12.0
290
     0
  0
SCALE
  5
62
102
{ACAD_REACTORS
330
47
102
}
330
47
100
AcDbScale
 70
     0
300
1/2" = 1'-0"
140
0.5
141
12.0
290
     0
  0
SCALE
  5
63
102
{ACAD_REACTORS
330
47
102
}
330
47
100
AcDbScale
 70
     0
300
3/4" = 1'-0"
140
0.75
141
12.0
290
     0
  0
SCALE
  5
64
102
{ACAD_REACTORS
330
47
102
}
330
47
100
AcDbScale
 70
     0
300
1" = 1'-0"
140
1.0
141
12.0
290
     0
  0
SCALE
  5
65
102
{ACAD_REACTORS
330
47
102
}
330
47
100
AcDbScale
 70
     0
300
1-1/2" = 1'-0"
140
1.5
141
12.0
290
     0
  0
SCALE
  5
66
102
{ACAD_REACTORS
330
47
102
}
330
47
100
AcDbScale
 70
     0
300
3" = 1'-0"
140
3.0
141
12.0
290
     0
  0
SCALE
  5
67
102
{ACAD_REACTORS
330
47
102
}
330
47
100
AcDbScale
 70
     0
300
6" = 1'-0"
140
6.0
141
12.0
290
     0
  0
SCALE
  5
68
102
{ACAD_REACTORS
330
47
102
}
330
47
100
AcDbScale
 70
     0
300
1'-0" = 1'-0"
140
12.0
141
12.0
290
     0
  0
TABLESTYLE
  5
6A
102
{ACAD_REACTORS
330
69
102
}
102
{ACAD_XDICTIONARY
360
190
102
}
330
69
100
AcDbTableStyle
  3
Standard
 70
     0
 71
     0
 40
0.06
 41
0.06
280
     0
281
     0
  7
Standard
140
0.18
170
     2
 62
     0
 63
   257
283
     0
 90
        4
 91
        0
  1

274
    -2
284
     1
 64
     0
275
    -2
285
     1
 65
     0
276
    -2
286
     1
 66
     0
277
    -2
287
     1
 67
     0
278
    -2
288
     1
 68
     0
279
    -2
289
     1
 69
     0
  7
Standard
140
0.25
170
     5
 62
     0
 63
   257
283
     0
 90
        4
 91
        0
  1

274
    -2
284
     1
 64
     0
275
    -2
285
     1
 65
     0
276
    -2
286
     1
 66
     0
277
    -2
287
     1
 67
     0
278
    -2
288
     1
 68
     0
279
    -2
289
     1
 69
     0
  7
Standard
140
0.18
170
     5
 62
     0
 63
   257
283
     0
 90
        4
 91
        0
  1

274
    -2
284
     1
 64
     0
275
    -2
285
     1
 65
     0
276
    -2
286
     1
 66
     0
277
    -2
287
     1
 67
     0
278
    -2
288
     1
 68
     0
279
    -2
289
     1
 69
     0
  0
VISUALSTYLE
  5
2F
102
{ACAD_REACTORS
330
2A
102
}
330
2A
100
AcDbVisualStyle
  2
2dWireframe
 70
     4
177
     3
291
     0
 70
    58
 90
        0
176
     1
 90
        2
176
     1
 90
        0
176
     1
 90
        0
176
     1
 40
0.6
176
     1
 40
30.0
176
     1
 62
     7
420
 16777215
176
     1
 90
        1
176
     1
 90
        4
176
     1
 62
     7
176
     1
 62
   257
176
     1
 90
        1
176
     1
 90
        1
176
     1
 40
1.0
176
     1
 90
        0
176
     1
 62
   257
176
     1
 40
1.0
176
     1
 90
        1
176
     1
 90
        6
176
     1
 90
        2
176
     1
 62
     7
176
     1
 90
        5
176
     1
 90
        0
176
     1
 90
        0
176
     1
290
     0
176
     1
 90
        1
176
     1
 40
0.0
176
     1
 90
        0
176
     1
290
     1
176
     1
290
     1
176
     1
290
     0
176
     1
290
     0
176
     1
290
     0
176
     1
290
     0
176
     1
290
     0
176
     1
290
     0
176
     1
290
     0
176
     1
 90
       50
176
     1
 40
0.0
176
     1
 40
1.0
176
     1
 90
        0
176
     1
 62
    18
420
        0
176
     1
 90
       50
176
     1
 90
        3
176
     1
 62
     5
420
      255
176
     1
290
     0
176
     1
 90
       50
176
     1
 90
       50
176
     1
 90
       50
176
     1
290
     0
176
     1
 90
       50
176
     1
 62
   256
176
     0
 40
1.0
176
     0
 90
        2
176
     1
  1
strokes_ogs.tif
176
     1
290
     0
176
     1
 40
1.0
176
     1
 40
1.0
176
     1
  0
VISUALSTYLE
  5
32
102
{ACAD_REACTORS
330
2A
102
}
330
2A
100
AcDbVisualStyle
  2
Basic
 70
     7
177
     3
291
     1
 70
    58
 90
        1
176
     1
 90
        0
176
     1
 90
        1
176
     1
 90
        0
176
     1
 40
0.6
176
     1
 40
30.0
176
     1
 62
     7
420
 16777215
176
     1
 90
        0
176
     1
 90
        4
176
     1
 62
     7
176
     1
 62
   257
176
     1
 90
        1
176
     1
 90
        1
176
     1
 40
1.0
176
     1
 90
        8
176
     1
 62
     7
176
     1
 40
1.0
176
     1
 90
        1
176
     1
 90
        6
176
     1
 90
        2
176
     1
 62
     7
176
     1
 90
        5
176
     1
 90
        0
176
     1
 90
        0
176
     1
290
     0
176
     1
 90
        1
176
     1
 40
0.0
176
     1
 90
        0
176
     1
290
     0
176
     1
290
     1
176
     1
290
     1
176
     1
290
     0
176
     1
290
     0
176
     1
290
     0
176
     1
290
     0
176
     1
290
     0
176
     1
290
     0
176
     1
 90
       50
176
     1
 40
0.0
176
     1
 40
1.0
176
     1
 90
        0
176
     1
 62
    18
420
        0
176
     1
 90
       50
176
     1
 90
        3
176
     1
 62
     5
420
      255
176
     1
290
     0
176
     1
 90
       50
176
     1
 90
       50
176
     1
 90
       50
176
     1
290
     0
176
     1
 90
       50
176
     1
 62
   256
176
     0
 40
1.0
176
     0
 90
        2
176
     1
  1
strokes_ogs.tif
176
     1
290
     0
176
     1
 40
1.0
176
     1
 40
1.0
176
     1
  0
VISUALSTYLE
  5
36
102
{ACAD_REACTORS
330
2A
102
}
330
2A
100
AcDbVisualStyle
  2
Brighten
 70
    12
177
     3
291
     1
 70
    58
 90
        2
176
     1
 90
        2
176
     1
 90
        0
176
     1
 90
        0
176
     1
 40
0.6
176
     1
 40
30.0
176
     1
 62
     7
420
 16777215
176
     1
 90
        1
176
     1
 90
        4
176
     1
 62
     7
176
     1
 62
   257
176
     1
 90
        1
176
     1
 90
        1
176
     1
 40
1.0
176
     1
 90
        8
176
     1
 62
     7
176
     1
 40
1.0
176
     1
 90
        1
176
     1
 90
        6
176
     1
 90
        2
176
     1
 62
     7
176
     1
 90
        5
176
     1
 90
        0
176
     1
 90
        0
176
     1
290
     0
176
     1
 90
        1
176
     1
 40
50.0
176
     1
 90
        0
176
     1
290
     0
176
     1
290
     1
176
     1
290
     1
176
     1
290
     0
176
     1
290
     0
176
     1
290
     0
176
     1
290
     0
176
     1
290
     0
176
     1
290
     0
176
     1
 90
       50
176
     1
 40
0.0
176
     1
 40
1.0
176
     1
 90
        0
176
     1
 62
    18
420
        0
176
     1
 90
       50
176
     1
 90
        3
176
     1
 62
     5
420
      255
176
     1
290
     0
176
     1
 90
       50
176
     1
 90
       50
176
     1
 90
       50
176
     1
290
     0
176
     1
 90
       50
176
     1
 62
   256
176
     0
 40
1.0
176
     0
 90
        2
176
     1
  1
strokes_ogs.tif
176
     1
290
     0
176
     1
 40
1.0
176
     1
 40
1.0
176
     1
  0
VISUALSTYLE
  5
3A
102
{ACAD_REACTORS
330
2A
102
}
330
2A
100
AcDbVisualStyle
  2
ColorChange
 70
    16
177
     3
291
     1
 70
    58
 90
        2
176
     1
 90
        2
176
     1
 90
        3
176
     1
 90
        0
176
     1
 40
0.6
176
     1
 40
30.0
176
     1
 62
     8
420
  8421504
176
     1
 90
        1
176
     1
 90
        4
176
     1
 62
     7
176
     1
 62
   257
176
     1
 90
        1
176
     1
 90
        1
176
     1
 40
1.0
176
     1
 90
        8
176
     1
 62
     8
420
  8421504
176
     1
 40
1.0
176
     1
 90
        1
176
     1
 90
        6
176
     1
 90
        2
176
     1
 62
     7
176
     1
 90
        5
176
     1
 90
        0
176
     1
 90
        0
176
     1
290
     0
176
     1
 90
        1
176
     1
 40
0.0
176
     1
 90
        0
176
     1
290
     0
176
     1
290
     1
176
     1
290
     1
176
     1
290
     0
176
     1
290
     0
176
     1
290
     0
176
     1
290
     0
176
     1
290
     0
176
     1
290
     0
176
     1
 90
       50
176
     1
 40
0.0
176
     1
 40
1.0
176
     1
 90
        0
176
     1
 62
    18
420
        0
176
     1
 90
       50
176
     1
 90
        3
176
     1
 62
     5
420
      255
176
     1
290
     0
176
     1
 90
       50
176
     1
 90
       50
176
     1
 90
       50
176
     1
290
     0
176
     1
 90
       50
176
     1
 62
   256
176
     0
 40
1.0
176
     0
 90
        2
176
     1
  1
strokes_ogs.tif
176
     1
290
     0
176
     1
 40
1.0
176
     1
 40
1.0
176
     1
  0
VISUALSTYLE
  5
34
102
{ACAD_REACTORS
330
2A
102
}
330
2A
100
AcDbVisualStyle
  2
Conceptual
 70
     9
177
     3
291
     0
 70
    58
 90
        3
176
     1
 90
        2
176
     1
 90
        0
176
     1
 90
        0
176
     1
 40
0.6
176
     1
 40
30.0
176
     1
 62
     7
420
 16777215
176
     1
 90
        2
176
     1
 90
        2
176
     1
 62
     7
176
     1
 62
   257
176
     1
 90
        1
176
     1
 90
        1
176
     1
 40
179.0
176
     1
 90
        8
176
     1
 62
     7
176
     1
 40
1.0
176
     1
 90
        1
176
     1
 90
        6
176
     1
 90
        2
176
     1
 62
     7
176
     1
 90
        3
176
     1
 90
        0
176
     1
 90
        0
176
     1
290
     0
176
     1
 90
        1
176
     1
 40
0.0
176
     1
 90
        0
176
     1
290
     0
176
     1
290
     1
176
     1
290
     1
176
     1
290
     0
176
     1
290
     0
176
     1
290
     0
176
     1
290
     0
176
     1
290
     0
176
     1
290
     0
176
     1
 90
       50
176
     1
 40
0.0
176
     1
 40
1.0
176
     1
 90
        0
176
     1
 62
    18
420
        0
176
     1
 90
       50
176
     1
 90
        3
176
     1
 62
     5
420
      255
176
     1
290
     0
176
     1
 90
       50
176
     1
 90
       50
176
     1
 90
       50
176
     1
290
     0
176
     1
 90
       50
176
     1
 62
   256
176
     0
 40
1.0
176
     0
 90
        2
176
     1
  1
strokes_ogs.tif
176
     1
290
     0
176
     1
 40
1.0
176
     1
 40
1.0
176
     1
  0
VISUALSTYLE
  5
35
102
{ACAD_REACTORS
330
2A
102
}
330
2A
100
AcDbVisualStyle
  2
Dim
 70
    11
177
     3
291
     1
 70
    58
 90
        2
176
     1
 90
        2
176
     1
 90
        0
176
     1
 90
        0
176
     1
 40
0.6
176
     1
 40
30.0
176
     1
 62
     7
420
 16777215
176
     1
 90
        1
176
     1
 90
        4
176
     1
 62
     7
176
     1
 62
   257
176
     1
 90
        1
176
     1
 90
        1
176
     1
 40
1.0
176
     1
 90
        8
176
     1
 62
     7
176
     1
 40
1.0
176
     1
 90
        1
176
     1
 90
        6
176
     1
 90
        2
176
     1
 62
     7
176
     1
 90
        5
176
     1
 90
        0
176
     1
 90
        0
176
     1
290
     0
176
     1
 90
        1
176
     1
 40
-50.0
176
     1
 90
        0
176
     1
290
     0
176
     1
290
     1
176
     1
290
     1
176
     1
290
     0
176
     1
290
     0
176
     1
290
     0
176
     1
290
     0
176
     1
290
     0
176
     1
290
     0
176
     1
 90
       50
176
     1
 40
0.0
176
     1
 40
1.0
176
     1
 90
        0
176
     1
 62
    18
420
        0
176
     1
 90
       50
176
     1
 90
        3
176
     1
 62
     5
420
      255
176
     1
290
     0
176
     1
 90
       50
176
     1
 90
       50
176
     1
 90
       50
176
     1
290
     0
176
     1
 90
       50
176
     1
 62
   256
176
     0
 40
1.0
176
     0
 90
        2
176
     1
  1
strokes_ogs.tif
176
     1
290
     0
176
     1
 40
1.0
176
     1
 40
1.0
176
     1
  0
VISUALSTYLE
  5
3D
102
{ACAD_REACTORS
330
2A
102
}
330
2A
100
AcDbVisualStyle
  2
EdgeColorOff
 70
    22
177
     3
291
     1
 70
    58
 90
        2
176
     0
 90
        2
176
     0
 90
        0
176
     0
 90
        0
176
     0
 40
0.6
176
     0
 40
30.0
176
     0
 62
     7
420
 16777215
176
     0
 90
        1
176
     0
 90
        4
176
     0
 62
     7
176
     0
 62
   257
176
     0
 90
        1
176
     0
 90
        1
176
     0
 40
1.0
176
     0
 90
        8
176
     2
 62
     7
176
     0
 40
1.0
176
     0
 90
        1
176
     0
 90
        6
176
     0
 90
        2
176
     0
 62
     7
176
     0
 90
        5
176
     0
 90
        0
176
     0
 90
        0
176
     0
290
     0
176
     0
 90
        1
176
     0
 40
0.0
176
     0
 90
        0
176
     0
290
     0
176
     0
290
     1
176
     0
290
     1
176
     0
290
     0
176
     0
290
     0
176
     0
290
     0
176
     0
290
     0
176
     0
290
     0
176
     0
290
     0
176
     0
 90
       50
176
     0
 40
0.0
176
     0
 40
1.0
176
     0
 90
        0
176
     0
 62
    18
420
        0
176
     0
 90
       50
176
     0
 90
        3
176
     0
 62
     5
420
      255
176
     0
290
     0
176
     0
 90
       50
176
     0
 90
       50
176
     0
 90
       50
176
     0
290
     0
176
     0
 90
       50
176
     0
 62
   256
176
     0
 40
1.0
176
     0
 90
        2
176
     0
  1
strokes_ogs.tif
176
     0
290
     0
176
     0
 40
1.0
176
     0
 40
1.0
176
     0
  0
VISUALSTYLE
  5
39
102
{ACAD_REACTORS
330
2A
102
}
330
2A
100
AcDbVisualStyle
  2
Facepattern
 70
    15
177
     3
291
     1
 70
    58
 90
        2
176
     1
 90
        2
176
     1
 90
        0
176
     1
 90
        0
176
     1
 40
0.6
176
     1
 40
30.0
176
     1
 62
     7
420
 16777215
176
     1
 90
        1
176
     1
 90
        4
176
     1
 62
     7
176
     1
 62
   257
176
     1
 90
        1
176
     1
 90
        1
176
     1
 40
1.0
176
     1
 90
        8
176
     1
 62
     7
176
     1
 40
1.0
176
     1
 90
        1
176
     1
 90
        6
176
     1
 90
        2
176
     1
 62
     7
176
     1
 90
        5
176
     1
 90
        0
176
     1
 90
        0
176
     1
290
     0
176
     1
 90
        1
176
     1
 40
0.0
176
     1
 90
        0
176
     1
290
     0
176
     1
290
     1
176
     1
290
     1
176
     1
290
     0
176
     1
290
     0
176
     1
290
     0
176
     1
290
     0
176
     1
290
     0
176
     1
290
     0
176
     1
 90
       50
176
     1
 40
0.0
176
     1
 40
1.0
176
     1
 90
        0
176
     1
 62
    18
420
        0
176
     1
 90
       50
176
     1
 90
        3
176
     1
 62
     5
420
      255
176
     1
290
     0
176
     1
 90
       50
176
     1
 90
       50
176
     1
 90
       50
176
     1
290
     0
176
     1
 90
       50
176
     1
 62
   256
176
     0
 40
1.0
176
     0
 90
        2
176
     1
  1
strokes_ogs.tif
176
     1
290
     0
176
     1
 40
1.0
176
     1
 40
1.0
176
     1
  0
VISUALSTYLE
  5
2B
102
{ACAD_REACTORS
330
2A
102
}
330
2A
100
AcDbVisualStyle
  2
Flat
 70
     0
177
     3
291
     1
 70
    58
 90
        2
176
     1
 90
        1
176
     1
 90
        1
176
     1
 90
        2
176
     1
 40
0.6
176
     1
 40
30.0
176
     1
 62
     7
420
 16777215
176
     1
 90
        0
176
     1
 90
        0
176
     1
 62
     7
176
     1
 62
   257
176
     1
 90
        1
176
     1
 90
        1
176
     1
 40
1.0
176
     1
 90
        8
176
     1
 62
     7
176
     1
 40
1.0
176
     1
 90
        1
176
     1
 90
        6
176
     1
 90
        2
176
     1
 62
     7
176
     1
 90
        5
176
     1
 90
        0
176
     1
 90
        0
176
     1
290
     0
176
     1
 90
       13
176
     1
 40
0.0
176
     1
 90
        0
176
     1
290
     0
176
     1
290
     1
176
     1
290
     1
176
     1
290
     0
176
     1
290
     0
176
     1
290
     0
176
     1
290
     0
176
     1
290
     0
176
     1
290
     0
176
     1
 90
       50
176
     1
 40
0.0
176
     1
 40
1.0
176
     1
 90
        0
176
     1
 62
    18
420
        0
176
     1
 90
       50
176
     1
 90
        3
176
     1
 62
     5
420
      255
176
     1
290
     0
176
     1
 90
       50
176
     1
 90
       50
176
     1
 90
       50
176
     1
290
     0
176
     1
 90
       50
176
     1
 62
   256
176
     0
 40
1.0
176
     0
 90
        2
176
     1
  1
strokes_ogs.tif
176
     1
290
     0
176
     1
 40
1.0
176
     1
 40
1.0
176
     1
  0
VISUALSTYLE
  5
2C
102
{ACAD_REACTORS
330
2A
102
}
330
2A
100
AcDbVisualStyle
  2
FlatWithEdges
 70
     1
177
     3
291
     1
 70
    58
 90
        2
176
     1
 90
        1
176
     1
 90
        1
176
     1
 90
        2
176
     1
 40
0.6
176
     1
 40
30.0
176
     1
 62
     7
420
 16777215
176
     1
 90
        1
176
     1
 90
        0
176
     1
 62
     7
176
     1
 62
   257
176
     1
 90
        1
176
     1
 90
        1
176
     1
 40
1.0
176
     1
 90
        0
176
     1
 62
   257
176
     1
 40
1.0
176
     1
 90
        1
176
     1
 90
        6
176
     1
 90
        2
176
     1
 62
     7
176
     1
 90
        5
176
     1
 90
        0
176
     1
 90
        0
176
     1
290
     0
176
     1
 90
       13
176
     1
 40
0.0
176
     1
 90
        0
176
     1
290
     0
176
     1
290
     1
176
     1
290
     1
176
     1
290
     0
176
     1
290
     0
176
     1
290
     0
176
     1
290
     0
176
     1
290
     0
176
     1
290
     0
176
     1
 90
       50
176
     1
 40
0.0
176
     1
 40
1.0
176
     1
 90
        0
176
     1
 62
    18
420
        0
176
     1
 90
       50
176
     1
 90
        3
176
     1
 62
     5
420
      255
176
     1
290
     0
176
     1
 90
       50
176
     1
 90
       50
176
     1
 90
       50
176
     1
290
     0
176
     1
 90
       50
176
     1
 62
   256
176
     0
 40
1.0
176
     0
 90
        2
176
     1
  1
strokes_ogs.tif
176
     1
290
     0
176
     1
 40
1.0
176
     1
 40
1.0
176
     1
  0
VISUALSTYLE
  5
2D
102
{ACAD_REACTORS
330
2A
102
}
330
2A
100
AcDbVisualStyle
  2
Gouraud
 70
     2
177
     3
291
     1
 70
    58
 90
        2
176
     1
 90
        2
176
     1
 90
        1
176
     1
 90
        2
176
     1
 40
0.6
176
     1
 40
30.0
176
     1
 62
     7
420
 16777215
176
     1
 90
        0
176
     1
 90
        0
176
     1
 62
     7
176
     1
 62
   257
176
     1
 90
        1
176
     1
 90
        1
176
     1
 40
1.0
176
     1
 90
        0
176
     1
 62
     7
176
     1
 40
1.0
176
     1
 90
        1
176
     1
 90
        6
176
     1
 90
        2
176
     1
 62
     7
176
     1
 90
        5
176
     1
 90
        0
176
     1
 90
        0
176
     1
290
     0
176
     1
 90
       13
176
     1
 40
0.0
176
     1
 90
        0
176
     1
290
     0
176
     1
290
     1
176
     1
290
     1
176
     1
290
     0
176
     1
290
     0
176
     1
290
     0
176
     1
290
     0
176
     1
290
     0
176
     1
290
     0
176
     1
 90
       50
176
     1
 40
0.0
176
     1
 40
1.0
176
     1
 90
        0
176
     1
 62
    18
420
        0
176
     1
 90
       50
176
     1
 90
        3
176
     1
 62
     5
420
      255
176
     1
290
     0
176
     1
 90
       50
176
     1
 90
       50
176
     1
 90
       50
176
     1
290
     0
176
     1
 90
       50
176
     1
 62
   256
176
     0
 40
1.0
176
     0
 90
        2
176
     1
  1
strokes_ogs.tif
176
     1
290
     0
176
     1
 40
1.0
176
     1
 40
1.0
176
     1
  0
VISUALSTYLE
  5
2E
102
{ACAD_REACTORS
330
2A
102
}
330
2A
100
AcDbVisualStyle
  2
GouraudWithEdges
 70
     3
177
     3
291
     1
 70
    58
 90
        2
176
     1
 90
        2
176
     1
 90
        1
176
     1
 90
        2
176
     1
 40
0.6
176
     1
 40
30.0
176
     1
 62
     7
420
 16777215
176
     1
 90
        1
176
     1
 90
        0
176
     1
 62
     7
176
     1
 62
   257
176
     1
 90
        1
176
     1
 90
        1
176
     1
 40
1.0
176
     1
 90
        0
176
     1
 62
   257
176
     1
 40
1.0
176
     1
 90
        1
176
     1
 90
        6
176
     1
 90
        2
176
     1
 62
     7
176
     1
 90
        5
176
     1
 90
        0
176
     1
 90
        0
176
     1
290
     0
176
     1
 90
       13
176
     1
 40
0.0
176
     1
 90
        0
176
     1
290
     0
176
     1
290
     1
176
     1
290
     1
176
     1
290
     0
176
     1
290
     0
176
     1
290
     0
176
     1
290
     0
176
     1
290
     0
176
     1
290
     0
176
     1
 90
       50
176
     1
 40
0.0
176
     1
 40
1.0
176
     1
 90
        0
176
     1
 62
    18
420
        0
176
     1
 90
       50
176
     1
 90
        3
176
     1
 62
     5
420
      255
176
     1
290
     0
176
     1
 90
       50
176
     1
 90
       50
176
     1
 90
       50
176
     1
290
     0
176
     1
 90
       50
176
     1
 62
   256
176
     0
 40
1.0
176
     0
 90
        2
176
     1
  1
strokes_ogs.tif
176
     1
290
     0
176
     1
 40
1.0
176
     1
 40
1.0
176
     1
  0
VISUALSTYLE
  5
31
102
{ACAD_REACTORS
330
2A
102
}
330
2A
100
AcDbVisualStyle
  2
Hidden
 70
     6
177
     3
291
     0
 70
    58
 90
        1
176
     1
 90
        2
176
     1
 90
        2
176
     1
 90
        0
176
     1
 40
0.6
176
     1
 40
30.0
176
     1
 62
     7
420
 16777215
176
     1
 90
        2
176
     1
 90
        2
176
     1
 62
     7
176
     1
 62
   257
176
     1
 90
        2
176
     1
 90
        1
176
     1
 40
40.0
176
     1
 90
        0
176
     1
 62
   257
176
     1
 40
1.0
176
     1
 90
        1
176
     1
 90
        6
176
     1
 90
        2
176
     1
 62
     7
176
     1
 90
        3
176
     1
 90
        0
176
     1
 90
        0
176
     1
290
     0
176
     1
 90
        1
176
     1
 40
0.0
176
     1
 90
        0
176
     1
290
     0
176
     1
290
     1
176
     1
290
     1
176
     1
290
     0
176
     1
290
     0
176
     1
290
     0
176
     1
290
     0
176
     1
290
     0
176
     1
290
     0
176
     1
 90
       50
176
     1
 40
0.0
176
     1
 40
1.0
176
     1
 90
        0
176
     1
 62
    18
420
        0
176
     1
 90
       50
176
     1
 90
        3
176
     1
 62
     5
420
      255
176
     1
290
     0
176
     1
 90
       50
176
     1
 90
       50
176
     1
 90
       50
176
     1
290
     0
176
     1
 90
       50
176
     1
 62
   256
176
     0
 40
1.0
176
     0
 90
        2
176
     1
  1
strokes_ogs.tif
176
     1
290
     0
176
     1
 40
1.0
176
     1
 40
1.0
176
     1
  0
VISUALSTYLE
  5
3B
102
{ACAD_REACTORS
330
2A
102
}
330
2A
100
AcDbVisualStyle
  2
JitterOff
 70
    20
177
     3
291
     1
 70
    58
 90
        2
176
     0
 90
        2
176
     0
 90
        0
176
     0
 90
        0
176
     0
 40
0.6
176
     0
 40
30.0
176
     0
 62
     7
420
 16777215
176
     0
 90
        1
176
     0
 90
        4
176
     0
 62
     7
176
     0
 62
   257
176
     0
 90
        1
176
     0
 90
        1
176
     0
 40
1.0
176
     0
 90
       10
176
     2
 62
     7
176
     0
 40
1.0
176
     0
 90
        1
176
     0
 90
        6
176
     0
 90
        2
176
     0
 62
     7
176
     0
 90
        5
176
     0
 90
        0
176
     0
 90
        0
176
     0
290
     0
176
     0
 90
        1
176
     0
 40
0.0
176
     0
 90
        0
176
     0
290
     0
176
     0
290
     1
176
     0
290
     1
176
     0
290
     0
176
     0
290
     0
176
     0
290
     0
176
     0
290
     0
176
     0
290
     0
176
     0
290
     0
176
     0
 90
       50
176
     0
 40
0.0
176
     0
 40
1.0
176
     0
 90
        0
176
     0
 62
    18
420
        0
176
     0
 90
       50
176
     0
 90
        3
176
     0
 62
     5
420
      255
176
     0
290
     0
176
     0
 90
       50
176
     0
 90
       50
176
     0
 90
       50
176
     0
290
     0
176
     0
 90
       50
176
     0
 62
   256
176
     0
 40
1.0
176
     0
 90
        2
176
     0
  1
strokes_ogs.tif
176
     0
290
     0
176
     0
 40
1.0
176
     0
 40
1.0
176
     0
  0
VISUALSTYLE
  5
38
102
{ACAD_REACTORS
330
2A
102
}
330
2A
100
AcDbVisualStyle
  2
Linepattern
 70
    14
177
     3
291
     1
 70
    58
 90
        2
176
     1
 90
        2
176
     1
 90
        0
176
     1
 90
        0
176
     1
 40
0.6
176
     1
 40
30.0
176
     1
 62
     7
420
 16777215
176
     1
 90
        1
176
     1
 90
        4
176
     1
 62
     7
176
     1
 62
   257
176
     1
 90
        7
176
     1
 90
        7
176
     1
 40
1.0
176
     1
 90
        8
176
     1
 62
     7
176
     1
 40
1.0
176
     1
 90
        1
176
     1
 90
        6
176
     1
 90
        2
176
     1
 62
     7
176
     1
 90
        5
176
     1
 90
        0
176
     1
 90
        0
176
     1
290
     0
176
     1
 90
        1
176
     1
 40
0.0
176
     1
 90
        0
176
     1
290
     0
176
     1
290
     1
176
     1
290
     1
176
     1
290
     0
176
     1
290
     0
176
     1
290
     0
176
     1
290
     0
176
     1
290
     0
176
     1
290
     0
176
     1
 90
       50
176
     1
 40
0.0
176
     1
 40
1.0
176
     1
 90
        0
176
     1
 62
    18
420
        0
176
     1
 90
       50
176
     1
 90
        3
176
     1
 62
     5
420
      255
176
     1
290
     0
176
     1
 90
       50
176
     1
 90
       50
176
     1
 90
       50
176
     1
290
     0
176
     1
 90
       50
176
     1
 62
   256
176
     0
 40
1.0
176
     0
 90
        2
176
     1
  1
strokes_ogs.tif
176
     1
290
     0
176
     1
 40
1.0
176
     1
 40
1.0
176
     1
  0
VISUALSTYLE
  5
3C
102
{ACAD_REACTORS
330
2A
102
}
330
2A
100
AcDbVisualStyle
  2
OverhangOff
 70
    21
177
     3
291
     1
 70
    58
 90
        2
176
     0
 90
        2
176
     0
 90
        0
176
     0
 90
        0
176
     0
 40
0.6
176
     0
 40
30.0
176
     0
 62
     7
420
 16777215
176
     0
 90
        1
176
     0
 90
        4
176
     0
 62
     7
176
     0
 62
   257
176
     0
 90
        1
176
     0
 90
        1
176
     0
 40
1.0
176
     0
 90
        9
176
     2
 62
     7
176
     0
 40
1.0
176
     0
 90
        1
176
     0
 90
        6
176
     0
 90
        2
176
     0
 62
     7
176
     0
 90
        5
176
     0
 90
        0
176
     0
 90
        0
176
     0
290
     0
176
     0
 90
        1
176
     0
 40
0.0
176
     0
 90
        0
176
     0
290
     0
176
     0
290
     1
176
     0
290
     1
176
     0
290
     0
176
     0
290
     0
176
     0
290
     0
176
     0
290
     0
176
     0
290
     0
176
     0
290
     0
176
     0
 90
       50
176
     0
 40
0.0
176
     0
 40
1.0
176
     0
 90
        0
176
     0
 62
    18
420
        0
176
     0
 90
       50
176
     0
 90
        3
176
     0
 62
     5
420
      255
176
     0
290
     0
176
     0
 90
       50
176
     0
 90
       50
176
     0
 90
       50
176
     0
290
     0
176
     0
 90
       50
176
     0
 62
   256
176
     0
 40
1.0
176
     0
 90
        2
176
     0
  1
strokes_ogs.tif
176
     0
290
     0
176
     0
 40
1.0
176
     0
 40
1.0
176
     0
  0
VISUALSTYLE
  5
33
102
{ACAD_REACTORS
330
2A
102
}
330
2A
100
AcDbVisualStyle
  2
Realistic
 70
     8
177
     3
291
     0
 70
    58
 90
        2
176
     1
 90
        3
176
     1
 90
        0
176
     1
 90
        2
176
     1
 40
0.6
176
     1
 40
30.0
176
     1
 62
     7
420
 16777215
176
     1
 90
        0
176
     1
 90
        0
176
     1
 62
     7
176
     1
 62
   257
176
     1
 90
        1
176
     1
 90
        1
176
     1
 40
1.0
176
     1
 90
        8
176
     1
 62
   257
176
     1
 40
1.0
176
     1
 90
        1
176
     1
 90
        6
176
     1
 90
        2
176
     1
 62
     7
176
     1
 90
        3
176
     1
 90
        0
176
     1
 90
        0
176
     1
290
     0
176
     1
 90
       13
176
     1
 40
0.0
176
     1
 90
        0
176
     1
290
     0
176
     1
290
     1
176
     1
290
     1
176
     1
290
     0
176
     1
290
     0
176
     1
290
     0
176
     1
290
     0
176
     1
290
     0
176
     1
290
     0
176
     1
 90
       50
176
     1
 40
0.0
176
     1
 40
1.0
176
     1
 90
        0
176
     1
 62
    18
420
        0
176
     1
 90
       50
176
     1
 90
        3
176
     1
 62
     5
420
      255
176
     1
290
     0
176
     1
 90
       50
176
     1
 90
       50
176
     1
 90
       50
176
     1
290
     0
176
     1
 90
       50
176
     1
 62
   256
176
     0
 40
1.0
176
     0
 90
        2
176
     1
  1
strokes_ogs.tif
176
     1
290
     0
176
     1
 40
1.0
176
     1
 40
1.0
176
     1
  0
VISUALSTYLE
  5
42
102
{ACAD_REACTORS
330
2A
102
}
330
2A
100
AcDbVisualStyle
  2
Shaded
 70
    27
177
     3
291
     0
 70
    58
 90
        2
176
     1
 90
        2
176
     1
 90
        1
176
     1
 90
        2
176
     1
 40
0.6
176
     1
 40
30.0
176
     1
 62
     7
420
 16777215
176
     1
 90
        0
176
     1
 90
        4
176
     1
 62
     7
176
     1
 62
   257
176
     1
 90
        1
176
     1
 90
        1
176
     1
 40
1.0
176
     1
 90
        8
176
     1
 62
   257
176
     1
 40
1.0
176
     1
 90
        1
176
     1
 90
        6
176
     1
 90
        2
176
     1
 62
     8
420
  7895160
176
     1
 90
        3
176
     1
 90
        0
176
     1
 90
        0
176
     1
290
     0
176
     1
 90
        5
176
     1
 40
0.0
176
     1
 90
        0
176
     1
290
     0
176
     1
290
     1
176
     1
290
     1
176
     1
290
     0
176
     1
290
     0
176
     1
290
     0
176
     1
290
     0
176
     1
290
     0
176
     1
290
     0
176
     1
 90
       50
176
     1
 40
0.0
176
     1
 40
1.0
176
     1
 90
        0
176
     1
 62
    18
420
        0
176
     1
 90
       50
176
     1
 90
        3
176
     1
 62
     5
420
      255
176
     1
290
     0
176
     1
 90
       50
176
     1
 90
       50
176
     1
 90
       50
176
     1
290
     0
176
     1
 90
       50
176
     1
 62
   256
176
     0
 40
1.0
176
     0
 90
        2
176
     1
  1
strokes_ogs.tif
176
     1
290
     0
176
     1
 40
1.0
176
     1
 40
1.0
176
     1
  0
VISUALSTYLE
  5
41
102
{ACAD_REACTORS
330
2A
102
}
330
2A
100
AcDbVisualStyle
  2
Shaded with edges
 70
    26
177
     3
291
     0
 70
    58
 90
        2
176
     1
 90
        2
176
     1
 90
        1
176
     1
 90
        2
176
     1
 40
0.6
176
     1
 40
30.0
176
     1
 62
     7
420
 16777215
176
     1
 90
        1
176
     1
 90
       10
176
     1
 62
     7
176
     1
 62
   257
176
     1
 90
        2
176
     1
 90
        1
176
     1
 40
1.0
176
     1
 90
        8
176
     1
 62
   257
176
     1
 40
1.0
176
     1
 90
        1
176
     1
 90
        6
176
     1
 90
        2
176
     1
 62
     7
176
     1
 90
        3
176
     1
 90
        0
176
     1
 90
        0
176
     1
290
     0
176
     1
 90
        5
176
     1
 40
0.0
176
     1
 90
        0
176
     1
290
     0
176
     1
290
     1
176
     1
290
     1
176
     1
290
     0
176
     1
290
     0
176
     1
290
     0
176
     1
290
     0
176
     1
290
     0
176
     1
290
     0
176
     1
 90
       50
176
     1
 40
0.0
176
     1
 40
1.0
176
     1
 90
        0
176
     1
 62
    18
420
        0
176
     1
 90
       50
176
     1
 90
        3
176
     1
 62
     5
420
      255
176
     1
290
     0
176
     1
 90
       50
176
     1
 90
       50
176
     1
 90
       50
176
     1
290
     0
176
     1
 90
       50
176
     1
 62
   256
176
     0
 40
1.0
176
     0
 90
        2
176
     1
  1
strokes_ogs.tif
176
     1
290
     0
176
     1
 40
1.0
176
     1
 40
1.0
176
     1
  0
VISUALSTYLE
  5
3E
102
{ACAD_REACTORS
330
2A
102
}
330
2A
100
AcDbVisualStyle
  2
Shades of Gray
 70
    23
177
     3
291
     0
 70
    58
 90
        2
176
     1
 90
        2
176
     1
 90
        3
176
     1
 90
        0
176
     1
 40
0.6
176
     1
 40
30.0
176
     1
 62
     7
420
 16777215
176
     1
 90
        2
176
     1
 90
        2
176
     1
 62
     7
176
     1
 62
     7
176
     1
 90
        1
176
     1
 90
        1
176
     1
 40
40.0
176
     1
 90
        8
176
     1
 62
     7
176
     1
 40
1.0
176
     1
 90
        1
176
     1
 90
        6
176
     1
 90
        2
176
     1
 62
     7
176
     1
 90
        3
176
     1
 90
        0
176
     1
 90
        0
176
     1
290
     0
176
     1
 90
        1
176
     1
 40
0.0
176
     1
 90
        0
176
     1
290
     0
176
     1
290
     1
176
     1
290
     1
176
     1
290
     0
176
     1
290
     0
176
     1
290
     0
176
     1
290
     0
176
     1
290
     0
176
     1
290
     0
176
     1
 90
       50
176
     1
 40
0.0
176
     1
 40
1.0
176
     1
 90
        0
176
     1
 62
    18
420
        0
176
     1
 90
       50
176
     1
 90
        3
176
     1
 62
     5
420
      255
176
     1
290
     0
176
     1
 90
       50
176
     1
 90
       50
176
     1
 90
       50
176
     1
290
     0
176
     1
 90
       50
176
     1
 62
   256
176
     0
 40
1.0
176
     0
 90
        2
176
     1
  1
strokes_ogs.tif
176
     1
290
     0
176
     1
 40
1.0
176
     1
 40
1.0
176
     1
  0
VISUALSTYLE
  5
3F
102
{ACAD_REACTORS
330
2A
102
}
330
2A
100
AcDbVisualStyle
  2
Sketchy
 70
    24
177
     3
291
     0
 70
    58
 90
        1
176
     1
 90
        2
176
     1
 90
        2
176
     1
 90
        0
176
     1
 40
0.6
176
     1
 40
30.0
176
     1
 62
     7
420
 16777215
176
     1
 90
        2
176
     1
 90
        2
176
     1
 62
     7
176
     1
 62
     7
176
     1
 90
        1
176
     1
 90
        1
176
     1
 40
40.0
176
     1
 90
       11
176
     1
 62
     7
176
     1
 40
1.0
176
     1
 90
        1
176
     1
 90
        6
176
     1
 90
        2
176
     1
 62
     7
176
     1
 90
        6
176
     1
 90
        0
176
     1
 90
        0
176
     1
290
     0
176
     1
 90
        1
176
     1
 40
0.0
176
     1
 90
        0
176
     1
290
     0
176
     1
290
     1
176
     1
290
     1
176
     1
290
     0
176
     1
290
     0
176
     1
290
     0
176
     1
290
     0
176
     1
290
     0
176
     1
290
     0
176
     1
 90
       50
176
     1
 40
0.0
176
     1
 40
1.0
176
     1
 90
        0
176
     1
 62
    18
420
        0
176
     1
 90
       50
176
     1
 90
        3
176
     1
 62
     5
420
      255
176
     1
290
     0
176
     1
 90
       50
176
     1
 90
       50
176
     1
 90
       50
176
     1
290
     0
176
     1
 90
       50
176
     1
 62
   256
176
     0
 40
1.0
176
     0
 90
        2
176
     1
  1
strokes_ogs.tif
176
     1
290
     0
176
     1
 40
1.0
176
     1
 40
1.0
176
     1
  0
VISUALSTYLE
  5
37
102
{ACAD_REACTORS
330
2A
102
}
330
2A
100
AcDbVisualStyle
  2
Thicken
 70
    13
177
     3
291
     1
 70
    58
 90
        2
176
     1
 90
        2
176
     1
 90
        0
176
     1
 90
        0
176
     1
 40
0.6
176
     1
 40
30.0
176
     1
 62
     7
420
 16777215
176
     1
 90
        1
176
     1
 90
        4
176
     1
 62
     7
176
     1
 62
   257
176
     1
 90
        1
176
     1
 90
        1
176
     1
 40
1.0
176
     1
 90
       12
176
     1
 62
     7
176
     1
 40
1.0
176
     1
 90
        1
176
     1
 90
        6
176
     1
 90
        2
176
     1
 62
     7
176
     1
 90
        5
176
     1
 90
        0
176
     1
 90
        0
176
     1
290
     0
176
     1
 90
        1
176
     1
 40
0.0
176
     1
 90
        0
176
     1
290
     0
176
     1
290
     1
176
     1
290
     1
176
     1
290
     0
176
     1
290
     0
176
     1
290
     0
176
     1
290
     0
176
     1
290
     0
176
     1
290
     0
176
     1
 90
       50
176
     1
 40
0.0
176
     1
 40
1.0
176
     1
 90
        0
176
     1
 62
    18
420
        0
176
     1
 90
       50
176
     1
 90
        3
176
     1
 62
     5
420
      255
176
     1
290
     0
176
     1
 90
       50
176
     1
 90
       50
176
     1
 90
       50
176
     1
290
     0
176
     1
 90
       50
176
     1
 62
   256
176
     0
 40
1.0
176
     0
 90
        2
176
     1
  1
strokes_ogs.tif
176
     1
290
     0
176
     1
 40
1.0
176
     1
 40
1.0
176
     1
  0
VISUALSTYLE
  5
30
102
{ACAD_REACTORS
330
2A
102
}
330
2A
100
AcDbVisualStyle
  2
Wireframe
 70
     5
177
     3
291
     0
 70
    58
 90
        0
176
     1
 90
        2
176
     1
 90
        0
176
     1
 90
        0
176
     1
 40
0.6
176
     1
 40
30.0
176
     1
 62
     7
420
 16777215
176
     1
 90
        1
176
     1
 90
        4
176
     1
 62
     7
176
     1
 62
   257
176
     1
 90
        1
176
     1
 90
        1
176
     1
 40
1.0
176
     1
 90
        0
176
     1
 62
   257
176
     1
 40
1.0
176
     1
 90
        1
176
     1
 90
        6
176
     1
 90
        2
176
     1
 62
     7
176
     1
 90
        3
176
     1
 90
        0
176
     1
 90
        0
176
     1
290
     0
176
     1
 90
        1
176
     1
 40
0.0
176
     1
 90
        0
176
     1
290
     0
176
     1
290
     1
176
     1
290
     1
176
     1
290
     0
176
     1
290
     0
176
     1
290
     0
176
     1
290
     0
176
     1
290
     0
176
     1
290
     0
176
     1
 90
       50
176
     1
 40
0.0
176
     1
 40
1.0
176
     1
 90
        0
176
     1
 62
    18
420
        0
176
     1
 90
       50
176
     1
 90
        3
176
     1
 62
     5
420
      255
176
     1
290
     0
176
     1
 90
       50
176
     1
 90
       50
176
     1
 90
       50
176
     1
290
     0
176
     1
 90
       50
176
     1
 62
   256
176
     0
 40
1.0
176
     0
 90
        2
176
     1
  1
strokes_ogs.tif
176
     1
290
     0
176
     1
 40
1.0
176
     1
 40
1.0
176
     1
  0
VISUALSTYLE
  5
40
102
{ACAD_REACTORS
330
2A
102
}
330
2A
100
AcDbVisualStyle
  2
X-Ray
 70
    25
177
     3
291
     0
 70
    58
 90
        2
176
     1
 90
        2
176
     1
 90
        1
176
     1
 90
        1
176
     1
 40
0.5
176
     1
 40
30.0
176
     1
 62
     7
420
 16777215
176
     1
 90
        1
176
     1
 90
        0
176
     1
 62
     7
176
     1
 62
   257
176
     1
 90
        1
176
     1
 90
        1
176
     1
 40
1.0
176
     1
 90
        8
176
     1
 62
     7
176
     1
 40
1.0
176
     1
 90
        1
176
     1
 90
        6
176
     1
 90
        2
176
     1
 62
     7
176
     1
 90
        3
176
     1
 90
        0
176
     1
 90
        0
176
     1
290
     0
176
     1
 90
       13
176
     1
 40
0.0
176
     1
 90
        0
176
     1
290
     0
176
     1
290
     1
176
     1
290
     1
176
     1
290
     0
176
     1
290
     0
176
     1
290
     0
176
     1
290
     0
176
     1
290
     0
176
     1
290
     0
176
     1
 90
       50
176
     1
 40
0.0
176
     1
 40
1.0
176
     1
 90
        0
176
     1
 62
    18
420
        0
176
     1
 90
       50
176
     1
 90
        3
176
     1
 62
     5
420
      255
176
     1
290
     0
176
     1
 90
       50
176
     1
 90
       50
176
     1
 90
       50
176
     1
290
     0
176
     1
 90
       50
176
     1
 62
   256
176
     0
 40
1.0
176
     0
 90
        2
176
     1
  1
strokes_ogs.tif
176
     1
290
     0
176
     1
 40
1.0
176
     1
 40
1.0
176
     1
  0
DICTIONARYVAR
  5
18F
102
{ACAD_REACTORS
330
18E
102
}
330
18E
100
DictionaryVariables
280
     0
  1
1:1
  0
DICTIONARYVAR
  5
194
102
{ACAD_REACTORS
330
18E
102
}
330
18E
100
DictionaryVariables
280
     0
  1
Standard
  0
DICTIONARYVAR
  5
193
102
{ACAD_REACTORS
330
18E
102
}
330
18E
100
DictionaryVariables
280
     0
  1
Standard
  0
DICTIONARY
  5
190
330
6A
100
AcDbDictionary
280
     1
281
     1
  3
ACAD_ROUNDTRIP_2008_TABLESTYLE_CELLSTYLEMAP
360
191
  0
CELLSTYLEMAP
  5
191
102
{ACAD_REACTORS
330
190
102
}
330
190
100
AcDbCellStyleMap
 90
        3
300
CELLSTYLE
  1
TABLEFORMAT_BEGIN
 90
        5
170
     1
 91
        0
 92
    32768
 62
   257
 93
        1
300
CONTENTFORMAT
  1
CONTENTFORMAT_BEGIN
 90
        0
 91
        0
 92
        4
 93
        0
300

 40
0.0
140
1.0
 94
        5
 62
     0
340
11
144
0.25
309
CONTENTFORMAT_END
171
     1
301
MARGIN
  1
CELLMARGIN_BEGIN
 40
0.06
 40
0.06
 40
0.06
 40
0.06
 40
0.06
 40
0.06
309
CELLMARGIN_END
 94
        6
 95
        1
302
GRIDFORMAT
  1
GRIDFORMAT_BEGIN
 90
        0
 91
        1
 62
     0
 92
       -2
340
14
 93
        0
 40
0.045
309
GRIDFORMAT_END
 95
        2
302
GRIDFORMAT
  1
GRIDFORMAT_BEGIN
 90
        0
 91
        1
 62
     0
 92
       -2
340
14
 93
        0
 40
0.045
309
GRIDFORMAT_END
 95
        4
302
GRIDFORMAT
  1
GRIDFORMAT_BEGIN
 90
        0
 91
        1
 62
     0
 92
       -2
340
14
 93
        0
 40
0.045
309
GRIDFORMAT_END
 95
        8
302
GRIDFORMAT
  1
GRIDFORMAT_BEGIN
 90
        0
 91
        1
 62
     0
 92
       -2
340
14
 93
        0
 40
0.045
309
GRIDFORMAT_END
 95
       16
302
GRIDFORMAT
  1
GRIDFORMAT_BEGIN
 90
        0
 91
        1
 62
     0
 92
       -2
340
14
 93
        0
 40
0.045
309
GRIDFORMAT_END
 95
       32
302
GRIDFORMAT
  1
GRIDFORMAT_BEGIN
 90
        0
 91
        1
 62
     0
 92
       -2
340
14
 93
        0
 40
0.045
309
GRIDFORMAT_END
309
TABLEFORMAT_END
  1
CELLSTYLE_BEGIN
 90
        1
 91
        1
300
_TITLE
309
CELLSTYLE_END
300
CELLSTYLE
  1
TABLEFORMAT_BEGIN
 90
        5
170
     1
 91
        0
 92
        0
 62
   257
 93
        1
300
CONTENTFORMAT
  1
CONTENTFORMAT_BEGIN
 90
        0
 91
        0
 92
        4
 93
        0
300

 40
0.0
140
1.0
 94
        5
 62
     0
340
11
144
0.18
309
CONTENTFORMAT_END
171
     1
301
MARGIN
  1
CELLMARGIN_BEGIN
 40
0.06
 40
0.06
 40
0.06
 40
0.06
 40
0.06
 40
0.06
309
CELLMARGIN_END
 94
        6
 95
        1
302
GRIDFORMAT
  1
GRIDFORMAT_BEGIN
 90
        0
 91
        1
 62
     0
 92
       -2
340
14
 93
        0
 40
0.045
309
GRIDFORMAT_END
 95
        2
302
GRIDFORMAT
  1
GRIDFORMAT_BEGIN
 90
        0
 91
        1
 62
     0
 92
       -2
340
14
 93
        0
 40
0.045
309
GRIDFORMAT_END
 95
        4
302
GRIDFORMAT
  1
GRIDFORMAT_BEGIN
 90
        0
 91
        1
 62
     0
 92
       -2
340
14
 93
        0
 40
0.045
309
GRIDFORMAT_END
 95
        8
302
GRIDFORMAT
  1
GRIDFORMAT_BEGIN
 90
        0
 91
        1
 62
     0
 92
       -2
340
14
 93
        0
 40
0.045
309
GRIDFORMAT_END
 95
       16
302
GRIDFORMAT
  1
GRIDFORMAT_BEGIN
 90
        0
 91
        1
 62
     0
 92
       -2
340
14
 93
        0
 40
0.045
309
GRIDFORMAT_END
 95
       32
302
GRIDFORMAT
  1
GRIDFORMAT_BEGIN
 90
        0
 91
        1
 62
     0
 92
       -2
340
14
 93
        0
 40
0.045
309
GRIDFORMAT_END
309
TABLEFORMAT_END
  1
CELLSTYLE_BEGIN
 90
        2
 91
        1
300
_HEADER
309
CELLSTYLE_END
300
CELLSTYLE
  1
TABLEFORMAT_BEGIN
 90
        5
170
     1
 91
        0
 92
        0
 62
   257
 93
        1
300
CONTENTFORMAT
  1
CONTENTFORMAT_BEGIN
 90
        0
 91
        0
 92
        4
 93
        0
300

 40
0.0
140
1.0
 94
        2
 62
     0
340
11
144
0.18
309
CONTENTFORMAT_END
171
     1
301
MARGIN
  1
CELLMARGIN_BEGIN
 40
0.06
 40
0.06
 40
0.06
 40
0.06
 40
0.06
 40
0.06
309
CELLMARGIN_END
 94
        6
 95
        1
302
GRIDFORMAT
  1
GRIDFORMAT_BEGIN
 90
        0
 91
        1
 62
     0
 92
       -2
340
14
 93
        0
 40
0.045
309
GRIDFORMAT_END
 95
        2
302
GRIDFORMAT
  1
GRIDFORMAT_BEGIN
 90
        0
 91
        1
 62
     0
 92
       -2
340
14
 93
        0
 40
0.045
309
GRIDFORMAT_END
 95
        4
302
GRIDFORMAT
  1
GRIDFORMAT_BEGIN
 90
        0
 91
        1
 62
     0
 92
       -2
340
14
 93
        0
 40
0.045
309
GRIDFORMAT_END
 95
        8
302
GRIDFORMAT
  1
GRIDFORMAT_BEGIN
 90
        0
 91
        1
 62
     0
 92
       -2
340
14
 93
        0
 40
0.045
309
GRIDFORMAT_END
 95
       16
302
GRIDFORMAT
  1
GRIDFORMAT_BEGIN
 90
        0
 91
        1
 62
     0
 92
       -2
340
14
 93
        0
 40
0.045
309
GRIDFORMAT_END
 95
       32
302
GRIDFORMAT
  1
GRIDFORMAT_BEGIN
 90
        0
 91
        1
 62
     0
 92
       -2
340
14
 93
        0
 40
0.045
309
GRIDFORMAT_END
309
TABLEFORMAT_END
  1
CELLSTYLE_BEGIN
 90
        3
 91
        2
300
_DATA
309
CELLSTYLE_END
  0
ENDSEC
  0
EOF