999
DXF file: _cgs_temp_output.dxf
999
Pro/ENGINEER 2015110 by Parametric Technology Corporation
  0
SECTION
  2
HEADER
  9
$ACADVER
  1
AC1021
  9
$DWGCODEPAGE
  3
ANSI_1252
  9
$EXTMAX
 10
22.0
 20
17.0
 30
0.0
  9
$EXTMIN
 10
0.0
 20
0.0
 30
0.0
  9
$LIMMIN
 10
0.0
 20
0.0
  9
$LIMMAX
 10
22.0
 20
17.0
  9
$VIEWCTR
 10
11.0
 20
8.5
  9
$VIEWSIZE
 40
17.0
  9
$CLAYER
  8
0
  9
$LTSCALE
 40
1.21
  9
$CELTYPE
  6
BYLAYER
  9
$DIMSCALE
 40
1.0
  9
$DIMASZ
 40
0.1875
  9
$DIMEXO
 40
0.0625
  9
$DIMDLI
 40
0.836
  9
$DIMEXE
 40
0.125
  9
$DIMCEN
 40
0.198
  9
$DIMLFAC
 40
1.0
  9
$DIMBLK
  1
_CLOSED
  9
$DIMALT
 70
0
  9
$DIMALTF
 40
25.4
  9
$DIMTXT
 40
0.15625
  9
$DIMTOL
 70
0
  9
$DIMLIM
 70
0
  9
$DIMTFAC
 40
1.0
  9
$DIMGAP
 40
0.09
  9
$DIMDSEP
 70
46
  9
$AUNITS
 70
0
  9
$PDMODE
 70
3
  9
$PDSIZE
 40
0.3125
  9
$HANDSEED
  5
2AE
  9
$TILEMODE
 70
1
  9
$MEASUREMENT
 70
0
  9
$INSUNITS
 70
1
  0
ENDSEC
  0
SECTION
  2
CLASSES
  0
CLASS
  1
ACDBDICTIONARYWDFLT
  2
AcDbDictionaryWithDefault
  3
AutoCAD 2000
 90
0
 91
1
280
0
281
0
  0
CLASS
  1
ACDBPLACEHOLDER
  2
AcDbPlaceHolder
  3
AutoCAD 2000
 90
0
 91
1
280
0
281
0
  0
CLASS
  1
LAYOUT
  2
AcDbLayout
  3
AutoCAD 2000
 90
0
 91
0
280
0
281
0
  0
ENDSEC
  0
SECTION
  2
TABLES
  0
TABLE
  2
VPORT
  5
8
100
AcDbSymbolTable
 70
2
  0
VPORT
  5
1F4
100
AcDbSymbolTableRecord
100
AcDbViewportTableRecord
  2
*ACTIVE
 70
0
 10
0.0
 20
0.0
 11
1.0
 21
1.0
 12
11.0
 22
8.5
 13
0.0
 23
0.0
 14
1.0
 24
1.0
 15
0.0
 25
0.0
 16
0.0
 26
0.0
 36
1.0
 17
0.0
 27
0.0
 37
0.0
 40
17.0
 41
1.2941176471
 42
50.0
 43
0.0
 44
0.0
 50
0.0
 51
0.0
 71
0
 72
100
 73
1
 74
1
 75
0
 76
0
 77
0
 78
0
  0
ENDTAB
  0
TABLE
  2
LTYPE
  5
5
100
AcDbSymbolTable
 70
6
  0
LTYPE
  5
14
100
AcDbSymbolTableRecord
100
AcDbLinetypeTableRecord
  2
BYBLOCK
 70
0
  3

 72
65
 73
0
 40
0.0
  0
LTYPE
  5
15
100
AcDbSymbolTableRecord
100
AcDbLinetypeTableRecord
  2
BYLAYER
 70
0
  3

 72
65
 73
0
 40
0.0
  0
LTYPE
  5
16
100
AcDbSymbolTableRecord
100
AcDbLinetypeTableRecord
  2
CONTINUOUS
 70
64
  3
Solid line
 72
65
 73
0
 40
0.0
  0
LTYPE
  5
1F5
100
AcDbSymbolTableRecord
100
AcDbLinetypeTableRecord
  2
CENTER
 70
64
  3
____ _ ____ _ ____ _ ____ _ ____ _ ____ _ ____
 72
65
 73
4
 40
0.6
 49
0.375
 74
0
 49
-0.075
 74
0
 49
0.075
 74
0
 49
-0.075
 74
0
  0
LTYPE
  5
1F6
100
AcDbSymbolTableRecord
100
AcDbLinetypeTableRecord
  2
HIDDEN
 70
64
  3
- - - - - - - - - - - - - - - - - - - -
 72
65
 73
2
 40
0.2
 49
0.1
 74
0
 49
-0.1
 74
0
  0
LTYPE
  5
1F7
100
AcDbSymbolTableRecord
100
AcDbLinetypeTableRecord
  2
PHANTOM
 70
64
  3
_____ _ _ _____ _ _ _____ _ _ _____
 72
65
 73
6
 40
0.8
 49
0.45
 74
0
 49
-0.05
 74
0
 49
0.1
 74
0
 49
-0.05
 74
0
 49
0.1
 74
0
 49
-0.05
 74
0
  0
LTYPE
  5
1F8
100
AcDbSymbolTableRecord
100
AcDbLinetypeTableRecord
  2
DOT
 70
64
  3
. . . . . . . . . . . . . . . . . . . .
 72
65
 73
2
 40
0.2
 49
0.1
 74
0
 49
-0.1
 74
0
  0
LTYPE
  5
1F9
100
AcDbSymbolTableRecord
100
AcDbLinetypeTableRecord
  2
DASHED
 70
64
  3
- - - - - - - - - - - - - - - - - - - -
 72
65
 73
2
 40
0.2
 49
0.1
 74
0
 49
-0.1
 74
0
  0
ENDTAB
  0
TABLE
  2
LAYER
  5
2
100
AcDbSymbolTable
 70
36
  0
LAYER
  5
10
100
AcDbSymbolTableRecord
100
AcDbLayerTableRecord
  2
0
 70
0
 62
7
  6
CONTINUOUS
370
-3
390
F
  0
LAYER
  5
1FA
100
AcDbSymbolTableRecord
100
AcDbLayerTableRecord
  2
DEFAULT_1
 70
0
 62
7
  6
CENTER
370
-3
390
F
  0
LAYER
  5
1FB
100
AcDbSymbolTableRecord
100
AcDbLayerTableRecord
  2
DEFAULT_2
 70
0
 62
8
  6
HIDDEN
370
-3
390
F
  0
LAYER
  5
1FC
100
AcDbSymbolTableRecord
100
AcDbLayerTableRecord
  2
DEFAULT_3
 70
0
 62
7
  6
PHANTOM
370
-3
390
F
  0
LAYER
  5
1FD
100
AcDbSymbolTableRecord
100
AcDbLayerTableRecord
  2
01_ALL_DTM_PLN
 70
0
 62
7
  6
CONTINUOUS
370
-3
390
F
  0
LAYER
  5
1FE
100
AcDbSymbolTableRecord
100
AcDbLayerTableRecord
  2
01__ASM_ALL_DTM_PLN
 70
0
 62
7
  6
CONTINUOUS
370
-3
390
F
  0
LAYER
  5
1FF
100
AcDbSymbolTableRecord
100
AcDbLayerTableRecord
  2
01__ASM_DEF_DTM_PLN
 70
0
 62
7
  6
CONTINUOUS
370
-3
390
F
  0
LAYER
  5
200
100
AcDbSymbolTableRecord
100
AcDbLayerTableRecord
  2
01___PRT_ALL_DTM_PLN
 70
0
 62
7
  6
CONTINUOUS
370
-3
390
F
  0
LAYER
  5
201
100
AcDbSymbolTableRecord
100
AcDbLayerTableRecord
  2
01___PRT_DEF_DTM_PLN
 70
0
 62
7
  6
CONTINUOUS
370
-3
390
F
  0
LAYER
  5
202
100
AcDbSymbolTableRecord
100
AcDbLayerTableRecord
  2
02_ALL_AXES
 70
0
 62
7
  6
CONTINUOUS
370
-3
390
F
  0
LAYER
  5
203
100
AcDbSymbolTableRecord
100
AcDbLayerTableRecord
  2
02__ASM_ALL_AXES
 70
0
 62
7
  6
CONTINUOUS
370
-3
390
F
  0
LAYER
  5
204
100
AcDbSymbolTableRecord
100
AcDbLayerTableRecord
  2
02___PRT_ALL_AXES
 70
0
 62
7
  6
CONTINUOUS
370
-3
390
F
  0
LAYER
  5
205
100
AcDbSymbolTableRecord
100
AcDbLayerTableRecord
  2
03_ALL_CURVES
 70
0
 62
7
  6
CONTINUOUS
370
-3
390
F
  0
LAYER
  5
206
100
AcDbSymbolTableRecord
100
AcDbLayerTableRecord
  2
03__ASM_ALL_CURVES
 70
0
 62
7
  6
CONTINUOUS
370
-3
390
F
  0
LAYER
  5
207
100
AcDbSymbolTableRecord
100
AcDbLayerTableRecord
  2
03___PRT_ALL_CURVES
 70
0
 62
7
  6
CONTINUOUS
370
-3
390
F
  0
LAYER
  5
208
100
AcDbSymbolTableRecord
100
AcDbLayerTableRecord
  2
04_ALL_DTM_PNT
 70
0
 62
7
  6
CONTINUOUS
370
-3
390
F
  0
LAYER
  5
209
100
AcDbSymbolTableRecord
100
AcDbLayerTableRecord
  2
04__ASM_ALL_DTM_PNT
 70
0
 62
7
  6
CONTINUOUS
370
-3
390
F
  0
LAYER
  5
20A
100
AcDbSymbolTableRecord
100
AcDbLayerTableRecord
  2
04___PRT_ALL_DTM_PNT
 70
0
 62
7
  6
CONTINUOUS
370
-3
390
F
  0
LAYER
  5
20B
100
AcDbSymbolTableRecord
100
AcDbLayerTableRecord
  2
05_ALL_DTM_CSYS
 70
0
 62
7
  6
CONTINUOUS
370
-3
390
F
  0
LAYER
  5
20C
100
AcDbSymbolTableRecord
100
AcDbLayerTableRecord
  2
05__ASM_ALL_DTM_CSYS
 70
0
 62
7
  6
CONTINUOUS
370
-3
390
F
  0
LAYER
  5
20D
100
AcDbSymbolTableRecord
100
AcDbLayerTableRecord
  2
05__ASM_DEF_DTM_CSYS
 70
0
 62
7
  6
CONTINUOUS
370
-3
390
F
  0
LAYER
  5
20E
100
AcDbSymbolTableRecord
100
AcDbLayerTableRecord
  2
05___PRT_ALL_DTM_CSYS
 70
0
 62
7
  6
CONTINUOUS
370
-3
390
F
  0
LAYER
  5
20F
100
AcDbSymbolTableRecord
100
AcDbLayerTableRecord
  2
05___PRT_DEF_DTM_CSYS
 70
0
 62
7
  6
CONTINUOUS
370
-3
390
F
  0
LAYER
  5
210
100
AcDbSymbolTableRecord
100
AcDbLayerTableRecord
  2
06_ALL_SURFS
 70
0
 62
7
  6
CONTINUOUS
370
-3
390
F
  0
LAYER
  5
211
100
AcDbSymbolTableRecord
100
AcDbLayerTableRecord
  2
06__ASM_ALL_SURFS
 70
0
 62
7
  6
CONTINUOUS
370
-3
390
F
  0
LAYER
  5
212
100
AcDbSymbolTableRecord
100
AcDbLayerTableRecord
  2
06___PRT_ALL_SURFS
 70
0
 62
7
  6
CONTINUOUS
370
-3
390
F
  0
LAYER
  5
213
100
AcDbSymbolTableRecord
100
AcDbLayerTableRecord
  2
07__ASM_ALL_SKELETONS
 70
0
 62
7
  6
CONTINUOUS
370
-3
390
F
  0
ENDTAB
  0
TABLE
  2
STYLE
  5
3
100
AcDbSymbolTable
 70
1
  0
STYLE
  5
11
100
AcDbSymbolTableRecord
100
AcDbTextStyleTableRecord
  2
STANDARD
 70
0
 40
0.0
 41
0.8
 50
0.0
 71
0
 42
0.2
  3
txt
  4

  0
STYLE
  5
214
100
AcDbSymbolTableRecord
100
AcDbTextStyleTableRecord
  2
TEXTSTYLE_1
 70
0
 40
0.0
 41
0.8
 50
0.0
 71
0
 42
0.2
  3
gdt
  4

  0
ENDTAB
  0
TABLE
  2
VIEW
  5
6
100
AcDbSymbolTable
 70
0
  0
ENDTAB
  0
TABLE
  2
UCS
  5
7
100
AcDbSymbolTable
 70
0
  0
ENDTAB
  0
TABLE
  2
APPID
  5
9
100
AcDbSymbolTable
 70
1
  0
APPID
  5
215
100
AcDbSymbolTableRecord
100
AcDbRegAppTableRecord
  2
ACAD
 70
0
  0
ENDTAB
  0
TABLE
  2
BLOCK_RECORD
  5
1
100
AcDbSymbolTable
 70
0
  0
BLOCK_RECORD
  5
216
100
AcDbSymbolTableRecord
100
AcDbBlockTableRecord
  2
*Model_Space
  0
BLOCK_RECORD
  5
217
100
AcDbSymbolTableRecord
100
AcDbBlockTableRecord
  2
*Paper_Space
  0
ENDTAB
  0
TABLE
  2
DIMSTYLE
  5
A
100
AcDbSymbolTable
 70
1
100
AcDbDimStyleTable
 71
0
  0
DIMSTYLE
105
218
100
AcDbSymbolTableRecord
100
AcDbDimStyleTableRecord
  2
STANDARD
 70
0
  3

  4

 40
1.0
 41
0.1875
 42
0.0625
 43
0.38
 44
0.125
 45
0.0
 46
0.0
 47
0.0001
 48
0.0001
140
0.15625
141
0.09
142
0.0
143
25.4
144
1.0
145
0.0
146
1.0
147
0.09
 71
0.0
 72
0.0
 73
1
 74
1
 75
0
 76
0
 77
0
 78
4
170
0
171
2
172
0
173
0
174
0
175
0
176
0
177
0
178
0
270
2
271
4
272
4
273
2
274
2
275
0
280
0
281
0
282
0
283
1
284
4
285
0
286
0
287
3
288
0
340
11
278
46
  0
ENDTAB
  0
ENDSEC
  0
SECTION
  2
BLOCKS
  0
BLOCK
  5
20
100
AcDbEntity
  8
0
100
AcDbBlockBegin
  2
*Model_Space
 70
0
 10
0.0
 20
0.0
 30
0.0
  3
*Model_Space
  1

  0
ENDBLK
  5
21
100
AcDbEntity
  8
0
100
AcDbBlockEnd
  0
BLOCK
  5
1C
100
AcDbEntity
  8
0
100
AcDbBlockBegin
  2
*Paper_Space
 70
0
 10
0.0
 20
0.0
 30
0.0
  3
*Paper_Space
  1

  0
ENDBLK
  5
1D
100
AcDbEntity
  8
0
100
AcDbBlockEnd
  0
ENDSEC
  0
SECTION
  2
ENTITIES
  0
MTEXT
  5
219
100
AcDbEntity
  8
0
100
AcDbMText
 62
7
  6
CONTINUOUS
  7
STANDARD
 71
1
 72
1
 10
15.9560215477
 20
0.9479130325
 30
0.0
 11
1.0
 21
0.0
 31
0.0
 44
0.9
  1
SCALE: 1:1.000
 40
0.3
 41
3.36
  0
LINE
  5
21A
100
AcDbEntity
  8
0
100
AcDbLine
 62
7
  6
CONTINUOUS
 10
0.0
 20
0.0
 11
0.0
 21
17.0
  0
LINE
  5
21B
100
AcDbEntity
  8
0
100
AcDbLine
 62
7
  6
CONTINUOUS
 10
0.0
 20
0.0
 11
22.0
 21
0.0
  0
LINE
  5
21C
100
AcDbEntity
  8
0
100
AcDbLine
 62
7
  6
CONTINUOUS
 10
0.0
 20
17.0
 11
22.0
 21
17.0
  0
LINE
  5
21D
100
AcDbEntity
  8
0
100
AcDbLine
 62
7
  6
CONTINUOUS
 10
22.0
 20
0.0
 11
22.0
 21
17.0
  0
LINE
  5
21E
100
AcDbEntity
  8
0
100
AcDbLine
 62
7
  6
CONTINUOUS
 10
2.3803672762
 20
5.8301198968
 11
2.3803672762
 21
5.5851198968
  0
LINE
  5
21F
100
AcDbEntity
  8
0
100
AcDbLine
 62
7
  6
CONTINUOUS
 10
2.6324992827
 20
5.5422506907
 11
2.7434368522
 21
5.2744237059
  0
LINE
  5
220
100
AcDbEntity
  8
0
100
AcDbLine
 62
7
  6
CONTINUOUS
 10
3.2672977001
 20
5.2744237059
 11
3.3782352696
 21
5.5422506907
  0
LINE
  5
221
100
AcDbEntity
  8
0
100
AcDbLine
 62
7
  6
CONTINUOUS
 10
3.8824992827
 20
5.5422506907
 11
3.9934368522
 21
5.2744237059
  0
LINE
  5
222
100
AcDbEntity
  8
0
100
AcDbLine
 62
7
  6
CONTINUOUS
 10
4.5172977001
 20
5.2744237059
 11
4.6282352696
 21
5.5422506907
  0
LINE
  5
223
100
AcDbEntity
  8
0
100
AcDbLine
 62
7
  6
CONTINUOUS
 10
5.1324992827
 20
5.5422506907
 11
5.2434368522
 21
5.2744237059
  0
LINE
  5
224
100
AcDbEntity
  8
0
100
AcDbLine
 62
7
  6
CONTINUOUS
 10
5.7672977001
 20
5.2744237059
 11
5.8782352696
 21
5.5422506907
  0
LINE
  5
225
100
AcDbEntity
  8
0
100
AcDbLine
 62
7
  6
CONTINUOUS
 10
2.8396743035
 20
5.2101198968
 11
3.1710602488
 21
5.2101198968
  0
LINE
  5
226
100
AcDbEntity
  8
0
100
AcDbLine
 62
7
  6
CONTINUOUS
 10
4.0896743035
 20
5.2101198968
 11
4.4210602488
 21
5.2101198968
  0
LINE
  5
227
100
AcDbEntity
  8
0
100
AcDbLine
 62
7
  6
CONTINUOUS
 10
5.3396743035
 20
5.2101198968
 11
5.6710602488
 21
5.2101198968
  0
LINE
  5
228
100
AcDbEntity
  8
0
100
AcDbLine
 62
7
  6
CONTINUOUS
 10
6.5896743035
 20
5.2101198968
 11
6.9210602488
 21
5.2101198968
  0
LINE
  5
229
100
AcDbEntity
  8
0
100
AcDbLine
 62
7
  6
CONTINUOUS
 10
7.8396743035
 20
5.2101198968
 11
8.1710602488
 21
5.2101198968
  0
LINE
  5
22A
100
AcDbEntity
  8
0
100
AcDbLine
 62
7
  6
CONTINUOUS
 10
9.0896743035
 20
5.2101198968
 11
9.4210602488
 21
5.2101198968
  0
LINE
  5
22B
100
AcDbEntity
  8
0
100
AcDbLine
 62
7
  6
CONTINUOUS
 10
2.3803672762
 20
5.5851198968
 11
2.5683409819
 21
5.5851198968
  0
LINE
  5
22C
100
AcDbEntity
  8
0
100
AcDbLine
 62
7
  6
CONTINUOUS
 10
3.4423935705
 20
5.5851198968
 11
3.8183409819
 21
5.5851198968
  0
LINE
  5
22D
100
AcDbEntity
  8
0
100
AcDbLine
 62
7
  6
CONTINUOUS
 10
4.6923935705
 20
5.5851198968
 11
5.0683409819
 21
5.5851198968
  0
LINE
  5
22E
100
AcDbEntity
  8
0
100
AcDbLine
 62
7
  6
CONTINUOUS
 10
5.9423935705
 20
5.5851198968
 11
6.3183409819
 21
5.5851198968
  0
LINE
  5
22F
100
AcDbEntity
  8
0
100
AcDbLine
 62
7
  6
CONTINUOUS
 10
7.1923935705
 20
5.5851198968
 11
7.5683409819
 21
5.5851198968
  0
LINE
  5
230
100
AcDbEntity
  8
0
100
AcDbLine
 62
7
  6
CONTINUOUS
 10
8.4423935705
 20
5.5851198968
 11
8.8183409819
 21
5.5851198968
  0
LINE
  5
231
100
AcDbEntity
  8
0
100
AcDbLine
 62
7
  6
CONTINUOUS
 10
9.6923935705
 20
5.5851198968
 11
9.8803672762
 21
5.5851198968
  0
LINE
  5
232
100
AcDbEntity
  8
0
100
AcDbLine
 62
7
  6
CONTINUOUS
 10
6.3824992827
 20
5.5422506907
 11
6.4934368522
 21
5.2744237059
  0
LINE
  5
233
100
AcDbEntity
  8
0
100
AcDbLine
 62
7
  6
CONTINUOUS
 10
9.8803672762
 20
5.8301198968
 11
2.3803672762
 21
5.8301198968
  0
LINE
  5
234
100
AcDbEntity
  8
0
100
AcDbLine
 62
7
  6
CONTINUOUS
 10
7.0172977001
 20
5.2744237059
 11
7.1282352696
 21
5.5422506907
  0
LINE
  5
235
100
AcDbEntity
  8
0
100
AcDbLine
 62
7
  6
CONTINUOUS
 10
7.6324992827
 20
5.5422506907
 11
7.7434368522
 21
5.2744237059
  0
LINE
  5
236
100
AcDbEntity
  8
0
100
AcDbLine
 62
7
  6
CONTINUOUS
 10
8.2672977001
 20
5.2744237059
 11
8.3782352696
 21
5.5422506907
  0
LINE
  5
237
100
AcDbEntity
  8
0
100
AcDbLine
 62
7
  6
CONTINUOUS
 10
8.8824992827
 20
5.5422506907
 11
8.9934368522
 21
5.2744237059
  0
LINE
  5
238
100
AcDbEntity
  8
0
100
AcDbLine
 62
7
  6
CONTINUOUS
 10
9.5172977001
 20
5.2744237059
 11
9.6282352696
 21
5.5422506907
  0
LINE
  5
239
100
AcDbEntity
  8
0
100
AcDbLine
 62
7
  6
CONTINUOUS
 10
9.8803672762
 20
5.5851198968
 11
9.8803672762
 21
5.8301198968
  0
LINE
  5
23A
100
AcDbEntity
  8
0
100
AcDbLine
 62
7
  6
CONTINUOUS
 10
2.3208720839
 20
15.1000477814
 11
2.3208720839
 21
10.1000477814
  0
LINE
  5
23B
100
AcDbEntity
  8
0
100
AcDbLine
 62
7
  6
CONTINUOUS
 10
9.8208720839
 20
10.1000477814
 11
2.3208720839
 21
10.1000477814
  0
LINE
  5
23C
100
AcDbEntity
  8
0
100
AcDbLine
 62
7
  6
CONTINUOUS
 10
2.3208720839
 20
15.1000477814
 11
9.8208720839
 21
15.1000477814
  0
LINE
  5
23D
100
AcDbEntity
  8
0
100
AcDbLine
 62
7
  6
CONTINUOUS
 10
9.8208720839
 20
15.1000477814
 11
9.8208720839
 21
10.1000477814
  0
LINE
  5
23E
100
AcDbEntity
  8
0
100
AcDbLine
 62
7
  6
CONTINUOUS
 10
13.0603552569
 20
5.1506247044
 11
13.0603552569
 21
5.7706247044
  0
LINE
  5
23F
100
AcDbEntity
  8
0
100
AcDbLine
 62
7
  6
CONTINUOUS
 10
13.0603552569
 20
5.1506247044
 11
18.0603552569
 21
5.1506247044
  0
LINE
  5
240
100
AcDbEntity
  8
0
100
AcDbLine
 62
7
  6
CONTINUOUS
 10
18.0603552569
 20
5.5256247044
 11
13.0603552569
 21
5.5256247044
  0
LINE
  5
241
100
AcDbEntity
  8
0
100
AcDbLine
 62
7
  6
CONTINUOUS
 10
18.0603552569
 20
5.7706247044
 11
13.0603552569
 21
5.7706247044
  0
LINE
  5
242
100
AcDbEntity
  8
0
100
AcDbLine
 62
7
  6
CONTINUOUS
 10
18.0603552569
 20
5.1506247044
 11
18.0603552569
 21
5.7706247044
  0
LINE
  5
243
100
AcDbEntity
  8
0
100
AcDbLine
 62
7
  6
CONTINUOUS
 10
11.3746003038
 20
10.745186809
 11
11.4493355611
 21
10.5928923668
  0
LINE
  5
244
100
AcDbEntity
  8
0
100
AcDbLine
 62
7
  6
CONTINUOUS
 10
11.6946414203
 20
10.5662444409
 11
11.8785201317
 21
10.3997605174
  0
LINE
  5
245
100
AcDbEntity
  8
0
100
AcDbLine
 62
7
  6
CONTINUOUS
 10
12.5849319208
 20
14.6618213571
 11
11.3746003038
 21
10.745186809
  0
LINE
  5
246
100
AcDbEntity
  8
0
100
AcDbLine
 62
7
  6
CONTINUOUS
 10
12.8459676628
 20
10.5662444409
 11
13.0298463742
 21
10.3997605174
  0
LINE
  5
247
100
AcDbEntity
  8
0
100
AcDbLine
 62
7
  6
CONTINUOUS
 10
12.361027925
 20
10.3997605174
 11
12.3815097497
 21
10.5662444409
  0
LINE
  5
248
100
AcDbEntity
  8
0
100
AcDbLine
 62
7
  6
CONTINUOUS
 10
12.3597590476
 20
10.3937821025
 11
12.361027925
 21
10.3997605174
  0
LINE
  5
249
100
AcDbEntity
  8
0
100
AcDbLine
 62
7
  6
CONTINUOUS
 10
12.3815097497
 20
10.5662444409
 11
12.3823714535
 21
10.5702251798
  0
LINE
  5
24A
100
AcDbEntity
  8
0
100
AcDbLine
 62
7
  6
CONTINUOUS
 10
13.9972939054
 20
10.5662444409
 11
14.1811726167
 21
10.3997605174
  0
LINE
  5
24B
100
AcDbEntity
  8
0
100
AcDbLine
 62
7
  6
CONTINUOUS
 10
12.361547561
 20
10.3995999378
 11
12.4210696511
 21
10.592213492
  0
LINE
  5
24C
100
AcDbEntity
  8
0
100
AcDbLine
 62
7
  6
CONTINUOUS
 10
11.9867760483
 20
10.3597886287
 11
12.2920027164
 21
10.3597886287
  0
LINE
  5
24D
100
AcDbEntity
  8
0
100
AcDbLine
 62
7
  6
CONTINUOUS
 10
13.1381022908
 20
10.3597886287
 11
13.443328959
 21
10.3597886287
  0
LINE
  5
24E
100
AcDbEntity
  8
0
100
AcDbLine
 62
7
  6
CONTINUOUS
 10
14.2894285333
 20
10.3597886287
 11
14.5946552015
 21
10.3597886287
  0
LINE
  5
24F
100
AcDbEntity
  8
0
100
AcDbLine
 62
7
  6
CONTINUOUS
 10
15.4407547758
 20
10.3597886287
 11
15.745981444
 21
10.3597886287
  0
LINE
  5
250
100
AcDbEntity
  8
0
100
AcDbLine
 62
7
  6
CONTINUOUS
 10
16.5920810183
 20
10.3597886287
 11
16.8973076865
 21
10.3597886287
  0
LINE
  5
251
100
AcDbEntity
  8
0
100
AcDbLine
 62
7
  6
CONTINUOUS
 10
17.7434072608
 20
10.3597886287
 11
18.048633929
 21
10.3597886287
  0
LINE
  5
252
100
AcDbEntity
  8
0
100
AcDbLine
 62
7
  6
CONTINUOUS
 10
11.4493355611
 20
10.5928923668
 11
11.6224708093
 21
10.5928923668
  0
LINE
  5
253
100
AcDbEntity
  8
0
100
AcDbLine
 62
7
  6
CONTINUOUS
 10
12.4275265554
 20
10.5928923668
 11
12.7737970518
 21
10.5928923668
  0
LINE
  5
254
100
AcDbEntity
  8
0
100
AcDbLine
 62
7
  6
CONTINUOUS
 10
13.5788527979
 20
10.5928923668
 11
13.9251232943
 21
10.5928923668
  0
LINE
  5
255
100
AcDbEntity
  8
0
100
AcDbLine
 62
7
  6
CONTINUOUS
 10
14.7301790404
 20
10.5928923668
 11
15.0764495368
 21
10.5928923668
  0
LINE
  5
256
100
AcDbEntity
  8
0
100
AcDbLine
 62
7
  6
CONTINUOUS
 10
15.8815052829
 20
10.5928923668
 11
16.2277757793
 21
10.5928923668
  0
LINE
  5
257
100
AcDbEntity
  8
0
100
AcDbLine
 62
7
  6
CONTINUOUS
 10
17.0328315254
 20
10.5928923668
 11
17.3791020218
 21
10.5928923668
  0
LINE
  5
258
100
AcDbEntity
  8
0
100
AcDbLine
 62
7
  6
CONTINUOUS
 10
18.1841577679
 20
10.5928923668
 11
18.3572930161
 21
10.5928923668
  0
LINE
  5
259
100
AcDbEntity
  8
0
100
AcDbLine
 62
7
  6
CONTINUOUS
 10
13.5123541675
 20
10.3997605174
 11
13.5328359922
 21
10.5662444409
  0
LINE
  5
25A
100
AcDbEntity
  8
0
100
AcDbLine
 62
7
  6
CONTINUOUS
 10
18.2825577588
 20
10.745186809
 11
11.3746003038
 21
10.745186809
  0
LINE
  5
25B
100
AcDbEntity
  8
0
100
AcDbLine
 62
7
  6
CONTINUOUS
 10
15.1486201479
 20
10.5662444409
 11
15.3324988592
 21
10.3997605174
  0
LINE
  5
25C
100
AcDbEntity
  8
0
100
AcDbLine
 62
7
  6
CONTINUOUS
 10
13.5110852901
 20
10.3937821025
 11
13.5123541675
 21
10.3997605174
  0
LINE
  5
25D
100
AcDbEntity
  8
0
100
AcDbLine
 62
7
  6
CONTINUOUS
 10
13.5328359922
 20
10.5662444409
 11
13.533697696
 21
10.5702251798
  0
LINE
  5
25E
100
AcDbEntity
  8
0
100
AcDbLine
 62
7
  6
CONTINUOUS
 10
13.5128738035
 20
10.3995999378
 11
13.5723958936
 21
10.592213492
  0
LINE
  5
25F
100
AcDbEntity
  8
0
100
AcDbLine
 62
7
  6
CONTINUOUS
 10
16.2999463904
 20
10.5662444409
 11
16.4838251017
 21
10.3997605174
  0
LINE
  5
260
100
AcDbEntity
  8
0
100
AcDbLine
 62
7
  6
CONTINUOUS
 10
14.66368041
 20
10.3997605174
 11
14.6841622347
 21
10.5662444409
  0
LINE
  5
261
100
AcDbEntity
  8
0
100
AcDbLine
 62
7
  6
CONTINUOUS
 10
14.6624115326
 20
10.3937821025
 11
14.66368041
 21
10.3997605174
  0
LINE
  5
262
100
AcDbEntity
  8
0
100
AcDbLine
 62
7
  6
CONTINUOUS
 10
14.6841622347
 20
10.5662444409
 11
14.6850239385
 21
10.5702251798
  0
LINE
  5
263
100
AcDbEntity
  8
0
100
AcDbLine
 62
7
  6
CONTINUOUS
 10
14.664200046
 20
10.3995999378
 11
14.7237221361
 21
10.592213492
  0
LINE
  5
264
100
AcDbEntity
  8
0
100
AcDbLine
 62
7
  6
CONTINUOUS
 10
17.4512726329
 20
10.5662444409
 11
17.6351513442
 21
10.3997605174
  0
LINE
  5
265
100
AcDbEntity
  8
0
100
AcDbLine
 62
7
  6
CONTINUOUS
 10
15.8150066525
 20
10.3997605174
 11
15.8354884772
 21
10.5662444409
  0
LINE
  5
266
100
AcDbEntity
  8
0
100
AcDbLine
 62
7
  6
CONTINUOUS
 10
15.8137377751
 20
10.3937821025
 11
15.8150066525
 21
10.3997605174
  0
LINE
  5
267
100
AcDbEntity
  8
0
100
AcDbLine
 62
7
  6
CONTINUOUS
 10
15.8354884772
 20
10.5662444409
 11
15.836350181
 21
10.5702251798
  0
LINE
  5
268
100
AcDbEntity
  8
0
100
AcDbLine
 62
7
  6
CONTINUOUS
 10
15.8155262885
 20
10.3995999378
 11
15.8750483786
 21
10.592213492
  0
LINE
  5
269
100
AcDbEntity
  8
0
100
AcDbLine
 62
7
  6
CONTINUOUS
 10
16.9663328951
 20
10.3997605174
 11
16.9868147197
 21
10.5662444409
  0
LINE
  5
26A
100
AcDbEntity
  8
0
100
AcDbLine
 62
7
  6
CONTINUOUS
 10
18.3572930161
 20
10.5928923668
 11
18.2825577588
 21
10.745186809
  0
LINE
  5
26B
100
AcDbEntity
  8
0
100
AcDbLine
 62
7
  6
CONTINUOUS
 10
16.9650640176
 20
10.3937821025
 11
16.9663328951
 21
10.3997605174
  0
LINE
  5
26C
100
AcDbEntity
  8
0
100
AcDbLine
 62
7
  6
CONTINUOUS
 10
16.9868147197
 20
10.5662444409
 11
16.9876764235
 21
10.5702251798
  0
LINE
  5
26D
100
AcDbEntity
  8
0
100
AcDbLine
 62
7
  6
CONTINUOUS
 10
16.966852531
 20
10.3995999378
 11
17.0263746211
 21
10.592213492
  0
LINE
  5
26E
100
AcDbEntity
  8
0
100
AcDbLine
 62
7
  6
CONTINUOUS
 10
12.5849319208
 20
14.6618213571
 11
19.4928893758
 21
14.6618213571
  0
LINE
  5
26F
100
AcDbEntity
  8
0
100
AcDbLine
 62
7
  6
CONTINUOUS
 10
18.1176591376
 20
10.3997605174
 11
18.1381409622
 21
10.5662444409
  0
LINE
  5
270
100
AcDbEntity
  8
0
100
AcDbLine
 62
7
  6
CONTINUOUS
 10
18.1163902601
 20
10.3937821025
 11
18.1176591376
 21
10.3997605174
  0
LINE
  5
271
100
AcDbEntity
  8
0
100
AcDbLine
 62
7
  6
CONTINUOUS
 10
18.1381409622
 20
10.5662444409
 11
18.139002666
 21
10.5702251798
  0
LINE
  5
272
100
AcDbEntity
  8
0
100
AcDbLine
 62
7
  6
CONTINUOUS
 10
18.1181787735
 20
10.3995999378
 11
18.1777008636
 21
10.592213492
  0
LINE
  5
273
100
AcDbEntity
  8
0
100
AcDbLine
 62
7
  6
CONTINUOUS
 10
19.4928893758
 20
14.6618213571
 11
18.2825577588
 21
10.745186809
  0
LINE
  5
274
100
AcDbEntity
  8
0
100
AcDbLine
 62
7
  6
CONTINUOUS
 10
19.5676246332
 20
14.5095269149
 11
18.3572930161
 21
10.5928923668
  0
LINE
  5
275
100
AcDbEntity
  8
0
100
AcDbLine
 62
7
  6
CONTINUOUS
 10
19.5676246332
 20
14.5095269149
 11
19.4928893758
 21
14.6618213571
  0
ARC
  5
276
100
AcDbEntity
  8
0
100
AcDbCircle
 62
7
  6
CONTINUOUS
 10
4.0896743035
 20
5.3142865634
 40
0.1041666667
100
AcDbArc
 50
202.5
 51
270.0
  0
ARC
  5
277
100
AcDbEntity
  8
0
100
AcDbCircle
 62
7
  6
CONTINUOUS
 10
4.4210602488
 20
5.3142865634
 40
0.1041666667
100
AcDbArc
 50
270.0
 51
337.5
  0
ARC
  5
278
100
AcDbEntity
  8
0
100
AcDbCircle
 62
7
  6
CONTINUOUS
 10
5.3396743035
 20
5.3142865634
 40
0.1041666667
100
AcDbArc
 50
202.5
 51
270.0
  0
ARC
  5
279
100
AcDbEntity
  8
0
100
AcDbCircle
 62
7
  6
CONTINUOUS
 10
5.6710602488
 20
5.3142865634
 40
0.1041666667
100
AcDbArc
 50
270.0
 51
337.5
  0
ARC
  5
27A
100
AcDbEntity
  8
0
100
AcDbCircle
 62
7
  6
CONTINUOUS
 10
6.5896743035
 20
5.3142865634
 40
0.1041666667
100
AcDbArc
 50
202.5
 51
270.0
  0
ARC
  5
27B
100
AcDbEntity
  8
0
100
AcDbCircle
 62
7
  6
CONTINUOUS
 10
6.9210602488
 20
5.3142865634
 40
0.1041666667
100
AcDbArc
 50
270.0
 51
337.5
  0
ARC
  5
27C
100
AcDbEntity
  8
0
100
AcDbCircle
 62
7
  6
CONTINUOUS
 10
3.1710602488
 20
5.3142865634
 40
0.1041666667
100
AcDbArc
 50
270.0
 51
337.5
  0
ARC
  5
27D
100
AcDbEntity
  8
0
100
AcDbCircle
 62
7
  6
CONTINUOUS
 10
2.8396743035
 20
5.3142865634
 40
0.1041666667
100
AcDbArc
 50
202.5
 51
270.0
  0
ARC
  5
27E
100
AcDbEntity
  8
0
100
AcDbCircle
 62
7
  6
CONTINUOUS
 10
9.4210602488
 20
5.3142865634
 40
0.1041666667
100
AcDbArc
 50
270.0
 51
337.5
  0
ARC
  5
27F
100
AcDbEntity
  8
0
100
AcDbCircle
 62
7
  6
CONTINUOUS
 10
9.0896743035
 20
5.3142865634
 40
0.1041666667
100
AcDbArc
 50
202.5
 51
270.0
  0
ARC
  5
280
100
AcDbEntity
  8
0
100
AcDbCircle
 62
7
  6
CONTINUOUS
 10
8.1710602488
 20
5.3142865634
 40
0.1041666667
100
AcDbArc
 50
270.0
 51
337.5
  0
ARC
  5
281
100
AcDbEntity
  8
0
100
AcDbCircle
 62
7
  6
CONTINUOUS
 10
7.8396743035
 20
5.3142865634
 40
0.1041666667
100
AcDbArc
 50
202.5
 51
270.0
  0
ARC
  5
282
100
AcDbEntity
  8
0
100
AcDbCircle
 62
7
  6
CONTINUOUS
 10
3.4423935705
 20
5.5156754523
 40
0.0694444444
100
AcDbArc
 50
90.0
 51
157.5
  0
ARC
  5
283
100
AcDbEntity
  8
0
100
AcDbCircle
 62
7
  6
CONTINUOUS
 10
2.5683409819
 20
5.5156754523
 40
0.0694444444
100
AcDbArc
 50
22.5
 51
90.0
  0
ARC
  5
284
100
AcDbEntity
  8
0
100
AcDbCircle
 62
7
  6
CONTINUOUS
 10
4.6923935705
 20
5.5156754523
 40
0.0694444444
100
AcDbArc
 50
90.0
 51
157.5
  0
ARC
  5
285
100
AcDbEntity
  8
0
100
AcDbCircle
 62
7
  6
CONTINUOUS
 10
3.8183409819
 20
5.5156754523
 40
0.0694444444
100
AcDbArc
 50
22.5
 51
90.0
  0
ARC
  5
286
100
AcDbEntity
  8
0
100
AcDbCircle
 62
7
  6
CONTINUOUS
 10
5.9423935705
 20
5.5156754523
 40
0.0694444444
100
AcDbArc
 50
90.0
 51
157.5
  0
ARC
  5
287
100
AcDbEntity
  8
0
100
AcDbCircle
 62
7
  6
CONTINUOUS
 10
5.0683409819
 20
5.5156754523
 40
0.0694444444
100
AcDbArc
 50
22.5
 51
90.0
  0
ARC
  5
288
100
AcDbEntity
  8
0
100
AcDbCircle
 62
7
  6
CONTINUOUS
 10
7.1923935705
 20
5.5156754523
 40
0.0694444444
100
AcDbArc
 50
90.0
 51
157.5
  0
ARC
  5
289
100
AcDbEntity
  8
0
100
AcDbCircle
 62
7
  6
CONTINUOUS
 10
6.3183409819
 20
5.5156754523
 40
0.0694444444
100
AcDbArc
 50
22.5
 51
90.0
  0
ARC
  5
28A
100
AcDbEntity
  8
0
100
AcDbCircle
 62
7
  6
CONTINUOUS
 10
8.4423935705
 20
5.5156754523
 40
0.0694444444
100
AcDbArc
 50
90.0
 51
157.5
  0
ARC
  5
28B
100
AcDbEntity
  8
0
100
AcDbCircle
 62
7
  6
CONTINUOUS
 10
7.5683409819
 20
5.5156754523
 40
0.0694444444
100
AcDbArc
 50
22.5
 51
90.0
  0
ARC
  5
28C
100
AcDbEntity
  8
0
100
AcDbCircle
 62
7
  6
CONTINUOUS
 10
9.6923935705
 20
5.5156754523
 40
0.0694444444
100
AcDbArc
 50
90.0
 51
157.5
  0
ARC
  5
28D
100
AcDbEntity
  8
0
100
AcDbCircle
 62
7
  6
CONTINUOUS
 10
8.8183409819
 20
5.5156754523
 40
0.0694444444
100
AcDbArc
 50
22.5
 51
90.0
  0
SPLINE
  5
28E
100
AcDbEntity
  8
0
100
AcDbSpline
 62
7
  6
CONTINUOUS
 70
0
 71
3
 72
11
 73
7
 74
0
 42
0.0000001
 43
0.0000001
 44
0.0000000001
 40
0.0
 40
0.0
 40
0.0
 40
0.0
 40
0.2342288261
 40
0.4753686625
 40
0.7291532252
 40
1.0
 40
1.0
 40
1.0
 40
1.0
 10
12.3823635329
 20
10.570227629
 30
0.0
 10
12.3828424417
 20
10.5717742544
 30
0.0
 10
12.3841544306
 20
10.5748183549
 30
0.0
 10
12.3870840851
 20
10.5789597977
 30
0.0
 10
12.3909292081
 20
10.5826383777
 30
0.0
 10
12.3939455508
 20
10.5846822115
 30
0.0
 10
12.3955658232
 20
10.5856201979
 30
0.0
  0
SPLINE
  5
28F
100
AcDbEntity
  8
0
100
AcDbSpline
 62
7
  6
CONTINUOUS
 70
0
 71
3
 72
11
 73
7
 74
0
 42
0.0000001
 43
0.0000001
 44
0.0000000001
 40
0.0
 40
0.0
 40
0.0
 40
0.0
 40
0.2218861268
 40
0.4632408997
 40
0.7235721316
 40
1.0
 40
1.0
 40
1.0
 40
1.0
 10
12.3955658232
 20
10.5856201979
 30
0.0
 10
12.3976857272
 20
10.5868474243
 30
0.0
 10
12.4023530082
 20
10.5890029218
 30
0.0
 10
12.4100412644
 20
10.5912527869
 30
0.0
 10
12.4185442235
 20
10.5926039356
 30
0.0
 10
12.4244749378
 20
10.5928923668
 30
0.0
 10
12.4275265554
 20
10.5928923668
 30
0.0
  0
SPLINE
  5
290
100
AcDbEntity
  8
0
100
AcDbSpline
 62
7
  6
CONTINUOUS
 70
0
 71
3
 72
11
 73
7
 74
0
 42
0.0000001
 43
0.0000001
 44
0.0000000001
 40
0.0
 40
0.0
 40
0.0
 40
0.0
 40
0.2342288261
 40
0.4753686625
 40
0.7291532252
 40
1.0
 40
1.0
 40
1.0
 40
1.0
 10
13.5336897754
 20
10.570227629
 30
0.0
 10
13.5341686842
 20
10.5717742544
 30
0.0
 10
13.5354806731
 20
10.5748183549
 30
0.0
 10
13.5384103276
 20
10.5789597977
 30
0.0
 10
13.5422554506
 20
10.5826383777
 30
0.0
 10
13.5452717933
 20
10.5846822115
 30
0.0
 10
13.5468920657
 20
10.5856201979
 30
0.0
  0
SPLINE
  5
291
100
AcDbEntity
  8
0
100
AcDbSpline
 62
7
  6
CONTINUOUS
 70
0
 71
3
 72
11
 73
7
 74
0
 42
0.0000001
 43
0.0000001
 44
0.0000000001
 40
0.0
 40
0.0
 40
0.0
 40
0.0
 40
0.2218861268
 40
0.4632408997
 40
0.7235721316
 40
1.0
 40
1.0
 40
1.0
 40
1.0
 10
13.5468920657
 20
10.5856201979
 30
0.0
 10
13.5490119697
 20
10.5868474243
 30
0.0
 10
13.5536792507
 20
10.5890029218
 30
0.0
 10
13.5613675069
 20
10.5912527869
 30
0.0
 10
13.569870466
 20
10.5926039356
 30
0.0
 10
13.5758011803
 20
10.5928923668
 30
0.0
 10
13.5788527979
 20
10.5928923668
 30
0.0
  0
SPLINE
  5
292
100
AcDbEntity
  8
0
100
AcDbSpline
 62
7
  6
CONTINUOUS
 70
0
 71
3
 72
11
 73
7
 74
0
 42
0.0000001
 43
0.0000001
 44
0.0000000001
 40
0.0
 40
0.0
 40
0.0
 40
0.0
 40
0.2342288261
 40
0.4753686625
 40
0.7291532252
 40
1.0
 40
1.0
 40
1.0
 40
1.0
 10
14.685016018
 20
10.570227629
 30
0.0
 10
14.6854949267
 20
10.5717742544
 30
0.0
 10
14.6868069156
 20
10.5748183549
 30
0.0
 10
14.6897365701
 20
10.5789597977
 30
0.0
 10
14.6935816931
 20
10.5826383777
 30
0.0
 10
14.6965980358
 20
10.5846822115
 30
0.0
 10
14.6982183082
 20
10.5856201979
 30
0.0
  0
SPLINE
  5
293
100
AcDbEntity
  8
0
100
AcDbSpline
 62
7
  6
CONTINUOUS
 70
0
 71
3
 72
11
 73
7
 74
0
 42
0.0000001
 43
0.0000001
 44
0.0000000001
 40
0.0
 40
0.0
 40
0.0
 40
0.0
 40
0.2218861268
 40
0.4632408997
 40
0.7235721316
 40
1.0
 40
1.0
 40
1.0
 40
1.0
 10
14.6982183082
 20
10.5856201979
 30
0.0
 10
14.7003382122
 20
10.5868474243
 30
0.0
 10
14.7050054932
 20
10.5890029218
 30
0.0
 10
14.7126937494
 20
10.5912527869
 30
0.0
 10
14.7211967085
 20
10.5926039356
 30
0.0
 10
14.7271274228
 20
10.5928923668
 30
0.0
 10
14.7301790404
 20
10.5928923668
 30
0.0
  0
SPLINE
  5
294
100
AcDbEntity
  8
0
100
AcDbSpline
 62
7
  6
CONTINUOUS
 70
0
 71
3
 72
11
 73
7
 74
0
 42
0.0000001
 43
0.0000001
 44
0.0000000001
 40
0.0
 40
0.0
 40
0.0
 40
0.0
 40
0.2342288261
 40
0.4753686625
 40
0.7291532252
 40
1.0
 40
1.0
 40
1.0
 40
1.0
 10
15.8363422605
 20
10.570227629
 30
0.0
 10
15.8368211692
 20
10.5717742544
 30
0.0
 10
15.8381331581
 20
10.5748183549
 30
0.0
 10
15.8410628126
 20
10.5789597977
 30
0.0
 10
15.8449079356
 20
10.5826383777
 30
0.0
 10
15.8479242783
 20
10.5846822115
 30
0.0
 10
15.8495445507
 20
10.5856201979
 30
0.0
  0
SPLINE
  5
295
100
AcDbEntity
  8
0
100
AcDbSpline
 62
7
  6
CONTINUOUS
 70
0
 71
3
 72
11
 73
7
 74
0
 42
0.0000001
 43
0.0000001
 44
0.0000000001
 40
0.0
 40
0.0
 40
0.0
 40
0.0
 40
0.2218861268
 40
0.4632408997
 40
0.7235721316
 40
1.0
 40
1.0
 40
1.0
 40
1.0
 10
15.8495445507
 20
10.5856201979
 30
0.0
 10
15.8516644547
 20
10.5868474243
 30
0.0
 10
15.8563317357
 20
10.5890029218
 30
0.0
 10
15.8640199919
 20
10.5912527869
 30
0.0
 10
15.872522951
 20
10.5926039356
 30
0.0
 10
15.8784536653
 20
10.5928923668
 30
0.0
 10
15.8815052829
 20
10.5928923668
 30
0.0
  0
SPLINE
  5
296
100
AcDbEntity
  8
0
100
AcDbSpline
 62
7
  6
CONTINUOUS
 70
0
 71
3
 72
11
 73
7
 74
0
 42
0.0000001
 43
0.0000001
 44
0.0000000001
 40
0.0
 40
0.0
 40
0.0
 40
0.0
 40
0.2342288261
 40
0.4753686625
 40
0.7291532252
 40
1.0
 40
1.0
 40
1.0
 40
1.0
 10
16.987668503
 20
10.570227629
 30
0.0
 10
16.9881474117
 20
10.5717742544
 30
0.0
 10
16.9894594006
 20
10.5748183549
 30
0.0
 10
16.9923890551
 20
10.5789597977
 30
0.0
 10
16.9962341781
 20
10.5826383777
 30
0.0
 10
16.9992505208
 20
10.5846822115
 30
0.0
 10
17.0008707932
 20
10.5856201979
 30
0.0
  0
SPLINE
  5
297
100
AcDbEntity
  8
0
100
AcDbSpline
 62
7
  6
CONTINUOUS
 70
0
 71
3
 72
11
 73
7
 74
0
 42
0.0000001
 43
0.0000001
 44
0.0000000001
 40
0.0
 40
0.0
 40
0.0
 40
0.0
 40
0.2218861268
 40
0.4632408997
 40
0.7235721316
 40
1.0
 40
1.0
 40
1.0
 40
1.0
 10
17.0008707932
 20
10.5856201979
 30
0.0
 10
17.0029906972
 20
10.5868474243
 30
0.0
 10
17.0076579782
 20
10.5890029218
 30
0.0
 10
17.0153462344
 20
10.5912527869
 30
0.0
 10
17.0238491935
 20
10.5926039356
 30
0.0
 10
17.0297799078
 20
10.5928923668
 30
0.0
 10
17.0328315254
 20
10.5928923668
 30
0.0
  0
SPLINE
  5
298
100
AcDbEntity
  8
0
100
AcDbSpline
 62
7
  6
CONTINUOUS
 70
0
 71
3
 72
11
 73
7
 74
0
 42
0.0000001
 43
0.0000001
 44
0.0000000001
 40
0.0
 40
0.0
 40
0.0
 40
0.0
 40
0.2342288261
 40
0.4753686625
 40
0.7291532252
 40
1.0
 40
1.0
 40
1.0
 40
1.0
 10
18.1389947455
 20
10.570227629
 30
0.0
 10
18.1394736542
 20
10.5717742544
 30
0.0
 10
18.1407856431
 20
10.5748183549
 30
0.0
 10
18.1437152976
 20
10.5789597977
 30
0.0
 10
18.1475604206
 20
10.5826383777
 30
0.0
 10
18.1505767633
 20
10.5846822115
 30
0.0
 10
18.1521970357
 20
10.5856201979
 30
0.0
  0
SPLINE
  5
299
100
AcDbEntity
  8
0
100
AcDbSpline
 62
7
  6
CONTINUOUS
 70
0
 71
3
 72
11
 73
7
 74
0
 42
0.0000001
 43
0.0000001
 44
0.0000000001
 40
0.0
 40
0.0
 40
0.0
 40
0.0
 40
0.2218861268
 40
0.4632408997
 40
0.7235721316
 40
1.0
 40
1.0
 40
1.0
 40
1.0
 10
18.1521970357
 20
10.5856201979
 30
0.0
 10
18.1543169397
 20
10.5868474243
 30
0.0
 10
18.1589842207
 20
10.5890029218
 30
0.0
 10
18.1666724769
 20
10.5912527869
 30
0.0
 10
18.175175436
 20
10.5926039356
 30
0.0
 10
18.1811061503
 20
10.5928923668
 30
0.0
 10
18.1841577679
 20
10.5928923668
 30
0.0
  0
SPLINE
  5
29A
100
AcDbEntity
  8
0
100
AcDbSpline
 62
7
  6
CONTINUOUS
 70
0
 71
3
 72
15
 73
11
 74
0
 42
0.0000001
 43
0.0000001
 44
0.0000000001
 40
0.0
 40
0.0
 40
0.0
 40
0.0
 40
0.1557506563
 40
0.3032140122
 40
0.4410977373
 40
0.5690411248
 40
0.6873381466
 40
0.7970484531
 40
0.9002754338
 40
1.0
 40
1.0
 40
1.0
 40
1.0
 10
12.2920027164
 20
10.3597886287
 30
0.0
 10
12.2961965699
 20
10.3597886287
 30
0.0
 10
12.3043672976
 20
10.3601507467
 30
0.0
 10
12.3161436217
 20
10.3618515828
 30
0.0
 10
12.3269348297
 20
10.3646803119
 30
0.0
 10
12.3365470646
 20
10.3685897443
 30
0.0
 10
12.3448154442
 20
10.373521395
 30
0.0
 10
12.3515855051
 20
10.3794128352
 30
0.0
 10
12.356711606
 20
10.3861721266
 30
0.0
 10
12.3589556443
 20
10.3912198268
 30
0.0
 10
12.3597488935
 20
10.3937852409
 30
0.0
  0
SPLINE
  5
29B
100
AcDbEntity
  8
0
100
AcDbSpline
 62
7
  6
CONTINUOUS
 70
0
 71
3
 72
15
 73
11
 74
0
 42
0.0000001
 43
0.0000001
 44
0.0000000001
 40
0.0
 40
0.0
 40
0.0
 40
0.0
 40
0.1148729049
 40
0.2360778292
 40
0.3619571352
 40
0.4908829093
 40
0.6210133421
 40
0.7504589971
 40
0.8774377367
 40
1.0
 40
1.0
 40
1.0
 40
1.0
 10
11.8785201317
 20
10.3997605174
 30
0.0
 10
11.8818625384
 20
10.3967342999
 30
0.0
 10
11.8891040278
 20
10.3909184976
 30
0.0
 10
11.9010390112
 20
10.3831740094
 30
0.0
 10
11.9141290882
 20
10.3763134135
 30
0.0
 10
11.9280882963
 20
10.3704847549
 30
0.0
 10
11.9426204683
 20
10.365806107
 30
0.0
 10
11.9574205089
 20
10.3623811005
 30
0.0
 10
11.972165825
 20
10.360285707
 30
0.0
 10
11.9819653914
 20
10.3597886287
 30
0.0
 10
11.9867760483
 20
10.3597886287
 30
0.0
  0
SPLINE
  5
29C
100
AcDbEntity
  8
0
100
AcDbSpline
 62
7
  6
CONTINUOUS
 70
0
 71
3
 72
15
 73
11
 74
0
 42
0.0000001
 43
0.0000001
 44
0.0000000001
 40
0.0
 40
0.0
 40
0.0
 40
0.0
 40
0.1557506563
 40
0.3032140122
 40
0.4410977373
 40
0.5690411248
 40
0.6873381466
 40
0.7970484531
 40
0.9002754338
 40
1.0
 40
1.0
 40
1.0
 40
1.0
 10
18.048633929
 20
10.3597886287
 30
0.0
 10
18.0528277824
 20
10.3597886287
 30
0.0
 10
18.0609985101
 20
10.3601507467
 30
0.0
 10
18.0727748342
 20
10.3618515828
 30
0.0
 10
18.0835660422
 20
10.3646803119
 30
0.0
 10
18.0931782771
 20
10.3685897443
 30
0.0
 10
18.1014466568
 20
10.373521395
 30
0.0
 10
18.1082167177
 20
10.3794128352
 30
0.0
 10
18.1133428185
 20
10.3861721266
 30
0.0
 10
18.1155868568
 20
10.3912198268
 30
0.0
 10
18.116380106
 20
10.3937852409
 30
0.0
  0
SPLINE
  5
29D
100
AcDbEntity
  8
0
100
AcDbSpline
 62
7
  6
CONTINUOUS
 70
0
 71
3
 72
15
 73
11
 74
0
 42
0.0000001
 43
0.0000001
 44
0.0000000001
 40
0.0
 40
0.0
 40
0.0
 40
0.0
 40
0.1148729049
 40
0.2360778292
 40
0.3619571352
 40
0.4908829093
 40
0.6210133421
 40
0.7504589971
 40
0.8774377367
 40
1.0
 40
1.0
 40
1.0
 40
1.0
 10
17.6351513442
 20
10.3997605174
 30
0.0
 10
17.6384937509
 20
10.3967342999
 30
0.0
 10
17.6457352403
 20
10.3909184976
 30
0.0
 10
17.6576702237
 20
10.3831740094
 30
0.0
 10
17.6707603007
 20
10.3763134135
 30
0.0
 10
17.6847195089
 20
10.3704847549
 30
0.0
 10
17.6992516808
 20
10.365806107
 30
0.0
 10
17.7140517215
 20
10.3623811005
 30
0.0
 10
17.7287970375
 20
10.360285707
 30
0.0
 10
17.7385966039
 20
10.3597886287
 30
0.0
 10
17.7434072608
 20
10.3597886287
 30
0.0
  0
SPLINE
  5
29E
100
AcDbEntity
  8
0
100
AcDbSpline
 62
7
  6
CONTINUOUS
 70
0
 71
3
 72
15
 73
11
 74
0
 42
0.0000001
 43
0.0000001
 44
0.0000000001
 40
0.0
 40
0.0
 40
0.0
 40
0.0
 40
0.1557506563
 40
0.3032140122
 40
0.4410977373
 40
0.5690411248
 40
0.6873381466
 40
0.7970484531
 40
0.9002754338
 40
1.0
 40
1.0
 40
1.0
 40
1.0
 10
16.8973076865
 20
10.3597886287
 30
0.0
 10
16.9015015399
 20
10.3597886287
 30
0.0
 10
16.9096722676
 20
10.3601507467
 30
0.0
 10
16.9214485917
 20
10.3618515828
 30
0.0
 10
16.9322397997
 20
10.3646803119
 30
0.0
 10
16.9418520346
 20
10.3685897443
 30
0.0
 10
16.9501204142
 20
10.373521395
 30
0.0
 10
16.9568904751
 20
10.3794128352
 30
0.0
 10
16.962016576
 20
10.3861721266
 30
0.0
 10
16.9642606143
 20
10.3912198268
 30
0.0
 10
16.9650538635
 20
10.3937852409
 30
0.0
  0
SPLINE
  5
29F
100
AcDbEntity
  8
0
100
AcDbSpline
 62
7
  6
CONTINUOUS
 70
0
 71
3
 72
15
 73
11
 74
0
 42
0.0000001
 43
0.0000001
 44
0.0000000001
 40
0.0
 40
0.0
 40
0.0
 40
0.0
 40
0.1148729049
 40
0.2360778292
 40
0.3619571352
 40
0.4908829093
 40
0.6210133421
 40
0.7504589971
 40
0.8774377367
 40
1.0
 40
1.0
 40
1.0
 40
1.0
 10
16.4838251017
 20
10.3997605174
 30
0.0
 10
16.4871675084
 20
10.3967342999
 30
0.0
 10
16.4944089978
 20
10.3909184976
 30
0.0
 10
16.5063439812
 20
10.3831740094
 30
0.0
 10
16.5194340582
 20
10.3763134135
 30
0.0
 10
16.5333932664
 20
10.3704847549
 30
0.0
 10
16.5479254383
 20
10.365806107
 30
0.0
 10
16.5627254789
 20
10.3623811005
 30
0.0
 10
16.577470795
 20
10.360285707
 30
0.0
 10
16.5872703614
 20
10.3597886287
 30
0.0
 10
16.5920810183
 20
10.3597886287
 30
0.0
  0
SPLINE
  5
2A0
100
AcDbEntity
  8
0
100
AcDbSpline
 62
7
  6
CONTINUOUS
 70
0
 71
3
 72
15
 73
11
 74
0
 42
0.0000001
 43
0.0000001
 44
0.0000000001
 40
0.0
 40
0.0
 40
0.0
 40
0.0
 40
0.1557506563
 40
0.3032140122
 40
0.4410977373
 40
0.5690411248
 40
0.6873381466
 40
0.7970484531
 40
0.9002754338
 40
1.0
 40
1.0
 40
1.0
 40
1.0
 10
15.745981444
 20
10.3597886287
 30
0.0
 10
15.7501752974
 20
10.3597886287
 30
0.0
 10
15.7583460251
 20
10.3601507467
 30
0.0
 10
15.7701223492
 20
10.3618515828
 30
0.0
 10
15.7809135572
 20
10.3646803119
 30
0.0
 10
15.7905257921
 20
10.3685897443
 30
0.0
 10
15.7987941717
 20
10.373521395
 30
0.0
 10
15.8055642326
 20
10.3794128352
 30
0.0
 10
15.8106903335
 20
10.3861721266
 30
0.0
 10
15.8129343718
 20
10.3912198268
 30
0.0
 10
15.813727621
 20
10.3937852409
 30
0.0
  0
SPLINE
  5
2A1
100
AcDbEntity
  8
0
100
AcDbSpline
 62
7
  6
CONTINUOUS
 70
0
 71
3
 72
15
 73
11
 74
0
 42
0.0000001
 43
0.0000001
 44
0.0000000001
 40
0.0
 40
0.0
 40
0.0
 40
0.0
 40
0.1148729049
 40
0.2360778292
 40
0.3619571352
 40
0.4908829093
 40
0.6210133421
 40
0.7504589971
 40
0.8774377367
 40
1.0
 40
1.0
 40
1.0
 40
1.0
 10
15.3324988592
 20
10.3997605174
 30
0.0
 10
15.3358412659
 20
10.3967342999
 30
0.0
 10
15.3430827553
 20
10.3909184976
 30
0.0
 10
15.3550177387
 20
10.3831740094
 30
0.0
 10
15.3681078157
 20
10.3763134135
 30
0.0
 10
15.3820670239
 20
10.3704847549
 30
0.0
 10
15.3965991958
 20
10.365806107
 30
0.0
 10
15.4113992364
 20
10.3623811005
 30
0.0
 10
15.4261445525
 20
10.360285707
 30
0.0
 10
15.4359441189
 20
10.3597886287
 30
0.0
 10
15.4407547758
 20
10.3597886287
 30
0.0
  0
SPLINE
  5
2A2
100
AcDbEntity
  8
0
100
AcDbSpline
 62
7
  6
CONTINUOUS
 70
0
 71
3
 72
15
 73
11
 74
0
 42
0.0000001
 43
0.0000001
 44
0.0000000001
 40
0.0
 40
0.0
 40
0.0
 40
0.0
 40
0.1557506563
 40
0.3032140122
 40
0.4410977373
 40
0.5690411248
 40
0.6873381466
 40
0.7970484531
 40
0.9002754338
 40
1.0
 40
1.0
 40
1.0
 40
1.0
 10
14.5946552015
 20
10.3597886287
 30
0.0
 10
14.5988490549
 20
10.3597886287
 30
0.0
 10
14.6070197826
 20
10.3601507467
 30
0.0
 10
14.6187961067
 20
10.3618515828
 30
0.0
 10
14.6295873147
 20
10.3646803119
 30
0.0
 10
14.6391995496
 20
10.3685897443
 30
0.0
 10
14.6474679292
 20
10.373521395
 30
0.0
 10
14.6542379901
 20
10.3794128352
 30
0.0
 10
14.659364091
 20
10.3861721266
 30
0.0
 10
14.6616081293
 20
10.3912198268
 30
0.0
 10
14.6624013785
 20
10.3937852409
 30
0.0
  0
SPLINE
  5
2A3
100
AcDbEntity
  8
0
100
AcDbSpline
 62
7
  6
CONTINUOUS
 70
0
 71
3
 72
15
 73
11
 74
0
 42
0.0000001
 43
0.0000001
 44
0.0000000001
 40
0.0
 40
0.0
 40
0.0
 40
0.0
 40
0.1148729049
 40
0.2360778292
 40
0.3619571352
 40
0.4908829093
 40
0.6210133421
 40
0.7504589971
 40
0.8774377367
 40
1.0
 40
1.0
 40
1.0
 40
1.0
 10
14.1811726167
 20
10.3997605174
 30
0.0
 10
14.1845150234
 20
10.3967342999
 30
0.0
 10
14.1917565128
 20
10.3909184976
 30
0.0
 10
14.2036914962
 20
10.3831740094
 30
0.0
 10
14.2167815732
 20
10.3763134135
 30
0.0
 10
14.2307407813
 20
10.3704847549
 30
0.0
 10
14.2452729533
 20
10.365806107
 30
0.0
 10
14.2600729939
 20
10.3623811005
 30
0.0
 10
14.27481831
 20
10.360285707
 30
0.0
 10
14.2846178764
 20
10.3597886287
 30
0.0
 10
14.2894285333
 20
10.3597886287
 30
0.0
  0
SPLINE
  5
2A4
100
AcDbEntity
  8
0
100
AcDbSpline
 62
7
  6
CONTINUOUS
 70
0
 71
3
 72
15
 73
11
 74
0
 42
0.0000001
 43
0.0000001
 44
0.0000000001
 40
0.0
 40
0.0
 40
0.0
 40
0.0
 40
0.1557506563
 40
0.3032140122
 40
0.4410977373
 40
0.5690411248
 40
0.6873381466
 40
0.7970484531
 40
0.9002754338
 40
1.0
 40
1.0
 40
1.0
 40
1.0
 10
13.443328959
 20
10.3597886287
 30
0.0
 10
13.4475228124
 20
10.3597886287
 30
0.0
 10
13.4556935401
 20
10.3601507467
 30
0.0
 10
13.4674698642
 20
10.3618515828
 30
0.0
 10
13.4782610722
 20
10.3646803119
 30
0.0
 10
13.4878733071
 20
10.3685897443
 30
0.0
 10
13.4961416867
 20
10.373521395
 30
0.0
 10
13.5029117476
 20
10.3794128352
 30
0.0
 10
13.5080378485
 20
10.3861721266
 30
0.0
 10
13.5102818868
 20
10.3912198268
 30
0.0
 10
13.511075136
 20
10.3937852409
 30
0.0
  0
SPLINE
  5
2A5
100
AcDbEntity
  8
0
100
AcDbSpline
 62
7
  6
CONTINUOUS
 70
0
 71
3
 72
15
 73
11
 74
0
 42
0.0000001
 43
0.0000001
 44
0.0000000001
 40
0.0
 40
0.0
 40
0.0
 40
0.0
 40
0.1148729049
 40
0.2360778292
 40
0.3619571352
 40
0.4908829093
 40
0.6210133421
 40
0.7504589971
 40
0.8774377367
 40
1.0
 40
1.0
 40
1.0
 40
1.0
 10
13.0298463742
 20
10.3997605174
 30
0.0
 10
13.0331887809
 20
10.3967342999
 30
0.0
 10
13.0404302703
 20
10.3909184976
 30
0.0
 10
13.0523652537
 20
10.3831740094
 30
0.0
 10
13.0654553307
 20
10.3763134135
 30
0.0
 10
13.0794145388
 20
10.3704847549
 30
0.0
 10
13.0939467108
 20
10.365806107
 30
0.0
 10
13.1087467514
 20
10.3623811005
 30
0.0
 10
13.1234920675
 20
10.360285707
 30
0.0
 10
13.1332916339
 20
10.3597886287
 30
0.0
 10
13.1381022908
 20
10.3597886287
 30
0.0
  0
SPLINE
  5
2A6
100
AcDbEntity
  8
0
100
AcDbSpline
 62
7
  6
CONTINUOUS
 70
0
 71
3
 72
15
 73
11
 74
0
 42
0.0000001
 43
0.0000001
 44
0.0000000001
 40
0.0
 40
0.0
 40
0.0
 40
0.0
 40
0.1224858808
 40
0.249525905
 40
0.3790241075
 40
0.5091197136
 40
0.6380068104
 40
0.763935582
 40
0.8851958946
 40
1.0
 40
1.0
 40
1.0
 40
1.0
 10
11.6224708093
 20
10.5928923668
 30
0.0
 10
11.6256759052
 20
10.5928923668
 30
0.0
 10
11.6322083806
 20
10.5925592075
 30
0.0
 10
11.6420399576
 20
10.5911651389
 30
0.0
 10
11.651908214
 20
10.588879432
 30
0.0
 10
11.661596522
 20
10.5857628131
 30
0.0
 10
11.6709011121
 20
10.5818750736
 30
0.0
 10
11.6796302896
 20
10.5773022848
 30
0.0
 10
11.6875859618
 20
10.5721361241
 30
0.0
 10
11.6924144908
 20
10.5682607046
 30
0.0
 10
11.6946414203
 20
10.5662444409
 30
0.0
  0
SPLINE
  5
2A7
100
AcDbEntity
  8
0
100
AcDbSpline
 62
7
  6
CONTINUOUS
 70
0
 71
3
 72
15
 73
11
 74
0
 42
0.0000001
 43
0.0000001
 44
0.0000000001
 40
0.0
 40
0.0
 40
0.0
 40
0.0
 40
0.1224858808
 40
0.249525905
 40
0.3790241075
 40
0.5091197136
 40
0.6380068104
 40
0.763935582
 40
0.8851958946
 40
1.0
 40
1.0
 40
1.0
 40
1.0
 10
12.7737970518
 20
10.5928923668
 30
0.0
 10
12.7770021477
 20
10.5928923668
 30
0.0
 10
12.7835346231
 20
10.5925592075
 30
0.0
 10
12.7933662001
 20
10.5911651389
 30
0.0
 10
12.8032344565
 20
10.588879432
 30
0.0
 10
12.8129227646
 20
10.5857628131
 30
0.0
 10
12.8222273546
 20
10.5818750736
 30
0.0
 10
12.8309565321
 20
10.5773022848
 30
0.0
 10
12.8389122043
 20
10.5721361241
 30
0.0
 10
12.8437407333
 20
10.5682607046
 30
0.0
 10
12.8459676628
 20
10.5662444409
 30
0.0
  0
SPLINE
  5
2A8
100
AcDbEntity
  8
0
100
AcDbSpline
 62
7
  6
CONTINUOUS
 70
0
 71
3
 72
15
 73
11
 74
0
 42
0.0000001
 43
0.0000001
 44
0.0000000001
 40
0.0
 40
0.0
 40
0.0
 40
0.0
 40
0.1224858808
 40
0.249525905
 40
0.3790241075
 40
0.5091197136
 40
0.6380068104
 40
0.763935582
 40
0.8851958946
 40
1.0
 40
1.0
 40
1.0
 40
1.0
 10
13.9251232943
 20
10.5928923668
 30
0.0
 10
13.9283283902
 20
10.5928923668
 30
0.0
 10
13.9348608656
 20
10.5925592075
 30
0.0
 10
13.9446924426
 20
10.5911651389
 30
0.0
 10
13.954560699
 20
10.588879432
 30
0.0
 10
13.9642490071
 20
10.5857628131
 30
0.0
 10
13.9735535971
 20
10.5818750736
 30
0.0
 10
13.9822827746
 20
10.5773022848
 30
0.0
 10
13.9902384468
 20
10.5721361241
 30
0.0
 10
13.9950669758
 20
10.5682607046
 30
0.0
 10
13.9972939054
 20
10.5662444409
 30
0.0
  0
SPLINE
  5
2A9
100
AcDbEntity
  8
0
100
AcDbSpline
 62
7
  6
CONTINUOUS
 70
0
 71
3
 72
15
 73
11
 74
0
 42
0.0000001
 43
0.0000001
 44
0.0000000001
 40
0.0
 40
0.0
 40
0.0
 40
0.0
 40
0.1224858808
 40
0.249525905
 40
0.3790241075
 40
0.5091197136
 40
0.6380068104
 40
0.763935582
 40
0.8851958946
 40
1.0
 40
1.0
 40
1.0
 40
1.0
 10
15.0764495368
 20
10.5928923668
 30
0.0
 10
15.0796546327
 20
10.5928923668
 30
0.0
 10
15.0861871081
 20
10.5925592075
 30
0.0
 10
15.0960186851
 20
10.5911651389
 30
0.0
 10
15.1058869415
 20
10.588879432
 30
0.0
 10
15.1155752496
 20
10.5857628131
 30
0.0
 10
15.1248798396
 20
10.5818750736
 30
0.0
 10
15.1336090171
 20
10.5773022848
 30
0.0
 10
15.1415646893
 20
10.5721361241
 30
0.0
 10
15.1463932183
 20
10.5682607046
 30
0.0
 10
15.1486201479
 20
10.5662444409
 30
0.0
  0
SPLINE
  5
2AA
100
AcDbEntity
  8
0
100
AcDbSpline
 62
7
  6
CONTINUOUS
 70
0
 71
3
 72
15
 73
11
 74
0
 42
0.0000001
 43
0.0000001
 44
0.0000000001
 40
0.0
 40
0.0
 40
0.0
 40
0.0
 40
0.1224858808
 40
0.249525905
 40
0.3790241075
 40
0.5091197136
 40
0.6380068104
 40
0.763935582
 40
0.8851958946
 40
1.0
 40
1.0
 40
1.0
 40
1.0
 10
16.2277757793
 20
10.5928923668
 30
0.0
 10
16.2309808752
 20
10.5928923668
 30
0.0
 10
16.2375133506
 20
10.5925592075
 30
0.0
 10
16.2473449276
 20
10.5911651389
 30
0.0
 10
16.257213184
 20
10.588879432
 30
0.0
 10
16.2669014921
 20
10.5857628131
 30
0.0
 10
16.2762060821
 20
10.5818750736
 30
0.0
 10
16.2849352596
 20
10.5773022848
 30
0.0
 10
16.2928909319
 20
10.5721361241
 30
0.0
 10
16.2977194608
 20
10.5682607046
 30
0.0
 10
16.2999463904
 20
10.5662444409
 30
0.0
  0
SPLINE
  5
2AB
100
AcDbEntity
  8
0
100
AcDbSpline
 62
7
  6
CONTINUOUS
 70
0
 71
3
 72
15
 73
11
 74
0
 42
0.0000001
 43
0.0000001
 44
0.0000000001
 40
0.0
 40
0.0
 40
0.0
 40
0.0
 40
0.1224858808
 40
0.249525905
 40
0.3790241075
 40
0.5091197136
 40
0.6380068104
 40
0.763935582
 40
0.8851958946
 40
1.0
 40
1.0
 40
1.0
 40
1.0
 10
17.3791020218
 20
10.5928923668
 30
0.0
 10
17.3823071177
 20
10.5928923668
 30
0.0
 10
17.3888395931
 20
10.5925592075
 30
0.0
 10
17.3986711701
 20
10.5911651389
 30
0.0
 10
17.4085394265
 20
10.588879432
 30
0.0
 10
17.4182277346
 20
10.5857628131
 30
0.0
 10
17.4275323246
 20
10.5818750736
 30
0.0
 10
17.4362615021
 20
10.5773022848
 30
0.0
 10
17.4442171744
 20
10.5721361241
 30
0.0
 10
17.4490457033
 20
10.5682607046
 30
0.0
 10
17.4512726329
 20
10.5662444409
 30
0.0
  0
ENDSEC
  0
SECTION
  2
OBJECTS
  0
DICTIONARY
  5
C
100
AcDbDictionary
280
0
281
1
  3
ACAD_GROUP
350
D
  3
ACAD_MLINESTYLE
350
17
  3
ACAD_LAYOUT
350
1A
  3
ACAD_PLOTSETTINGS
350
19
  3
ACAD_PLOTSTYLENAME
350
E
  0
DICTIONARY
  5
D
102
{ACAD_REACTORS
330
C
102
}
100
AcDbDictionary
280
0
281
1
  0
ACDBDICTIONARYWDFLT
  5
E
102
{ACAD_REACTORS
330
C
102
}
100
AcDbDictionary
281
1
  3
Normal
350
F
100
AcDbDictionaryWithDefault
340
F
  0
DICTIONARY
  5
17
102
{ACAD_REACTORS
330
C
102
}
100
AcDbDictionary
280
0
281
1
  3
Standard
350
18
  0
DICTIONARY
  5
19
102
{ACAD_REACTORS
330
C
102
}
100
AcDbDictionary
281
1
  0
DICTIONARY
  5
1A
102
{ACAD_REACTORS
330
C
102
}
100
AcDbDictionary
281
1
  3
Model
350
2AC
  3
Layout1
350
2AD
  0
ACDBPLACEHOLDER
  5
F
102
{ACAD_REACTORS
330
E
102
}
  0
MLINESTYLE
  5
18
102
{ACAD_REACTORS
330
17
102
}
100
AcDbMlineStyle
  2
STANDARD
 70
0
  3

 62
256
 51
90.0
 52
90.0
 71
2
 49
0.5
 62
256
  6
BYLAYER
 49
-0.5
 62
256
  6
BYLAYER
  0
LAYOUT
  5
2AC
102
{ACAD_REACTORS
330
1A
102
}
100
AcDbPlotSettings
  1

  2
none_device
  4
ANSI_C_(22.00_x_17.00_Inches)
  6

 40
0.0
 41
0.0
 42
0.0
 43
0.0
 44
558.8
 45
431.8
 46
0.0
 47
0.0
 48
0.0
 49
0.0
140
0.0
141
0.0
142
1.0
143
1.0
 70
1024
 72
0
 73
0
 74
0
  7

 75
0
147
1.0
148
0.0
149
0.0
100
AcDbLayout
  1
Model
 70
0
 71
0
 10
0.0
 20
0.0
 11
22.0
 21
17.0
 12
0.0
 22
0.0
 32
0.0
 14
0.0
 24
0.0
 34
0.0
 15
0.0
 25
0.0
 35
0.0
146
0.0
 13
0.0
 23
0.0
 33
0.0
 16
1.0
 26
0.0
 36
0.0
 17
0.0
 27
1.0
 37
0.0
 76
0
330
216
345
0
346
0
  0
LAYOUT
  5
2AD
102
{ACAD_REACTORS
330
1A
102
}
100
AcDbPlotSettings
  1

  2
none_device
  4
ANSI_C_(22.00_x_17.00_Inches)
  6

 40
0.0
 41
0.0
 42
0.0
 43
0.0
 44
558.8
 45
431.8
 46
0.0
 47
0.0
 48
0.0
 49
0.0
140
0.0
141
0.0
142
1.0
143
1.0
 70
0
 72
0
 73
0
 74
0
  7

 75
0
147
1.0
148
0.0
149
0.0
100
AcDbLayout
  1
Layout1
 70
0
 71
1
 10
0.0
 20
0.0
 11
22.0
 21
17.0
 12
0.0
 22
0.0
 32
0.0
 14
0.0
 24
0.0
 34
0.0
 15
0.0
 25
0.0
 35
0.0
146
0.0
 13
0.0
 23
0.0
 33
0.0
 16
1.0
 26
0.0
 36
0.0
 17
0.0
 27
1.0
 37
0.0
 76
0
330
217
345
0
346
0
  0
ENDSEC
  0
EOF