999
DXF file: _cgs_temp_output.dxf
999
Pro/ENGINEER 2016360 by Parametric Technology Corporation
  0
SECTION
  2
HEADER
  9
$ACADVER
  1
AC1021
  9
$DWGCODEPAGE
  3
ANSI_1252
  9
$EXTMAX
 10
22.0
 20
17.0
 30
0.0
  9
$EXTMIN
 10
0.0
 20
0.0
 30
0.0
  9
$LIMMIN
 10
0.0
 20
0.0
  9
$LIMMAX
 10
22.0
 20
17.0
  9
$VIEWCTR
 10
11.0
 20
8.5
  9
$VIEWSIZE
 40
17.0
  9
$CLAYER
  8
0
  9
$LTSCALE
 40
1.21
  9
$CELTYPE
  6
BYLAYER
  9
$DIMSCALE
 40
1.0
  9
$DIMASZ
 40
0.1875
  9
$DIMEXO
 40
0.0625
  9
$DIMDLI
 40
0.836
  9
$DIMEXE
 40
0.125
  9
$DIMCEN
 40
0.198
  9
$DIMLFAC
 40
1.0
  9
$DIMBLK
  1
_CLOSED
  9
$DIMALT
 70
0
  9
$DIMALTF
 40
25.4
  9
$DIMTXT
 40
0.15625
  9
$DIMTOL
 70
0
  9
$DIMLIM
 70
0
  9
$DIMTFAC
 40
1.0
  9
$DIMGAP
 40
0.09
  9
$DIMDSEP
 70
46
  9
$AUNITS
 70
0
  9
$PDMODE
 70
3
  9
$PDSIZE
 40
0.3125
  9
$HANDSEED
  5
2FB
  9
$TILEMODE
 70
1
  9
$MEASUREMENT
 70
0
  9
$INSUNITS
 70
1
  0
ENDSEC
  0
SECTION
  2
CLASSES
  0
CLASS
  1
ACDBDICTIONARYWDFLT
  2
AcDbDictionaryWithDefault
  3
AutoCAD 2000
 90
0
 91
1
280
0
281
0
  0
CLASS
  1
ACDBPLACEHOLDER
  2
AcDbPlaceHolder
  3
AutoCAD 2000
 90
0
 91
1
280
0
281
0
  0
CLASS
  1
LAYOUT
  2
AcDbLayout
  3
AutoCAD 2000
 90
0
 91
0
280
0
281
0
  0
ENDSEC
  0
SECTION
  2
TABLES
  0
TABLE
  2
VPORT
  5
8
100
AcDbSymbolTable
 70
2
  0
VPORT
  5
1F4
100
AcDbSymbolTableRecord
100
AcDbViewportTableRecord
  2
*ACTIVE
 70
0
 10
0.0
 20
0.0
 11
1.0
 21
1.0
 12
11.0
 22
8.5
 13
0.0
 23
0.0
 14
1.0
 24
1.0
 15
0.0
 25
0.0
 16
0.0
 26
0.0
 36
1.0
 17
0.0
 27
0.0
 37
0.0
 40
17.0
 41
1.2941176471
 42
50.0
 43
0.0
 44
0.0
 50
0.0
 51
0.0
 71
0
 72
100
 73
1
 74
1
 75
0
 76
0
 77
0
 78
0
  0
ENDTAB
  0
TABLE
  2
LTYPE
  5
5
100
AcDbSymbolTable
 70
6
  0
LTYPE
  5
14
100
AcDbSymbolTableRecord
100
AcDbLinetypeTableRecord
  2
BYBLOCK
 70
0
  3

 72
65
 73
0
 40
0.0
  0
LTYPE
  5
15
100
AcDbSymbolTableRecord
100
AcDbLinetypeTableRecord
  2
BYLAYER
 70
0
  3

 72
65
 73
0
 40
0.0
  0
LTYPE
  5
16
100
AcDbSymbolTableRecord
100
AcDbLinetypeTableRecord
  2
CONTINUOUS
 70
64
  3
Solid line
 72
65
 73
0
 40
0.0
  0
LTYPE
  5
1F5
100
AcDbSymbolTableRecord
100
AcDbLinetypeTableRecord
  2
CENTER
 70
64
  3
____ _ ____ _ ____ _ ____ _ ____ _ ____ _ ____
 72
65
 73
4
 40
0.6
 49
0.375
 74
0
 49
-0.075
 74
0
 49
0.075
 74
0
 49
-0.075
 74
0
  0
LTYPE
  5
1F6
100
AcDbSymbolTableRecord
100
AcDbLinetypeTableRecord
  2
HIDDEN
 70
64
  3
- - - - - - - - - - - - - - - - - - - -
 72
65
 73
2
 40
0.2
 49
0.1
 74
0
 49
-0.1
 74
0
  0
LTYPE
  5
1F7
100
AcDbSymbolTableRecord
100
AcDbLinetypeTableRecord
  2
PHANTOM
 70
64
  3
_____ _ _ _____ _ _ _____ _ _ _____
 72
65
 73
6
 40
0.8
 49
0.45
 74
0
 49
-0.05
 74
0
 49
0.1
 74
0
 49
-0.05
 74
0
 49
0.1
 74
0
 49
-0.05
 74
0
  0
LTYPE
  5
1F8
100
AcDbSymbolTableRecord
100
AcDbLinetypeTableRecord
  2
DOT
 70
64
  3
. . . . . . . . . . . . . . . . . . . .
 72
65
 73
2
 40
0.2
 49
0.1
 74
0
 49
-0.1
 74
0
  0
LTYPE
  5
1F9
100
AcDbSymbolTableRecord
100
AcDbLinetypeTableRecord
  2
DASHED
 70
64
  3
- - - - - - - - - - - - - - - - - - - -
 72
65
 73
2
 40
0.2
 49
0.1
 74
0
 49
-0.1
 74
0
  0
ENDTAB
  0
TABLE
  2
LAYER
  5
2
100
AcDbSymbolTable
 70
36
  0
LAYER
  5
10
100
AcDbSymbolTableRecord
100
AcDbLayerTableRecord
  2
0
 70
0
 62
7
  6
CONTINUOUS
370
-3
390
F
  0
LAYER
  5
1FA
100
AcDbSymbolTableRecord
100
AcDbLayerTableRecord
  2
DEFAULT_1
 70
0
 62
7
  6
CENTER
370
-3
390
F
  0
LAYER
  5
1FB
100
AcDbSymbolTableRecord
100
AcDbLayerTableRecord
  2
DEFAULT_2
 70
0
 62
8
  6
HIDDEN
370
-3
390
F
  0
LAYER
  5
1FC
100
AcDbSymbolTableRecord
100
AcDbLayerTableRecord
  2
DEFAULT_3
 70
0
 62
7
  6
PHANTOM
370
-3
390
F
  0
LAYER
  5
1FD
100
AcDbSymbolTableRecord
100
AcDbLayerTableRecord
  2
01_ALL_DTM_PLN
 70
0
 62
7
  6
CONTINUOUS
370
-3
390
F
  0
LAYER
  5
1FE
100
AcDbSymbolTableRecord
100
AcDbLayerTableRecord
  2
01__ASM_ALL_DTM_PLN
 70
0
 62
7
  6
CONTINUOUS
370
-3
390
F
  0
LAYER
  5
1FF
100
AcDbSymbolTableRecord
100
AcDbLayerTableRecord
  2
01__ASM_DEF_DTM_PLN
 70
0
 62
7
  6
CONTINUOUS
370
-3
390
F
  0
LAYER
  5
200
100
AcDbSymbolTableRecord
100
AcDbLayerTableRecord
  2
01___PRT_ALL_DTM_PLN
 70
0
 62
7
  6
CONTINUOUS
370
-3
390
F
  0
LAYER
  5
201
100
AcDbSymbolTableRecord
100
AcDbLayerTableRecord
  2
01___PRT_DEF_DTM_PLN
 70
0
 62
7
  6
CONTINUOUS
370
-3
390
F
  0
LAYER
  5
202
100
AcDbSymbolTableRecord
100
AcDbLayerTableRecord
  2
02_ALL_AXES
 70
0
 62
7
  6
CONTINUOUS
370
-3
390
F
  0
LAYER
  5
203
100
AcDbSymbolTableRecord
100
AcDbLayerTableRecord
  2
02__ASM_ALL_AXES
 70
0
 62
7
  6
CONTINUOUS
370
-3
390
F
  0
LAYER
  5
204
100
AcDbSymbolTableRecord
100
AcDbLayerTableRecord
  2
02___PRT_ALL_AXES
 70
0
 62
7
  6
CONTINUOUS
370
-3
390
F
  0
LAYER
  5
205
100
AcDbSymbolTableRecord
100
AcDbLayerTableRecord
  2
03_ALL_CURVES
 70
0
 62
7
  6
CONTINUOUS
370
-3
390
F
  0
LAYER
  5
206
100
AcDbSymbolTableRecord
100
AcDbLayerTableRecord
  2
03__ASM_ALL_CURVES
 70
0
 62
7
  6
CONTINUOUS
370
-3
390
F
  0
LAYER
  5
207
100
AcDbSymbolTableRecord
100
AcDbLayerTableRecord
  2
03___PRT_ALL_CURVES
 70
0
 62
7
  6
CONTINUOUS
370
-3
390
F
  0
LAYER
  5
208
100
AcDbSymbolTableRecord
100
AcDbLayerTableRecord
  2
04_ALL_DTM_PNT
 70
0
 62
7
  6
CONTINUOUS
370
-3
390
F
  0
LAYER
  5
209
100
AcDbSymbolTableRecord
100
AcDbLayerTableRecord
  2
04__ASM_ALL_DTM_PNT
 70
0
 62
7
  6
CONTINUOUS
370
-3
390
F
  0
LAYER
  5
20A
100
AcDbSymbolTableRecord
100
AcDbLayerTableRecord
  2
04___PRT_ALL_DTM_PNT
 70
0
 62
7
  6
CONTINUOUS
370
-3
390
F
  0
LAYER
  5
20B
100
AcDbSymbolTableRecord
100
AcDbLayerTableRecord
  2
05_ALL_DTM_CSYS
 70
0
 62
7
  6
CONTINUOUS
370
-3
390
F
  0
LAYER
  5
20C
100
AcDbSymbolTableRecord
100
AcDbLayerTableRecord
  2
05__ASM_ALL_DTM_CSYS
 70
0
 62
7
  6
CONTINUOUS
370
-3
390
F
  0
LAYER
  5
20D
100
AcDbSymbolTableRecord
100
AcDbLayerTableRecord
  2
05__ASM_DEF_DTM_CSYS
 70
0
 62
7
  6
CONTINUOUS
370
-3
390
F
  0
LAYER
  5
20E
100
AcDbSymbolTableRecord
100
AcDbLayerTableRecord
  2
05___PRT_ALL_DTM_CSYS
 70
0
 62
7
  6
CONTINUOUS
370
-3
390
F
  0
LAYER
  5
20F
100
AcDbSymbolTableRecord
100
AcDbLayerTableRecord
  2
05___PRT_DEF_DTM_CSYS
 70
0
 62
7
  6
CONTINUOUS
370
-3
390
F
  0
LAYER
  5
210
100
AcDbSymbolTableRecord
100
AcDbLayerTableRecord
  2
06_ALL_SURFS
 70
0
 62
7
  6
CONTINUOUS
370
-3
390
F
  0
LAYER
  5
211
100
AcDbSymbolTableRecord
100
AcDbLayerTableRecord
  2
06__ASM_ALL_SURFS
 70
0
 62
7
  6
CONTINUOUS
370
-3
390
F
  0
LAYER
  5
212
100
AcDbSymbolTableRecord
100
AcDbLayerTableRecord
  2
06___PRT_ALL_SURFS
 70
0
 62
7
  6
CONTINUOUS
370
-3
390
F
  0
LAYER
  5
213
100
AcDbSymbolTableRecord
100
AcDbLayerTableRecord
  2
07__ASM_ALL_SKELETONS
 70
0
 62
7
  6
CONTINUOUS
370
-3
390
F
  0
LAYER
  5
214
100
AcDbSymbolTableRecord
100
AcDbLayerTableRecord
  2
LAYER_DIM
 70
0
 62
7
  6
CONTINUOUS
370
-3
390
F
  0
LAYER
  5
215
100
AcDbSymbolTableRecord
100
AcDbLayerTableRecord
  2
LAYER_FEATURE
 70
0
 62
7
  6
CONTINUOUS
370
-3
390
F
  0
LAYER
  5
216
100
AcDbSymbolTableRecord
100
AcDbLayerTableRecord
  2
LAYER_GEOM_FEAT
 70
0
 62
7
  6
CONTINUOUS
370
-3
390
F
  0
LAYER
  5
217
100
AcDbSymbolTableRecord
100
AcDbLayerTableRecord
  2
LAYER_PARAMETER_DIM
 70
0
 62
7
  6
CONTINUOUS
370
-3
390
F
  0
LAYER
  5
218
100
AcDbSymbolTableRecord
100
AcDbLayerTableRecord
  2
LAYER_PROTRUSION_FEAT
 70
0
 62
7
  6
CONTINUOUS
370
-3
390
F
  0
LAYER
  5
219
100
AcDbSymbolTableRecord
100
AcDbLayerTableRecord
  2
LAYER_ROUND_FEAT
 70
0
 62
7
  6
CONTINUOUS
370
-3
390
F
  0
ENDTAB
  0
TABLE
  2
STYLE
  5
3
100
AcDbSymbolTable
 70
1
  0
STYLE
  5
11
100
AcDbSymbolTableRecord
100
AcDbTextStyleTableRecord
  2
STANDARD
 70
0
 40
0.0
 41
0.8
 50
0.0
 71
0
 42
0.2
  3
txt
  4

  0
STYLE
  5
21A
100
AcDbSymbolTableRecord
100
AcDbTextStyleTableRecord
  2
TEXTSTYLE_1
 70
0
 40
0.0
 41
0.8
 50
0.0
 71
0
 42
0.2
  3
gdt
  4

  0
ENDTAB
  0
TABLE
  2
VIEW
  5
6
100
AcDbSymbolTable
 70
0
  0
ENDTAB
  0
TABLE
  2
UCS
  5
7
100
AcDbSymbolTable
 70
0
  0
ENDTAB
  0
TABLE
  2
APPID
  5
9
100
AcDbSymbolTable
 70
1
  0
APPID
  5
21B
100
AcDbSymbolTableRecord
100
AcDbRegAppTableRecord
  2
ACAD
 70
0
  0
ENDTAB
  0
TABLE
  2
BLOCK_RECORD
  5
1
100
AcDbSymbolTable
 70
0
  0
BLOCK_RECORD
  5
21C
100
AcDbSymbolTableRecord
100
AcDbBlockTableRecord
  2
*Model_Space
  0
BLOCK_RECORD
  5
21D
100
AcDbSymbolTableRecord
100
AcDbBlockTableRecord
  2
*Paper_Space
  0
ENDTAB
  0
TABLE
  2
DIMSTYLE
  5
A
100
AcDbSymbolTable
 70
1
100
AcDbDimStyleTable
 71
0
  0
DIMSTYLE
105
21E
100
AcDbSymbolTableRecord
100
AcDbDimStyleTableRecord
  2
STANDARD
 70
0
  3

  4

 40
1.0
 41
0.1875
 42
0.0625
 43
0.38
 44
0.125
 45
0.0
 46
0.0
 47
0.0001
 48
0.0001
140
0.15625
141
0.09
142
0.0
143
25.4
144
1.0
145
0.0
146
1.0
147
0.09
 71
0.0
 72
0.0
 73
1
 74
1
 75
0
 76
0
 77
0
 78
4
 79
1
170
0
171
3
172
0
173
0
174
0
175
0
176
0
177
0
178
0
270
2
179
4
271
4
272
4
273
2
274
2
275
0
280
0
281
0
282
0
283
1
284
4
285
0
286
0
287
3
288
0
340
11
278
46
  0
ENDTAB
  0
ENDSEC
  0
SECTION
  2
BLOCKS
  0
BLOCK
  5
20
100
AcDbEntity
  8
0
100
AcDbBlockBegin
  2
*Model_Space
 70
0
 10
0.0
 20
0.0
 30
0.0
  3
*Model_Space
  1

  0
ENDBLK
  5
21
100
AcDbEntity
  8
0
100
AcDbBlockEnd
  0
BLOCK
  5
1C
100
AcDbEntity
  8
0
100
AcDbBlockBegin
  2
*Paper_Space
 70
0
 10
0.0
 20
0.0
 30
0.0
  3
*Paper_Space
  1

  0
ENDBLK
  5
1D
100
AcDbEntity
  8
0
100
AcDbBlockEnd
  0
ENDSEC
  0
SECTION
  2
ENTITIES
  0
MTEXT
  5
21F
100
AcDbEntity
  8
0
100
AcDbMText
 62
7
  6
CONTINUOUS
  7
STANDARD
 71
1
 72
1
 10
15.9560215477
 20
0.9479130325
 30
0.0
 11
1.0
 21
0.0
 31
0.0
 44
0.9
  1
SCALE: 1:0.500
 40
0.3
 41
3.36
  0
LINE
  5
220
100
AcDbEntity
  8
0
100
AcDbLine
 62
7
  6
CONTINUOUS
 10
0.0
 20
0.0
 11
0.0
 21
17.0
  0
LINE
  5
221
100
AcDbEntity
  8
0
100
AcDbLine
 62
7
  6
CONTINUOUS
 10
0.0
 20
0.0
 11
22.0
 21
0.0
  0
LINE
  5
222
100
AcDbEntity
  8
0
100
AcDbLine
 62
7
  6
CONTINUOUS
 10
0.0
 20
17.0
 11
22.0
 21
17.0
  0
LINE
  5
223
100
AcDbEntity
  8
0
100
AcDbLine
 62
7
  6
CONTINUOUS
 10
22.0
 20
0.0
 11
22.0
 21
17.0
  0
LINE
  5
224
100
AcDbEntity
  8
0
100
AcDbLine
 62
7
  6
CONTINUOUS
 10
3.6603672762
 20
5.6776198968
 11
3.6603672762
 21
5.6201198968
  0
LINE
  5
225
100
AcDbEntity
  8
0
100
AcDbLine
 62
7
  6
CONTINUOUS
 10
3.6603672762
 20
5.6201198968
 11
3.738856292
 21
5.3680036642
  0
LINE
  5
226
100
AcDbEntity
  8
0
100
AcDbLine
 62
7
  6
CONTINUOUS
 10
4.1003672762
 20
5.6201198968
 11
4.1003672762
 21
5.6526198968
  0
LINE
  5
227
100
AcDbEntity
  8
LAYER_FEATURE
100
AcDbLine
 62
7
  6
CONTINUOUS
 10
4.1603672762
 20
5.6526198968
 11
4.1603672762
 21
5.6201198968
  0
LINE
  5
228
100
AcDbEntity
  8
0
100
AcDbLine
 62
7
  6
CONTINUOUS
 10
4.0218782604
 20
5.3680036642
 11
4.1003672762
 21
5.6201198968
  0
LINE
  5
229
100
AcDbEntity
  8
LAYER_FEATURE
100
AcDbLine
 62
7
  6
CONTINUOUS
 10
4.1603672762
 20
5.6201198968
 11
4.238856292
 21
5.3680036642
  0
LINE
  5
22A
100
AcDbEntity
  8
LAYER_FEATURE
100
AcDbLine
 62
7
  6
CONTINUOUS
 10
4.6003672762
 20
5.6201198968
 11
4.6003672762
 21
5.6526198968
  0
LINE
  5
22B
100
AcDbEntity
  8
LAYER_FEATURE
100
AcDbLine
 62
7
  6
CONTINUOUS
 10
4.6603672762
 20
5.6526198968
 11
4.6603672762
 21
5.6201198968
  0
LINE
  5
22C
100
AcDbEntity
  8
LAYER_FEATURE
100
AcDbLine
 62
7
  6
CONTINUOUS
 10
4.5218782604
 20
5.3680036642
 11
4.6003672762
 21
5.6201198968
  0
LINE
  5
22D
100
AcDbEntity
  8
LAYER_FEATURE
100
AcDbLine
 62
7
  6
CONTINUOUS
 10
4.6603672762
 20
5.6201198968
 11
4.738856292
 21
5.3680036642
  0
LINE
  5
22E
100
AcDbEntity
  8
LAYER_FEATURE
100
AcDbLine
 62
7
  6
CONTINUOUS
 10
5.1003672762
 20
5.6201198968
 11
5.1003672762
 21
5.6526198968
  0
LINE
  5
22F
100
AcDbEntity
  8
LAYER_FEATURE
100
AcDbLine
 62
7
  6
CONTINUOUS
 10
5.1603672762
 20
5.6526198968
 11
5.1603672762
 21
5.6201198968
  0
LINE
  5
230
100
AcDbEntity
  8
LAYER_FEATURE
100
AcDbLine
 62
7
  6
CONTINUOUS
 10
5.0218782604
 20
5.3680036642
 11
5.1003672762
 21
5.6201198968
  0
LINE
  5
231
100
AcDbEntity
  8
LAYER_FEATURE
100
AcDbLine
 62
7
  6
CONTINUOUS
 10
5.1603672762
 20
5.6201198968
 11
5.238856292
 21
5.3680036642
  0
LINE
  5
232
100
AcDbEntity
  8
LAYER_FEATURE
100
AcDbLine
 62
7
  6
CONTINUOUS
 10
5.6003672762
 20
5.6201198968
 11
5.6003672762
 21
5.6526198968
  0
LINE
  5
233
100
AcDbEntity
  8
LAYER_FEATURE
100
AcDbLine
 62
7
  6
CONTINUOUS
 10
5.5218782604
 20
5.3680036642
 11
5.6003672762
 21
5.6201198968
  0
LINE
  5
234
100
AcDbEntity
  8
LAYER_FEATURE
100
AcDbLine
 62
7
  6
CONTINUOUS
 10
5.6603672762
 20
5.6526198968
 11
5.6603672762
 21
5.6201198968
  0
LINE
  5
235
100
AcDbEntity
  8
LAYER_FEATURE
100
AcDbLine
 62
7
  6
CONTINUOUS
 10
5.6603672762
 20
5.6201198968
 11
5.738856292
 21
5.3680036642
  0
LINE
  5
236
100
AcDbEntity
  8
0
100
AcDbLine
 62
7
  6
CONTINUOUS
 10
3.7563609583
 20
5.3551198968
 11
4.0043735941
 21
5.3551198968
  0
LINE
  5
237
100
AcDbEntity
  8
LAYER_FEATURE
100
AcDbLine
 62
7
  6
CONTINUOUS
 10
4.2563609583
 20
5.3551198968
 11
4.5043735941
 21
5.3551198968
  0
LINE
  5
238
100
AcDbEntity
  8
LAYER_FEATURE
100
AcDbLine
 62
7
  6
CONTINUOUS
 10
4.7563609583
 20
5.3551198968
 11
5.0043735941
 21
5.3551198968
  0
LINE
  5
239
100
AcDbEntity
  8
LAYER_FEATURE
100
AcDbLine
 62
7
  6
CONTINUOUS
 10
5.2563609583
 20
5.3551198968
 11
5.5043735941
 21
5.3551198968
  0
LINE
  5
23A
100
AcDbEntity
  8
LAYER_FEATURE
100
AcDbLine
 62
7
  6
CONTINUOUS
 10
5.7563609583
 20
5.3551198968
 11
6.0043735941
 21
5.3551198968
  0
LINE
  5
23B
100
AcDbEntity
  8
LAYER_FEATURE
100
AcDbLine
 62
7
  6
CONTINUOUS
 10
6.2563609583
 20
5.3551198968
 11
6.5043735941
 21
5.3551198968
  0
LINE
  5
23C
100
AcDbEntity
  8
LAYER_FEATURE
100
AcDbLine
 62
7
  6
CONTINUOUS
 10
6.7563609583
 20
5.3551198968
 11
7.0043735941
 21
5.3551198968
  0
LINE
  5
23D
100
AcDbEntity
  8
LAYER_FEATURE
100
AcDbLine
 62
7
  6
CONTINUOUS
 10
7.2563609583
 20
5.3551198968
 11
7.5043735941
 21
5.3551198968
  0
LINE
  5
23E
100
AcDbEntity
  8
LAYER_FEATURE
100
AcDbLine
 62
7
  6
CONTINUOUS
 10
7.7563609583
 20
5.3551198968
 11
8.0043735941
 21
5.3551198968
  0
LINE
  5
23F
100
AcDbEntity
  8
LAYER_FEATURE
100
AcDbLine
 62
7
  6
CONTINUOUS
 10
8.2563609583
 20
5.3551198968
 11
8.5043735941
 21
5.3551198968
  0
LINE
  5
240
100
AcDbEntity
  8
LAYER_FEATURE
100
AcDbLine
 62
7
  6
CONTINUOUS
 10
6.1003672762
 20
5.6201198968
 11
6.1003672762
 21
5.6526198968
  0
LINE
  5
241
100
AcDbEntity
  8
LAYER_FEATURE
100
AcDbLine
 62
7
  6
CONTINUOUS
 10
6.0218782604
 20
5.3680036642
 11
6.1003672762
 21
5.6201198968
  0
LINE
  5
242
100
AcDbEntity
  8
LAYER_FEATURE
100
AcDbLine
 62
7
  6
CONTINUOUS
 10
6.1603672762
 20
5.6526198968
 11
6.1603672762
 21
5.6201198968
  0
LINE
  5
243
100
AcDbEntity
  8
LAYER_FEATURE
100
AcDbLine
 62
7
  6
CONTINUOUS
 10
4.1003672762
 20
5.6526198968
 11
4.1603672762
 21
5.6526198968
  0
LINE
  5
244
100
AcDbEntity
  8
LAYER_FEATURE
100
AcDbLine
 62
7
  6
CONTINUOUS
 10
4.6003672762
 20
5.6526198968
 11
4.6603672762
 21
5.6526198968
  0
LINE
  5
245
100
AcDbEntity
  8
LAYER_FEATURE
100
AcDbLine
 62
7
  6
CONTINUOUS
 10
5.1003672762
 20
5.6526198968
 11
5.1603672762
 21
5.6526198968
  0
LINE
  5
246
100
AcDbEntity
  8
LAYER_FEATURE
100
AcDbLine
 62
7
  6
CONTINUOUS
 10
5.6003672762
 20
5.6526198968
 11
5.6603672762
 21
5.6526198968
  0
LINE
  5
247
100
AcDbEntity
  8
LAYER_FEATURE
100
AcDbLine
 62
7
  6
CONTINUOUS
 10
6.1003672762
 20
5.6526198968
 11
6.1603672762
 21
5.6526198968
  0
LINE
  5
248
100
AcDbEntity
  8
LAYER_FEATURE
100
AcDbLine
 62
7
  6
CONTINUOUS
 10
6.6003672762
 20
5.6526198968
 11
6.6603672762
 21
5.6526198968
  0
LINE
  5
249
100
AcDbEntity
  8
LAYER_FEATURE
100
AcDbLine
 62
7
  6
CONTINUOUS
 10
7.1003672762
 20
5.6526198968
 11
7.1603672762
 21
5.6526198968
  0
LINE
  5
24A
100
AcDbEntity
  8
LAYER_FEATURE
100
AcDbLine
 62
7
  6
CONTINUOUS
 10
7.6003672762
 20
5.6526198968
 11
7.6603672762
 21
5.6526198968
  0
LINE
  5
24B
100
AcDbEntity
  8
LAYER_FEATURE
100
AcDbLine
 62
7
  6
CONTINUOUS
 10
8.1003672762
 20
5.6526198968
 11
8.1603672762
 21
5.6526198968
  0
LINE
  5
24C
100
AcDbEntity
  8
0
100
AcDbLine
 62
7
  6
CONTINUOUS
 10
8.5928672762
 20
5.6851198968
 11
3.6678672762
 21
5.6851198968
  0
LINE
  5
24D
100
AcDbEntity
  8
LAYER_FEATURE
100
AcDbLine
 62
7
  6
CONTINUOUS
 10
6.1603672762
 20
5.6201198968
 11
6.238856292
 21
5.3680036642
  0
LINE
  5
24E
100
AcDbEntity
  8
LAYER_FEATURE
100
AcDbLine
 62
7
  6
CONTINUOUS
 10
6.6003672762
 20
5.6201198968
 11
6.6003672762
 21
5.6526198968
  0
LINE
  5
24F
100
AcDbEntity
  8
LAYER_FEATURE
100
AcDbLine
 62
7
  6
CONTINUOUS
 10
6.5218782604
 20
5.3680036642
 11
6.6003672762
 21
5.6201198968
  0
LINE
  5
250
100
AcDbEntity
  8
LAYER_FEATURE
100
AcDbLine
 62
7
  6
CONTINUOUS
 10
6.6603672762
 20
5.6526198968
 11
6.6603672762
 21
5.6201198968
  0
LINE
  5
251
100
AcDbEntity
  8
LAYER_FEATURE
100
AcDbLine
 62
7
  6
CONTINUOUS
 10
6.6603672762
 20
5.6201198968
 11
6.738856292
 21
5.3680036642
  0
LINE
  5
252
100
AcDbEntity
  8
LAYER_FEATURE
100
AcDbLine
 62
7
  6
CONTINUOUS
 10
7.1003672762
 20
5.6201198968
 11
7.1003672762
 21
5.6526198968
  0
LINE
  5
253
100
AcDbEntity
  8
LAYER_FEATURE
100
AcDbLine
 62
7
  6
CONTINUOUS
 10
7.0218782604
 20
5.3680036642
 11
7.1003672762
 21
5.6201198968
  0
LINE
  5
254
100
AcDbEntity
  8
LAYER_FEATURE
100
AcDbLine
 62
7
  6
CONTINUOUS
 10
7.1603672762
 20
5.6526198968
 11
7.1603672762
 21
5.6201198968
  0
LINE
  5
255
100
AcDbEntity
  8
LAYER_FEATURE
100
AcDbLine
 62
7
  6
CONTINUOUS
 10
7.1603672762
 20
5.6201198968
 11
7.238856292
 21
5.3680036642
  0
LINE
  5
256
100
AcDbEntity
  8
LAYER_FEATURE
100
AcDbLine
 62
7
  6
CONTINUOUS
 10
7.6003672762
 20
5.6201198968
 11
7.6003672762
 21
5.6526198968
  0
LINE
  5
257
100
AcDbEntity
  8
LAYER_FEATURE
100
AcDbLine
 62
7
  6
CONTINUOUS
 10
7.5218782604
 20
5.3680036642
 11
7.6003672762
 21
5.6201198968
  0
LINE
  5
258
100
AcDbEntity
  8
LAYER_FEATURE
100
AcDbLine
 62
7
  6
CONTINUOUS
 10
7.6603672762
 20
5.6201198968
 11
7.738856292
 21
5.3680036642
  0
LINE
  5
259
100
AcDbEntity
  8
LAYER_FEATURE
100
AcDbLine
 62
7
  6
CONTINUOUS
 10
7.6603672762
 20
5.6526198968
 11
7.6603672762
 21
5.6201198968
  0
LINE
  5
25A
100
AcDbEntity
  8
LAYER_FEATURE
100
AcDbLine
 62
7
  6
CONTINUOUS
 10
8.1003672762
 20
5.6201198968
 11
8.1003672762
 21
5.6526198968
  0
LINE
  5
25B
100
AcDbEntity
  8
LAYER_FEATURE
100
AcDbLine
 62
7
  6
CONTINUOUS
 10
8.0218782604
 20
5.3680036642
 11
8.1003672762
 21
5.6201198968
  0
LINE
  5
25C
100
AcDbEntity
  8
LAYER_FEATURE
100
AcDbLine
 62
7
  6
CONTINUOUS
 10
8.1603672762
 20
5.6201198968
 11
8.238856292
 21
5.3680036642
  0
LINE
  5
25D
100
AcDbEntity
  8
LAYER_FEATURE
100
AcDbLine
 62
7
  6
CONTINUOUS
 10
8.1603672762
 20
5.6526198968
 11
8.1603672762
 21
5.6201198968
  0
LINE
  5
25E
100
AcDbEntity
  8
0
100
AcDbLine
 62
7
  6
CONTINUOUS
 10
8.6003672762
 20
5.6201198968
 11
8.6003672762
 21
5.6776198968
  0
LINE
  5
25F
100
AcDbEntity
  8
LAYER_FEATURE
100
AcDbLine
 62
7
  6
CONTINUOUS
 10
8.5218782604
 20
5.3680036642
 11
8.6003672762
 21
5.6201198968
  0
LINE
  5
260
100
AcDbEntity
  8
0
100
AcDbLine
 62
7
  6
CONTINUOUS
 10
3.6008720839
 20
13.6000477814
 11
3.6008720839
 21
11.6000477814
  0
LINE
  5
261
100
AcDbEntity
  8
0
100
AcDbLine
 62
7
  6
CONTINUOUS
 10
8.5408720839
 20
11.6000477814
 11
3.6008720839
 21
11.6000477814
  0
LINE
  5
262
100
AcDbEntity
  8
0
100
AcDbLine
 62
7
  6
CONTINUOUS
 10
3.6008720839
 20
13.6000477814
 11
8.5408720839
 21
13.6000477814
  0
LINE
  5
263
100
AcDbEntity
  8
0
100
AcDbLine
 62
7
  6
CONTINUOUS
 10
8.5408720839
 20
11.6000477814
 11
8.5408720839
 21
13.6000477814
  0
LINE
  5
264
100
AcDbEntity
  8
LAYER_FEATURE
100
AcDbLine
 62
7
  6
CONTINUOUS
 10
14.5603552569
 20
5.2956247044
 11
14.5603552569
 21
5.5606247044
  0
LINE
  5
265
100
AcDbEntity
  8
0
100
AcDbLine
 62
7
  6
CONTINUOUS
 10
14.5603552569
 20
5.5606247044
 11
14.5603552569
 21
5.6256247044
  0
LINE
  5
266
100
AcDbEntity
  8
LAYER_FEATURE
100
AcDbLine
 62
7
  6
CONTINUOUS
 10
14.5603552569
 20
5.2956247044
 11
16.5603552569
 21
5.2956247044
  0
LINE
  5
267
100
AcDbEntity
  8
LAYER_FEATURE
100
AcDbLine
 62
7
  6
CONTINUOUS
 10
16.5603552569
 20
5.5606247044
 11
14.5603552569
 21
5.5606247044
  0
LINE
  5
268
100
AcDbEntity
  8
0
100
AcDbLine
 62
7
  6
CONTINUOUS
 10
14.5603552569
 20
5.6256247044
 11
16.5603552569
 21
5.6256247044
  0
LINE
  5
269
100
AcDbEntity
  8
0
100
AcDbLine
 62
7
  6
CONTINUOUS
 10
16.5603552569
 20
5.6256247044
 11
16.5603552569
 21
5.5606247044
  0
LINE
  5
26A
100
AcDbEntity
  8
LAYER_FEATURE
100
AcDbLine
 62
7
  6
CONTINUOUS
 10
16.5603552569
 20
5.2956247044
 11
16.5603552569
 21
5.5606247044
  0
LINE
  5
26B
100
AcDbEntity
  8
0
100
AcDbLine
 62
7
  6
CONTINUOUS
 10
12.9430561367
 20
11.8253816533
 11
12.960596044
 21
11.7896390801
  0
LINE
  5
26C
100
AcDbEntity
  8
0
100
AcDbLine
 62
7
  6
CONTINUOUS
 10
12.9427992463
 20
11.8275957611
 11
12.9430561367
 21
11.8253816533
  0
LINE
  5
26D
100
AcDbEntity
  8
0
100
AcDbLine
 62
7
  6
CONTINUOUS
 10
12.960596044
 20
11.7896390801
 11
13.1097952212
 21
11.6329211168
  0
LINE
  5
26E
100
AcDbEntity
  8
0
100
AcDbLine
 62
7
  6
CONTINUOUS
 10
13.3704757167
 20
11.6329211168
 11
13.3658628814
 21
11.7896390801
  0
LINE
  5
26F
100
AcDbEntity
  8
0
100
AcDbLine
 62
7
  6
CONTINUOUS
 10
13.4269310846
 20
13.3942498278
 11
12.9427984378
 21
11.8275960086
  0
LINE
  5
270
100
AcDbEntity
  8
0
100
AcDbLine
 62
7
  6
CONTINUOUS
 10
13.3658628814
 20
11.7896390801
 11
13.3559490207
 21
11.8098414041
  0
LINE
  5
271
100
AcDbEntity
  8
LAYER_FEATURE
100
AcDbLine
 62
7
  6
CONTINUOUS
 10
13.4112126804
 20
11.8098414041
 11
13.421126541
 21
11.7896390801
  0
LINE
  5
272
100
AcDbEntity
  8
0
100
AcDbLine
 62
7
  6
CONTINUOUS
 10
13.3701906011
 20
11.6309006433
 11
13.3704757167
 21
11.6329211168
  0
LINE
  5
273
100
AcDbEntity
  8
LAYER_FEATURE
100
AcDbLine
 62
7
  6
CONTINUOUS
 10
13.421126541
 20
11.7896390801
 11
13.5703257182
 21
11.6329211168
  0
LINE
  5
274
100
AcDbEntity
  8
0
100
AcDbLine
 62
7
  6
CONTINUOUS
 10
13.3721058717
 20
11.8098414041
 11
13.3658628814
 21
11.7896390801
  0
LINE
  5
275
100
AcDbEntity
  8
LAYER_FEATURE
100
AcDbLine
 62
7
  6
CONTINUOUS
 10
13.8263933784
 20
11.7896390801
 11
13.8164795177
 21
11.8098414041
  0
LINE
  5
276
100
AcDbEntity
  8
LAYER_FEATURE
100
AcDbLine
 62
7
  6
CONTINUOUS
 10
13.8310062137
 20
11.6329211168
 11
13.8263933784
 21
11.7896390801
  0
LINE
  5
277
100
AcDbEntity
  8
0
100
AcDbLine
 62
7
  6
CONTINUOUS
 10
13.3708013433
 20
11.6328204905
 11
13.4199824277
 21
11.7919705379
  0
LINE
  5
278
100
AcDbEntity
  8
LAYER_FEATURE
100
AcDbLine
 62
7
  6
CONTINUOUS
 10
13.881657038
 20
11.7896390801
 11
14.0308562152
 21
11.6329211168
  0
LINE
  5
279
100
AcDbEntity
  8
LAYER_FEATURE
100
AcDbLine
 62
7
  6
CONTINUOUS
 10
13.8717431774
 20
11.8098414041
 11
13.881657038
 21
11.7896390801
  0
LINE
  5
27A
100
AcDbEntity
  8
LAYER_FEATURE
100
AcDbLine
 62
7
  6
CONTINUOUS
 10
13.8307210981
 20
11.6309006433
 11
13.8310062137
 21
11.6329211168
  0
LINE
  5
27B
100
AcDbEntity
  8
LAYER_FEATURE
100
AcDbLine
 62
7
  6
CONTINUOUS
 10
13.8326363687
 20
11.8098414041
 11
13.8263933784
 21
11.7896390801
  0
LINE
  5
27C
100
AcDbEntity
  8
LAYER_FEATURE
100
AcDbLine
 62
7
  6
CONTINUOUS
 10
13.8313318403
 20
11.6328204905
 11
13.8805129247
 21
11.7919705379
  0
LINE
  5
27D
100
AcDbEntity
  8
LAYER_FEATURE
100
AcDbLine
 62
7
  6
CONTINUOUS
 10
14.342187535
 20
11.7896390801
 11
14.4913867122
 21
11.6329211168
  0
LINE
  5
27E
100
AcDbEntity
  8
LAYER_FEATURE
100
AcDbLine
 62
7
  6
CONTINUOUS
 10
14.2869238754
 20
11.7896390801
 11
14.2770100147
 21
11.8098414041
  0
LINE
  5
27F
100
AcDbEntity
  8
LAYER_FEATURE
100
AcDbLine
 62
7
  6
CONTINUOUS
 10
14.3322736744
 20
11.8098414041
 11
14.342187535
 21
11.7896390801
  0
LINE
  5
280
100
AcDbEntity
  8
LAYER_FEATURE
100
AcDbLine
 62
7
  6
CONTINUOUS
 10
14.2915367107
 20
11.6329211168
 11
14.2869238754
 21
11.7896390801
  0
LINE
  5
281
100
AcDbEntity
  8
LAYER_FEATURE
100
AcDbLine
 62
7
  6
CONTINUOUS
 10
14.2912515951
 20
11.6309006433
 11
14.2915367107
 21
11.6329211168
  0
LINE
  5
282
100
AcDbEntity
  8
LAYER_FEATURE
100
AcDbLine
 62
7
  6
CONTINUOUS
 10
14.2931668657
 20
11.8098414041
 11
14.2869238754
 21
11.7896390801
  0
LINE
  5
283
100
AcDbEntity
  8
0
100
AcDbLine
 62
7
  6
CONTINUOUS
 10
13.129848175
 20
11.6249124385
 11
13.3582829398
 21
11.6249124385
  0
LINE
  5
284
100
AcDbEntity
  8
LAYER_FEATURE
100
AcDbLine
 62
7
  6
CONTINUOUS
 10
13.590378672
 20
11.6249124385
 11
13.8188134368
 21
11.6249124385
  0
LINE
  5
285
100
AcDbEntity
  8
LAYER_FEATURE
100
AcDbLine
 62
7
  6
CONTINUOUS
 10
14.050909169
 20
11.6249124385
 11
14.2793439338
 21
11.6249124385
  0
LINE
  5
286
100
AcDbEntity
  8
LAYER_FEATURE
100
AcDbLine
 62
7
  6
CONTINUOUS
 10
14.511439666
 20
11.6249124385
 11
14.7398744308
 21
11.6249124385
  0
LINE
  5
287
100
AcDbEntity
  8
LAYER_FEATURE
100
AcDbLine
 62
7
  6
CONTINUOUS
 10
14.971970163
 20
11.6249124385
 11
15.2004049278
 21
11.6249124385
  0
LINE
  5
288
100
AcDbEntity
  8
LAYER_FEATURE
100
AcDbLine
 62
7
  6
CONTINUOUS
 10
15.43250066
 20
11.6249124385
 11
15.6609354248
 21
11.6249124385
  0
LINE
  5
289
100
AcDbEntity
  8
LAYER_FEATURE
100
AcDbLine
 62
7
  6
CONTINUOUS
 10
15.893031157
 20
11.6249124385
 11
16.1214659218
 21
11.6249124385
  0
LINE
  5
28A
100
AcDbEntity
  8
LAYER_FEATURE
100
AcDbLine
 62
7
  6
CONTINUOUS
 10
16.353561654
 20
11.6249124385
 11
16.5819964188
 21
11.6249124385
  0
LINE
  5
28B
100
AcDbEntity
  8
LAYER_FEATURE
100
AcDbLine
 62
7
  6
CONTINUOUS
 10
16.814092151
 20
11.6249124385
 11
17.0425269158
 21
11.6249124385
  0
LINE
  5
28C
100
AcDbEntity
  8
LAYER_FEATURE
100
AcDbLine
 62
7
  6
CONTINUOUS
 10
17.274622648
 20
11.6249124385
 11
17.5030574128
 21
11.6249124385
  0
LINE
  5
28D
100
AcDbEntity
  8
LAYER_FEATURE
100
AcDbLine
 62
7
  6
CONTINUOUS
 10
14.802718032
 20
11.7896390801
 11
14.9519172092
 21
11.6329211168
  0
LINE
  5
28E
100
AcDbEntity
  8
LAYER_FEATURE
100
AcDbLine
 62
7
  6
CONTINUOUS
 10
14.7474543724
 20
11.7896390801
 11
14.7375405117
 21
11.8098414041
  0
LINE
  5
28F
100
AcDbEntity
  8
LAYER_FEATURE
100
AcDbLine
 62
7
  6
CONTINUOUS
 10
14.7928041714
 20
11.8098414041
 11
14.802718032
 21
11.7896390801
  0
LINE
  5
290
100
AcDbEntity
  8
LAYER_FEATURE
100
AcDbLine
 62
7
  6
CONTINUOUS
 10
14.7520672077
 20
11.6329211168
 11
14.7474543724
 21
11.7896390801
  0
LINE
  5
291
100
AcDbEntity
  8
LAYER_FEATURE
100
AcDbLine
 62
7
  6
CONTINUOUS
 10
14.2918623373
 20
11.6328204905
 11
14.3410434217
 21
11.7919705379
  0
LINE
  5
292
100
AcDbEntity
  8
LAYER_FEATURE
100
AcDbLine
 62
7
  6
CONTINUOUS
 10
13.3559490207
 20
11.8098414041
 11
13.4112126804
 21
11.8098414041
  0
LINE
  5
293
100
AcDbEntity
  8
LAYER_FEATURE
100
AcDbLine
 62
7
  6
CONTINUOUS
 10
13.8164795177
 20
11.8098414041
 11
13.8717431774
 21
11.8098414041
  0
LINE
  5
294
100
AcDbEntity
  8
LAYER_FEATURE
100
AcDbLine
 62
7
  6
CONTINUOUS
 10
14.2770100147
 20
11.8098414041
 11
14.3322736744
 21
11.8098414041
  0
LINE
  5
295
100
AcDbEntity
  8
LAYER_FEATURE
100
AcDbLine
 62
7
  6
CONTINUOUS
 10
14.7375405117
 20
11.8098414041
 11
14.7928041714
 21
11.8098414041
  0
LINE
  5
296
100
AcDbEntity
  8
LAYER_FEATURE
100
AcDbLine
 62
7
  6
CONTINUOUS
 10
15.1980710087
 20
11.8098414041
 11
15.2533346684
 21
11.8098414041
  0
LINE
  5
297
100
AcDbEntity
  8
LAYER_FEATURE
100
AcDbLine
 62
7
  6
CONTINUOUS
 10
15.6586015057
 20
11.8098414041
 11
15.7138651654
 21
11.8098414041
  0
LINE
  5
298
100
AcDbEntity
  8
LAYER_FEATURE
100
AcDbLine
 62
7
  6
CONTINUOUS
 10
16.1191320027
 20
11.8098414041
 11
16.1743956624
 21
11.8098414041
  0
LINE
  5
299
100
AcDbEntity
  8
LAYER_FEATURE
100
AcDbLine
 62
7
  6
CONTINUOUS
 10
16.5796624997
 20
11.8098414041
 11
16.6349261594
 21
11.8098414041
  0
LINE
  5
29A
100
AcDbEntity
  8
LAYER_FEATURE
100
AcDbLine
 62
7
  6
CONTINUOUS
 10
17.0401929967
 20
11.8098414041
 11
17.0954566564
 21
11.8098414041
  0
LINE
  5
29B
100
AcDbEntity
  8
LAYER_FEATURE
100
AcDbLine
 62
7
  6
CONTINUOUS
 10
14.7517820921
 20
11.6309006433
 11
14.7520672077
 21
11.6329211168
  0
LINE
  5
29C
100
AcDbEntity
  8
0
100
AcDbLine
 62
7
  6
CONTINUOUS
 10
17.4839016756
 20
11.830043728
 11
12.9476762802
 21
11.830043728
  0
LINE
  5
29D
100
AcDbEntity
  8
LAYER_FEATURE
100
AcDbLine
 62
7
  6
CONTINUOUS
 10
15.263248529
 20
11.7896390801
 11
15.4124477062
 21
11.6329211168
  0
LINE
  5
29E
100
AcDbEntity
  8
LAYER_FEATURE
100
AcDbLine
 62
7
  6
CONTINUOUS
 10
15.2079848694
 20
11.7896390801
 11
15.1980710087
 21
11.8098414041
  0
LINE
  5
29F
100
AcDbEntity
  8
LAYER_FEATURE
100
AcDbLine
 62
7
  6
CONTINUOUS
 10
14.7536973627
 20
11.8098414041
 11
14.7474543724
 21
11.7896390801
  0
LINE
  5
2A0
100
AcDbEntity
  8
LAYER_FEATURE
100
AcDbLine
 62
7
  6
CONTINUOUS
 10
14.7523928343
 20
11.6328204905
 11
14.8015739187
 21
11.7919705379
  0
LINE
  5
2A1
100
AcDbEntity
  8
LAYER_FEATURE
100
AcDbLine
 62
7
  6
CONTINUOUS
 10
15.2533346684
 20
11.8098414041
 11
15.263248529
 21
11.7896390801
  0
LINE
  5
2A2
100
AcDbEntity
  8
LAYER_FEATURE
100
AcDbLine
 62
7
  6
CONTINUOUS
 10
15.2125977047
 20
11.6329211168
 11
15.2079848694
 21
11.7896390801
  0
LINE
  5
2A3
100
AcDbEntity
  8
LAYER_FEATURE
100
AcDbLine
 62
7
  6
CONTINUOUS
 10
15.723779026
 20
11.7896390801
 11
15.8729782032
 21
11.6329211168
  0
LINE
  5
2A4
100
AcDbEntity
  8
LAYER_FEATURE
100
AcDbLine
 62
7
  6
CONTINUOUS
 10
15.2123125891
 20
11.6309006433
 11
15.2125977047
 21
11.6329211168
  0
LINE
  5
2A5
100
AcDbEntity
  8
LAYER_FEATURE
100
AcDbLine
 62
7
  6
CONTINUOUS
 10
15.2142278597
 20
11.8098414041
 11
15.2079848694
 21
11.7896390801
  0
LINE
  5
2A6
100
AcDbEntity
  8
LAYER_FEATURE
100
AcDbLine
 62
7
  6
CONTINUOUS
 10
15.2129233313
 20
11.6328204905
 11
15.2621044157
 21
11.7919705379
  0
LINE
  5
2A7
100
AcDbEntity
  8
LAYER_FEATURE
100
AcDbLine
 62
7
  6
CONTINUOUS
 10
16.184309523
 20
11.7896390801
 11
16.3335087002
 21
11.6329211168
  0
LINE
  5
2A8
100
AcDbEntity
  8
LAYER_FEATURE
100
AcDbLine
 62
7
  6
CONTINUOUS
 10
15.6685153664
 20
11.7896390801
 11
15.6586015057
 21
11.8098414041
  0
LINE
  5
2A9
100
AcDbEntity
  8
LAYER_FEATURE
100
AcDbLine
 62
7
  6
CONTINUOUS
 10
15.7138651654
 20
11.8098414041
 11
15.723779026
 21
11.7896390801
  0
LINE
  5
2AA
100
AcDbEntity
  8
LAYER_FEATURE
100
AcDbLine
 62
7
  6
CONTINUOUS
 10
15.6731282017
 20
11.6329211168
 11
15.6685153664
 21
11.7896390801
  0
LINE
  5
2AB
100
AcDbEntity
  8
LAYER_FEATURE
100
AcDbLine
 62
7
  6
CONTINUOUS
 10
15.6728430861
 20
11.6309006433
 11
15.6731282017
 21
11.6329211168
  0
LINE
  5
2AC
100
AcDbEntity
  8
LAYER_FEATURE
100
AcDbLine
 62
7
  6
CONTINUOUS
 10
16.6448400201
 20
11.7896390801
 11
16.7940391972
 21
11.6329211168
  0
LINE
  5
2AD
100
AcDbEntity
  8
LAYER_FEATURE
100
AcDbLine
 62
7
  6
CONTINUOUS
 10
16.1290458634
 20
11.7896390801
 11
16.1191320027
 21
11.8098414041
  0
LINE
  5
2AE
100
AcDbEntity
  8
LAYER_FEATURE
100
AcDbLine
 62
7
  6
CONTINUOUS
 10
16.1743956624
 20
11.8098414041
 11
16.184309523
 21
11.7896390801
  0
LINE
  5
2AF
100
AcDbEntity
  8
LAYER_FEATURE
100
AcDbLine
 62
7
  6
CONTINUOUS
 10
15.6747583567
 20
11.8098414041
 11
15.6685153664
 21
11.7896390801
  0
LINE
  5
2B0
100
AcDbEntity
  8
LAYER_FEATURE
100
AcDbLine
 62
7
  6
CONTINUOUS
 10
15.6734538283
 20
11.6328204905
 11
15.7226349127
 21
11.7919705379
  0
LINE
  5
2B1
100
AcDbEntity
  8
LAYER_FEATURE
100
AcDbLine
 62
7
  6
CONTINUOUS
 10
16.1336586987
 20
11.6329211168
 11
16.1290458634
 21
11.7896390801
  0
LINE
  5
2B2
100
AcDbEntity
  8
LAYER_FEATURE
100
AcDbLine
 62
7
  6
CONTINUOUS
 10
17.1053705171
 20
11.7896390801
 11
17.2545696942
 21
11.6329211168
  0
LINE
  5
2B3
100
AcDbEntity
  8
LAYER_FEATURE
100
AcDbLine
 62
7
  6
CONTINUOUS
 10
16.5895763604
 20
11.7896390801
 11
16.5796624997
 21
11.8098414041
  0
LINE
  5
2B4
100
AcDbEntity
  8
LAYER_FEATURE
100
AcDbLine
 62
7
  6
CONTINUOUS
 10
16.6349261594
 20
11.8098414041
 11
16.6448400201
 21
11.7896390801
  0
LINE
  5
2B5
100
AcDbEntity
  8
LAYER_FEATURE
100
AcDbLine
 62
7
  6
CONTINUOUS
 10
16.1333735831
 20
11.6309006433
 11
16.1336586987
 21
11.6329211168
  0
LINE
  5
2B6
100
AcDbEntity
  8
LAYER_FEATURE
100
AcDbLine
 62
7
  6
CONTINUOUS
 10
16.1352888537
 20
11.8098414041
 11
16.1290458634
 21
11.7896390801
  0
LINE
  5
2B7
100
AcDbEntity
  8
LAYER_FEATURE
100
AcDbLine
 62
7
  6
CONTINUOUS
 10
16.1339843253
 20
11.6328204905
 11
16.1831654097
 21
11.7919705379
  0
LINE
  5
2B8
100
AcDbEntity
  8
0
100
AcDbLine
 62
7
  6
CONTINUOUS
 10
13.431808927
 20
13.3966975473
 11
17.9680343224
 21
13.3966975473
  0
LINE
  5
2B9
100
AcDbEntity
  8
LAYER_FEATURE
100
AcDbLine
 62
7
  6
CONTINUOUS
 10
16.5941891957
 20
11.6329211168
 11
16.5895763604
 21
11.7896390801
  0
LINE
  5
2BA
100
AcDbEntity
  8
LAYER_FEATURE
100
AcDbLine
 62
7
  6
CONTINUOUS
 10
16.5939040801
 20
11.6309006433
 11
16.5941891957
 21
11.6329211168
  0
LINE
  5
2BB
100
AcDbEntity
  8
LAYER_FEATURE
100
AcDbLine
 62
7
  6
CONTINUOUS
 10
17.0501068574
 20
11.7896390801
 11
17.0401929967
 21
11.8098414041
  0
LINE
  5
2BC
100
AcDbEntity
  8
LAYER_FEATURE
100
AcDbLine
 62
7
  6
CONTINUOUS
 10
17.0954566564
 20
11.8098414041
 11
17.1053705171
 21
11.7896390801
  0
LINE
  5
2BD
100
AcDbEntity
  8
LAYER_FEATURE
100
AcDbLine
 62
7
  6
CONTINUOUS
 10
16.5958193507
 20
11.8098414041
 11
16.5895763604
 21
11.7896390801
  0
LINE
  5
2BE
100
AcDbEntity
  8
LAYER_FEATURE
100
AcDbLine
 62
7
  6
CONTINUOUS
 10
16.5945148223
 20
11.6328204905
 11
16.6436959067
 21
11.7919705379
  0
LINE
  5
2BF
100
AcDbEntity
  8
LAYER_FEATURE
100
AcDbLine
 62
7
  6
CONTINUOUS
 10
17.0547196927
 20
11.6329211168
 11
17.0501068574
 21
11.7896390801
  0
LINE
  5
2C0
100
AcDbEntity
  8
0
100
AcDbLine
 62
7
  6
CONTINUOUS
 10
17.5106373544
 20
11.7896390801
 11
17.4930974471
 21
11.8253816533
  0
LINE
  5
2C1
100
AcDbEntity
  8
LAYER_FEATURE
100
AcDbLine
 62
7
  6
CONTINUOUS
 10
17.0544345771
 20
11.6309006433
 11
17.0547196927
 21
11.6329211168
  0
LINE
  5
2C2
100
AcDbEntity
  8
LAYER_FEATURE
100
AcDbLine
 62
7
  6
CONTINUOUS
 10
17.0563498477
 20
11.8098414041
 11
17.0501068574
 21
11.7896390801
  0
LINE
  5
2C3
100
AcDbEntity
  8
LAYER_FEATURE
100
AcDbLine
 62
7
  6
CONTINUOUS
 10
17.0550453193
 20
11.6328204905
 11
17.1042264037
 21
11.7919705379
  0
LINE
  5
2C4
100
AcDbEntity
  8
LAYER_FEATURE
100
AcDbLine
 62
7
  6
CONTINUOUS
 10
17.5152501897
 20
11.6329211168
 11
17.5106373544
 21
11.7896390801
  0
LINE
  5
2C5
100
AcDbEntity
  8
LAYER_FEATURE
100
AcDbLine
 62
7
  6
CONTINUOUS
 10
17.5149650741
 20
11.6309006433
 11
17.5152501897
 21
11.6329211168
  0
LINE
  5
2C6
100
AcDbEntity
  8
LAYER_FEATURE
100
AcDbLine
 62
7
  6
CONTINUOUS
 10
17.9947700012
 20
13.3562928994
 11
17.5106373544
 21
11.7896390801
  0
LINE
  5
2C7
100
AcDbEntity
  8
LAYER_FEATURE
100
AcDbLine
 62
7
  6
CONTINUOUS
 10
17.5155758163
 20
11.6328204905
 11
17.9991136742
 21
13.197549572
  0
LINE
  5
2C8
100
AcDbEntity
  8
LAYER_FEATURE
100
AcDbLine
 62
7
  6
CONTINUOUS
 10
17.9993828365
 20
13.199574936
 11
17.9947700012
 21
13.3562928994
  0
LINE
  5
2C9
100
AcDbEntity
  8
LAYER_FEATURE
100
AcDbLine
 62
7
  6
CONTINUOUS
 10
17.9993828365
 20
13.199574936
 11
17.9990977209
 21
13.1975544626
  0
LINE
  5
2CA
100
AcDbEntity
  8
0
100
AcDbLine
 62
7
  6
CONTINUOUS
 10
17.9772300939
 20
13.3920354725
 11
17.9947700012
 21
13.3562928994
  0
ARC
  5
2CB
100
AcDbEntity
  8
0
100
AcDbCircle
 62
7
  6
CONTINUOUS
 10
3.7563609583
 20
5.3734532301
 40
0.0183333333
100
AcDbArc
 50
197.2924493999
 51
270.0
  0
ARC
  5
2CC
100
AcDbEntity
  8
0
100
AcDbCircle
 62
7
  6
CONTINUOUS
 10
4.0043735941
 20
5.3734532301
 40
0.0183333333
100
AcDbArc
 50
270.0
 51
342.7075506001
  0
ARC
  5
2CD
100
AcDbEntity
  8
LAYER_FEATURE
100
AcDbCircle
 62
7
  6
CONTINUOUS
 10
4.2563609583
 20
5.3734532301
 40
0.0183333333
100
AcDbArc
 50
197.2924493999
 51
270.0
  0
ARC
  5
2CE
100
AcDbEntity
  8
LAYER_FEATURE
100
AcDbCircle
 62
7
  6
CONTINUOUS
 10
4.5043735941
 20
5.3734532301
 40
0.0183333333
100
AcDbArc
 50
270.0
 51
342.7075506001
  0
ARC
  5
2CF
100
AcDbEntity
  8
LAYER_FEATURE
100
AcDbCircle
 62
7
  6
CONTINUOUS
 10
4.7563609583
 20
5.3734532301
 40
0.0183333333
100
AcDbArc
 50
197.2924493999
 51
270.0
  0
ARC
  5
2D0
100
AcDbEntity
  8
LAYER_FEATURE
100
AcDbCircle
 62
7
  6
CONTINUOUS
 10
5.0043735941
 20
5.3734532301
 40
0.0183333333
100
AcDbArc
 50
270.0
 51
342.7075506001
  0
ARC
  5
2D1
100
AcDbEntity
  8
LAYER_FEATURE
100
AcDbCircle
 62
7
  6
CONTINUOUS
 10
5.2563609583
 20
5.3734532301
 40
0.0183333333
100
AcDbArc
 50
197.2924493999
 51
270.0
  0
ARC
  5
2D2
100
AcDbEntity
  8
LAYER_FEATURE
100
AcDbCircle
 62
7
  6
CONTINUOUS
 10
5.5043735941
 20
5.3734532301
 40
0.0183333333
100
AcDbArc
 50
270.0
 51
342.7075506001
  0
ARC
  5
2D3
100
AcDbEntity
  8
LAYER_FEATURE
100
AcDbCircle
 62
7
  6
CONTINUOUS
 10
5.7563609583
 20
5.3734532301
 40
0.0183333333
100
AcDbArc
 50
197.2924493999
 51
270.0
  0
ARC
  5
2D4
100
AcDbEntity
  8
LAYER_FEATURE
100
AcDbCircle
 62
7
  6
CONTINUOUS
 10
6.0043735941
 20
5.3734532301
 40
0.0183333333
100
AcDbArc
 50
270.0
 51
342.7075506001
  0
ARC
  5
2D5
100
AcDbEntity
  8
LAYER_FEATURE
100
AcDbCircle
 62
7
  6
CONTINUOUS
 10
6.2563609583
 20
5.3734532301
 40
0.0183333333
100
AcDbArc
 50
197.2924493999
 51
270.0
  0
ARC
  5
2D6
100
AcDbEntity
  8
LAYER_FEATURE
100
AcDbCircle
 62
7
  6
CONTINUOUS
 10
6.5043735941
 20
5.3734532301
 40
0.0183333333
100
AcDbArc
 50
270.0
 51
342.7075506001
  0
ARC
  5
2D7
100
AcDbEntity
  8
LAYER_FEATURE
100
AcDbCircle
 62
7
  6
CONTINUOUS
 10
6.7563609583
 20
5.3734532301
 40
0.0183333333
100
AcDbArc
 50
197.2924493999
 51
270.0
  0
ARC
  5
2D8
100
AcDbEntity
  8
LAYER_FEATURE
100
AcDbCircle
 62
7
  6
CONTINUOUS
 10
7.0043735941
 20
5.3734532301
 40
0.0183333333
100
AcDbArc
 50
270.0
 51
342.7075506001
  0
ARC
  5
2D9
100
AcDbEntity
  8
LAYER_FEATURE
100
AcDbCircle
 62
7
  6
CONTINUOUS
 10
7.2563609583
 20
5.3734532301
 40
0.0183333333
100
AcDbArc
 50
197.2924493999
 51
270.0
  0
ARC
  5
2DA
100
AcDbEntity
  8
LAYER_FEATURE
100
AcDbCircle
 62
7
  6
CONTINUOUS
 10
7.5043735941
 20
5.3734532301
 40
0.0183333333
100
AcDbArc
 50
270.0
 51
342.7075506001
  0
ARC
  5
2DB
100
AcDbEntity
  8
LAYER_FEATURE
100
AcDbCircle
 62
7
  6
CONTINUOUS
 10
8.5043735941
 20
5.3734532301
 40
0.0183333333
100
AcDbArc
 50
270.0
 51
342.7075506001
  0
ARC
  5
2DC
100
AcDbEntity
  8
LAYER_FEATURE
100
AcDbCircle
 62
7
  6
CONTINUOUS
 10
8.2563609583
 20
5.3734532301
 40
0.0183333333
100
AcDbArc
 50
197.2924493999
 51
270.0
  0
ARC
  5
2DD
100
AcDbEntity
  8
LAYER_FEATURE
100
AcDbCircle
 62
7
  6
CONTINUOUS
 10
8.0043735941
 20
5.3734532301
 40
0.0183333333
100
AcDbArc
 50
270.0
 51
342.7075506001
  0
ARC
  5
2DE
100
AcDbEntity
  8
LAYER_FEATURE
100
AcDbCircle
 62
7
  6
CONTINUOUS
 10
7.7563609583
 20
5.3734532301
 40
0.0183333333
100
AcDbArc
 50
197.2924493999
 51
270.0
  0
ARC
  5
2DF
100
AcDbEntity
  8
0
100
AcDbCircle
 62
7
  6
CONTINUOUS
 10
3.6678672762
 20
5.6776198968
 40
0.0075
100
AcDbArc
 50
90.0
 51
180.0
  0
ARC
  5
2E0
100
AcDbEntity
  8
0
100
AcDbCircle
 62
7
  6
CONTINUOUS
 10
8.5928672762
 20
5.6776198968
 40
0.0075
100
AcDbArc
 50
0.0
 51
90.0
  0
SPLINE
  5
2E1
100
AcDbEntity
  8
0
100
AcDbSpline
 62
7
  6
CONTINUOUS
 70
0
 71
3
 72
12
 73
8
 74
0
 42
0.0000001
 43
0.0000001
 44
0.0000000001
 40
0.0
 40
0.0
 40
0.0
 40
0.0
 40
0.2642051881
 40
0.53615925
 40
0.7879547432
 40
0.9000009334
 40
1.0
 40
1.0
 40
1.0
 40
1.0
 10
17.9680343224
 20
13.3966975473
 30
0.0
 10
17.9689799812
 20
13.3966975473
 30
0.0
 10
17.970903007
 20
13.396434642
 30
0.0
 10
17.9735699733
 20
13.3954638346
 30
0.0
 10
17.9755011792
 20
13.3942018724
 30
0.0
 10
17.9766511123
 20
13.392996172
 30
0.0
 10
17.9770724137
 20
13.392356791
 30
0.0
 10
17.9772300939
 20
13.3920354725
 30
0.0
  0
SPLINE
  5
2E2
100
AcDbEntity
  8
0
100
AcDbSpline
 62
7
  6
CONTINUOUS
 70
0
 71
3
 72
11
 73
7
 74
0
 42
0.0000001
 43
0.0000001
 44
0.0000000001
 40
0.0
 40
0.0
 40
0.0
 40
0.0
 40
0.2022595964
 40
0.4301234434
 40
0.6973865799
 40
1.0
 40
1.0
 40
1.0
 40
1.0
 10
13.4269316501
 20
13.394249655
 30
0.0
 10
13.4270452583
 20
13.3946236538
 30
0.0
 10
13.4274969249
 20
13.395362545
 30
0.0
 10
13.4286317078
 20
13.3961393712
 30
0.0
 10
13.4301192764
 20
13.3966001604
 30
0.0
 10
13.4312241167
 20
13.3966975473
 30
0.0
 10
13.431808927
 20
13.3966975473
 30
0.0
  0
SPLINE
  5
2E3
100
AcDbEntity
  8
LAYER_FEATURE
100
AcDbSpline
 62
7
  6
CONTINUOUS
 70
0
 71
3
 72
13
 73
9
 74
0
 42
0.0000001
 43
0.0000001
 44
0.0000000001
 40
0.0
 40
0.0
 40
0.0
 40
0.0
 40
0.3025536685
 40
0.5685593003
 40
0.6868876631
 40
0.7966715957
 40
0.9000736938
 40
1.0
 40
1.0
 40
1.0
 40
1.0
 10
17.5030574128
 20
11.6249124385
 30
0.0
 10
17.5044897762
 20
11.6249124385
 30
0.0
 10
17.5071885347
 20
11.6251441577
 30
0.0
 10
17.5103330071
 20
11.6261238617
 30
0.0
 10
17.5123510353
 20
11.6273271567
 30
0.0
 10
17.5135431718
 20
11.6283632474
 30
0.0
 10
17.5144427364
 20
11.6295558307
 30
0.0
 10
17.5148372989
 20
11.6304449756
 30
0.0
 10
17.514977431
 20
11.6308968202
 30
0.0
  0
SPLINE
  5
2E4
100
AcDbEntity
  8
LAYER_FEATURE
100
AcDbSpline
 62
7
  6
CONTINUOUS
 70
0
 71
3
 72
11
 73
7
 74
0
 42
0.0000001
 43
0.0000001
 44
0.0000000001
 40
0.0
 40
0.0
 40
0.0
 40
0.0
 40
0.2308384094
 40
0.4854371388
 40
0.7477532211
 40
1.0
 40
1.0
 40
1.0
 40
1.0
 10
17.2545696942
 20
11.6329211168
 30
0.0
 10
17.2557416791
 20
11.6316900705
 30
0.0
 10
17.2585766389
 20
11.6294496982
 30
0.0
 10
17.2635136803
 20
11.6269480452
 30
0.0
 10
17.2689711472
 20
11.6253307111
 30
0.0
 10
17.2727653008
 20
11.6249124385
 30
0.0
 10
17.274622648
 20
11.6249124385
 30
0.0
  0
SPLINE
  5
2E5
100
AcDbEntity
  8
LAYER_FEATURE
100
AcDbSpline
 62
7
  6
CONTINUOUS
 70
0
 71
3
 72
13
 73
9
 74
0
 42
0.0000001
 43
0.0000001
 44
0.0000000001
 40
0.0
 40
0.0
 40
0.0
 40
0.0
 40
0.3025536685
 40
0.5685593003
 40
0.6868876631
 40
0.7966715957
 40
0.9000736938
 40
1.0
 40
1.0
 40
1.0
 40
1.0
 10
17.0425269158
 20
11.6249124385
 30
0.0
 10
17.0439592792
 20
11.6249124385
 30
0.0
 10
17.0466580377
 20
11.6251441577
 30
0.0
 10
17.0498025101
 20
11.6261238617
 30
0.0
 10
17.0518205383
 20
11.6273271567
 30
0.0
 10
17.0530126748
 20
11.6283632474
 30
0.0
 10
17.0539122394
 20
11.6295558307
 30
0.0
 10
17.0543068019
 20
11.6304449756
 30
0.0
 10
17.054446934
 20
11.6308968202
 30
0.0
  0
SPLINE
  5
2E6
100
AcDbEntity
  8
LAYER_FEATURE
100
AcDbSpline
 62
7
  6
CONTINUOUS
 70
0
 71
3
 72
11
 73
7
 74
0
 42
0.0000001
 43
0.0000001
 44
0.0000000001
 40
0.0
 40
0.0
 40
0.0
 40
0.0
 40
0.2308384094
 40
0.4854371388
 40
0.7477532211
 40
1.0
 40
1.0
 40
1.0
 40
1.0
 10
16.7940391972
 20
11.6329211168
 30
0.0
 10
16.7952111821
 20
11.6316900705
 30
0.0
 10
16.7980461419
 20
11.6294496982
 30
0.0
 10
16.8029831833
 20
11.6269480452
 30
0.0
 10
16.8084406502
 20
11.6253307111
 30
0.0
 10
16.8122348038
 20
11.6249124385
 30
0.0
 10
16.814092151
 20
11.6249124385
 30
0.0
  0
SPLINE
  5
2E7
100
AcDbEntity
  8
LAYER_FEATURE
100
AcDbSpline
 62
7
  6
CONTINUOUS
 70
0
 71
3
 72
13
 73
9
 74
0
 42
0.0000001
 43
0.0000001
 44
0.0000000001
 40
0.0
 40
0.0
 40
0.0
 40
0.0
 40
0.3025536685
 40
0.5685593003
 40
0.6868876631
 40
0.7966715957
 40
0.9000736938
 40
1.0
 40
1.0
 40
1.0
 40
1.0
 10
16.5819964188
 20
11.6249124385
 30
0.0
 10
16.5834287822
 20
11.6249124385
 30
0.0
 10
16.5861275407
 20
11.6251441577
 30
0.0
 10
16.5892720131
 20
11.6261238617
 30
0.0
 10
16.5912900413
 20
11.6273271567
 30
0.0
 10
16.5924821778
 20
11.6283632474
 30
0.0
 10
16.5933817424
 20
11.6295558307
 30
0.0
 10
16.5937763049
 20
11.6304449756
 30
0.0
 10
16.593916437
 20
11.6308968202
 30
0.0
  0
SPLINE
  5
2E8
100
AcDbEntity
  8
LAYER_FEATURE
100
AcDbSpline
 62
7
  6
CONTINUOUS
 70
0
 71
3
 72
11
 73
7
 74
0
 42
0.0000001
 43
0.0000001
 44
0.0000000001
 40
0.0
 40
0.0
 40
0.0
 40
0.0
 40
0.2308384094
 40
0.4854371388
 40
0.7477532211
 40
1.0
 40
1.0
 40
1.0
 40
1.0
 10
16.3335087002
 20
11.6329211168
 30
0.0
 10
16.3346806851
 20
11.6316900705
 30
0.0
 10
16.3375156449
 20
11.6294496982
 30
0.0
 10
16.3424526863
 20
11.6269480452
 30
0.0
 10
16.3479101532
 20
11.6253307111
 30
0.0
 10
16.3517043068
 20
11.6249124385
 30
0.0
 10
16.353561654
 20
11.6249124385
 30
0.0
  0
SPLINE
  5
2E9
100
AcDbEntity
  8
LAYER_FEATURE
100
AcDbSpline
 62
7
  6
CONTINUOUS
 70
0
 71
3
 72
13
 73
9
 74
0
 42
0.0000001
 43
0.0000001
 44
0.0000000001
 40
0.0
 40
0.0
 40
0.0
 40
0.0
 40
0.3025536685
 40
0.5685593003
 40
0.6868876631
 40
0.7966715957
 40
0.9000736938
 40
1.0
 40
1.0
 40
1.0
 40
1.0
 10
16.1214659218
 20
11.6249124385
 30
0.0
 10
16.1228982852
 20
11.6249124385
 30
0.0
 10
16.1255970437
 20
11.6251441577
 30
0.0
 10
16.1287415161
 20
11.6261238617
 30
0.0
 10
16.1307595443
 20
11.6273271567
 30
0.0
 10
16.1319516808
 20
11.6283632474
 30
0.0
 10
16.1328512454
 20
11.6295558307
 30
0.0
 10
16.1332458079
 20
11.6304449756
 30
0.0
 10
16.13338594
 20
11.6308968202
 30
0.0
  0
SPLINE
  5
2EA
100
AcDbEntity
  8
LAYER_FEATURE
100
AcDbSpline
 62
7
  6
CONTINUOUS
 70
0
 71
3
 72
11
 73
7
 74
0
 42
0.0000001
 43
0.0000001
 44
0.0000000001
 40
0.0
 40
0.0
 40
0.0
 40
0.0
 40
0.2308384094
 40
0.4854371388
 40
0.7477532211
 40
1.0
 40
1.0
 40
1.0
 40
1.0
 10
15.8729782032
 20
11.6329211168
 30
0.0
 10
15.8741501881
 20
11.6316900705
 30
0.0
 10
15.8769851479
 20
11.6294496982
 30
0.0
 10
15.8819221893
 20
11.6269480452
 30
0.0
 10
15.8873796562
 20
11.6253307111
 30
0.0
 10
15.8911738098
 20
11.6249124385
 30
0.0
 10
15.893031157
 20
11.6249124385
 30
0.0
  0
SPLINE
  5
2EB
100
AcDbEntity
  8
LAYER_FEATURE
100
AcDbSpline
 62
7
  6
CONTINUOUS
 70
0
 71
3
 72
13
 73
9
 74
0
 42
0.0000001
 43
0.0000001
 44
0.0000000001
 40
0.0
 40
0.0
 40
0.0
 40
0.0
 40
0.3025536685
 40
0.5685593003
 40
0.6868876631
 40
0.7966715957
 40
0.9000736938
 40
1.0
 40
1.0
 40
1.0
 40
1.0
 10
15.6609354248
 20
11.6249124385
 30
0.0
 10
15.6623677882
 20
11.6249124385
 30
0.0
 10
15.6650665467
 20
11.6251441577
 30
0.0
 10
15.6682110191
 20
11.6261238617
 30
0.0
 10
15.6702290473
 20
11.6273271567
 30
0.0
 10
15.6714211838
 20
11.6283632474
 30
0.0
 10
15.6723207484
 20
11.6295558307
 30
0.0
 10
15.6727153109
 20
11.6304449756
 30
0.0
 10
15.672855443
 20
11.6308968202
 30
0.0
  0
SPLINE
  5
2EC
100
AcDbEntity
  8
LAYER_FEATURE
100
AcDbSpline
 62
7
  6
CONTINUOUS
 70
0
 71
3
 72
11
 73
7
 74
0
 42
0.0000001
 43
0.0000001
 44
0.0000000001
 40
0.0
 40
0.0
 40
0.0
 40
0.0
 40
0.2308384094
 40
0.4854371388
 40
0.7477532211
 40
1.0
 40
1.0
 40
1.0
 40
1.0
 10
15.4124477062
 20
11.6329211168
 30
0.0
 10
15.4136196911
 20
11.6316900705
 30
0.0
 10
15.4164546509
 20
11.6294496982
 30
0.0
 10
15.4213916923
 20
11.6269480452
 30
0.0
 10
15.4268491592
 20
11.6253307111
 30
0.0
 10
15.4306433128
 20
11.6249124385
 30
0.0
 10
15.43250066
 20
11.6249124385
 30
0.0
  0
SPLINE
  5
2ED
100
AcDbEntity
  8
LAYER_FEATURE
100
AcDbSpline
 62
7
  6
CONTINUOUS
 70
0
 71
3
 72
13
 73
9
 74
0
 42
0.0000001
 43
0.0000001
 44
0.0000000001
 40
0.0
 40
0.0
 40
0.0
 40
0.0
 40
0.3025536685
 40
0.5685593003
 40
0.6868876631
 40
0.7966715957
 40
0.9000736938
 40
1.0
 40
1.0
 40
1.0
 40
1.0
 10
15.2004049278
 20
11.6249124385
 30
0.0
 10
15.2018372912
 20
11.6249124385
 30
0.0
 10
15.2045360497
 20
11.6251441577
 30
0.0
 10
15.2076805221
 20
11.6261238617
 30
0.0
 10
15.2096985503
 20
11.6273271567
 30
0.0
 10
15.2108906868
 20
11.6283632474
 30
0.0
 10
15.2117902514
 20
11.6295558307
 30
0.0
 10
15.2121848139
 20
11.6304449756
 30
0.0
 10
15.212324946
 20
11.6308968202
 30
0.0
  0
SPLINE
  5
2EE
100
AcDbEntity
  8
LAYER_FEATURE
100
AcDbSpline
 62
7
  6
CONTINUOUS
 70
0
 71
3
 72
11
 73
7
 74
0
 42
0.0000001
 43
0.0000001
 44
0.0000000001
 40
0.0
 40
0.0
 40
0.0
 40
0.0
 40
0.2308384094
 40
0.4854371388
 40
0.7477532211
 40
1.0
 40
1.0
 40
1.0
 40
1.0
 10
14.9519172092
 20
11.6329211168
 30
0.0
 10
14.9530891941
 20
11.6316900705
 30
0.0
 10
14.9559241539
 20
11.6294496982
 30
0.0
 10
14.9608611953
 20
11.6269480452
 30
0.0
 10
14.9663186622
 20
11.6253307111
 30
0.0
 10
14.9701128158
 20
11.6249124385
 30
0.0
 10
14.971970163
 20
11.6249124385
 30
0.0
  0
SPLINE
  5
2EF
100
AcDbEntity
  8
LAYER_FEATURE
100
AcDbSpline
 62
7
  6
CONTINUOUS
 70
0
 71
3
 72
13
 73
9
 74
0
 42
0.0000001
 43
0.0000001
 44
0.0000000001
 40
0.0
 40
0.0
 40
0.0
 40
0.0
 40
0.3025536685
 40
0.5685593003
 40
0.6868876631
 40
0.7966715957
 40
0.9000736938
 40
1.0
 40
1.0
 40
1.0
 40
1.0
 10
14.7398744308
 20
11.6249124385
 30
0.0
 10
14.7413067942
 20
11.6249124385
 30
0.0
 10
14.7440055527
 20
11.6251441577
 30
0.0
 10
14.7471500251
 20
11.6261238617
 30
0.0
 10
14.7491680533
 20
11.6273271567
 30
0.0
 10
14.7503601898
 20
11.6283632474
 30
0.0
 10
14.7512597544
 20
11.6295558307
 30
0.0
 10
14.7516543169
 20
11.6304449756
 30
0.0
 10
14.751794449
 20
11.6308968202
 30
0.0
  0
SPLINE
  5
2F0
100
AcDbEntity
  8
LAYER_FEATURE
100
AcDbSpline
 62
7
  6
CONTINUOUS
 70
0
 71
3
 72
11
 73
7
 74
0
 42
0.0000001
 43
0.0000001
 44
0.0000000001
 40
0.0
 40
0.0
 40
0.0
 40
0.0
 40
0.2308384094
 40
0.4854371388
 40
0.7477532211
 40
1.0
 40
1.0
 40
1.0
 40
1.0
 10
14.4913867122
 20
11.6329211168
 30
0.0
 10
14.4925586971
 20
11.6316900705
 30
0.0
 10
14.4953936569
 20
11.6294496982
 30
0.0
 10
14.5003306983
 20
11.6269480452
 30
0.0
 10
14.5057881652
 20
11.6253307111
 30
0.0
 10
14.5095823188
 20
11.6249124385
 30
0.0
 10
14.511439666
 20
11.6249124385
 30
0.0
  0
SPLINE
  5
2F1
100
AcDbEntity
  8
LAYER_FEATURE
100
AcDbSpline
 62
7
  6
CONTINUOUS
 70
0
 71
3
 72
13
 73
9
 74
0
 42
0.0000001
 43
0.0000001
 44
0.0000000001
 40
0.0
 40
0.0
 40
0.0
 40
0.0
 40
0.3025536685
 40
0.5685593003
 40
0.6868876631
 40
0.7966715957
 40
0.9000736938
 40
1.0
 40
1.0
 40
1.0
 40
1.0
 10
14.2793439338
 20
11.6249124385
 30
0.0
 10
14.2807762972
 20
11.6249124385
 30
0.0
 10
14.2834750557
 20
11.6251441577
 30
0.0
 10
14.2866195281
 20
11.6261238617
 30
0.0
 10
14.2886375563
 20
11.6273271567
 30
0.0
 10
14.2898296928
 20
11.6283632474
 30
0.0
 10
14.2907292574
 20
11.6295558307
 30
0.0
 10
14.2911238199
 20
11.6304449756
 30
0.0
 10
14.291263952
 20
11.6308968202
 30
0.0
  0
SPLINE
  5
2F2
100
AcDbEntity
  8
LAYER_FEATURE
100
AcDbSpline
 62
7
  6
CONTINUOUS
 70
0
 71
3
 72
11
 73
7
 74
0
 42
0.0000001
 43
0.0000001
 44
0.0000000001
 40
0.0
 40
0.0
 40
0.0
 40
0.0
 40
0.2308384094
 40
0.4854371388
 40
0.7477532211
 40
1.0
 40
1.0
 40
1.0
 40
1.0
 10
14.0308562152
 20
11.6329211168
 30
0.0
 10
14.0320282001
 20
11.6316900705
 30
0.0
 10
14.0348631598
 20
11.6294496982
 30
0.0
 10
14.0398002013
 20
11.6269480452
 30
0.0
 10
14.0452576682
 20
11.6253307111
 30
0.0
 10
14.0490518218
 20
11.6249124385
 30
0.0
 10
14.050909169
 20
11.6249124385
 30
0.0
  0
SPLINE
  5
2F3
100
AcDbEntity
  8
LAYER_FEATURE
100
AcDbSpline
 62
7
  6
CONTINUOUS
 70
0
 71
3
 72
13
 73
9
 74
0
 42
0.0000001
 43
0.0000001
 44
0.0000000001
 40
0.0
 40
0.0
 40
0.0
 40
0.0
 40
0.3025536685
 40
0.5685593003
 40
0.6868876631
 40
0.7966715957
 40
0.9000736938
 40
1.0
 40
1.0
 40
1.0
 40
1.0
 10
13.8188134368
 20
11.6249124385
 30
0.0
 10
13.8202458002
 20
11.6249124385
 30
0.0
 10
13.8229445587
 20
11.6251441577
 30
0.0
 10
13.8260890311
 20
11.6261238617
 30
0.0
 10
13.8281070593
 20
11.6273271567
 30
0.0
 10
13.8292991958
 20
11.6283632474
 30
0.0
 10
13.8301987604
 20
11.6295558307
 30
0.0
 10
13.8305933229
 20
11.6304449756
 30
0.0
 10
13.830733455
 20
11.6308968202
 30
0.0
  0
SPLINE
  5
2F4
100
AcDbEntity
  8
LAYER_FEATURE
100
AcDbSpline
 62
7
  6
CONTINUOUS
 70
0
 71
3
 72
11
 73
7
 74
0
 42
0.0000001
 43
0.0000001
 44
0.0000000001
 40
0.0
 40
0.0
 40
0.0
 40
0.0
 40
0.2308384094
 40
0.4854371388
 40
0.7477532211
 40
1.0
 40
1.0
 40
1.0
 40
1.0
 10
13.5703257182
 20
11.6329211168
 30
0.0
 10
13.5714977031
 20
11.6316900705
 30
0.0
 10
13.5743326628
 20
11.6294496982
 30
0.0
 10
13.5792697043
 20
11.6269480452
 30
0.0
 10
13.5847271712
 20
11.6253307111
 30
0.0
 10
13.5885213248
 20
11.6249124385
 30
0.0
 10
13.590378672
 20
11.6249124385
 30
0.0
  0
SPLINE
  5
2F5
100
AcDbEntity
  8
0
100
AcDbSpline
 62
7
  6
CONTINUOUS
 70
0
 71
3
 72
13
 73
9
 74
0
 42
0.0000001
 43
0.0000001
 44
0.0000000001
 40
0.0
 40
0.0
 40
0.0
 40
0.0
 40
0.3025536685
 40
0.5685593003
 40
0.6868876631
 40
0.7966715957
 40
0.9000736938
 40
1.0
 40
1.0
 40
1.0
 40
1.0
 10
13.3582829398
 20
11.6249124385
 30
0.0
 10
13.3597153032
 20
11.6249124385
 30
0.0
 10
13.3624140617
 20
11.6251441577
 30
0.0
 10
13.3655585341
 20
11.6261238617
 30
0.0
 10
13.3675765623
 20
11.6273271567
 30
0.0
 10
13.3687686988
 20
11.6283632474
 30
0.0
 10
13.3696682634
 20
11.6295558307
 30
0.0
 10
13.3700628259
 20
11.6304449756
 30
0.0
 10
13.370202958
 20
11.6308968202
 30
0.0
  0
SPLINE
  5
2F6
100
AcDbEntity
  8
0
100
AcDbSpline
 62
7
  6
CONTINUOUS
 70
0
 71
3
 72
11
 73
7
 74
0
 42
0.0000001
 43
0.0000001
 44
0.0000000001
 40
0.0
 40
0.0
 40
0.0
 40
0.0
 40
0.2308384094
 40
0.4854371388
 40
0.7477532211
 40
1.0
 40
1.0
 40
1.0
 40
1.0
 10
13.1097952212
 20
11.6329211168
 30
0.0
 10
13.1109672061
 20
11.6316900705
 30
0.0
 10
13.1138021658
 20
11.6294496982
 30
0.0
 10
13.1187392073
 20
11.6269480452
 30
0.0
 10
13.1241966742
 20
11.6253307111
 30
0.0
 10
13.1279908278
 20
11.6249124385
 30
0.0
 10
13.129848175
 20
11.6249124385
 30
0.0
  0
SPLINE
  5
2F7
100
AcDbEntity
  8
0
100
AcDbSpline
 62
7
  6
CONTINUOUS
 70
0
 71
3
 72
11
 73
7
 74
0
 42
0.0000001
 43
0.0000001
 44
0.0000000001
 40
0.0
 40
0.0
 40
0.0
 40
0.0
 40
0.3026134201
 40
0.5698765566
 40
0.7977404036
 40
1.0
 40
1.0
 40
1.0
 40
1.0
 10
12.9476762802
 20
11.830043728
 30
0.0
 10
12.9470914699
 20
11.830043728
 30
0.0
 10
12.9459866296
 20
11.8299463412
 30
0.0
 10
12.9444990609
 20
11.829485552
 30
0.0
 10
12.9433642781
 20
11.8287087257
 30
0.0
 10
12.9429126115
 20
11.8279698345
 30
0.0
 10
12.9427990033
 20
11.8275958358
 30
0.0
  0
SPLINE
  5
2F8
100
AcDbEntity
  8
0
100
AcDbSpline
 62
7
  6
CONTINUOUS
 70
0
 71
3
 72
12
 73
8
 74
0
 42
0.0000001
 43
0.0000001
 44
0.0000000001
 40
0.0
 40
0.0
 40
0.0
 40
0.0
 40
0.0999990666
 40
0.2120452568
 40
0.46384075
 40
0.7357948119
 40
1.0
 40
1.0
 40
1.0
 40
1.0
 10
17.4930974471
 20
11.8253816533
 30
0.0
 10
17.4929397669
 20
11.8257029717
 30
0.0
 10
17.4925184655
 20
11.8263423527
 30
0.0
 10
17.4913685324
 20
11.8275480531
 30
0.0
 10
17.4894373265
 20
11.8288100154
 30
0.0
 10
17.4867703601
 20
11.8297808228
 30
0.0
 10
17.4848473344
 20
11.830043728
 30
0.0
 10
17.4839016756
 20
11.830043728
 30
0.0
  0
ENDSEC
  0
SECTION
  2
OBJECTS
  0
DICTIONARY
  5
C
100
AcDbDictionary
280
0
281
1
  3
ACAD_GROUP
350
D
  3
ACAD_MLINESTYLE
350
17
  3
ACAD_LAYOUT
350
1A
  3
ACAD_PLOTSETTINGS
350
19
  3
ACAD_PLOTSTYLENAME
350
E
  0
DICTIONARY
  5
D
102
{ACAD_REACTORS
330
C
102
}
100
AcDbDictionary
280
0
281
1
  0
ACDBDICTIONARYWDFLT
  5
E
102
{ACAD_REACTORS
330
C
102
}
100
AcDbDictionary
281
1
  3
Normal
350
F
100
AcDbDictionaryWithDefault
340
F
  0
DICTIONARY
  5
17
102
{ACAD_REACTORS
330
C
102
}
100
AcDbDictionary
280
0
281
1
  3
Standard
350
18
  0
DICTIONARY
  5
19
102
{ACAD_REACTORS
330
C
102
}
100
AcDbDictionary
281
1
  0
DICTIONARY
  5
1A
102
{ACAD_REACTORS
330
C
102
}
100
AcDbDictionary
281
1
  3
Model
350
2F9
  3
Layout1
350
2FA
  0
ACDBPLACEHOLDER
  5
F
102
{ACAD_REACTORS
330
E
102
}
  0
MLINESTYLE
  5
18
102
{ACAD_REACTORS
330
17
102
}
100
AcDbMlineStyle
  2
STANDARD
 70
0
  3

 62
256
 51
90.0
 52
90.0
 71
2
 49
0.5
 62
256
  6
BYLAYER
 49
-0.5
 62
256
  6
BYLAYER
  0
LAYOUT
  5
2F9
102
{ACAD_REACTORS
330
1A
102
}
100
AcDbPlotSettings
  1

  2
none_device
  4
ANSI_C_(22.00_x_17.00_Inches)
  6

 40
0.0
 41
0.0
 42
0.0
 43
0.0
 44
558.8
 45
431.8
 46
0.0
 47
0.0
 48
0.0
 49
0.0
140
0.0
141
0.0
142
1.0
143
1.0
 70
1024
 72
0
 73
0
 74
0
  7

 75
0
147
1.0
148
0.0
149
0.0
100
AcDbLayout
  1
Model
 70
0
 71
0
 10
0.0
 20
0.0
 11
22.0
 21
17.0
 12
0.0
 22
0.0
 32
0.0
 14
0.0
 24
0.0
 34
0.0
 15
0.0
 25
0.0
 35
0.0
146
0.0
 13
0.0
 23
0.0
 33
0.0
 16
1.0
 26
0.0
 36
0.0
 17
0.0
 27
1.0
 37
0.0
 76
0
330
21C
345
0
346
0
  0
LAYOUT
  5
2FA
102
{ACAD_REACTORS
330
1A
102
}
100
AcDbPlotSettings
  1

  2
none_device
  4
ANSI_C_(22.00_x_17.00_Inches)
  6

 40
0.0
 41
0.0
 42
0.0
 43
0.0
 44
558.8
 45
431.8
 46
0.0
 47
0.0
 48
0.0
 49
0.0
140
0.0
141
0.0
142
1.0
143
1.0
 70
0
 72
0
 73
0
 74
0
  7

 75
0
147
1.0
148
0.0
149
0.0
100
AcDbLayout
  1
Layout1
 70
0
 71
1
 10
0.0
 20
0.0
 11
22.0
 21
17.0
 12
0.0
 22
0.0
 32
0.0
 14
0.0
 24
0.0
 34
0.0
 15
0.0
 25
0.0
 35
0.0
146
0.0
 13
0.0
 23
0.0
 33
0.0
 16
1.0
 26
0.0
 36
0.0
 17
0.0
 27
1.0
 37
0.0
 76
0
330
21D
345
0
346
0
  0
ENDSEC
  0
EOF