999
DXF file: _cgs_temp_output.dxf
999
Pro/ENGINEER 2016360 by Parametric Technology Corporation
  0
SECTION
  2
HEADER
  9
$ACADVER
  1
AC1021
  9
$DWGCODEPAGE
  3
ANSI_1252
  9
$EXTMAX
 10
22.0
 20
17.0
 30
0.0
  9
$EXTMIN
 10
0.0
 20
0.0
 30
0.0
  9
$LIMMIN
 10
0.0
 20
0.0
  9
$LIMMAX
 10
22.0
 20
17.0
  9
$VIEWCTR
 10
11.0
 20
8.5
  9
$VIEWSIZE
 40
17.0
  9
$CLAYER
  8
0
  9
$LTSCALE
 40
1.21
  9
$CELTYPE
  6
BYLAYER
  9
$DIMSCALE
 40
1.0
  9
$DIMASZ
 40
0.1875
  9
$DIMEXO
 40
0.0625
  9
$DIMDLI
 40
0.836
  9
$DIMEXE
 40
0.125
  9
$DIMCEN
 40
0.198
  9
$DIMLFAC
 40
1.0
  9
$DIMBLK
  1
_CLOSED
  9
$DIMALT
 70
0
  9
$DIMALTF
 40
25.4
  9
$DIMTXT
 40
0.15625
  9
$DIMTOL
 70
0
  9
$DIMLIM
 70
0
  9
$DIMTFAC
 40
1.0
  9
$DIMGAP
 40
0.09
  9
$DIMDSEP
 70
46
  9
$AUNITS
 70
0
  9
$PDMODE
 70
3
  9
$PDSIZE
 40
0.3125
  9
$HANDSEED
  5
2FB
  9
$TILEMODE
 70
1
  9
$MEASUREMENT
 70
0
  9
$INSUNITS
 70
1
  0
ENDSEC
  0
SECTION
  2
CLASSES
  0
CLASS
  1
ACDBDICTIONARYWDFLT
  2
AcDbDictionaryWithDefault
  3
AutoCAD 2000
 90
0
 91
1
280
0
281
0
  0
CLASS
  1
ACDBPLACEHOLDER
  2
AcDbPlaceHolder
  3
AutoCAD 2000
 90
0
 91
1
280
0
281
0
  0
CLASS
  1
LAYOUT
  2
AcDbLayout
  3
AutoCAD 2000
 90
0
 91
0
280
0
281
0
  0
ENDSEC
  0
SECTION
  2
TABLES
  0
TABLE
  2
VPORT
  5
8
100
AcDbSymbolTable
 70
2
  0
VPORT
  5
1F4
100
AcDbSymbolTableRecord
100
AcDbViewportTableRecord
  2
*ACTIVE
 70
0
 10
0.0
 20
0.0
 11
1.0
 21
1.0
 12
11.0
 22
8.5
 13
0.0
 23
0.0
 14
1.0
 24
1.0
 15
0.0
 25
0.0
 16
0.0
 26
0.0
 36
1.0
 17
0.0
 27
0.0
 37
0.0
 40
17.0
 41
1.2941176471
 42
50.0
 43
0.0
 44
0.0
 50
0.0
 51
0.0
 71
0
 72
100
 73
1
 74
1
 75
0
 76
0
 77
0
 78
0
  0
ENDTAB
  0
TABLE
  2
LTYPE
  5
5
100
AcDbSymbolTable
 70
6
  0
LTYPE
  5
14
100
AcDbSymbolTableRecord
100
AcDbLinetypeTableRecord
  2
BYBLOCK
 70
0
  3

 72
65
 73
0
 40
0.0
  0
LTYPE
  5
15
100
AcDbSymbolTableRecord
100
AcDbLinetypeTableRecord
  2
BYLAYER
 70
0
  3

 72
65
 73
0
 40
0.0
  0
LTYPE
  5
16
100
AcDbSymbolTableRecord
100
AcDbLinetypeTableRecord
  2
CONTINUOUS
 70
64
  3
Solid line
 72
65
 73
0
 40
0.0
  0
LTYPE
  5
1F5
100
AcDbSymbolTableRecord
100
AcDbLinetypeTableRecord
  2
CENTER
 70
64
  3
____ _ ____ _ ____ _ ____ _ ____ _ ____ _ ____
 72
65
 73
4
 40
0.6
 49
0.375
 74
0
 49
-0.075
 74
0
 49
0.075
 74
0
 49
-0.075
 74
0
  0
LTYPE
  5
1F6
100
AcDbSymbolTableRecord
100
AcDbLinetypeTableRecord
  2
HIDDEN
 70
64
  3
- - - - - - - - - - - - - - - - - - - -
 72
65
 73
2
 40
0.2
 49
0.1
 74
0
 49
-0.1
 74
0
  0
LTYPE
  5
1F7
100
AcDbSymbolTableRecord
100
AcDbLinetypeTableRecord
  2
PHANTOM
 70
64
  3
_____ _ _ _____ _ _ _____ _ _ _____
 72
65
 73
6
 40
0.8
 49
0.45
 74
0
 49
-0.05
 74
0
 49
0.1
 74
0
 49
-0.05
 74
0
 49
0.1
 74
0
 49
-0.05
 74
0
  0
LTYPE
  5
1F8
100
AcDbSymbolTableRecord
100
AcDbLinetypeTableRecord
  2
DOT
 70
64
  3
. . . . . . . . . . . . . . . . . . . .
 72
65
 73
2
 40
0.2
 49
0.1
 74
0
 49
-0.1
 74
0
  0
LTYPE
  5
1F9
100
AcDbSymbolTableRecord
100
AcDbLinetypeTableRecord
  2
DASHED
 70
64
  3
- - - - - - - - - - - - - - - - - - - -
 72
65
 73
2
 40
0.2
 49
0.1
 74
0
 49
-0.1
 74
0
  0
ENDTAB
  0
TABLE
  2
LAYER
  5
2
100
AcDbSymbolTable
 70
36
  0
LAYER
  5
10
100
AcDbSymbolTableRecord
100
AcDbLayerTableRecord
  2
0
 70
0
 62
7
  6
CONTINUOUS
370
-3
390
F
  0
LAYER
  5
1FA
100
AcDbSymbolTableRecord
100
AcDbLayerTableRecord
  2
DEFAULT_1
 70
0
 62
7
  6
CENTER
370
-3
390
F
  0
LAYER
  5
1FB
100
AcDbSymbolTableRecord
100
AcDbLayerTableRecord
  2
DEFAULT_2
 70
0
 62
8
  6
HIDDEN
370
-3
390
F
  0
LAYER
  5
1FC
100
AcDbSymbolTableRecord
100
AcDbLayerTableRecord
  2
DEFAULT_3
 70
0
 62
7
  6
PHANTOM
370
-3
390
F
  0
LAYER
  5
1FD
100
AcDbSymbolTableRecord
100
AcDbLayerTableRecord
  2
01_ALL_DTM_PLN
 70
0
 62
7
  6
CONTINUOUS
370
-3
390
F
  0
LAYER
  5
1FE
100
AcDbSymbolTableRecord
100
AcDbLayerTableRecord
  2
01__ASM_ALL_DTM_PLN
 70
0
 62
7
  6
CONTINUOUS
370
-3
390
F
  0
LAYER
  5
1FF
100
AcDbSymbolTableRecord
100
AcDbLayerTableRecord
  2
01__ASM_DEF_DTM_PLN
 70
0
 62
7
  6
CONTINUOUS
370
-3
390
F
  0
LAYER
  5
200
100
AcDbSymbolTableRecord
100
AcDbLayerTableRecord
  2
01___PRT_ALL_DTM_PLN
 70
0
 62
7
  6
CONTINUOUS
370
-3
390
F
  0
LAYER
  5
201
100
AcDbSymbolTableRecord
100
AcDbLayerTableRecord
  2
01___PRT_DEF_DTM_PLN
 70
0
 62
7
  6
CONTINUOUS
370
-3
390
F
  0
LAYER
  5
202
100
AcDbSymbolTableRecord
100
AcDbLayerTableRecord
  2
02_ALL_AXES
 70
0
 62
7
  6
CONTINUOUS
370
-3
390
F
  0
LAYER
  5
203
100
AcDbSymbolTableRecord
100
AcDbLayerTableRecord
  2
02__ASM_ALL_AXES
 70
0
 62
7
  6
CONTINUOUS
370
-3
390
F
  0
LAYER
  5
204
100
AcDbSymbolTableRecord
100
AcDbLayerTableRecord
  2
02___PRT_ALL_AXES
 70
0
 62
7
  6
CONTINUOUS
370
-3
390
F
  0
LAYER
  5
205
100
AcDbSymbolTableRecord
100
AcDbLayerTableRecord
  2
03_ALL_CURVES
 70
0
 62
7
  6
CONTINUOUS
370
-3
390
F
  0
LAYER
  5
206
100
AcDbSymbolTableRecord
100
AcDbLayerTableRecord
  2
03__ASM_ALL_CURVES
 70
0
 62
7
  6
CONTINUOUS
370
-3
390
F
  0
LAYER
  5
207
100
AcDbSymbolTableRecord
100
AcDbLayerTableRecord
  2
03___PRT_ALL_CURVES
 70
0
 62
7
  6
CONTINUOUS
370
-3
390
F
  0
LAYER
  5
208
100
AcDbSymbolTableRecord
100
AcDbLayerTableRecord
  2
04_ALL_DTM_PNT
 70
0
 62
7
  6
CONTINUOUS
370
-3
390
F
  0
LAYER
  5
209
100
AcDbSymbolTableRecord
100
AcDbLayerTableRecord
  2
04__ASM_ALL_DTM_PNT
 70
0
 62
7
  6
CONTINUOUS
370
-3
390
F
  0
LAYER
  5
20A
100
AcDbSymbolTableRecord
100
AcDbLayerTableRecord
  2
04___PRT_ALL_DTM_PNT
 70
0
 62
7
  6
CONTINUOUS
370
-3
390
F
  0
LAYER
  5
20B
100
AcDbSymbolTableRecord
100
AcDbLayerTableRecord
  2
05_ALL_DTM_CSYS
 70
0
 62
7
  6
CONTINUOUS
370
-3
390
F
  0
LAYER
  5
20C
100
AcDbSymbolTableRecord
100
AcDbLayerTableRecord
  2
05__ASM_ALL_DTM_CSYS
 70
0
 62
7
  6
CONTINUOUS
370
-3
390
F
  0
LAYER
  5
20D
100
AcDbSymbolTableRecord
100
AcDbLayerTableRecord
  2
05__ASM_DEF_DTM_CSYS
 70
0
 62
7
  6
CONTINUOUS
370
-3
390
F
  0
LAYER
  5
20E
100
AcDbSymbolTableRecord
100
AcDbLayerTableRecord
  2
05___PRT_ALL_DTM_CSYS
 70
0
 62
7
  6
CONTINUOUS
370
-3
390
F
  0
LAYER
  5
20F
100
AcDbSymbolTableRecord
100
AcDbLayerTableRecord
  2
05___PRT_DEF_DTM_CSYS
 70
0
 62
7
  6
CONTINUOUS
370
-3
390
F
  0
LAYER
  5
210
100
AcDbSymbolTableRecord
100
AcDbLayerTableRecord
  2
06_ALL_SURFS
 70
0
 62
7
  6
CONTINUOUS
370
-3
390
F
  0
LAYER
  5
211
100
AcDbSymbolTableRecord
100
AcDbLayerTableRecord
  2
06__ASM_ALL_SURFS
 70
0
 62
7
  6
CONTINUOUS
370
-3
390
F
  0
LAYER
  5
212
100
AcDbSymbolTableRecord
100
AcDbLayerTableRecord
  2
06___PRT_ALL_SURFS
 70
0
 62
7
  6
CONTINUOUS
370
-3
390
F
  0
LAYER
  5
213
100
AcDbSymbolTableRecord
100
AcDbLayerTableRecord
  2
07__ASM_ALL_SKELETONS
 70
0
 62
7
  6
CONTINUOUS
370
-3
390
F
  0
LAYER
  5
214
100
AcDbSymbolTableRecord
100
AcDbLayerTableRecord
  2
LAYER_DIM
 70
0
 62
7
  6
CONTINUOUS
370
-3
390
F
  0
LAYER
  5
215
100
AcDbSymbolTableRecord
100
AcDbLayerTableRecord
  2
LAYER_FEATURE
 70
0
 62
7
  6
CONTINUOUS
370
-3
390
F
  0
LAYER
  5
216
100
AcDbSymbolTableRecord
100
AcDbLayerTableRecord
  2
LAYER_GEOM_FEAT
 70
0
 62
7
  6
CONTINUOUS
370
-3
390
F
  0
LAYER
  5
217
100
AcDbSymbolTableRecord
100
AcDbLayerTableRecord
  2
LAYER_PARAMETER_DIM
 70
0
 62
7
  6
CONTINUOUS
370
-3
390
F
  0
LAYER
  5
218
100
AcDbSymbolTableRecord
100
AcDbLayerTableRecord
  2
LAYER_PROTRUSION_FEAT
 70
0
 62
7
  6
CONTINUOUS
370
-3
390
F
  0
LAYER
  5
219
100
AcDbSymbolTableRecord
100
AcDbLayerTableRecord
  2
LAYER_ROUND_FEAT
 70
0
 62
7
  6
CONTINUOUS
370
-3
390
F
  0
ENDTAB
  0
TABLE
  2
STYLE
  5
3
100
AcDbSymbolTable
 70
1
  0
STYLE
  5
11
100
AcDbSymbolTableRecord
100
AcDbTextStyleTableRecord
  2
STANDARD
 70
0
 40
0.0
 41
0.8
 50
0.0
 71
0
 42
0.2
  3
txt
  4

  0
STYLE
  5
21A
100
AcDbSymbolTableRecord
100
AcDbTextStyleTableRecord
  2
TEXTSTYLE_1
 70
0
 40
0.0
 41
0.8
 50
0.0
 71
0
 42
0.2
  3
gdt
  4

  0
ENDTAB
  0
TABLE
  2
VIEW
  5
6
100
AcDbSymbolTable
 70
0
  0
ENDTAB
  0
TABLE
  2
UCS
  5
7
100
AcDbSymbolTable
 70
0
  0
ENDTAB
  0
TABLE
  2
APPID
  5
9
100
AcDbSymbolTable
 70
1
  0
APPID
  5
21B
100
AcDbSymbolTableRecord
100
AcDbRegAppTableRecord
  2
ACAD
 70
0
  0
ENDTAB
  0
TABLE
  2
BLOCK_RECORD
  5
1
100
AcDbSymbolTable
 70
0
  0
BLOCK_RECORD
  5
21C
100
AcDbSymbolTableRecord
100
AcDbBlockTableRecord
  2
*Model_Space
  0
BLOCK_RECORD
  5
21D
100
AcDbSymbolTableRecord
100
AcDbBlockTableRecord
  2
*Paper_Space
  0
ENDTAB
  0
TABLE
  2
DIMSTYLE
  5
A
100
AcDbSymbolTable
 70
1
100
AcDbDimStyleTable
 71
0
  0
DIMSTYLE
105
21E
100
AcDbSymbolTableRecord
100
AcDbDimStyleTableRecord
  2
STANDARD
 70
0
  3

  4

 40
1.0
 41
0.1875
 42
0.0625
 43
0.38
 44
0.125
 45
0.0
 46
0.0
 47
0.0001
 48
0.0001
140
0.15625
141
0.09
142
0.0
143
25.4
144
1.0
145
0.0
146
1.0
147
0.09
 71
0.0
 72
0.0
 73
1
 74
1
 75
0
 76
0
 77
0
 78
4
 79
1
170
0
171
3
172
0
173
0
174
0
175
0
176
0
177
0
178
0
270
2
179
4
271
4
272
4
273
2
274
2
275
0
280
0
281
0
282
0
283
1
284
4
285
0
286
0
287
3
288
0
340
11
278
46
  0
ENDTAB
  0
ENDSEC
  0
SECTION
  2
BLOCKS
  0
BLOCK
  5
20
100
AcDbEntity
  8
0
100
AcDbBlockBegin
  2
*Model_Space
 70
0
 10
0.0
 20
0.0
 30
0.0
  3
*Model_Space
  1

  0
ENDBLK
  5
21
100
AcDbEntity
  8
0
100
AcDbBlockEnd
  0
BLOCK
  5
1C
100
AcDbEntity
  8
0
100
AcDbBlockBegin
  2
*Paper_Space
 70
0
 10
0.0
 20
0.0
 30
0.0
  3
*Paper_Space
  1

  0
ENDBLK
  5
1D
100
AcDbEntity
  8
0
100
AcDbBlockEnd
  0
ENDSEC
  0
SECTION
  2
ENTITIES
  0
MTEXT
  5
21F
100
AcDbEntity
  8
0
100
AcDbMText
 62
7
  6
CONTINUOUS
  7
STANDARD
 71
1
 72
1
 10
15.9560215477
 20
0.9479130325
 30
0.0
 11
1.0
 21
0.0
 31
0.0
 44
0.9
  1
SCALE: 1:1.000
 40
0.3
 41
3.36
  0
LINE
  5
220
100
AcDbEntity
  8
0
100
AcDbLine
 62
7
  6
CONTINUOUS
 10
0.0
 20
0.0
 11
0.0
 21
17.0
  0
LINE
  5
221
100
AcDbEntity
  8
0
100
AcDbLine
 62
7
  6
CONTINUOUS
 10
0.0
 20
0.0
 11
22.0
 21
0.0
  0
LINE
  5
222
100
AcDbEntity
  8
0
100
AcDbLine
 62
7
  6
CONTINUOUS
 10
0.0
 20
17.0
 11
22.0
 21
17.0
  0
LINE
  5
223
100
AcDbEntity
  8
0
100
AcDbLine
 62
7
  6
CONTINUOUS
 10
22.0
 20
0.0
 11
22.0
 21
17.0
  0
LINE
  5
224
100
AcDbEntity
  8
0
100
AcDbLine
 62
7
  6
CONTINUOUS
 10
2.4253672762
 20
5.7551198968
 11
2.4253672762
 21
5.6801198968
  0
LINE
  5
225
100
AcDbEntity
  8
0
100
AcDbLine
 62
7
  6
CONTINUOUS
 10
2.4253672762
 20
5.6801198968
 11
2.5432153786
 21
5.2896736584
  0
LINE
  5
226
100
AcDbEntity
  8
0
100
AcDbLine
 62
7
  6
CONTINUOUS
 10
3.0853672762
 20
5.6801198968
 11
3.0853672762
 21
5.7251198968
  0
LINE
  5
227
100
AcDbEntity
  8
LAYER_FEATURE
100
AcDbLine
 62
7
  6
CONTINUOUS
 10
3.1753672762
 20
5.7251198968
 11
3.1753672762
 21
5.6801198968
  0
LINE
  5
228
100
AcDbEntity
  8
0
100
AcDbLine
 62
7
  6
CONTINUOUS
 10
2.9675191737
 20
5.2896736584
 11
3.0853672762
 21
5.6801198968
  0
LINE
  5
229
100
AcDbEntity
  8
LAYER_FEATURE
100
AcDbLine
 62
7
  6
CONTINUOUS
 10
3.1753672762
 20
5.6801198968
 11
3.2932153786
 21
5.2896736584
  0
LINE
  5
22A
100
AcDbEntity
  8
LAYER_FEATURE
100
AcDbLine
 62
7
  6
CONTINUOUS
 10
3.8353672762
 20
5.6801198968
 11
3.8353672762
 21
5.7251198968
  0
LINE
  5
22B
100
AcDbEntity
  8
LAYER_FEATURE
100
AcDbLine
 62
7
  6
CONTINUOUS
 10
3.9253672762
 20
5.7251198968
 11
3.9253672762
 21
5.6801198968
  0
LINE
  5
22C
100
AcDbEntity
  8
LAYER_FEATURE
100
AcDbLine
 62
7
  6
CONTINUOUS
 10
3.7175191737
 20
5.2896736584
 11
3.8353672762
 21
5.6801198968
  0
LINE
  5
22D
100
AcDbEntity
  8
LAYER_FEATURE
100
AcDbLine
 62
7
  6
CONTINUOUS
 10
3.9253672762
 20
5.6801198968
 11
4.0432153786
 21
5.2896736584
  0
LINE
  5
22E
100
AcDbEntity
  8
LAYER_FEATURE
100
AcDbLine
 62
7
  6
CONTINUOUS
 10
4.5853672762
 20
5.6801198968
 11
4.5853672762
 21
5.7251198968
  0
LINE
  5
22F
100
AcDbEntity
  8
LAYER_FEATURE
100
AcDbLine
 62
7
  6
CONTINUOUS
 10
4.6753672762
 20
5.7251198968
 11
4.6753672762
 21
5.6801198968
  0
LINE
  5
230
100
AcDbEntity
  8
LAYER_FEATURE
100
AcDbLine
 62
7
  6
CONTINUOUS
 10
4.4675191737
 20
5.2896736584
 11
4.5853672762
 21
5.6801198968
  0
LINE
  5
231
100
AcDbEntity
  8
LAYER_FEATURE
100
AcDbLine
 62
7
  6
CONTINUOUS
 10
4.6753672762
 20
5.6801198968
 11
4.7932153786
 21
5.2896736584
  0
LINE
  5
232
100
AcDbEntity
  8
LAYER_FEATURE
100
AcDbLine
 62
7
  6
CONTINUOUS
 10
5.3353672762
 20
5.6801198968
 11
5.3353672762
 21
5.7251198968
  0
LINE
  5
233
100
AcDbEntity
  8
LAYER_FEATURE
100
AcDbLine
 62
7
  6
CONTINUOUS
 10
5.2175191737
 20
5.2896736584
 11
5.3353672762
 21
5.6801198968
  0
LINE
  5
234
100
AcDbEntity
  8
LAYER_FEATURE
100
AcDbLine
 62
7
  6
CONTINUOUS
 10
5.4253672762
 20
5.7251198968
 11
5.4253672762
 21
5.6801198968
  0
LINE
  5
235
100
AcDbEntity
  8
LAYER_FEATURE
100
AcDbLine
 62
7
  6
CONTINUOUS
 10
5.4253672762
 20
5.6801198968
 11
5.5432153786
 21
5.2896736584
  0
LINE
  5
236
100
AcDbEntity
  8
0
100
AcDbLine
 62
7
  6
CONTINUOUS
 10
2.5695423096
 20
5.2701198968
 11
2.9411922427
 21
5.2701198968
  0
LINE
  5
237
100
AcDbEntity
  8
LAYER_FEATURE
100
AcDbLine
 62
7
  6
CONTINUOUS
 10
3.3195423096
 20
5.2701198968
 11
3.6911922427
 21
5.2701198968
  0
LINE
  5
238
100
AcDbEntity
  8
LAYER_FEATURE
100
AcDbLine
 62
7
  6
CONTINUOUS
 10
4.0695423096
 20
5.2701198968
 11
4.4411922427
 21
5.2701198968
  0
LINE
  5
239
100
AcDbEntity
  8
LAYER_FEATURE
100
AcDbLine
 62
7
  6
CONTINUOUS
 10
4.8195423096
 20
5.2701198968
 11
5.1911922427
 21
5.2701198968
  0
LINE
  5
23A
100
AcDbEntity
  8
LAYER_FEATURE
100
AcDbLine
 62
7
  6
CONTINUOUS
 10
5.5695423096
 20
5.2701198968
 11
5.9411922427
 21
5.2701198968
  0
LINE
  5
23B
100
AcDbEntity
  8
LAYER_FEATURE
100
AcDbLine
 62
7
  6
CONTINUOUS
 10
6.3195423096
 20
5.2701198968
 11
6.6911922427
 21
5.2701198968
  0
LINE
  5
23C
100
AcDbEntity
  8
LAYER_FEATURE
100
AcDbLine
 62
7
  6
CONTINUOUS
 10
7.0695423096
 20
5.2701198968
 11
7.4411922427
 21
5.2701198968
  0
LINE
  5
23D
100
AcDbEntity
  8
LAYER_FEATURE
100
AcDbLine
 62
7
  6
CONTINUOUS
 10
7.8195423096
 20
5.2701198968
 11
8.1911922427
 21
5.2701198968
  0
LINE
  5
23E
100
AcDbEntity
  8
LAYER_FEATURE
100
AcDbLine
 62
7
  6
CONTINUOUS
 10
8.5695423096
 20
5.2701198968
 11
8.9411922427
 21
5.2701198968
  0
LINE
  5
23F
100
AcDbEntity
  8
LAYER_FEATURE
100
AcDbLine
 62
7
  6
CONTINUOUS
 10
9.3195423096
 20
5.2701198968
 11
9.6911922427
 21
5.2701198968
  0
LINE
  5
240
100
AcDbEntity
  8
LAYER_FEATURE
100
AcDbLine
 62
7
  6
CONTINUOUS
 10
6.0853672762
 20
5.6801198968
 11
6.0853672762
 21
5.7251198968
  0
LINE
  5
241
100
AcDbEntity
  8
LAYER_FEATURE
100
AcDbLine
 62
7
  6
CONTINUOUS
 10
5.9675191737
 20
5.2896736584
 11
6.0853672762
 21
5.6801198968
  0
LINE
  5
242
100
AcDbEntity
  8
LAYER_FEATURE
100
AcDbLine
 62
7
  6
CONTINUOUS
 10
6.1753672762
 20
5.7251198968
 11
6.1753672762
 21
5.6801198968
  0
LINE
  5
243
100
AcDbEntity
  8
LAYER_FEATURE
100
AcDbLine
 62
7
  6
CONTINUOUS
 10
3.0853672762
 20
5.7251198968
 11
3.1753672762
 21
5.7251198968
  0
LINE
  5
244
100
AcDbEntity
  8
LAYER_FEATURE
100
AcDbLine
 62
7
  6
CONTINUOUS
 10
3.8353672762
 20
5.7251198968
 11
3.9253672762
 21
5.7251198968
  0
LINE
  5
245
100
AcDbEntity
  8
LAYER_FEATURE
100
AcDbLine
 62
7
  6
CONTINUOUS
 10
4.5853672762
 20
5.7251198968
 11
4.6753672762
 21
5.7251198968
  0
LINE
  5
246
100
AcDbEntity
  8
LAYER_FEATURE
100
AcDbLine
 62
7
  6
CONTINUOUS
 10
5.3353672762
 20
5.7251198968
 11
5.4253672762
 21
5.7251198968
  0
LINE
  5
247
100
AcDbEntity
  8
LAYER_FEATURE
100
AcDbLine
 62
7
  6
CONTINUOUS
 10
6.0853672762
 20
5.7251198968
 11
6.1753672762
 21
5.7251198968
  0
LINE
  5
248
100
AcDbEntity
  8
LAYER_FEATURE
100
AcDbLine
 62
7
  6
CONTINUOUS
 10
6.8353672762
 20
5.7251198968
 11
6.9253672762
 21
5.7251198968
  0
LINE
  5
249
100
AcDbEntity
  8
LAYER_FEATURE
100
AcDbLine
 62
7
  6
CONTINUOUS
 10
7.5853672762
 20
5.7251198968
 11
7.6753672762
 21
5.7251198968
  0
LINE
  5
24A
100
AcDbEntity
  8
LAYER_FEATURE
100
AcDbLine
 62
7
  6
CONTINUOUS
 10
8.3353672762
 20
5.7251198968
 11
8.4253672762
 21
5.7251198968
  0
LINE
  5
24B
100
AcDbEntity
  8
LAYER_FEATURE
100
AcDbLine
 62
7
  6
CONTINUOUS
 10
9.0853672762
 20
5.7251198968
 11
9.1753672762
 21
5.7251198968
  0
LINE
  5
24C
100
AcDbEntity
  8
0
100
AcDbLine
 62
7
  6
CONTINUOUS
 10
9.8203672762
 20
5.7701198968
 11
2.4403672762
 21
5.7701198968
  0
LINE
  5
24D
100
AcDbEntity
  8
LAYER_FEATURE
100
AcDbLine
 62
7
  6
CONTINUOUS
 10
6.1753672762
 20
5.6801198968
 11
6.2932153786
 21
5.2896736584
  0
LINE
  5
24E
100
AcDbEntity
  8
LAYER_FEATURE
100
AcDbLine
 62
7
  6
CONTINUOUS
 10
6.8353672762
 20
5.6801198968
 11
6.8353672762
 21
5.7251198968
  0
LINE
  5
24F
100
AcDbEntity
  8
LAYER_FEATURE
100
AcDbLine
 62
7
  6
CONTINUOUS
 10
6.7175191737
 20
5.2896736584
 11
6.8353672762
 21
5.6801198968
  0
LINE
  5
250
100
AcDbEntity
  8
LAYER_FEATURE
100
AcDbLine
 62
7
  6
CONTINUOUS
 10
6.9253672762
 20
5.7251198968
 11
6.9253672762
 21
5.6801198968
  0
LINE
  5
251
100
AcDbEntity
  8
LAYER_FEATURE
100
AcDbLine
 62
7
  6
CONTINUOUS
 10
6.9253672762
 20
5.6801198968
 11
7.0432153786
 21
5.2896736584
  0
LINE
  5
252
100
AcDbEntity
  8
LAYER_FEATURE
100
AcDbLine
 62
7
  6
CONTINUOUS
 10
7.5853672762
 20
5.6801198968
 11
7.5853672762
 21
5.7251198968
  0
LINE
  5
253
100
AcDbEntity
  8
LAYER_FEATURE
100
AcDbLine
 62
7
  6
CONTINUOUS
 10
7.4675191737
 20
5.2896736584
 11
7.5853672762
 21
5.6801198968
  0
LINE
  5
254
100
AcDbEntity
  8
LAYER_FEATURE
100
AcDbLine
 62
7
  6
CONTINUOUS
 10
7.6753672762
 20
5.7251198968
 11
7.6753672762
 21
5.6801198968
  0
LINE
  5
255
100
AcDbEntity
  8
LAYER_FEATURE
100
AcDbLine
 62
7
  6
CONTINUOUS
 10
7.6753672762
 20
5.6801198968
 11
7.7932153786
 21
5.2896736584
  0
LINE
  5
256
100
AcDbEntity
  8
LAYER_FEATURE
100
AcDbLine
 62
7
  6
CONTINUOUS
 10
8.3353672762
 20
5.6801198968
 11
8.3353672762
 21
5.7251198968
  0
LINE
  5
257
100
AcDbEntity
  8
LAYER_FEATURE
100
AcDbLine
 62
7
  6
CONTINUOUS
 10
8.2175191737
 20
5.2896736584
 11
8.3353672762
 21
5.6801198968
  0
LINE
  5
258
100
AcDbEntity
  8
LAYER_FEATURE
100
AcDbLine
 62
7
  6
CONTINUOUS
 10
8.4253672762
 20
5.6801198968
 11
8.5432153786
 21
5.2896736584
  0
LINE
  5
259
100
AcDbEntity
  8
LAYER_FEATURE
100
AcDbLine
 62
7
  6
CONTINUOUS
 10
8.4253672762
 20
5.7251198968
 11
8.4253672762
 21
5.6801198968
  0
LINE
  5
25A
100
AcDbEntity
  8
LAYER_FEATURE
100
AcDbLine
 62
7
  6
CONTINUOUS
 10
9.0853672762
 20
5.6801198968
 11
9.0853672762
 21
5.7251198968
  0
LINE
  5
25B
100
AcDbEntity
  8
LAYER_FEATURE
100
AcDbLine
 62
7
  6
CONTINUOUS
 10
8.9675191737
 20
5.2896736584
 11
9.0853672762
 21
5.6801198968
  0
LINE
  5
25C
100
AcDbEntity
  8
LAYER_FEATURE
100
AcDbLine
 62
7
  6
CONTINUOUS
 10
9.1753672762
 20
5.6801198968
 11
9.2932153786
 21
5.2896736584
  0
LINE
  5
25D
100
AcDbEntity
  8
LAYER_FEATURE
100
AcDbLine
 62
7
  6
CONTINUOUS
 10
9.1753672762
 20
5.7251198968
 11
9.1753672762
 21
5.6801198968
  0
LINE
  5
25E
100
AcDbEntity
  8
0
100
AcDbLine
 62
7
  6
CONTINUOUS
 10
9.8353672762
 20
5.6801198968
 11
9.8353672762
 21
5.7551198968
  0
LINE
  5
25F
100
AcDbEntity
  8
LAYER_FEATURE
100
AcDbLine
 62
7
  6
CONTINUOUS
 10
9.7175191737
 20
5.2896736584
 11
9.8353672762
 21
5.6801198968
  0
LINE
  5
260
100
AcDbEntity
  8
0
100
AcDbLine
 62
7
  6
CONTINUOUS
 10
2.3658720839
 20
14.6000477814
 11
2.3658720839
 21
10.6000477814
  0
LINE
  5
261
100
AcDbEntity
  8
0
100
AcDbLine
 62
7
  6
CONTINUOUS
 10
9.7758720839
 20
10.6000477814
 11
2.3658720839
 21
10.6000477814
  0
LINE
  5
262
100
AcDbEntity
  8
0
100
AcDbLine
 62
7
  6
CONTINUOUS
 10
2.3658720839
 20
14.6000477814
 11
9.7758720839
 21
14.6000477814
  0
LINE
  5
263
100
AcDbEntity
  8
0
100
AcDbLine
 62
7
  6
CONTINUOUS
 10
9.7758720839
 20
10.6000477814
 11
9.7758720839
 21
14.6000477814
  0
LINE
  5
264
100
AcDbEntity
  8
LAYER_FEATURE
100
AcDbLine
 62
7
  6
CONTINUOUS
 10
13.5603552569
 20
5.2106247044
 11
13.5603552569
 21
5.6206247044
  0
LINE
  5
265
100
AcDbEntity
  8
0
100
AcDbLine
 62
7
  6
CONTINUOUS
 10
13.5603552569
 20
5.6206247044
 11
13.5603552569
 21
5.7106247044
  0
LINE
  5
266
100
AcDbEntity
  8
LAYER_FEATURE
100
AcDbLine
 62
7
  6
CONTINUOUS
 10
13.5603552569
 20
5.2106247044
 11
17.5603552569
 21
5.2106247044
  0
LINE
  5
267
100
AcDbEntity
  8
LAYER_FEATURE
100
AcDbLine
 62
7
  6
CONTINUOUS
 10
17.5603552569
 20
5.6206247044
 11
13.5603552569
 21
5.6206247044
  0
LINE
  5
268
100
AcDbEntity
  8
0
100
AcDbLine
 62
7
  6
CONTINUOUS
 10
13.5603552569
 20
5.7106247044
 11
17.5603552569
 21
5.7106247044
  0
LINE
  5
269
100
AcDbEntity
  8
0
100
AcDbLine
 62
7
  6
CONTINUOUS
 10
17.5603552569
 20
5.7106247044
 11
17.5603552569
 21
5.6206247044
  0
LINE
  5
26A
100
AcDbEntity
  8
LAYER_FEATURE
100
AcDbLine
 62
7
  6
CONTINUOUS
 10
17.5603552569
 20
5.2106247044
 11
17.5603552569
 21
5.6206247044
  0
LINE
  5
26B
100
AcDbEntity
  8
0
100
AcDbLine
 62
7
  6
CONTINUOUS
 10
11.5580815917
 20
11.0902295162
 11
11.5809597317
 21
11.0436087686
  0
LINE
  5
26C
100
AcDbEntity
  8
0
100
AcDbLine
 62
7
  6
CONTINUOUS
 10
11.5809597317
 20
11.0436087686
 11
11.8086074714
 21
10.8009034948
  0
LINE
  5
26D
100
AcDbEntity
  8
0
100
AcDbLine
 62
7
  6
CONTINUOUS
 10
12.1888599877
 20
11.0436087686
 11
12.1751331037
 21
11.0715812171
  0
LINE
  5
26E
100
AcDbEntity
  8
LAYER_FEATURE
100
AcDbLine
 62
7
  6
CONTINUOUS
 10
12.2580285932
 20
11.0715812171
 11
12.2717554772
 21
11.0436087686
  0
LINE
  5
26F
100
AcDbEntity
  8
0
100
AcDbLine
 62
7
  6
CONTINUOUS
 10
12.1994171467
 20
10.8009034948
 11
12.1888599877
 21
11.0436087686
  0
LINE
  5
270
100
AcDbEntity
  8
0
100
AcDbLine
 62
7
  6
CONTINUOUS
 10
12.5258314875
 20
14.2279658653
 11
11.5575661939
 21
11.0946582268
  0
LINE
  5
271
100
AcDbEntity
  8
LAYER_FEATURE
100
AcDbLine
 62
7
  6
CONTINUOUS
 10
12.2717554772
 20
11.0436087686
 11
12.4994032169
 21
10.8009034948
  0
LINE
  5
272
100
AcDbEntity
  8
0
100
AcDbLine
 62
7
  6
CONTINUOUS
 10
12.1989955616
 20
10.7977307028
 11
12.1994171467
 21
10.8009034948
  0
LINE
  5
273
100
AcDbEntity
  8
LAYER_FEATURE
100
AcDbLine
 62
7
  6
CONTINUOUS
 10
12.9625512227
 20
11.0436087686
 11
13.1901989624
 21
10.8009034948
  0
LINE
  5
274
100
AcDbEntity
  8
LAYER_FEATURE
100
AcDbLine
 62
7
  6
CONTINUOUS
 10
12.8796557332
 20
11.0436087686
 11
12.8659288492
 21
11.0715812171
  0
LINE
  5
275
100
AcDbEntity
  8
LAYER_FEATURE
100
AcDbLine
 62
7
  6
CONTINUOUS
 10
12.9488243387
 20
11.0715812171
 11
12.9625512227
 21
11.0436087686
  0
LINE
  5
276
100
AcDbEntity
  8
LAYER_FEATURE
100
AcDbLine
 62
7
  6
CONTINUOUS
 10
12.8902128922
 20
10.8009034948
 11
12.8796557332
 21
11.0436087686
  0
LINE
  5
277
100
AcDbEntity
  8
0
100
AcDbLine
 62
7
  6
CONTINUOUS
 10
12.1975041281
 20
11.0715812171
 11
12.1888599877
 21
11.0436087686
  0
LINE
  5
278
100
AcDbEntity
  8
0
100
AcDbLine
 62
7
  6
CONTINUOUS
 10
12.1999503064
 20
10.8007387359
 11
12.274198076
 21
11.0410046064
  0
LINE
  5
279
100
AcDbEntity
  8
LAYER_FEATURE
100
AcDbLine
 62
7
  6
CONTINUOUS
 10
12.8897913071
 20
10.7977307028
 11
12.8902128922
 21
10.8009034948
  0
LINE
  5
27A
100
AcDbEntity
  8
LAYER_FEATURE
100
AcDbLine
 62
7
  6
CONTINUOUS
 10
13.6533469682
 20
11.0436087686
 11
13.8809947079
 21
10.8009034948
  0
LINE
  5
27B
100
AcDbEntity
  8
LAYER_FEATURE
100
AcDbLine
 62
7
  6
CONTINUOUS
 10
13.5704514787
 20
11.0436087686
 11
13.5567245947
 21
11.0715812171
  0
LINE
  5
27C
100
AcDbEntity
  8
LAYER_FEATURE
100
AcDbLine
 62
7
  6
CONTINUOUS
 10
13.6396200842
 20
11.0715812171
 11
13.6533469682
 21
11.0436087686
  0
LINE
  5
27D
100
AcDbEntity
  8
LAYER_FEATURE
100
AcDbLine
 62
7
  6
CONTINUOUS
 10
13.5810086377
 20
10.8009034948
 11
13.5704514787
 21
11.0436087686
  0
LINE
  5
27E
100
AcDbEntity
  8
LAYER_FEATURE
100
AcDbLine
 62
7
  6
CONTINUOUS
 10
12.8882998736
 20
11.0715812171
 11
12.8796557332
 21
11.0436087686
  0
LINE
  5
27F
100
AcDbEntity
  8
LAYER_FEATURE
100
AcDbLine
 62
7
  6
CONTINUOUS
 10
12.8907460519
 20
10.8007387359
 11
12.9649938215
 21
11.0410046064
  0
LINE
  5
280
100
AcDbEntity
  8
0
100
AcDbLine
 62
7
  6
CONTINUOUS
 10
11.8388208966
 20
10.7887486816
 11
12.1811331534
 21
10.7887486816
  0
LINE
  5
281
100
AcDbEntity
  8
LAYER_FEATURE
100
AcDbLine
 62
7
  6
CONTINUOUS
 10
12.5296166421
 20
10.7887486816
 11
12.8719288989
 21
10.7887486816
  0
LINE
  5
282
100
AcDbEntity
  8
LAYER_FEATURE
100
AcDbLine
 62
7
  6
CONTINUOUS
 10
13.2204123876
 20
10.7887486816
 11
13.5627246444
 21
10.7887486816
  0
LINE
  5
283
100
AcDbEntity
  8
LAYER_FEATURE
100
AcDbLine
 62
7
  6
CONTINUOUS
 10
13.9112081331
 20
10.7887486816
 11
14.2535203899
 21
10.7887486816
  0
LINE
  5
284
100
AcDbEntity
  8
LAYER_FEATURE
100
AcDbLine
 62
7
  6
CONTINUOUS
 10
14.6020038786
 20
10.7887486816
 11
14.9443161354
 21
10.7887486816
  0
LINE
  5
285
100
AcDbEntity
  8
LAYER_FEATURE
100
AcDbLine
 62
7
  6
CONTINUOUS
 10
15.2927996241
 20
10.7887486816
 11
15.6351118809
 21
10.7887486816
  0
LINE
  5
286
100
AcDbEntity
  8
LAYER_FEATURE
100
AcDbLine
 62
7
  6
CONTINUOUS
 10
15.9835953696
 20
10.7887486816
 11
16.3259076264
 21
10.7887486816
  0
LINE
  5
287
100
AcDbEntity
  8
LAYER_FEATURE
100
AcDbLine
 62
7
  6
CONTINUOUS
 10
16.6743911151
 20
10.7887486816
 11
17.0167033719
 21
10.7887486816
  0
LINE
  5
288
100
AcDbEntity
  8
LAYER_FEATURE
100
AcDbLine
 62
7
  6
CONTINUOUS
 10
17.3651868606
 20
10.7887486816
 11
17.7074991174
 21
10.7887486816
  0
LINE
  5
289
100
AcDbEntity
  8
LAYER_FEATURE
100
AcDbLine
 62
7
  6
CONTINUOUS
 10
18.0559826061
 20
10.7887486816
 11
18.3982948629
 21
10.7887486816
  0
LINE
  5
28A
100
AcDbEntity
  8
LAYER_FEATURE
100
AcDbLine
 62
7
  6
CONTINUOUS
 10
14.3441427137
 20
11.0436087686
 11
14.5717904534
 21
10.8009034948
  0
LINE
  5
28B
100
AcDbEntity
  8
LAYER_FEATURE
100
AcDbLine
 62
7
  6
CONTINUOUS
 10
14.2612472242
 20
11.0436087686
 11
14.2475203402
 21
11.0715812171
  0
LINE
  5
28C
100
AcDbEntity
  8
LAYER_FEATURE
100
AcDbLine
 62
7
  6
CONTINUOUS
 10
13.5805870526
 20
10.7977307028
 11
13.5810086377
 21
10.8009034948
  0
LINE
  5
28D
100
AcDbEntity
  8
LAYER_FEATURE
100
AcDbLine
 62
7
  6
CONTINUOUS
 10
12.1751331037
 20
11.0715812171
 11
12.2580285932
 21
11.0715812171
  0
LINE
  5
28E
100
AcDbEntity
  8
LAYER_FEATURE
100
AcDbLine
 62
7
  6
CONTINUOUS
 10
12.8659288492
 20
11.0715812171
 11
12.9488243387
 21
11.0715812171
  0
LINE
  5
28F
100
AcDbEntity
  8
LAYER_FEATURE
100
AcDbLine
 62
7
  6
CONTINUOUS
 10
13.5567245947
 20
11.0715812171
 11
13.6396200842
 21
11.0715812171
  0
LINE
  5
290
100
AcDbEntity
  8
LAYER_FEATURE
100
AcDbLine
 62
7
  6
CONTINUOUS
 10
14.2475203402
 20
11.0715812171
 11
14.3304158297
 21
11.0715812171
  0
LINE
  5
291
100
AcDbEntity
  8
LAYER_FEATURE
100
AcDbLine
 62
7
  6
CONTINUOUS
 10
14.9383160857
 20
11.0715812171
 11
15.0212115752
 21
11.0715812171
  0
LINE
  5
292
100
AcDbEntity
  8
LAYER_FEATURE
100
AcDbLine
 62
7
  6
CONTINUOUS
 10
15.6291118312
 20
11.0715812171
 11
15.7120073207
 21
11.0715812171
  0
LINE
  5
293
100
AcDbEntity
  8
LAYER_FEATURE
100
AcDbLine
 62
7
  6
CONTINUOUS
 10
16.3199075767
 20
11.0715812171
 11
16.4028030662
 21
11.0715812171
  0
LINE
  5
294
100
AcDbEntity
  8
LAYER_FEATURE
100
AcDbLine
 62
7
  6
CONTINUOUS
 10
17.0107033222
 20
11.0715812171
 11
17.0935988117
 21
11.0715812171
  0
LINE
  5
295
100
AcDbEntity
  8
LAYER_FEATURE
100
AcDbLine
 62
7
  6
CONTINUOUS
 10
17.7014990677
 20
11.0715812171
 11
17.7843945572
 21
11.0715812171
  0
LINE
  5
296
100
AcDbEntity
  8
0
100
AcDbLine
 62
7
  6
CONTINUOUS
 10
18.3647520143
 20
11.0995536657
 11
11.5673218786
 21
11.0995536657
  0
LINE
  5
297
100
AcDbEntity
  8
LAYER_FEATURE
100
AcDbLine
 62
7
  6
CONTINUOUS
 10
14.3304158297
 20
11.0715812171
 11
14.3441427137
 21
11.0436087686
  0
LINE
  5
298
100
AcDbEntity
  8
LAYER_FEATURE
100
AcDbLine
 62
7
  6
CONTINUOUS
 10
14.2718043832
 20
10.8009034948
 11
14.2612472242
 21
11.0436087686
  0
LINE
  5
299
100
AcDbEntity
  8
LAYER_FEATURE
100
AcDbLine
 62
7
  6
CONTINUOUS
 10
13.5790956191
 20
11.0715812171
 11
13.5704514787
 21
11.0436087686
  0
LINE
  5
29A
100
AcDbEntity
  8
LAYER_FEATURE
100
AcDbLine
 62
7
  6
CONTINUOUS
 10
13.5815417974
 20
10.8007387359
 11
13.655789567
 21
11.0410046064
  0
LINE
  5
29B
100
AcDbEntity
  8
LAYER_FEATURE
100
AcDbLine
 62
7
  6
CONTINUOUS
 10
15.0349384592
 20
11.0436087686
 11
15.2625861989
 21
10.8009034948
  0
LINE
  5
29C
100
AcDbEntity
  8
LAYER_FEATURE
100
AcDbLine
 62
7
  6
CONTINUOUS
 10
14.9520429697
 20
11.0436087686
 11
14.9383160857
 21
11.0715812171
  0
LINE
  5
29D
100
AcDbEntity
  8
LAYER_FEATURE
100
AcDbLine
 62
7
  6
CONTINUOUS
 10
14.2713827981
 20
10.7977307028
 11
14.2718043832
 21
10.8009034948
  0
LINE
  5
29E
100
AcDbEntity
  8
LAYER_FEATURE
100
AcDbLine
 62
7
  6
CONTINUOUS
 10
15.7257342047
 20
11.0436087686
 11
15.9533819444
 21
10.8009034948
  0
LINE
  5
29F
100
AcDbEntity
  8
LAYER_FEATURE
100
AcDbLine
 62
7
  6
CONTINUOUS
 10
15.0212115752
 20
11.0715812171
 11
15.0349384592
 21
11.0436087686
  0
LINE
  5
2A0
100
AcDbEntity
  8
LAYER_FEATURE
100
AcDbLine
 62
7
  6
CONTINUOUS
 10
14.9626001287
 20
10.8009034948
 11
14.9520429697
 21
11.0436087686
  0
LINE
  5
2A1
100
AcDbEntity
  8
LAYER_FEATURE
100
AcDbLine
 62
7
  6
CONTINUOUS
 10
14.2698913646
 20
11.0715812171
 11
14.2612472242
 21
11.0436087686
  0
LINE
  5
2A2
100
AcDbEntity
  8
LAYER_FEATURE
100
AcDbLine
 62
7
  6
CONTINUOUS
 10
14.2723375429
 20
10.8007387359
 11
14.3465853125
 21
11.0410046064
  0
LINE
  5
2A3
100
AcDbEntity
  8
LAYER_FEATURE
100
AcDbLine
 62
7
  6
CONTINUOUS
 10
14.9621785436
 20
10.7977307028
 11
14.9626001287
 21
10.8009034948
  0
LINE
  5
2A4
100
AcDbEntity
  8
LAYER_FEATURE
100
AcDbLine
 62
7
  6
CONTINUOUS
 10
16.4165299502
 20
11.0436087686
 11
16.6441776899
 21
10.8009034948
  0
LINE
  5
2A5
100
AcDbEntity
  8
LAYER_FEATURE
100
AcDbLine
 62
7
  6
CONTINUOUS
 10
15.6428387152
 20
11.0436087686
 11
15.6291118312
 21
11.0715812171
  0
LINE
  5
2A6
100
AcDbEntity
  8
LAYER_FEATURE
100
AcDbLine
 62
7
  6
CONTINUOUS
 10
15.7120073207
 20
11.0715812171
 11
15.7257342047
 21
11.0436087686
  0
LINE
  5
2A7
100
AcDbEntity
  8
LAYER_FEATURE
100
AcDbLine
 62
7
  6
CONTINUOUS
 10
14.9606871101
 20
11.0715812171
 11
14.9520429697
 21
11.0436087686
  0
LINE
  5
2A8
100
AcDbEntity
  8
LAYER_FEATURE
100
AcDbLine
 62
7
  6
CONTINUOUS
 10
14.9631332884
 20
10.8007387359
 11
15.037381058
 21
11.0410046064
  0
LINE
  5
2A9
100
AcDbEntity
  8
LAYER_FEATURE
100
AcDbLine
 62
7
  6
CONTINUOUS
 10
15.6533958742
 20
10.8009034948
 11
15.6428387152
 21
11.0436087686
  0
LINE
  5
2AA
100
AcDbEntity
  8
LAYER_FEATURE
100
AcDbLine
 62
7
  6
CONTINUOUS
 10
17.1073256957
 20
11.0436087686
 11
17.3349734354
 21
10.8009034948
  0
LINE
  5
2AB
100
AcDbEntity
  8
LAYER_FEATURE
100
AcDbLine
 62
7
  6
CONTINUOUS
 10
16.3336344607
 20
11.0436087686
 11
16.3199075767
 21
11.0715812171
  0
LINE
  5
2AC
100
AcDbEntity
  8
LAYER_FEATURE
100
AcDbLine
 62
7
  6
CONTINUOUS
 10
16.4028030662
 20
11.0715812171
 11
16.4165299502
 21
11.0436087686
  0
LINE
  5
2AD
100
AcDbEntity
  8
LAYER_FEATURE
100
AcDbLine
 62
7
  6
CONTINUOUS
 10
15.6529742891
 20
10.7977307028
 11
15.6533958742
 21
10.8009034948
  0
LINE
  5
2AE
100
AcDbEntity
  8
LAYER_FEATURE
100
AcDbLine
 62
7
  6
CONTINUOUS
 10
15.6514828556
 20
11.0715812171
 11
15.6428387152
 21
11.0436087686
  0
LINE
  5
2AF
100
AcDbEntity
  8
LAYER_FEATURE
100
AcDbLine
 62
7
  6
CONTINUOUS
 10
16.3441916197
 20
10.8009034948
 11
16.3336344607
 21
11.0436087686
  0
LINE
  5
2B0
100
AcDbEntity
  8
LAYER_FEATURE
100
AcDbLine
 62
7
  6
CONTINUOUS
 10
15.6539290339
 20
10.8007387359
 11
15.7281768035
 21
11.0410046064
  0
LINE
  5
2B1
100
AcDbEntity
  8
LAYER_FEATURE
100
AcDbLine
 62
7
  6
CONTINUOUS
 10
17.7981214412
 20
11.0436087686
 11
18.0257691809
 21
10.8009034948
  0
LINE
  5
2B2
100
AcDbEntity
  8
LAYER_FEATURE
100
AcDbLine
 62
7
  6
CONTINUOUS
 10
17.0244302062
 20
11.0436087686
 11
17.0107033222
 21
11.0715812171
  0
LINE
  5
2B3
100
AcDbEntity
  8
LAYER_FEATURE
100
AcDbLine
 62
7
  6
CONTINUOUS
 10
17.0935988117
 20
11.0715812171
 11
17.1073256957
 21
11.0436087686
  0
LINE
  5
2B4
100
AcDbEntity
  8
LAYER_FEATURE
100
AcDbLine
 62
7
  6
CONTINUOUS
 10
16.3437700346
 20
10.7977307028
 11
16.3441916197
 21
10.8009034948
  0
LINE
  5
2B5
100
AcDbEntity
  8
LAYER_FEATURE
100
AcDbLine
 62
7
  6
CONTINUOUS
 10
16.3422786011
 20
11.0715812171
 11
16.3336344607
 21
11.0436087686
  0
LINE
  5
2B6
100
AcDbEntity
  8
LAYER_FEATURE
100
AcDbLine
 62
7
  6
CONTINUOUS
 10
16.3447247794
 20
10.8007387359
 11
16.418972549
 21
11.0410046064
  0
LINE
  5
2B7
100
AcDbEntity
  8
LAYER_FEATURE
100
AcDbLine
 62
7
  6
CONTINUOUS
 10
17.7152259517
 20
11.0436087686
 11
17.7014990677
 21
11.0715812171
  0
LINE
  5
2B8
100
AcDbEntity
  8
LAYER_FEATURE
100
AcDbLine
 62
7
  6
CONTINUOUS
 10
17.7843945572
 20
11.0715812171
 11
17.7981214412
 21
11.0436087686
  0
LINE
  5
2B9
100
AcDbEntity
  8
LAYER_FEATURE
100
AcDbLine
 62
7
  6
CONTINUOUS
 10
17.0349873652
 20
10.8009034948
 11
17.0244302062
 21
11.0436087686
  0
LINE
  5
2BA
100
AcDbEntity
  8
0
100
AcDbLine
 62
7
  6
CONTINUOUS
 10
12.5355871722
 20
14.2328613042
 11
19.333017308
 21
14.2328613042
  0
LINE
  5
2BB
100
AcDbEntity
  8
LAYER_FEATURE
100
AcDbLine
 62
7
  6
CONTINUOUS
 10
17.0345657801
 20
10.7977307028
 11
17.0349873652
 21
10.8009034948
  0
LINE
  5
2BC
100
AcDbEntity
  8
LAYER_FEATURE
100
AcDbLine
 62
7
  6
CONTINUOUS
 10
17.0330743466
 20
11.0715812171
 11
17.0244302062
 21
11.0436087686
  0
LINE
  5
2BD
100
AcDbEntity
  8
LAYER_FEATURE
100
AcDbLine
 62
7
  6
CONTINUOUS
 10
17.0355205249
 20
10.8007387359
 11
17.1097682945
 21
11.0410046064
  0
LINE
  5
2BE
100
AcDbEntity
  8
0
100
AcDbLine
 62
7
  6
CONTINUOUS
 10
18.4060216972
 20
11.0436087686
 11
18.3831435572
 21
11.0902295162
  0
LINE
  5
2BF
100
AcDbEntity
  8
LAYER_FEATURE
100
AcDbLine
 62
7
  6
CONTINUOUS
 10
17.7257831107
 20
10.8009034948
 11
17.7152259517
 21
11.0436087686
  0
LINE
  5
2C0
100
AcDbEntity
  8
LAYER_FEATURE
100
AcDbLine
 62
7
  6
CONTINUOUS
 10
17.7253615256
 20
10.7977307028
 11
17.7257831107
 21
10.8009034948
  0
LINE
  5
2C1
100
AcDbEntity
  8
LAYER_FEATURE
100
AcDbLine
 62
7
  6
CONTINUOUS
 10
17.7238700921
 20
11.0715812171
 11
17.7152259517
 21
11.0436087686
  0
LINE
  5
2C2
100
AcDbEntity
  8
LAYER_FEATURE
100
AcDbLine
 62
7
  6
CONTINUOUS
 10
18.4165788562
 20
10.8009034948
 11
18.4060216972
 21
11.0436087686
  0
LINE
  5
2C3
100
AcDbEntity
  8
LAYER_FEATURE
100
AcDbLine
 62
7
  6
CONTINUOUS
 10
17.7263162704
 20
10.8007387359
 11
17.80056404
 21
11.0410046064
  0
LINE
  5
2C4
100
AcDbEntity
  8
LAYER_FEATURE
100
AcDbLine
 62
7
  6
CONTINUOUS
 10
18.4161572711
 20
10.7977307028
 11
18.4165788562
 21
10.8009034948
  0
LINE
  5
2C5
100
AcDbEntity
  8
LAYER_FEATURE
100
AcDbLine
 62
7
  6
CONTINUOUS
 10
19.3742869909
 20
14.1769164071
 11
18.4060216972
 21
11.0436087686
  0
LINE
  5
2C6
100
AcDbEntity
  8
LAYER_FEATURE
100
AcDbLine
 62
7
  6
CONTINUOUS
 10
18.4171120159
 20
10.8007387359
 11
19.3844455785
 21
13.9310312915
  0
LINE
  5
2C7
100
AcDbEntity
  8
LAYER_FEATURE
100
AcDbLine
 62
7
  6
CONTINUOUS
 10
19.3848441499
 20
13.9342111333
 11
19.3844225648
 21
13.9310383413
  0
LINE
  5
2C8
100
AcDbEntity
  8
LAYER_FEATURE
100
AcDbLine
 62
7
  6
CONTINUOUS
 10
19.3848441499
 20
13.9342111333
 11
19.3742869909
 21
14.1769164071
  0
LINE
  5
2C9
100
AcDbEntity
  8
0
100
AcDbLine
 62
7
  6
CONTINUOUS
 10
19.3514088509
 20
14.2235371547
 11
19.3742869909
 21
14.1769164071
  0
ARC
  5
2CA
100
AcDbEntity
  8
0
100
AcDbCircle
 62
7
  6
CONTINUOUS
 10
2.5695423096
 20
5.2976198968
 40
0.0275
100
AcDbArc
 50
196.7953511265
 51
270.0
  0
ARC
  5
2CB
100
AcDbEntity
  8
0
100
AcDbCircle
 62
7
  6
CONTINUOUS
 10
2.9411922427
 20
5.2976198968
 40
0.0275
100
AcDbArc
 50
270.0
 51
343.2046488735
  0
ARC
  5
2CC
100
AcDbEntity
  8
LAYER_FEATURE
100
AcDbCircle
 62
7
  6
CONTINUOUS
 10
3.3195423096
 20
5.2976198968
 40
0.0275
100
AcDbArc
 50
196.7953511265
 51
270.0
  0
ARC
  5
2CD
100
AcDbEntity
  8
LAYER_FEATURE
100
AcDbCircle
 62
7
  6
CONTINUOUS
 10
3.6911922427
 20
5.2976198968
 40
0.0275
100
AcDbArc
 50
270.0
 51
343.2046488735
  0
ARC
  5
2CE
100
AcDbEntity
  8
LAYER_FEATURE
100
AcDbCircle
 62
7
  6
CONTINUOUS
 10
4.0695423096
 20
5.2976198968
 40
0.0275
100
AcDbArc
 50
196.7953511265
 51
270.0
  0
ARC
  5
2CF
100
AcDbEntity
  8
LAYER_FEATURE
100
AcDbCircle
 62
7
  6
CONTINUOUS
 10
4.4411922427
 20
5.2976198968
 40
0.0275
100
AcDbArc
 50
270.0
 51
343.2046488735
  0
ARC
  5
2D0
100
AcDbEntity
  8
LAYER_FEATURE
100
AcDbCircle
 62
7
  6
CONTINUOUS
 10
4.8195423096
 20
5.2976198968
 40
0.0275
100
AcDbArc
 50
196.7953511265
 51
270.0
  0
ARC
  5
2D1
100
AcDbEntity
  8
LAYER_FEATURE
100
AcDbCircle
 62
7
  6
CONTINUOUS
 10
5.1911922427
 20
5.2976198968
 40
0.0275
100
AcDbArc
 50
270.0
 51
343.2046488735
  0
ARC
  5
2D2
100
AcDbEntity
  8
LAYER_FEATURE
100
AcDbCircle
 62
7
  6
CONTINUOUS
 10
5.5695423096
 20
5.2976198968
 40
0.0275
100
AcDbArc
 50
196.7953511265
 51
270.0
  0
ARC
  5
2D3
100
AcDbEntity
  8
LAYER_FEATURE
100
AcDbCircle
 62
7
  6
CONTINUOUS
 10
5.9411922427
 20
5.2976198968
 40
0.0275
100
AcDbArc
 50
270.0
 51
343.2046488735
  0
ARC
  5
2D4
100
AcDbEntity
  8
LAYER_FEATURE
100
AcDbCircle
 62
7
  6
CONTINUOUS
 10
6.3195423096
 20
5.2976198968
 40
0.0275
100
AcDbArc
 50
196.7953511265
 51
270.0
  0
ARC
  5
2D5
100
AcDbEntity
  8
LAYER_FEATURE
100
AcDbCircle
 62
7
  6
CONTINUOUS
 10
6.6911922427
 20
5.2976198968
 40
0.0275
100
AcDbArc
 50
270.0
 51
343.2046488735
  0
ARC
  5
2D6
100
AcDbEntity
  8
LAYER_FEATURE
100
AcDbCircle
 62
7
  6
CONTINUOUS
 10
7.0695423096
 20
5.2976198968
 40
0.0275
100
AcDbArc
 50
196.7953511265
 51
270.0
  0
ARC
  5
2D7
100
AcDbEntity
  8
LAYER_FEATURE
100
AcDbCircle
 62
7
  6
CONTINUOUS
 10
7.4411922427
 20
5.2976198968
 40
0.0275
100
AcDbArc
 50
270.0
 51
343.2046488735
  0
ARC
  5
2D8
100
AcDbEntity
  8
LAYER_FEATURE
100
AcDbCircle
 62
7
  6
CONTINUOUS
 10
7.8195423096
 20
5.2976198968
 40
0.0275
100
AcDbArc
 50
196.7953511265
 51
270.0
  0
ARC
  5
2D9
100
AcDbEntity
  8
LAYER_FEATURE
100
AcDbCircle
 62
7
  6
CONTINUOUS
 10
8.1911922427
 20
5.2976198968
 40
0.0275
100
AcDbArc
 50
270.0
 51
343.2046488735
  0
ARC
  5
2DA
100
AcDbEntity
  8
LAYER_FEATURE
100
AcDbCircle
 62
7
  6
CONTINUOUS
 10
9.6911922427
 20
5.2976198968
 40
0.0275
100
AcDbArc
 50
270.0
 51
343.2046488735
  0
ARC
  5
2DB
100
AcDbEntity
  8
LAYER_FEATURE
100
AcDbCircle
 62
7
  6
CONTINUOUS
 10
9.3195423096
 20
5.2976198968
 40
0.0275
100
AcDbArc
 50
196.7953511265
 51
270.0
  0
ARC
  5
2DC
100
AcDbEntity
  8
LAYER_FEATURE
100
AcDbCircle
 62
7
  6
CONTINUOUS
 10
8.9411922427
 20
5.2976198968
 40
0.0275
100
AcDbArc
 50
270.0
 51
343.2046488735
  0
ARC
  5
2DD
100
AcDbEntity
  8
LAYER_FEATURE
100
AcDbCircle
 62
7
  6
CONTINUOUS
 10
8.5695423096
 20
5.2976198968
 40
0.0275
100
AcDbArc
 50
196.7953511265
 51
270.0
  0
ARC
  5
2DE
100
AcDbEntity
  8
0
100
AcDbCircle
 62
7
  6
CONTINUOUS
 10
2.4403672762
 20
5.7551198968
 40
0.015
100
AcDbArc
 50
90.0
 51
180.0
  0
ARC
  5
2DF
100
AcDbEntity
  8
0
100
AcDbCircle
 62
7
  6
CONTINUOUS
 10
9.8203672762
 20
5.7551198968
 40
0.015
100
AcDbArc
 50
0.0
 51
90.0
  0
SPLINE
  5
2E0
100
AcDbEntity
  8
0
100
AcDbSpline
 62
7
  6
CONTINUOUS
 70
0
 71
3
 72
15
 73
11
 74
0
 42
0.0000001
 43
0.0000001
 44
0.0000000001
 40
0.0
 40
0.0
 40
0.0
 40
0.0
 40
0.1294165569
 40
0.2645180781
 40
0.4012970774
 40
0.5362628266
 40
0.6661560434
 40
0.78813941
 40
0.8999194788
 40
1.0
 40
1.0
 40
1.0
 40
1.0
 10
19.333017308
 20
14.2328613042
 30
0.0
 10
19.3339451614
 20
14.2328613042
 30
0.0
 10
19.3358429657
 20
14.232731096
 30
0.0
 10
19.3386770287
 20
14.2322026626
 30
0.0
 10
19.3414713811
 20
14.231344686
 30
0.0
 10
19.3441192241
 20
14.2301972056
 30
0.0
 10
19.3465219712
 20
14.2287983822
 30
0.0
 10
19.3485948625
 20
14.227202298
 30
0.0
 10
19.3502528823
 20
14.2254627631
 30
0.0
 10
19.351092749
 20
14.2241813027
 30
0.0
 10
19.3514088509
 20
14.2235371547
 30
0.0
  0
SPLINE
  5
2E1
100
AcDbEntity
  8
0
100
AcDbSpline
 62
7
  6
CONTINUOUS
 70
0
 71
3
 72
10
 73
6
 74
0
 42
0.0000001
 43
0.0000001
 44
0.0000000001
 40
0.0
 40
0.0
 40
0.0
 40
0.0
 40
0.2343758129
 40
0.4761728829
 40
1.0
 40
1.0
 40
1.0
 40
1.0
 10
11.5575662802
 20
11.0946581748
 30
0.0
 10
11.5574610521
 20
11.0943184097
 30
0.0
 10
11.557323101
 20
11.0936019305
 30
0.0
 10
11.5573599779
 20
11.0920762286
 30
0.0
 10
11.5577313795
 20
11.0909431737
 30
0.0
 10
11.5580815917
 20
11.0902295162
 30
0.0
  0
SPLINE
  5
2E2
100
AcDbEntity
  8
0
100
AcDbSpline
 62
7
  6
CONTINUOUS
 70
0
 71
3
 72
13
 73
9
 74
0
 42
0.0000001
 43
0.0000001
 44
0.0000000001
 40
0.0
 40
0.0
 40
0.0
 40
0.0
 40
0.0997942201
 40
0.2030647278
 40
0.3128498857
 40
0.4312452013
 40
0.6971835619
 40
1.0
 40
1.0
 40
1.0
 40
1.0
 10
12.5258315739
 20
14.2279658134
 30
0.0
 10
12.525945937
 20
14.2283350738
 30
0.0
 10
12.5262697415
 20
14.2290611824
 30
0.0
 10
12.5270064341
 20
14.2300349646
 30
0.0
 10
12.5279814285
 20
14.230882729
 30
0.0
 10
12.5296321158
 20
14.2318679606
 30
0.0
 10
12.5322048201
 20
14.2326738483
 30
0.0
 10
12.5344141772
 20
14.2328613042
 30
0.0
 10
12.5355871722
 20
14.2328613042
 30
0.0
  0
SPLINE
  5
2E3
100
AcDbEntity
  8
LAYER_FEATURE
100
AcDbSpline
 62
7
  6
CONTINUOUS
 70
0
 71
3
 72
13
 73
9
 74
0
 42
0.0000001
 43
0.0000001
 44
0.0000000001
 40
0.0
 40
0.0
 40
0.0
 40
0.0
 40
0.3025372226
 40
0.5685606411
 40
0.6868904619
 40
0.7966713793
 40
0.9000669381
 40
1.0
 40
1.0
 40
1.0
 40
1.0
 10
18.3982948629
 20
10.7887486816
 30
0.0
 10
18.4004432923
 20
10.7887486816
 30
0.0
 10
18.4044913987
 20
10.7890964884
 30
0.0
 10
18.409208224
 20
10.7905657408
 30
0.0
 10
18.4122353572
 20
10.792370785
 30
0.0
 10
18.4140235387
 20
10.793924823
 30
0.0
 10
18.4153730872
 20
10.795713565
 30
0.0
 10
18.4159645689
 20
10.7970474733
 30
0.0
 10
18.4161746545
 20
10.7977253258
 30
0.0
  0
SPLINE
  5
2E4
100
AcDbEntity
  8
LAYER_FEATURE
100
AcDbSpline
 62
7
  6
CONTINUOUS
 70
0
 71
3
 72
13
 73
9
 74
0
 42
0.0000001
 43
0.0000001
 44
0.0000000001
 40
0.0
 40
0.0
 40
0.0
 40
0.0
 40
0.1112255427
 40
0.2305697037
 40
0.4849486457
 40
0.747335916
 40
0.8762398135
 40
1.0
 40
1.0
 40
1.0
 40
1.0
 10
18.0257691809
 20
10.8009034948
 30
0.0
 10
18.0266151052
 20
10.8000016177
 30
0.0
 10
18.0285054287
 20
10.7982579605
 30
0.0
 10
18.03286931
 20
10.7950771819
 30
0.0
 10
18.0392124521
 20
10.7918416808
 30
0.0
 10
18.0461298812
 20
10.7897756395
 30
0.0
 10
18.0517962164
 20
10.7889066962
 30
0.0
 10
18.0546067408
 20
10.7887486816
 30
0.0
 10
18.0559826061
 20
10.7887486816
 30
0.0
  0
SPLINE
  5
2E5
100
AcDbEntity
  8
LAYER_FEATURE
100
AcDbSpline
 62
7
  6
CONTINUOUS
 70
0
 71
3
 72
13
 73
9
 74
0
 42
0.0000001
 43
0.0000001
 44
0.0000000001
 40
0.0
 40
0.0
 40
0.0
 40
0.0
 40
0.3025372226
 40
0.5685606411
 40
0.6868904619
 40
0.7966713793
 40
0.9000669381
 40
1.0
 40
1.0
 40
1.0
 40
1.0
 10
17.7074991174
 20
10.7887486816
 30
0.0
 10
17.7096475468
 20
10.7887486816
 30
0.0
 10
17.7136956532
 20
10.7890964884
 30
0.0
 10
17.7184124785
 20
10.7905657408
 30
0.0
 10
17.7214396117
 20
10.792370785
 30
0.0
 10
17.7232277932
 20
10.793924823
 30
0.0
 10
17.7245773417
 20
10.795713565
 30
0.0
 10
17.7251688234
 20
10.7970474733
 30
0.0
 10
17.725378909
 20
10.7977253258
 30
0.0
  0
SPLINE
  5
2E6
100
AcDbEntity
  8
LAYER_FEATURE
100
AcDbSpline
 62
7
  6
CONTINUOUS
 70
0
 71
3
 72
13
 73
9
 74
0
 42
0.0000001
 43
0.0000001
 44
0.0000000001
 40
0.0
 40
0.0
 40
0.0
 40
0.0
 40
0.1112255427
 40
0.2305697037
 40
0.4849486457
 40
0.747335916
 40
0.8762398135
 40
1.0
 40
1.0
 40
1.0
 40
1.0
 10
17.3349734354
 20
10.8009034948
 30
0.0
 10
17.3358193597
 20
10.8000016177
 30
0.0
 10
17.3377096832
 20
10.7982579605
 30
0.0
 10
17.3420735645
 20
10.7950771819
 30
0.0
 10
17.3484167066
 20
10.7918416808
 30
0.0
 10
17.3553341357
 20
10.7897756395
 30
0.0
 10
17.3610004709
 20
10.7889066962
 30
0.0
 10
17.3638109953
 20
10.7887486816
 30
0.0
 10
17.3651868606
 20
10.7887486816
 30
0.0
  0
SPLINE
  5
2E7
100
AcDbEntity
  8
LAYER_FEATURE
100
AcDbSpline
 62
7
  6
CONTINUOUS
 70
0
 71
3
 72
13
 73
9
 74
0
 42
0.0000001
 43
0.0000001
 44
0.0000000001
 40
0.0
 40
0.0
 40
0.0
 40
0.0
 40
0.3025372226
 40
0.5685606411
 40
0.6868904619
 40
0.7966713793
 40
0.9000669381
 40
1.0
 40
1.0
 40
1.0
 40
1.0
 10
17.0167033719
 20
10.7887486816
 30
0.0
 10
17.0188518013
 20
10.7887486816
 30
0.0
 10
17.0228999077
 20
10.7890964884
 30
0.0
 10
17.027616733
 20
10.7905657408
 30
0.0
 10
17.0306438662
 20
10.792370785
 30
0.0
 10
17.0324320477
 20
10.793924823
 30
0.0
 10
17.0337815962
 20
10.795713565
 30
0.0
 10
17.0343730779
 20
10.7970474733
 30
0.0
 10
17.0345831635
 20
10.7977253258
 30
0.0
  0
SPLINE
  5
2E8
100
AcDbEntity
  8
LAYER_FEATURE
100
AcDbSpline
 62
7
  6
CONTINUOUS
 70
0
 71
3
 72
13
 73
9
 74
0
 42
0.0000001
 43
0.0000001
 44
0.0000000001
 40
0.0
 40
0.0
 40
0.0
 40
0.0
 40
0.1112255427
 40
0.2305697037
 40
0.4849486457
 40
0.747335916
 40
0.8762398135
 40
1.0
 40
1.0
 40
1.0
 40
1.0
 10
16.6441776899
 20
10.8009034948
 30
0.0
 10
16.6450236142
 20
10.8000016177
 30
0.0
 10
16.6469139377
 20
10.7982579605
 30
0.0
 10
16.651277819
 20
10.7950771819
 30
0.0
 10
16.6576209611
 20
10.7918416808
 30
0.0
 10
16.6645383902
 20
10.7897756395
 30
0.0
 10
16.6702047254
 20
10.7889066962
 30
0.0
 10
16.6730152498
 20
10.7887486816
 30
0.0
 10
16.6743911151
 20
10.7887486816
 30
0.0
  0
SPLINE
  5
2E9
100
AcDbEntity
  8
LAYER_FEATURE
100
AcDbSpline
 62
7
  6
CONTINUOUS
 70
0
 71
3
 72
13
 73
9
 74
0
 42
0.0000001
 43
0.0000001
 44
0.0000000001
 40
0.0
 40
0.0
 40
0.0
 40
0.0
 40
0.3025372226
 40
0.5685606411
 40
0.6868904619
 40
0.7966713793
 40
0.9000669381
 40
1.0
 40
1.0
 40
1.0
 40
1.0
 10
16.3259076264
 20
10.7887486816
 30
0.0
 10
16.3280560558
 20
10.7887486816
 30
0.0
 10
16.3321041622
 20
10.7890964884
 30
0.0
 10
16.3368209875
 20
10.7905657408
 30
0.0
 10
16.3398481207
 20
10.792370785
 30
0.0
 10
16.3416363022
 20
10.793924823
 30
0.0
 10
16.3429858507
 20
10.795713565
 30
0.0
 10
16.3435773324
 20
10.7970474733
 30
0.0
 10
16.343787418
 20
10.7977253258
 30
0.0
  0
SPLINE
  5
2EA
100
AcDbEntity
  8
LAYER_FEATURE
100
AcDbSpline
 62
7
  6
CONTINUOUS
 70
0
 71
3
 72
13
 73
9
 74
0
 42
0.0000001
 43
0.0000001
 44
0.0000000001
 40
0.0
 40
0.0
 40
0.0
 40
0.0
 40
0.1112255427
 40
0.2305697037
 40
0.4849486457
 40
0.747335916
 40
0.8762398135
 40
1.0
 40
1.0
 40
1.0
 40
1.0
 10
15.9533819444
 20
10.8009034948
 30
0.0
 10
15.9542278687
 20
10.8000016177
 30
0.0
 10
15.9561181922
 20
10.7982579605
 30
0.0
 10
15.9604820735
 20
10.7950771819
 30
0.0
 10
15.9668252156
 20
10.7918416808
 30
0.0
 10
15.9737426447
 20
10.7897756395
 30
0.0
 10
15.9794089799
 20
10.7889066962
 30
0.0
 10
15.9822195043
 20
10.7887486816
 30
0.0
 10
15.9835953696
 20
10.7887486816
 30
0.0
  0
SPLINE
  5
2EB
100
AcDbEntity
  8
LAYER_FEATURE
100
AcDbSpline
 62
7
  6
CONTINUOUS
 70
0
 71
3
 72
13
 73
9
 74
0
 42
0.0000001
 43
0.0000001
 44
0.0000000001
 40
0.0
 40
0.0
 40
0.0
 40
0.0
 40
0.3025372226
 40
0.5685606411
 40
0.6868904619
 40
0.7966713793
 40
0.9000669381
 40
1.0
 40
1.0
 40
1.0
 40
1.0
 10
15.6351118809
 20
10.7887486816
 30
0.0
 10
15.6372603103
 20
10.7887486816
 30
0.0
 10
15.6413084167
 20
10.7890964884
 30
0.0
 10
15.646025242
 20
10.7905657408
 30
0.0
 10
15.6490523752
 20
10.792370785
 30
0.0
 10
15.6508405567
 20
10.793924823
 30
0.0
 10
15.6521901052
 20
10.795713565
 30
0.0
 10
15.6527815869
 20
10.7970474733
 30
0.0
 10
15.6529916725
 20
10.7977253258
 30
0.0
  0
SPLINE
  5
2EC
100
AcDbEntity
  8
LAYER_FEATURE
100
AcDbSpline
 62
7
  6
CONTINUOUS
 70
0
 71
3
 72
13
 73
9
 74
0
 42
0.0000001
 43
0.0000001
 44
0.0000000001
 40
0.0
 40
0.0
 40
0.0
 40
0.0
 40
0.1112255427
 40
0.2305697037
 40
0.4849486457
 40
0.747335916
 40
0.8762398135
 40
1.0
 40
1.0
 40
1.0
 40
1.0
 10
15.2625861989
 20
10.8009034948
 30
0.0
 10
15.2634321232
 20
10.8000016177
 30
0.0
 10
15.2653224467
 20
10.7982579605
 30
0.0
 10
15.269686328
 20
10.7950771819
 30
0.0
 10
15.2760294701
 20
10.7918416808
 30
0.0
 10
15.2829468992
 20
10.7897756395
 30
0.0
 10
15.2886132344
 20
10.7889066962
 30
0.0
 10
15.2914237588
 20
10.7887486816
 30
0.0
 10
15.2927996241
 20
10.7887486816
 30
0.0
  0
SPLINE
  5
2ED
100
AcDbEntity
  8
LAYER_FEATURE
100
AcDbSpline
 62
7
  6
CONTINUOUS
 70
0
 71
3
 72
13
 73
9
 74
0
 42
0.0000001
 43
0.0000001
 44
0.0000000001
 40
0.0
 40
0.0
 40
0.0
 40
0.0
 40
0.3025372226
 40
0.5685606411
 40
0.6868904619
 40
0.7966713793
 40
0.9000669381
 40
1.0
 40
1.0
 40
1.0
 40
1.0
 10
14.9443161354
 20
10.7887486816
 30
0.0
 10
14.9464645648
 20
10.7887486816
 30
0.0
 10
14.9505126712
 20
10.7890964884
 30
0.0
 10
14.9552294964
 20
10.7905657408
 30
0.0
 10
14.9582566297
 20
10.792370785
 30
0.0
 10
14.9600448112
 20
10.793924823
 30
0.0
 10
14.9613943597
 20
10.795713565
 30
0.0
 10
14.9619858414
 20
10.7970474733
 30
0.0
 10
14.962195927
 20
10.7977253258
 30
0.0
  0
SPLINE
  5
2EE
100
AcDbEntity
  8
LAYER_FEATURE
100
AcDbSpline
 62
7
  6
CONTINUOUS
 70
0
 71
3
 72
13
 73
9
 74
0
 42
0.0000001
 43
0.0000001
 44
0.0000000001
 40
0.0
 40
0.0
 40
0.0
 40
0.0
 40
0.1112255427
 40
0.2305697037
 40
0.4849486457
 40
0.747335916
 40
0.8762398135
 40
1.0
 40
1.0
 40
1.0
 40
1.0
 10
14.5717904534
 20
10.8009034948
 30
0.0
 10
14.5726363777
 20
10.8000016177
 30
0.0
 10
14.5745267012
 20
10.7982579605
 30
0.0
 10
14.5788905825
 20
10.7950771819
 30
0.0
 10
14.5852337246
 20
10.7918416808
 30
0.0
 10
14.5921511537
 20
10.7897756395
 30
0.0
 10
14.5978174889
 20
10.7889066962
 30
0.0
 10
14.6006280133
 20
10.7887486816
 30
0.0
 10
14.6020038786
 20
10.7887486816
 30
0.0
  0
SPLINE
  5
2EF
100
AcDbEntity
  8
LAYER_FEATURE
100
AcDbSpline
 62
7
  6
CONTINUOUS
 70
0
 71
3
 72
13
 73
9
 74
0
 42
0.0000001
 43
0.0000001
 44
0.0000000001
 40
0.0
 40
0.0
 40
0.0
 40
0.0
 40
0.3025372226
 40
0.5685606411
 40
0.6868904619
 40
0.7966713793
 40
0.9000669381
 40
1.0
 40
1.0
 40
1.0
 40
1.0
 10
14.2535203899
 20
10.7887486816
 30
0.0
 10
14.2556688193
 20
10.7887486816
 30
0.0
 10
14.2597169257
 20
10.7890964884
 30
0.0
 10
14.2644337509
 20
10.7905657408
 30
0.0
 10
14.2674608842
 20
10.792370785
 30
0.0
 10
14.2692490657
 20
10.793924823
 30
0.0
 10
14.2705986142
 20
10.795713565
 30
0.0
 10
14.2711900959
 20
10.7970474733
 30
0.0
 10
14.2714001815
 20
10.7977253258
 30
0.0
  0
SPLINE
  5
2F0
100
AcDbEntity
  8
LAYER_FEATURE
100
AcDbSpline
 62
7
  6
CONTINUOUS
 70
0
 71
3
 72
13
 73
9
 74
0
 42
0.0000001
 43
0.0000001
 44
0.0000000001
 40
0.0
 40
0.0
 40
0.0
 40
0.0
 40
0.1112255427
 40
0.2305697037
 40
0.4849486457
 40
0.747335916
 40
0.8762398135
 40
1.0
 40
1.0
 40
1.0
 40
1.0
 10
13.8809947079
 20
10.8009034948
 30
0.0
 10
13.8818406322
 20
10.8000016177
 30
0.0
 10
13.8837309557
 20
10.7982579605
 30
0.0
 10
13.888094837
 20
10.7950771819
 30
0.0
 10
13.8944379791
 20
10.7918416808
 30
0.0
 10
13.9013554082
 20
10.7897756395
 30
0.0
 10
13.9070217434
 20
10.7889066962
 30
0.0
 10
13.9098322678
 20
10.7887486816
 30
0.0
 10
13.9112081331
 20
10.7887486816
 30
0.0
  0
SPLINE
  5
2F1
100
AcDbEntity
  8
LAYER_FEATURE
100
AcDbSpline
 62
7
  6
CONTINUOUS
 70
0
 71
3
 72
13
 73
9
 74
0
 42
0.0000001
 43
0.0000001
 44
0.0000000001
 40
0.0
 40
0.0
 40
0.0
 40
0.0
 40
0.3025372226
 40
0.5685606411
 40
0.6868904619
 40
0.7966713793
 40
0.9000669381
 40
1.0
 40
1.0
 40
1.0
 40
1.0
 10
13.5627246444
 20
10.7887486816
 30
0.0
 10
13.5648730738
 20
10.7887486816
 30
0.0
 10
13.5689211802
 20
10.7890964884
 30
0.0
 10
13.5736380054
 20
10.7905657408
 30
0.0
 10
13.5766651387
 20
10.792370785
 30
0.0
 10
13.5784533202
 20
10.793924823
 30
0.0
 10
13.5798028687
 20
10.795713565
 30
0.0
 10
13.5803943504
 20
10.7970474733
 30
0.0
 10
13.580604436
 20
10.7977253258
 30
0.0
  0
SPLINE
  5
2F2
100
AcDbEntity
  8
LAYER_FEATURE
100
AcDbSpline
 62
7
  6
CONTINUOUS
 70
0
 71
3
 72
13
 73
9
 74
0
 42
0.0000001
 43
0.0000001
 44
0.0000000001
 40
0.0
 40
0.0
 40
0.0
 40
0.0
 40
0.1112255427
 40
0.2305697037
 40
0.4849486457
 40
0.747335916
 40
0.8762398135
 40
1.0
 40
1.0
 40
1.0
 40
1.0
 10
13.1901989624
 20
10.8009034948
 30
0.0
 10
13.1910448867
 20
10.8000016177
 30
0.0
 10
13.1929352102
 20
10.7982579605
 30
0.0
 10
13.1972990915
 20
10.7950771819
 30
0.0
 10
13.2036422336
 20
10.7918416808
 30
0.0
 10
13.2105596627
 20
10.7897756395
 30
0.0
 10
13.2162259979
 20
10.7889066962
 30
0.0
 10
13.2190365223
 20
10.7887486816
 30
0.0
 10
13.2204123876
 20
10.7887486816
 30
0.0
  0
SPLINE
  5
2F3
100
AcDbEntity
  8
LAYER_FEATURE
100
AcDbSpline
 62
7
  6
CONTINUOUS
 70
0
 71
3
 72
13
 73
9
 74
0
 42
0.0000001
 43
0.0000001
 44
0.0000000001
 40
0.0
 40
0.0
 40
0.0
 40
0.0
 40
0.3025372226
 40
0.5685606411
 40
0.6868904619
 40
0.7966713793
 40
0.9000669381
 40
1.0
 40
1.0
 40
1.0
 40
1.0
 10
12.8719288989
 20
10.7887486816
 30
0.0
 10
12.8740773283
 20
10.7887486816
 30
0.0
 10
12.8781254347
 20
10.7890964884
 30
0.0
 10
12.8828422599
 20
10.7905657408
 30
0.0
 10
12.8858693932
 20
10.792370785
 30
0.0
 10
12.8876575747
 20
10.793924823
 30
0.0
 10
12.8890071232
 20
10.795713565
 30
0.0
 10
12.8895986049
 20
10.7970474733
 30
0.0
 10
12.8898086905
 20
10.7977253258
 30
0.0
  0
SPLINE
  5
2F4
100
AcDbEntity
  8
LAYER_FEATURE
100
AcDbSpline
 62
7
  6
CONTINUOUS
 70
0
 71
3
 72
13
 73
9
 74
0
 42
0.0000001
 43
0.0000001
 44
0.0000000001
 40
0.0
 40
0.0
 40
0.0
 40
0.0
 40
0.1112255427
 40
0.2305697037
 40
0.4849486457
 40
0.747335916
 40
0.8762398135
 40
1.0
 40
1.0
 40
1.0
 40
1.0
 10
12.4994032169
 20
10.8009034948
 30
0.0
 10
12.5002491412
 20
10.8000016177
 30
0.0
 10
12.5021394647
 20
10.7982579605
 30
0.0
 10
12.506503346
 20
10.7950771819
 30
0.0
 10
12.5128464881
 20
10.7918416808
 30
0.0
 10
12.5197639172
 20
10.7897756395
 30
0.0
 10
12.5254302524
 20
10.7889066962
 30
0.0
 10
12.5282407768
 20
10.7887486816
 30
0.0
 10
12.5296166421
 20
10.7887486816
 30
0.0
  0
SPLINE
  5
2F5
100
AcDbEntity
  8
0
100
AcDbSpline
 62
7
  6
CONTINUOUS
 70
0
 71
3
 72
13
 73
9
 74
0
 42
0.0000001
 43
0.0000001
 44
0.0000000001
 40
0.0
 40
0.0
 40
0.0
 40
0.0
 40
0.3025372226
 40
0.5685606411
 40
0.6868904619
 40
0.7966713793
 40
0.9000669381
 40
1.0
 40
1.0
 40
1.0
 40
1.0
 10
12.1811331534
 20
10.7887486816
 30
0.0
 10
12.1832815828
 20
10.7887486816
 30
0.0
 10
12.1873296892
 20
10.7890964884
 30
0.0
 10
12.1920465144
 20
10.7905657408
 30
0.0
 10
12.1950736477
 20
10.792370785
 30
0.0
 10
12.1968618292
 20
10.793924823
 30
0.0
 10
12.1982113777
 20
10.795713565
 30
0.0
 10
12.1988028594
 20
10.7970474733
 30
0.0
 10
12.199012945
 20
10.7977253258
 30
0.0
  0
SPLINE
  5
2F6
100
AcDbEntity
  8
0
100
AcDbSpline
 62
7
  6
CONTINUOUS
 70
0
 71
3
 72
13
 73
9
 74
0
 42
0.0000001
 43
0.0000001
 44
0.0000000001
 40
0.0
 40
0.0
 40
0.0
 40
0.0
 40
0.1112255427
 40
0.2305697037
 40
0.4849486457
 40
0.747335916
 40
0.8762398135
 40
1.0
 40
1.0
 40
1.0
 40
1.0
 10
11.8086074714
 20
10.8009034948
 30
0.0
 10
11.8094533957
 20
10.8000016177
 30
0.0
 10
11.8113437192
 20
10.7982579605
 30
0.0
 10
11.8157076005
 20
10.7950771819
 30
0.0
 10
11.8220507426
 20
10.7918416808
 30
0.0
 10
11.8289681717
 20
10.7897756395
 30
0.0
 10
11.8346345069
 20
10.7889066962
 30
0.0
 10
11.8374450313
 20
10.7887486816
 30
0.0
 10
11.8388208966
 20
10.7887486816
 30
0.0
  0
SPLINE
  5
2F7
100
AcDbEntity
  8
0
100
AcDbSpline
 62
7
  6
CONTINUOUS
 70
0
 71
3
 72
13
 73
9
 74
0
 42
0.0000001
 43
0.0000001
 44
0.0000000001
 40
0.0
 40
0.0
 40
0.0
 40
0.0
 40
0.3028164381
 40
0.5687547987
 40
0.6871501143
 40
0.7969352722
 40
0.9002057799
 40
1.0
 40
1.0
 40
1.0
 40
1.0
 10
11.5673218786
 20
11.0995536657
 30
0.0
 10
11.5661488836
 20
11.0995536657
 30
0.0
 10
11.5639395265
 20
11.0993662098
 30
0.0
 10
11.5613668222
 20
11.0985603221
 30
0.0
 10
11.5597161349
 20
11.0975750905
 30
0.0
 10
11.5587411405
 20
11.0967273261
 30
0.0
 10
11.5580044479
 20
11.0957535439
 30
0.0
 10
11.5576806433
 20
11.0950274353
 30
0.0
 10
11.5575662802
 20
11.0946581748
 30
0.0
  0
SPLINE
  5
2F8
100
AcDbEntity
  8
0
100
AcDbSpline
 62
7
  6
CONTINUOUS
 70
0
 71
3
 72
15
 73
11
 74
0
 42
0.0000001
 43
0.0000001
 44
0.0000000001
 40
0.0
 40
0.0
 40
0.0
 40
0.0
 40
0.1000805212
 40
0.21186059
 40
0.3338439566
 40
0.4637371734
 40
0.5987029226
 40
0.7354819219
 40
0.8705834431
 40
1.0
 40
1.0
 40
1.0
 40
1.0
 10
18.3831435572
 20
11.0902295162
 30
0.0
 10
18.3828274553
 20
11.0908736641
 30
0.0
 10
18.3819875886
 20
11.0921551245
 30
0.0
 10
18.3803295688
 20
11.0938946595
 30
0.0
 10
18.3782566776
 20
11.0954907437
 30
0.0
 10
18.3758539305
 20
11.0968895671
 30
0.0
 10
18.3732060874
 20
11.0980370475
 30
0.0
 10
18.3704117351
 20
11.0988950241
 30
0.0
 10
18.3675776721
 20
11.0994234575
 30
0.0
 10
18.3656798678
 20
11.0995536657
 30
0.0
 10
18.3647520143
 20
11.0995536657
 30
0.0
  0
ENDSEC
  0
SECTION
  2
OBJECTS
  0
DICTIONARY
  5
C
100
AcDbDictionary
280
0
281
1
  3
ACAD_GROUP
350
D
  3
ACAD_MLINESTYLE
350
17
  3
ACAD_LAYOUT
350
1A
  3
ACAD_PLOTSETTINGS
350
19
  3
ACAD_PLOTSTYLENAME
350
E
  0
DICTIONARY
  5
D
102
{ACAD_REACTORS
330
C
102
}
100
AcDbDictionary
280
0
281
1
  0
ACDBDICTIONARYWDFLT
  5
E
102
{ACAD_REACTORS
330
C
102
}
100
AcDbDictionary
281
1
  3
Normal
350
F
100
AcDbDictionaryWithDefault
340
F
  0
DICTIONARY
  5
17
102
{ACAD_REACTORS
330
C
102
}
100
AcDbDictionary
280
0
281
1
  3
Standard
350
18
  0
DICTIONARY
  5
19
102
{ACAD_REACTORS
330
C
102
}
100
AcDbDictionary
281
1
  0
DICTIONARY
  5
1A
102
{ACAD_REACTORS
330
C
102
}
100
AcDbDictionary
281
1
  3
Model
350
2F9
  3
Layout1
350
2FA
  0
ACDBPLACEHOLDER
  5
F
102
{ACAD_REACTORS
330
E
102
}
  0
MLINESTYLE
  5
18
102
{ACAD_REACTORS
330
17
102
}
100
AcDbMlineStyle
  2
STANDARD
 70
0
  3

 62
256
 51
90.0
 52
90.0
 71
2
 49
0.5
 62
256
  6
BYLAYER
 49
-0.5
 62
256
  6
BYLAYER
  0
LAYOUT
  5
2F9
102
{ACAD_REACTORS
330
1A
102
}
100
AcDbPlotSettings
  1

  2
none_device
  4
ANSI_C_(22.00_x_17.00_Inches)
  6

 40
0.0
 41
0.0
 42
0.0
 43
0.0
 44
558.8
 45
431.8
 46
0.0
 47
0.0
 48
0.0
 49
0.0
140
0.0
141
0.0
142
1.0
143
1.0
 70
1024
 72
0
 73
0
 74
0
  7

 75
0
147
1.0
148
0.0
149
0.0
100
AcDbLayout
  1
Model
 70
0
 71
0
 10
0.0
 20
0.0
 11
22.0
 21
17.0
 12
0.0
 22
0.0
 32
0.0
 14
0.0
 24
0.0
 34
0.0
 15
0.0
 25
0.0
 35
0.0
146
0.0
 13
0.0
 23
0.0
 33
0.0
 16
1.0
 26
0.0
 36
0.0
 17
0.0
 27
1.0
 37
0.0
 76
0
330
21C
345
0
346
0
  0
LAYOUT
  5
2FA
102
{ACAD_REACTORS
330
1A
102
}
100
AcDbPlotSettings
  1

  2
none_device
  4
ANSI_C_(22.00_x_17.00_Inches)
  6

 40
0.0
 41
0.0
 42
0.0
 43
0.0
 44
558.8
 45
431.8
 46
0.0
 47
0.0
 48
0.0
 49
0.0
140
0.0
141
0.0
142
1.0
143
1.0
 70
0
 72
0
 73
0
 74
0
  7

 75
0
147
1.0
148
0.0
149
0.0
100
AcDbLayout
  1
Layout1
 70
0
 71
1
 10
0.0
 20
0.0
 11
22.0
 21
17.0
 12
0.0
 22
0.0
 32
0.0
 14
0.0
 24
0.0
 34
0.0
 15
0.0
 25
0.0
 35
0.0
146
0.0
 13
0.0
 23
0.0
 33
0.0
 16
1.0
 26
0.0
 36
0.0
 17
0.0
 27
1.0
 37
0.0
 76
0
330
21D
345
0
346
0
  0
ENDSEC
  0
EOF