999
DXF file: _cgs_temp_output.dxf
999
Pro/ENGINEER 2015110 by Parametric Technology Corporation
  0
SECTION
  2
HEADER
  9
$ACADVER
  1
AC1021
  9
$DWGCODEPAGE
  3
ANSI_1252
  9
$EXTMAX
 10
22.0
 20
17.0
 30
0.0
  9
$EXTMIN
 10
0.0
 20
0.0
 30
0.0
  9
$LIMMIN
 10
0.0
 20
0.0
  9
$LIMMAX
 10
22.0
 20
17.0
  9
$VIEWCTR
 10
11.0
 20
8.5
  9
$VIEWSIZE
 40
17.0
  9
$CLAYER
  8
0
  9
$LTSCALE
 40
1.21
  9
$CELTYPE
  6
BYLAYER
  9
$DIMSCALE
 40
1.0
  9
$DIMASZ
 40
0.1875
  9
$DIMEXO
 40
0.0625
  9
$DIMDLI
 40
0.836
  9
$DIMEXE
 40
0.125
  9
$DIMCEN
 40
0.198
  9
$DIMLFAC
 40
1.0
  9
$DIMBLK
  1
_CLOSED
  9
$DIMALT
 70
0
  9
$DIMALTF
 40
25.4
  9
$DIMTXT
 40
0.15625
  9
$DIMTOL
 70
0
  9
$DIMLIM
 70
0
  9
$DIMTFAC
 40
1.0
  9
$DIMGAP
 40
0.09
  9
$DIMDSEP
 70
46
  9
$AUNITS
 70
0
  9
$PDMODE
 70
3
  9
$PDSIZE
 40
0.3125
  9
$HANDSEED
  5
2FB
  9
$TILEMODE
 70
1
  9
$MEASUREMENT
 70
0
  9
$INSUNITS
 70
1
  0
ENDSEC
  0
SECTION
  2
CLASSES
  0
CLASS
  1
ACDBDICTIONARYWDFLT
  2
AcDbDictionaryWithDefault
  3
AutoCAD 2000
 90
0
 91
1
280
0
281
0
  0
CLASS
  1
ACDBPLACEHOLDER
  2
AcDbPlaceHolder
  3
AutoCAD 2000
 90
0
 91
1
280
0
281
0
  0
CLASS
  1
LAYOUT
  2
AcDbLayout
  3
AutoCAD 2000
 90
0
 91
0
280
0
281
0
  0
ENDSEC
  0
SECTION
  2
TABLES
  0
TABLE
  2
VPORT
  5
8
100
AcDbSymbolTable
 70
2
  0
VPORT
  5
1F4
100
AcDbSymbolTableRecord
100
AcDbViewportTableRecord
  2
*ACTIVE
 70
0
 10
0.0
 20
0.0
 11
1.0
 21
1.0
 12
11.0
 22
8.5
 13
0.0
 23
0.0
 14
1.0
 24
1.0
 15
0.0
 25
0.0
 16
0.0
 26
0.0
 36
1.0
 17
0.0
 27
0.0
 37
0.0
 40
17.0
 41
1.2941176471
 42
50.0
 43
0.0
 44
0.0
 50
0.0
 51
0.0
 71
0
 72
100
 73
1
 74
1
 75
0
 76
0
 77
0
 78
0
  0
ENDTAB
  0
TABLE
  2
LTYPE
  5
5
100
AcDbSymbolTable
 70
6
  0
LTYPE
  5
14
100
AcDbSymbolTableRecord
100
AcDbLinetypeTableRecord
  2
BYBLOCK
 70
0
  3

 72
65
 73
0
 40
0.0
  0
LTYPE
  5
15
100
AcDbSymbolTableRecord
100
AcDbLinetypeTableRecord
  2
BYLAYER
 70
0
  3

 72
65
 73
0
 40
0.0
  0
LTYPE
  5
16
100
AcDbSymbolTableRecord
100
AcDbLinetypeTableRecord
  2
CONTINUOUS
 70
64
  3
Solid line
 72
65
 73
0
 40
0.0
  0
LTYPE
  5
1F5
100
AcDbSymbolTableRecord
100
AcDbLinetypeTableRecord
  2
CENTER
 70
64
  3
____ _ ____ _ ____ _ ____ _ ____ _ ____ _ ____
 72
65
 73
4
 40
0.6
 49
0.375
 74
0
 49
-0.075
 74
0
 49
0.075
 74
0
 49
-0.075
 74
0
  0
LTYPE
  5
1F6
100
AcDbSymbolTableRecord
100
AcDbLinetypeTableRecord
  2
HIDDEN
 70
64
  3
- - - - - - - - - - - - - - - - - - - -
 72
65
 73
2
 40
0.2
 49
0.1
 74
0
 49
-0.1
 74
0
  0
LTYPE
  5
1F7
100
AcDbSymbolTableRecord
100
AcDbLinetypeTableRecord
  2
PHANTOM
 70
64
  3
_____ _ _ _____ _ _ _____ _ _ _____
 72
65
 73
6
 40
0.8
 49
0.45
 74
0
 49
-0.05
 74
0
 49
0.1
 74
0
 49
-0.05
 74
0
 49
0.1
 74
0
 49
-0.05
 74
0
  0
LTYPE
  5
1F8
100
AcDbSymbolTableRecord
100
AcDbLinetypeTableRecord
  2
DOT
 70
64
  3
. . . . . . . . . . . . . . . . . . . .
 72
65
 73
2
 40
0.2
 49
0.1
 74
0
 49
-0.1
 74
0
  0
LTYPE
  5
1F9
100
AcDbSymbolTableRecord
100
AcDbLinetypeTableRecord
  2
DASHED
 70
64
  3
- - - - - - - - - - - - - - - - - - - -
 72
65
 73
2
 40
0.2
 49
0.1
 74
0
 49
-0.1
 74
0
  0
ENDTAB
  0
TABLE
  2
LAYER
  5
2
100
AcDbSymbolTable
 70
36
  0
LAYER
  5
10
100
AcDbSymbolTableRecord
100
AcDbLayerTableRecord
  2
0
 70
0
 62
7
  6
CONTINUOUS
370
-3
390
F
  0
LAYER
  5
1FA
100
AcDbSymbolTableRecord
100
AcDbLayerTableRecord
  2
DEFAULT_1
 70
0
 62
7
  6
CENTER
370
-3
390
F
  0
LAYER
  5
1FB
100
AcDbSymbolTableRecord
100
AcDbLayerTableRecord
  2
DEFAULT_2
 70
0
 62
8
  6
HIDDEN
370
-3
390
F
  0
LAYER
  5
1FC
100
AcDbSymbolTableRecord
100
AcDbLayerTableRecord
  2
DEFAULT_3
 70
0
 62
7
  6
PHANTOM
370
-3
390
F
  0
LAYER
  5
1FD
100
AcDbSymbolTableRecord
100
AcDbLayerTableRecord
  2
01_ALL_DTM_PLN
 70
0
 62
7
  6
CONTINUOUS
370
-3
390
F
  0
LAYER
  5
1FE
100
AcDbSymbolTableRecord
100
AcDbLayerTableRecord
  2
01__ASM_ALL_DTM_PLN
 70
0
 62
7
  6
CONTINUOUS
370
-3
390
F
  0
LAYER
  5
1FF
100
AcDbSymbolTableRecord
100
AcDbLayerTableRecord
  2
01__ASM_DEF_DTM_PLN
 70
0
 62
7
  6
CONTINUOUS
370
-3
390
F
  0
LAYER
  5
200
100
AcDbSymbolTableRecord
100
AcDbLayerTableRecord
  2
01___PRT_ALL_DTM_PLN
 70
0
 62
7
  6
CONTINUOUS
370
-3
390
F
  0
LAYER
  5
201
100
AcDbSymbolTableRecord
100
AcDbLayerTableRecord
  2
01___PRT_DEF_DTM_PLN
 70
0
 62
7
  6
CONTINUOUS
370
-3
390
F
  0
LAYER
  5
202
100
AcDbSymbolTableRecord
100
AcDbLayerTableRecord
  2
02_ALL_AXES
 70
0
 62
7
  6
CONTINUOUS
370
-3
390
F
  0
LAYER
  5
203
100
AcDbSymbolTableRecord
100
AcDbLayerTableRecord
  2
02__ASM_ALL_AXES
 70
0
 62
7
  6
CONTINUOUS
370
-3
390
F
  0
LAYER
  5
204
100
AcDbSymbolTableRecord
100
AcDbLayerTableRecord
  2
02___PRT_ALL_AXES
 70
0
 62
7
  6
CONTINUOUS
370
-3
390
F
  0
LAYER
  5
205
100
AcDbSymbolTableRecord
100
AcDbLayerTableRecord
  2
03_ALL_CURVES
 70
0
 62
7
  6
CONTINUOUS
370
-3
390
F
  0
LAYER
  5
206
100
AcDbSymbolTableRecord
100
AcDbLayerTableRecord
  2
03__ASM_ALL_CURVES
 70
0
 62
7
  6
CONTINUOUS
370
-3
390
F
  0
LAYER
  5
207
100
AcDbSymbolTableRecord
100
AcDbLayerTableRecord
  2
03___PRT_ALL_CURVES
 70
0
 62
7
  6
CONTINUOUS
370
-3
390
F
  0
LAYER
  5
208
100
AcDbSymbolTableRecord
100
AcDbLayerTableRecord
  2
04_ALL_DTM_PNT
 70
0
 62
7
  6
CONTINUOUS
370
-3
390
F
  0
LAYER
  5
209
100
AcDbSymbolTableRecord
100
AcDbLayerTableRecord
  2
04__ASM_ALL_DTM_PNT
 70
0
 62
7
  6
CONTINUOUS
370
-3
390
F
  0
LAYER
  5
20A
100
AcDbSymbolTableRecord
100
AcDbLayerTableRecord
  2
04___PRT_ALL_DTM_PNT
 70
0
 62
7
  6
CONTINUOUS
370
-3
390
F
  0
LAYER
  5
20B
100
AcDbSymbolTableRecord
100
AcDbLayerTableRecord
  2
05_ALL_DTM_CSYS
 70
0
 62
7
  6
CONTINUOUS
370
-3
390
F
  0
LAYER
  5
20C
100
AcDbSymbolTableRecord
100
AcDbLayerTableRecord
  2
05__ASM_ALL_DTM_CSYS
 70
0
 62
7
  6
CONTINUOUS
370
-3
390
F
  0
LAYER
  5
20D
100
AcDbSymbolTableRecord
100
AcDbLayerTableRecord
  2
05__ASM_DEF_DTM_CSYS
 70
0
 62
7
  6
CONTINUOUS
370
-3
390
F
  0
LAYER
  5
20E
100
AcDbSymbolTableRecord
100
AcDbLayerTableRecord
  2
05___PRT_ALL_DTM_CSYS
 70
0
 62
7
  6
CONTINUOUS
370
-3
390
F
  0
LAYER
  5
20F
100
AcDbSymbolTableRecord
100
AcDbLayerTableRecord
  2
05___PRT_DEF_DTM_CSYS
 70
0
 62
7
  6
CONTINUOUS
370
-3
390
F
  0
LAYER
  5
210
100
AcDbSymbolTableRecord
100
AcDbLayerTableRecord
  2
06_ALL_SURFS
 70
0
 62
7
  6
CONTINUOUS
370
-3
390
F
  0
LAYER
  5
211
100
AcDbSymbolTableRecord
100
AcDbLayerTableRecord
  2
06__ASM_ALL_SURFS
 70
0
 62
7
  6
CONTINUOUS
370
-3
390
F
  0
LAYER
  5
212
100
AcDbSymbolTableRecord
100
AcDbLayerTableRecord
  2
06___PRT_ALL_SURFS
 70
0
 62
7
  6
CONTINUOUS
370
-3
390
F
  0
LAYER
  5
213
100
AcDbSymbolTableRecord
100
AcDbLayerTableRecord
  2
07__ASM_ALL_SKELETONS
 70
0
 62
7
  6
CONTINUOUS
370
-3
390
F
  0
LAYER
  5
214
100
AcDbSymbolTableRecord
100
AcDbLayerTableRecord
  2
LAYER_DIM
 70
0
 62
7
  6
CONTINUOUS
370
-3
390
F
  0
LAYER
  5
215
100
AcDbSymbolTableRecord
100
AcDbLayerTableRecord
  2
LAYER_FEATURE
 70
0
 62
7
  6
CONTINUOUS
370
-3
390
F
  0
LAYER
  5
216
100
AcDbSymbolTableRecord
100
AcDbLayerTableRecord
  2
LAYER_GEOM_FEAT
 70
0
 62
7
  6
CONTINUOUS
370
-3
390
F
  0
LAYER
  5
217
100
AcDbSymbolTableRecord
100
AcDbLayerTableRecord
  2
LAYER_PARAMETER_DIM
 70
0
 62
7
  6
CONTINUOUS
370
-3
390
F
  0
LAYER
  5
218
100
AcDbSymbolTableRecord
100
AcDbLayerTableRecord
  2
LAYER_PROTRUSION_FEAT
 70
0
 62
7
  6
CONTINUOUS
370
-3
390
F
  0
LAYER
  5
219
100
AcDbSymbolTableRecord
100
AcDbLayerTableRecord
  2
LAYER_ROUND_FEAT
 70
0
 62
7
  6
CONTINUOUS
370
-3
390
F
  0
ENDTAB
  0
TABLE
  2
STYLE
  5
3
100
AcDbSymbolTable
 70
1
  0
STYLE
  5
11
100
AcDbSymbolTableRecord
100
AcDbTextStyleTableRecord
  2
STANDARD
 70
0
 40
0.0
 41
0.8
 50
0.0
 71
0
 42
0.2
  3
txt
  4

  0
STYLE
  5
21A
100
AcDbSymbolTableRecord
100
AcDbTextStyleTableRecord
  2
TEXTSTYLE_1
 70
0
 40
0.0
 41
0.8
 50
0.0
 71
0
 42
0.2
  3
gdt
  4

  0
ENDTAB
  0
TABLE
  2
VIEW
  5
6
100
AcDbSymbolTable
 70
0
  0
ENDTAB
  0
TABLE
  2
UCS
  5
7
100
AcDbSymbolTable
 70
0
  0
ENDTAB
  0
TABLE
  2
APPID
  5
9
100
AcDbSymbolTable
 70
1
  0
APPID
  5
21B
100
AcDbSymbolTableRecord
100
AcDbRegAppTableRecord
  2
ACAD
 70
0
  0
ENDTAB
  0
TABLE
  2
BLOCK_RECORD
  5
1
100
AcDbSymbolTable
 70
0
  0
BLOCK_RECORD
  5
21C
100
AcDbSymbolTableRecord
100
AcDbBlockTableRecord
  2
*Model_Space
  0
BLOCK_RECORD
  5
21D
100
AcDbSymbolTableRecord
100
AcDbBlockTableRecord
  2
*Paper_Space
  0
ENDTAB
  0
TABLE
  2
DIMSTYLE
  5
A
100
AcDbSymbolTable
 70
1
100
AcDbDimStyleTable
 71
0
  0
DIMSTYLE
105
21E
100
AcDbSymbolTableRecord
100
AcDbDimStyleTableRecord
  2
STANDARD
 70
0
  3

  4

 40
1.0
 41
0.1875
 42
0.0625
 43
0.38
 44
0.125
 45
0.0
 46
0.0
 47
0.0001
 48
0.0001
140
0.15625
141
0.09
142
0.0
143
25.4
144
1.0
145
0.0
146
1.0
147
0.09
 71
0.0
 72
0.0
 73
1
 74
1
 75
0
 76
0
 77
0
 78
4
170
0
171
2
172
0
173
0
174
0
175
0
176
0
177
0
178
0
270
2
271
4
272
4
273
2
274
2
275
0
280
0
281
0
282
0
283
1
284
4
285
0
286
0
287
3
288
0
340
11
278
46
  0
ENDTAB
  0
ENDSEC
  0
SECTION
  2
BLOCKS
  0
BLOCK
  5
20
100
AcDbEntity
  8
0
100
AcDbBlockBegin
  2
*Model_Space
 70
0
 10
0.0
 20
0.0
 30
0.0
  3
*Model_Space
  1

  0
ENDBLK
  5
21
100
AcDbEntity
  8
0
100
AcDbBlockEnd
  0
BLOCK
  5
1C
100
AcDbEntity
  8
0
100
AcDbBlockBegin
  2
*Paper_Space
 70
0
 10
0.0
 20
0.0
 30
0.0
  3
*Paper_Space
  1

  0
ENDBLK
  5
1D
100
AcDbEntity
  8
0
100
AcDbBlockEnd
  0
ENDSEC
  0
SECTION
  2
ENTITIES
  0
MTEXT
  5
21F
100
AcDbEntity
  8
0
100
AcDbMText
 62
7
  6
CONTINUOUS
  7
STANDARD
 71
1
 72
1
 10
15.9560215477
 20
0.9479130325
 30
0.0
 11
1.0
 21
0.0
 31
0.0
 44
0.9
  1
SCALE: 1:1.000
 40
0.3
 41
3.36
  0
LINE
  5
220
100
AcDbEntity
  8
0
100
AcDbLine
 62
7
  6
CONTINUOUS
 10
0.0
 20
0.0
 11
0.0
 21
17.0
  0
LINE
  5
221
100
AcDbEntity
  8
0
100
AcDbLine
 62
7
  6
CONTINUOUS
 10
0.0
 20
0.0
 11
22.0
 21
0.0
  0
LINE
  5
222
100
AcDbEntity
  8
0
100
AcDbLine
 62
7
  6
CONTINUOUS
 10
0.0
 20
17.0
 11
22.0
 21
17.0
  0
LINE
  5
223
100
AcDbEntity
  8
0
100
AcDbLine
 62
7
  6
CONTINUOUS
 10
22.0
 20
0.0
 11
22.0
 21
17.0
  0
LINE
  5
224
100
AcDbEntity
  8
0
100
AcDbLine
 62
7
  6
CONTINUOUS
 10
2.7243672762
 20
5.8151198968
 11
2.7243672762
 21
5.7401198968
  0
LINE
  5
225
100
AcDbEntity
  8
0
100
AcDbLine
 62
7
  6
CONTINUOUS
 10
2.7243672762
 20
5.7401198968
 11
2.8361649817
 21
5.2304185295
  0
LINE
  5
226
100
AcDbEntity
  8
0
100
AcDbLine
 62
7
  6
CONTINUOUS
 10
3.3443672762
 20
5.7401198968
 11
3.3443672762
 21
5.7851198968
  0
LINE
  5
227
100
AcDbEntity
  8
LAYER_FEATURE
100
AcDbLine
 62
7
  6
CONTINUOUS
 10
3.4123672762
 20
5.7851198968
 11
3.4123672762
 21
5.7401198968
  0
LINE
  5
228
100
AcDbEntity
  8
0
100
AcDbLine
 62
7
  6
CONTINUOUS
 10
3.2325695706
 20
5.2304185295
 11
3.3443672762
 21
5.7401198968
  0
LINE
  5
229
100
AcDbEntity
  8
LAYER_FEATURE
100
AcDbLine
 62
7
  6
CONTINUOUS
 10
3.4123672762
 20
5.7401198968
 11
3.5241649817
 21
5.2304185295
  0
LINE
  5
22A
100
AcDbEntity
  8
LAYER_FEATURE
100
AcDbLine
 62
7
  6
CONTINUOUS
 10
4.0323672762
 20
5.7401198968
 11
4.0323672762
 21
5.7851198968
  0
LINE
  5
22B
100
AcDbEntity
  8
LAYER_FEATURE
100
AcDbLine
 62
7
  6
CONTINUOUS
 10
4.1003672762
 20
5.7851198968
 11
4.1003672762
 21
5.7401198968
  0
LINE
  5
22C
100
AcDbEntity
  8
LAYER_FEATURE
100
AcDbLine
 62
7
  6
CONTINUOUS
 10
3.9205695706
 20
5.2304185295
 11
4.0323672762
 21
5.7401198968
  0
LINE
  5
22D
100
AcDbEntity
  8
LAYER_FEATURE
100
AcDbLine
 62
7
  6
CONTINUOUS
 10
4.1003672762
 20
5.7401198968
 11
4.2121649817
 21
5.2304185295
  0
LINE
  5
22E
100
AcDbEntity
  8
LAYER_FEATURE
100
AcDbLine
 62
7
  6
CONTINUOUS
 10
4.7203672762
 20
5.7401198968
 11
4.7203672762
 21
5.7851198968
  0
LINE
  5
22F
100
AcDbEntity
  8
LAYER_FEATURE
100
AcDbLine
 62
7
  6
CONTINUOUS
 10
4.7883672762
 20
5.7851198968
 11
4.7883672762
 21
5.7401198968
  0
LINE
  5
230
100
AcDbEntity
  8
LAYER_FEATURE
100
AcDbLine
 62
7
  6
CONTINUOUS
 10
4.6085695706
 20
5.2304185295
 11
4.7203672762
 21
5.7401198968
  0
LINE
  5
231
100
AcDbEntity
  8
LAYER_FEATURE
100
AcDbLine
 62
7
  6
CONTINUOUS
 10
4.7883672762
 20
5.7401198968
 11
4.9001649817
 21
5.2304185295
  0
LINE
  5
232
100
AcDbEntity
  8
LAYER_FEATURE
100
AcDbLine
 62
7
  6
CONTINUOUS
 10
5.4083672762
 20
5.7401198968
 11
5.4083672762
 21
5.7851198968
  0
LINE
  5
233
100
AcDbEntity
  8
LAYER_FEATURE
100
AcDbLine
 62
7
  6
CONTINUOUS
 10
5.4763672762
 20
5.7851198968
 11
5.4763672762
 21
5.7401198968
  0
LINE
  5
234
100
AcDbEntity
  8
LAYER_FEATURE
100
AcDbLine
 62
7
  6
CONTINUOUS
 10
5.2965695706
 20
5.2304185295
 11
5.4083672762
 21
5.7401198968
  0
LINE
  5
235
100
AcDbEntity
  8
LAYER_FEATURE
100
AcDbLine
 62
7
  6
CONTINUOUS
 10
5.4763672762
 20
5.7401198968
 11
5.5881649817
 21
5.2304185295
  0
LINE
  5
236
100
AcDbEntity
  8
0
100
AcDbLine
 62
7
  6
CONTINUOUS
 10
2.8613984555
 20
5.2101198968
 11
3.2073360968
 21
5.2101198968
  0
LINE
  5
237
100
AcDbEntity
  8
LAYER_FEATURE
100
AcDbLine
 62
7
  6
CONTINUOUS
 10
3.5493984555
 20
5.2101198968
 11
3.8953360968
 21
5.2101198968
  0
LINE
  5
238
100
AcDbEntity
  8
LAYER_FEATURE
100
AcDbLine
 62
7
  6
CONTINUOUS
 10
4.2373984555
 20
5.2101198968
 11
4.5833360968
 21
5.2101198968
  0
LINE
  5
239
100
AcDbEntity
  8
LAYER_FEATURE
100
AcDbLine
 62
7
  6
CONTINUOUS
 10
4.9253984555
 20
5.2101198968
 11
5.2713360968
 21
5.2101198968
  0
LINE
  5
23A
100
AcDbEntity
  8
LAYER_FEATURE
100
AcDbLine
 62
7
  6
CONTINUOUS
 10
5.6133984555
 20
5.2101198968
 11
5.9593360968
 21
5.2101198968
  0
LINE
  5
23B
100
AcDbEntity
  8
LAYER_FEATURE
100
AcDbLine
 62
7
  6
CONTINUOUS
 10
6.3013984555
 20
5.2101198968
 11
6.6473360968
 21
5.2101198968
  0
LINE
  5
23C
100
AcDbEntity
  8
LAYER_FEATURE
100
AcDbLine
 62
7
  6
CONTINUOUS
 10
6.9893984555
 20
5.2101198968
 11
7.3353360968
 21
5.2101198968
  0
LINE
  5
23D
100
AcDbEntity
  8
LAYER_FEATURE
100
AcDbLine
 62
7
  6
CONTINUOUS
 10
7.6773984555
 20
5.2101198968
 11
8.0233360968
 21
5.2101198968
  0
LINE
  5
23E
100
AcDbEntity
  8
LAYER_FEATURE
100
AcDbLine
 62
7
  6
CONTINUOUS
 10
8.3653984555
 20
5.2101198968
 11
8.7113360968
 21
5.2101198968
  0
LINE
  5
23F
100
AcDbEntity
  8
LAYER_FEATURE
100
AcDbLine
 62
7
  6
CONTINUOUS
 10
9.0533984555
 20
5.2101198968
 11
9.3993360968
 21
5.2101198968
  0
LINE
  5
240
100
AcDbEntity
  8
LAYER_FEATURE
100
AcDbLine
 62
7
  6
CONTINUOUS
 10
6.0963672762
 20
5.7401198968
 11
6.0963672762
 21
5.7851198968
  0
LINE
  5
241
100
AcDbEntity
  8
LAYER_FEATURE
100
AcDbLine
 62
7
  6
CONTINUOUS
 10
5.9845695706
 20
5.2304185295
 11
6.0963672762
 21
5.7401198968
  0
LINE
  5
242
100
AcDbEntity
  8
LAYER_FEATURE
100
AcDbLine
 62
7
  6
CONTINUOUS
 10
6.1643672762
 20
5.7851198968
 11
6.1643672762
 21
5.7401198968
  0
LINE
  5
243
100
AcDbEntity
  8
LAYER_FEATURE
100
AcDbLine
 62
7
  6
CONTINUOUS
 10
6.1643672762
 20
5.7401198968
 11
6.2761649817
 21
5.2304185295
  0
LINE
  5
244
100
AcDbEntity
  8
LAYER_FEATURE
100
AcDbLine
 62
7
  6
CONTINUOUS
 10
3.3443672762
 20
5.7851198968
 11
3.4123672762
 21
5.7851198968
  0
LINE
  5
245
100
AcDbEntity
  8
LAYER_FEATURE
100
AcDbLine
 62
7
  6
CONTINUOUS
 10
4.0323672762
 20
5.7851198968
 11
4.1003672762
 21
5.7851198968
  0
LINE
  5
246
100
AcDbEntity
  8
LAYER_FEATURE
100
AcDbLine
 62
7
  6
CONTINUOUS
 10
4.7203672762
 20
5.7851198968
 11
4.7883672762
 21
5.7851198968
  0
LINE
  5
247
100
AcDbEntity
  8
LAYER_FEATURE
100
AcDbLine
 62
7
  6
CONTINUOUS
 10
5.4083672762
 20
5.7851198968
 11
5.4763672762
 21
5.7851198968
  0
LINE
  5
248
100
AcDbEntity
  8
LAYER_FEATURE
100
AcDbLine
 62
7
  6
CONTINUOUS
 10
6.0963672762
 20
5.7851198968
 11
6.1643672762
 21
5.7851198968
  0
LINE
  5
249
100
AcDbEntity
  8
LAYER_FEATURE
100
AcDbLine
 62
7
  6
CONTINUOUS
 10
6.7843672762
 20
5.7851198968
 11
6.8523672762
 21
5.7851198968
  0
LINE
  5
24A
100
AcDbEntity
  8
LAYER_FEATURE
100
AcDbLine
 62
7
  6
CONTINUOUS
 10
7.4723672762
 20
5.7851198968
 11
7.5403672762
 21
5.7851198968
  0
LINE
  5
24B
100
AcDbEntity
  8
LAYER_FEATURE
100
AcDbLine
 62
7
  6
CONTINUOUS
 10
8.1603672762
 20
5.7851198968
 11
8.2283672762
 21
5.7851198968
  0
LINE
  5
24C
100
AcDbEntity
  8
LAYER_FEATURE
100
AcDbLine
 62
7
  6
CONTINUOUS
 10
8.8483672762
 20
5.7851198968
 11
8.9163672762
 21
5.7851198968
  0
LINE
  5
24D
100
AcDbEntity
  8
0
100
AcDbLine
 62
7
  6
CONTINUOUS
 10
9.5213672762
 20
5.8301198968
 11
2.7393672762
 21
5.8301198968
  0
LINE
  5
24E
100
AcDbEntity
  8
LAYER_FEATURE
100
AcDbLine
 62
7
  6
CONTINUOUS
 10
6.7843672762
 20
5.7401198968
 11
6.7843672762
 21
5.7851198968
  0
LINE
  5
24F
100
AcDbEntity
  8
LAYER_FEATURE
100
AcDbLine
 62
7
  6
CONTINUOUS
 10
6.6725695706
 20
5.2304185295
 11
6.7843672762
 21
5.7401198968
  0
LINE
  5
250
100
AcDbEntity
  8
LAYER_FEATURE
100
AcDbLine
 62
7
  6
CONTINUOUS
 10
6.8523672762
 20
5.7851198968
 11
6.8523672762
 21
5.7401198968
  0
LINE
  5
251
100
AcDbEntity
  8
LAYER_FEATURE
100
AcDbLine
 62
7
  6
CONTINUOUS
 10
6.8523672762
 20
5.7401198968
 11
6.9641649817
 21
5.2304185295
  0
LINE
  5
252
100
AcDbEntity
  8
LAYER_FEATURE
100
AcDbLine
 62
7
  6
CONTINUOUS
 10
7.4723672762
 20
5.7401198968
 11
7.4723672762
 21
5.7851198968
  0
LINE
  5
253
100
AcDbEntity
  8
LAYER_FEATURE
100
AcDbLine
 62
7
  6
CONTINUOUS
 10
7.3605695706
 20
5.2304185295
 11
7.4723672762
 21
5.7401198968
  0
LINE
  5
254
100
AcDbEntity
  8
LAYER_FEATURE
100
AcDbLine
 62
7
  6
CONTINUOUS
 10
7.5403672762
 20
5.7851198968
 11
7.5403672762
 21
5.7401198968
  0
LINE
  5
255
100
AcDbEntity
  8
LAYER_FEATURE
100
AcDbLine
 62
7
  6
CONTINUOUS
 10
7.5403672762
 20
5.7401198968
 11
7.6521649817
 21
5.2304185295
  0
LINE
  5
256
100
AcDbEntity
  8
LAYER_FEATURE
100
AcDbLine
 62
7
  6
CONTINUOUS
 10
8.1603672762
 20
5.7401198968
 11
8.1603672762
 21
5.7851198968
  0
LINE
  5
257
100
AcDbEntity
  8
LAYER_FEATURE
100
AcDbLine
 62
7
  6
CONTINUOUS
 10
8.0485695706
 20
5.2304185295
 11
8.1603672762
 21
5.7401198968
  0
LINE
  5
258
100
AcDbEntity
  8
LAYER_FEATURE
100
AcDbLine
 62
7
  6
CONTINUOUS
 10
8.2283672762
 20
5.7851198968
 11
8.2283672762
 21
5.7401198968
  0
LINE
  5
259
100
AcDbEntity
  8
LAYER_FEATURE
100
AcDbLine
 62
7
  6
CONTINUOUS
 10
8.2283672762
 20
5.7401198968
 11
8.3401649817
 21
5.2304185295
  0
LINE
  5
25A
100
AcDbEntity
  8
LAYER_FEATURE
100
AcDbLine
 62
7
  6
CONTINUOUS
 10
8.8483672762
 20
5.7401198968
 11
8.8483672762
 21
5.7851198968
  0
LINE
  5
25B
100
AcDbEntity
  8
LAYER_FEATURE
100
AcDbLine
 62
7
  6
CONTINUOUS
 10
8.7365695706
 20
5.2304185295
 11
8.8483672762
 21
5.7401198968
  0
LINE
  5
25C
100
AcDbEntity
  8
LAYER_FEATURE
100
AcDbLine
 62
7
  6
CONTINUOUS
 10
8.9163672762
 20
5.7851198968
 11
8.9163672762
 21
5.7401198968
  0
LINE
  5
25D
100
AcDbEntity
  8
LAYER_FEATURE
100
AcDbLine
 62
7
  6
CONTINUOUS
 10
8.9163672762
 20
5.7401198968
 11
9.0281649817
 21
5.2304185295
  0
LINE
  5
25E
100
AcDbEntity
  8
0
100
AcDbLine
 62
7
  6
CONTINUOUS
 10
9.5363672762
 20
5.7401198968
 11
9.5363672762
 21
5.8151198968
  0
LINE
  5
25F
100
AcDbEntity
  8
LAYER_FEATURE
100
AcDbLine
 62
7
  6
CONTINUOUS
 10
9.4245695706
 20
5.2304185295
 11
9.5363672762
 21
5.7401198968
  0
LINE
  5
260
100
AcDbEntity
  8
0
100
AcDbLine
 62
7
  6
CONTINUOUS
 10
2.6648720839
 20
14.6000477814
 11
2.6648720839
 21
10.6000477814
  0
LINE
  5
261
100
AcDbEntity
  8
0
100
AcDbLine
 62
7
  6
CONTINUOUS
 10
9.4768720839
 20
10.6000477814
 11
2.6648720839
 21
10.6000477814
  0
LINE
  5
262
100
AcDbEntity
  8
0
100
AcDbLine
 62
7
  6
CONTINUOUS
 10
2.6648720839
 20
14.6000477814
 11
9.4768720839
 21
14.6000477814
  0
LINE
  5
263
100
AcDbEntity
  8
0
100
AcDbLine
 62
7
  6
CONTINUOUS
 10
9.4768720839
 20
10.6000477814
 11
9.4768720839
 21
14.6000477814
  0
LINE
  5
264
100
AcDbEntity
  8
LAYER_FEATURE
100
AcDbLine
 62
7
  6
CONTINUOUS
 10
13.5603552569
 20
5.1506247044
 11
13.5603552569
 21
5.6806247044
  0
LINE
  5
265
100
AcDbEntity
  8
0
100
AcDbLine
 62
7
  6
CONTINUOUS
 10
13.5603552569
 20
5.6806247044
 11
13.5603552569
 21
5.7706247044
  0
LINE
  5
266
100
AcDbEntity
  8
LAYER_FEATURE
100
AcDbLine
 62
7
  6
CONTINUOUS
 10
13.5603552569
 20
5.1506247044
 11
17.5603552569
 21
5.1506247044
  0
LINE
  5
267
100
AcDbEntity
  8
LAYER_FEATURE
100
AcDbLine
 62
7
  6
CONTINUOUS
 10
17.5603552569
 20
5.6806247044
 11
13.5603552569
 21
5.6806247044
  0
LINE
  5
268
100
AcDbEntity
  8
0
100
AcDbLine
 62
7
  6
CONTINUOUS
 10
13.5603552569
 20
5.7706247044
 11
17.5603552569
 21
5.7706247044
  0
LINE
  5
269
100
AcDbEntity
  8
0
100
AcDbLine
 62
7
  6
CONTINUOUS
 10
17.5603552569
 20
5.7706247044
 11
17.5603552569
 21
5.6806247044
  0
LINE
  5
26A
100
AcDbEntity
  8
LAYER_FEATURE
100
AcDbLine
 62
7
  6
CONTINUOUS
 10
17.5603552569
 20
5.1506247044
 11
17.5603552569
 21
5.6806247044
  0
LINE
  5
26B
100
AcDbEntity
  8
0
100
AcDbLine
 62
7
  6
CONTINUOUS
 10
11.812503533
 20
11.1275261143
 11
11.835381673
 21
11.0809053667
  0
LINE
  5
26C
100
AcDbEntity
  8
0
100
AcDbLine
 62
7
  6
CONTINUOUS
 10
11.835381673
 20
11.0809053667
 11
12.0938344353
 21
10.7640699159
  0
LINE
  5
26D
100
AcDbEntity
  8
LAYER_FEATURE
100
AcDbLine
 62
7
  6
CONTINUOUS
 10
12.4690716369
 20
11.0809053667
 11
12.7275243992
 21
10.7640699159
  0
LINE
  5
26E
100
AcDbEntity
  8
0
100
AcDbLine
 62
7
  6
CONTINUOUS
 10
12.4064394893
 20
11.0809053667
 11
12.3927126053
 21
11.1088778152
  0
LINE
  5
26F
100
AcDbEntity
  8
LAYER_FEATURE
100
AcDbLine
 62
7
  6
CONTINUOUS
 10
12.4553447529
 20
11.1088778152
 11
12.4690716369
 21
11.0809053667
  0
LINE
  5
270
100
AcDbEntity
  8
0
100
AcDbLine
 62
7
  6
CONTINUOUS
 10
12.45894724
 20
10.7640699159
 11
12.4064394893
 21
11.0809053667
  0
LINE
  5
271
100
AcDbEntity
  8
0
100
AcDbLine
 62
7
  6
CONTINUOUS
 10
12.7802534289
 20
14.2652624634
 11
11.8119881353
 21
11.1319548249
  0
LINE
  5
272
100
AcDbEntity
  8
0
100
AcDbLine
 62
7
  6
CONTINUOUS
 10
12.4586996325
 20
10.7598829409
 11
12.45894724
 21
10.7640699159
  0
LINE
  5
273
100
AcDbEntity
  8
LAYER_FEATURE
100
AcDbLine
 62
7
  6
CONTINUOUS
 10
13.1027616008
 20
11.0809053667
 11
13.3612143631
 21
10.7640699159
  0
LINE
  5
274
100
AcDbEntity
  8
LAYER_FEATURE
100
AcDbLine
 62
7
  6
CONTINUOUS
 10
13.0401294532
 20
11.0809053667
 11
13.0264025692
 21
11.1088778152
  0
LINE
  5
275
100
AcDbEntity
  8
LAYER_FEATURE
100
AcDbLine
 62
7
  6
CONTINUOUS
 10
13.0890347168
 20
11.1088778152
 11
13.1027616008
 21
11.0809053667
  0
LINE
  5
276
100
AcDbEntity
  8
0
100
AcDbLine
 62
7
  6
CONTINUOUS
 10
12.4150836297
 20
11.1088778152
 11
12.4064394893
 21
11.0809053667
  0
LINE
  5
277
100
AcDbEntity
  8
LAYER_FEATURE
100
AcDbLine
 62
7
  6
CONTINUOUS
 10
13.0926372039
 20
10.7640699159
 11
13.0401294532
 21
11.0809053667
  0
LINE
  5
278
100
AcDbEntity
  8
LAYER_FEATURE
100
AcDbLine
 62
7
  6
CONTINUOUS
 10
13.0923895963
 20
10.7598829409
 11
13.0926372039
 21
10.7640699159
  0
LINE
  5
279
100
AcDbEntity
  8
0
100
AcDbLine
 62
7
  6
CONTINUOUS
 10
12.4599017304
 20
10.7637749561
 11
12.5334964228
 21
11.0019274679
  0
LINE
  5
27A
100
AcDbEntity
  8
LAYER_FEATURE
100
AcDbLine
 62
7
  6
CONTINUOUS
 10
13.7364515647
 20
11.0809053667
 11
13.994904327
 21
10.7640699159
  0
LINE
  5
27B
100
AcDbEntity
  8
LAYER_FEATURE
100
AcDbLine
 62
7
  6
CONTINUOUS
 10
13.6738194171
 20
11.0809053667
 11
13.6600925331
 21
11.1088778152
  0
LINE
  5
27C
100
AcDbEntity
  8
LAYER_FEATURE
100
AcDbLine
 62
7
  6
CONTINUOUS
 10
13.7227246807
 20
11.1088778152
 11
13.7364515647
 21
11.0809053667
  0
LINE
  5
27D
100
AcDbEntity
  8
LAYER_FEATURE
100
AcDbLine
 62
7
  6
CONTINUOUS
 10
13.0487735936
 20
11.1088778152
 11
13.0401294532
 21
11.0809053667
  0
LINE
  5
27E
100
AcDbEntity
  8
LAYER_FEATURE
100
AcDbLine
 62
7
  6
CONTINUOUS
 10
13.7263271678
 20
10.7640699159
 11
13.6738194171
 21
11.0809053667
  0
LINE
  5
27F
100
AcDbEntity
  8
LAYER_FEATURE
100
AcDbLine
 62
7
  6
CONTINUOUS
 10
13.7260795602
 20
10.7598829409
 11
13.7263271678
 21
10.7640699159
  0
LINE
  5
280
100
AcDbEntity
  8
LAYER_FEATURE
100
AcDbLine
 62
7
  6
CONTINUOUS
 10
13.0935916943
 20
10.7637749561
 11
13.1671863867
 21
11.0019274679
  0
LINE
  5
281
100
AcDbEntity
  8
0
100
AcDbLine
 62
7
  6
CONTINUOUS
 10
12.1232679366
 20
10.7514520835
 11
12.4418976044
 21
10.7514520835
  0
LINE
  5
282
100
AcDbEntity
  8
LAYER_FEATURE
100
AcDbLine
 62
7
  6
CONTINUOUS
 10
12.7569579005
 20
10.7514520835
 11
13.0755875682
 21
10.7514520835
  0
LINE
  5
283
100
AcDbEntity
  8
LAYER_FEATURE
100
AcDbLine
 62
7
  6
CONTINUOUS
 10
13.3906478644
 20
10.7514520835
 11
13.7092775321
 21
10.7514520835
  0
LINE
  5
284
100
AcDbEntity
  8
LAYER_FEATURE
100
AcDbLine
 62
7
  6
CONTINUOUS
 10
14.0243378282
 20
10.7514520835
 11
14.342967496
 21
10.7514520835
  0
LINE
  5
285
100
AcDbEntity
  8
LAYER_FEATURE
100
AcDbLine
 62
7
  6
CONTINUOUS
 10
14.6580277921
 20
10.7514520835
 11
14.9766574599
 21
10.7514520835
  0
LINE
  5
286
100
AcDbEntity
  8
LAYER_FEATURE
100
AcDbLine
 62
7
  6
CONTINUOUS
 10
15.291717756
 20
10.7514520835
 11
15.6103474237
 21
10.7514520835
  0
LINE
  5
287
100
AcDbEntity
  8
LAYER_FEATURE
100
AcDbLine
 62
7
  6
CONTINUOUS
 10
15.9254077199
 20
10.7514520835
 11
16.2440373876
 21
10.7514520835
  0
LINE
  5
288
100
AcDbEntity
  8
LAYER_FEATURE
100
AcDbLine
 62
7
  6
CONTINUOUS
 10
16.5590976837
 20
10.7514520835
 11
16.8777273515
 21
10.7514520835
  0
LINE
  5
289
100
AcDbEntity
  8
LAYER_FEATURE
100
AcDbLine
 62
7
  6
CONTINUOUS
 10
17.1927876476
 20
10.7514520835
 11
17.5114173153
 21
10.7514520835
  0
LINE
  5
28A
100
AcDbEntity
  8
LAYER_FEATURE
100
AcDbLine
 62
7
  6
CONTINUOUS
 10
17.8264776115
 20
10.7514520835
 11
18.1451072792
 21
10.7514520835
  0
LINE
  5
28B
100
AcDbEntity
  8
LAYER_FEATURE
100
AcDbLine
 62
7
  6
CONTINUOUS
 10
14.3701415285
 20
11.0809053667
 11
14.6285942908
 21
10.7640699159
  0
LINE
  5
28C
100
AcDbEntity
  8
LAYER_FEATURE
100
AcDbLine
 62
7
  6
CONTINUOUS
 10
14.3075093809
 20
11.0809053667
 11
14.2937824969
 21
11.1088778152
  0
LINE
  5
28D
100
AcDbEntity
  8
LAYER_FEATURE
100
AcDbLine
 62
7
  6
CONTINUOUS
 10
14.3564146445
 20
11.1088778152
 11
14.3701415285
 21
11.0809053667
  0
LINE
  5
28E
100
AcDbEntity
  8
LAYER_FEATURE
100
AcDbLine
 62
7
  6
CONTINUOUS
 10
12.3927126053
 20
11.1088778152
 11
12.4553447529
 21
11.1088778152
  0
LINE
  5
28F
100
AcDbEntity
  8
LAYER_FEATURE
100
AcDbLine
 62
7
  6
CONTINUOUS
 10
13.0264025692
 20
11.1088778152
 11
13.0890347168
 21
11.1088778152
  0
LINE
  5
290
100
AcDbEntity
  8
LAYER_FEATURE
100
AcDbLine
 62
7
  6
CONTINUOUS
 10
13.6600925331
 20
11.1088778152
 11
13.7227246807
 21
11.1088778152
  0
LINE
  5
291
100
AcDbEntity
  8
LAYER_FEATURE
100
AcDbLine
 62
7
  6
CONTINUOUS
 10
14.2937824969
 20
11.1088778152
 11
14.3564146445
 21
11.1088778152
  0
LINE
  5
292
100
AcDbEntity
  8
LAYER_FEATURE
100
AcDbLine
 62
7
  6
CONTINUOUS
 10
14.9274724608
 20
11.1088778152
 11
14.9901046084
 21
11.1088778152
  0
LINE
  5
293
100
AcDbEntity
  8
LAYER_FEATURE
100
AcDbLine
 62
7
  6
CONTINUOUS
 10
15.5611624247
 20
11.1088778152
 11
15.6237945723
 21
11.1088778152
  0
LINE
  5
294
100
AcDbEntity
  8
LAYER_FEATURE
100
AcDbLine
 62
7
  6
CONTINUOUS
 10
16.1948523886
 20
11.1088778152
 11
16.2574845362
 21
11.1088778152
  0
LINE
  5
295
100
AcDbEntity
  8
LAYER_FEATURE
100
AcDbLine
 62
7
  6
CONTINUOUS
 10
16.8285423524
 20
11.1088778152
 11
16.8911745
 21
11.1088778152
  0
LINE
  5
296
100
AcDbEntity
  8
LAYER_FEATURE
100
AcDbLine
 62
7
  6
CONTINUOUS
 10
17.4622323163
 20
11.1088778152
 11
17.5248644639
 21
11.1088778152
  0
LINE
  5
297
100
AcDbEntity
  8
0
100
AcDbLine
 62
7
  6
CONTINUOUS
 10
18.0683794813
 20
11.1368502638
 11
11.8217438199
 21
11.1368502638
  0
LINE
  5
298
100
AcDbEntity
  8
LAYER_FEATURE
100
AcDbLine
 62
7
  6
CONTINUOUS
 10
14.3600171316
 20
10.7640699159
 11
14.3075093809
 21
11.0809053667
  0
LINE
  5
299
100
AcDbEntity
  8
LAYER_FEATURE
100
AcDbLine
 62
7
  6
CONTINUOUS
 10
13.6824635575
 20
11.1088778152
 11
13.6738194171
 21
11.0809053667
  0
LINE
  5
29A
100
AcDbEntity
  8
LAYER_FEATURE
100
AcDbLine
 62
7
  6
CONTINUOUS
 10
13.7272816582
 20
10.7637749561
 11
13.8008763506
 21
11.0019274679
  0
LINE
  5
29B
100
AcDbEntity
  8
LAYER_FEATURE
100
AcDbLine
 62
7
  6
CONTINUOUS
 10
15.0038314924
 20
11.0809053667
 11
15.2622842547
 21
10.7640699159
  0
LINE
  5
29C
100
AcDbEntity
  8
LAYER_FEATURE
100
AcDbLine
 62
7
  6
CONTINUOUS
 10
14.9411993448
 20
11.0809053667
 11
14.9274724608
 21
11.1088778152
  0
LINE
  5
29D
100
AcDbEntity
  8
LAYER_FEATURE
100
AcDbLine
 62
7
  6
CONTINUOUS
 10
14.9901046084
 20
11.1088778152
 11
15.0038314924
 21
11.0809053667
  0
LINE
  5
29E
100
AcDbEntity
  8
LAYER_FEATURE
100
AcDbLine
 62
7
  6
CONTINUOUS
 10
14.3597695241
 20
10.7598829409
 11
14.3600171316
 21
10.7640699159
  0
LINE
  5
29F
100
AcDbEntity
  8
LAYER_FEATURE
100
AcDbLine
 62
7
  6
CONTINUOUS
 10
14.3161535213
 20
11.1088778152
 11
14.3075093809
 21
11.0809053667
  0
LINE
  5
2A0
100
AcDbEntity
  8
LAYER_FEATURE
100
AcDbLine
 62
7
  6
CONTINUOUS
 10
14.3609716221
 20
10.7637749561
 11
14.4345663145
 21
11.0019274679
  0
LINE
  5
2A1
100
AcDbEntity
  8
LAYER_FEATURE
100
AcDbLine
 62
7
  6
CONTINUOUS
 10
15.6375214563
 20
11.0809053667
 11
15.8959742186
 21
10.7640699159
  0
LINE
  5
2A2
100
AcDbEntity
  8
LAYER_FEATURE
100
AcDbLine
 62
7
  6
CONTINUOUS
 10
15.5748893087
 20
11.0809053667
 11
15.5611624247
 21
11.1088778152
  0
LINE
  5
2A3
100
AcDbEntity
  8
LAYER_FEATURE
100
AcDbLine
 62
7
  6
CONTINUOUS
 10
14.9937070955
 20
10.7640699159
 11
14.9411993448
 21
11.0809053667
  0
LINE
  5
2A4
100
AcDbEntity
  8
LAYER_FEATURE
100
AcDbLine
 62
7
  6
CONTINUOUS
 10
14.9934597213
 20
10.7598828687
 11
14.9937070955
 21
10.7640699159
  0
LINE
  5
2A5
100
AcDbEntity
  8
LAYER_FEATURE
100
AcDbLine
 62
7
  6
CONTINUOUS
 10
16.2712114202
 20
11.0809053667
 11
16.5296641825
 21
10.7640699159
  0
LINE
  5
2A6
100
AcDbEntity
  8
LAYER_FEATURE
100
AcDbLine
 62
7
  6
CONTINUOUS
 10
15.6237945723
 20
11.1088778152
 11
15.6375214563
 21
11.0809053667
  0
LINE
  5
2A7
100
AcDbEntity
  8
LAYER_FEATURE
100
AcDbLine
 62
7
  6
CONTINUOUS
 10
14.9498434852
 20
11.1088778152
 11
14.9411993448
 21
11.0809053667
  0
LINE
  5
2A8
100
AcDbEntity
  8
LAYER_FEATURE
100
AcDbLine
 62
7
  6
CONTINUOUS
 10
16.2085792726
 20
11.0809053667
 11
16.1948523886
 21
11.1088778152
  0
LINE
  5
2A9
100
AcDbEntity
  8
LAYER_FEATURE
100
AcDbLine
 62
7
  6
CONTINUOUS
 10
15.6273970594
 20
10.7640699159
 11
15.5748893087
 21
11.0809053667
  0
LINE
  5
2AA
100
AcDbEntity
  8
LAYER_FEATURE
100
AcDbLine
 62
7
  6
CONTINUOUS
 10
15.6271494518
 20
10.7598829409
 11
15.6273970594
 21
10.7640699159
  0
LINE
  5
2AB
100
AcDbEntity
  8
LAYER_FEATURE
100
AcDbLine
 62
7
  6
CONTINUOUS
 10
14.9946615859
 20
10.7637749561
 11
15.0682562783
 21
11.0019274679
  0
LINE
  5
2AC
100
AcDbEntity
  8
LAYER_FEATURE
100
AcDbLine
 62
7
  6
CONTINUOUS
 10
16.904901384
 20
11.0809053667
 11
17.1633541463
 21
10.7640699159
  0
LINE
  5
2AD
100
AcDbEntity
  8
LAYER_FEATURE
100
AcDbLine
 62
7
  6
CONTINUOUS
 10
16.2574845362
 20
11.1088778152
 11
16.2712114202
 21
11.0809053667
  0
LINE
  5
2AE
100
AcDbEntity
  8
LAYER_FEATURE
100
AcDbLine
 62
7
  6
CONTINUOUS
 10
15.5835334491
 20
11.1088778152
 11
15.5748893087
 21
11.0809053667
  0
LINE
  5
2AF
100
AcDbEntity
  8
LAYER_FEATURE
100
AcDbLine
 62
7
  6
CONTINUOUS
 10
16.2610870233
 20
10.7640699159
 11
16.2085792726
 21
11.0809053667
  0
LINE
  5
2B0
100
AcDbEntity
  8
LAYER_FEATURE
100
AcDbLine
 62
7
  6
CONTINUOUS
 10
15.6283515498
 20
10.7637749561
 11
15.7019462422
 21
11.0019274679
  0
LINE
  5
2B1
100
AcDbEntity
  8
LAYER_FEATURE
100
AcDbLine
 62
7
  6
CONTINUOUS
 10
17.5385913479
 20
11.0809053667
 11
17.7970441102
 21
10.7640699159
  0
LINE
  5
2B2
100
AcDbEntity
  8
LAYER_FEATURE
100
AcDbLine
 62
7
  6
CONTINUOUS
 10
16.8422692364
 20
11.0809053667
 11
16.8285423524
 21
11.1088778152
  0
LINE
  5
2B3
100
AcDbEntity
  8
LAYER_FEATURE
100
AcDbLine
 62
7
  6
CONTINUOUS
 10
16.8911745
 20
11.1088778152
 11
16.904901384
 21
11.0809053667
  0
LINE
  5
2B4
100
AcDbEntity
  8
LAYER_FEATURE
100
AcDbLine
 62
7
  6
CONTINUOUS
 10
16.2608394157
 20
10.7598829409
 11
16.2610870233
 21
10.7640699159
  0
LINE
  5
2B5
100
AcDbEntity
  8
LAYER_FEATURE
100
AcDbLine
 62
7
  6
CONTINUOUS
 10
16.8947769871
 20
10.7640699159
 11
16.8422692364
 21
11.0809053667
  0
LINE
  5
2B6
100
AcDbEntity
  8
LAYER_FEATURE
100
AcDbLine
 62
7
  6
CONTINUOUS
 10
16.217223413
 20
11.1088778152
 11
16.2085792726
 21
11.0809053667
  0
LINE
  5
2B7
100
AcDbEntity
  8
LAYER_FEATURE
100
AcDbLine
 62
7
  6
CONTINUOUS
 10
16.2620415137
 20
10.7637749561
 11
16.3356362061
 21
11.0019274679
  0
LINE
  5
2B8
100
AcDbEntity
  8
LAYER_FEATURE
100
AcDbLine
 62
7
  6
CONTINUOUS
 10
17.4759592003
 20
11.0809053667
 11
17.4622323163
 21
11.1088778152
  0
LINE
  5
2B9
100
AcDbEntity
  8
LAYER_FEATURE
100
AcDbLine
 62
7
  6
CONTINUOUS
 10
17.5248644639
 20
11.1088778152
 11
17.5385913479
 21
11.0809053667
  0
LINE
  5
2BA
100
AcDbEntity
  8
LAYER_FEATURE
100
AcDbLine
 62
7
  6
CONTINUOUS
 10
16.8945293796
 20
10.7598829409
 11
16.8947769871
 21
10.7640699159
  0
LINE
  5
2BB
100
AcDbEntity
  8
LAYER_FEATURE
100
AcDbLine
 62
7
  6
CONTINUOUS
 10
16.8509133768
 20
11.1088778152
 11
16.8422692364
 21
11.0809053667
  0
LINE
  5
2BC
100
AcDbEntity
  8
LAYER_FEATURE
100
AcDbLine
 62
7
  6
CONTINUOUS
 10
16.8957314776
 20
10.7637749561
 11
16.96932617
 21
11.0019274679
  0
LINE
  5
2BD
100
AcDbEntity
  8
0
100
AcDbLine
 62
7
  6
CONTINUOUS
 10
12.7900091136
 20
14.2701579023
 11
19.0366447749
 21
14.2701579023
  0
LINE
  5
2BE
100
AcDbEntity
  8
0
100
AcDbLine
 62
7
  6
CONTINUOUS
 10
18.1096491642
 20
11.0809053667
 11
18.0867710242
 21
11.1275261143
  0
LINE
  5
2BF
100
AcDbEntity
  8
LAYER_FEATURE
100
AcDbLine
 62
7
  6
CONTINUOUS
 10
17.528466951
 20
10.7640699159
 11
17.4759592003
 21
11.0809053667
  0
LINE
  5
2C0
100
AcDbEntity
  8
LAYER_FEATURE
100
AcDbLine
 62
7
  6
CONTINUOUS
 10
17.5282193435
 20
10.7598829409
 11
17.528466951
 21
10.7640699159
  0
LINE
  5
2C1
100
AcDbEntity
  8
LAYER_FEATURE
100
AcDbLine
 62
7
  6
CONTINUOUS
 10
17.4846033407
 20
11.1088778152
 11
17.4759592003
 21
11.0809053667
  0
LINE
  5
2C2
100
AcDbEntity
  8
LAYER_FEATURE
100
AcDbLine
 62
7
  6
CONTINUOUS
 10
18.1621569149
 20
10.7640699159
 11
18.1096491642
 21
11.0809053667
  0
LINE
  5
2C3
100
AcDbEntity
  8
LAYER_FEATURE
100
AcDbLine
 62
7
  6
CONTINUOUS
 10
17.5294214414
 20
10.7637749561
 11
17.6030161338
 21
11.0019274679
  0
LINE
  5
2C4
100
AcDbEntity
  8
LAYER_FEATURE
100
AcDbLine
 62
7
  6
CONTINUOUS
 10
18.1619093073
 20
10.7598829409
 11
18.1621569149
 21
10.7640699159
  0
LINE
  5
2C5
100
AcDbEntity
  8
LAYER_FEATURE
100
AcDbLine
 62
7
  6
CONTINUOUS
 10
19.0779144578
 20
14.2142130052
 11
18.1096491642
 21
11.0809053667
  0
LINE
  5
2C6
100
AcDbEntity
  8
LAYER_FEATURE
100
AcDbLine
 62
7
  6
CONTINUOUS
 10
18.1631114053
 20
10.7637749561
 11
19.1301740298
 21
13.8931907557
  0
LINE
  5
2C7
100
AcDbEntity
  8
LAYER_FEATURE
100
AcDbLine
 62
7
  6
CONTINUOUS
 10
19.1304222085
 20
13.8973775544
 11
19.130174601
 21
13.8931905794
  0
LINE
  5
2C8
100
AcDbEntity
  8
0
100
AcDbLine
 62
7
  6
CONTINUOUS
 10
19.0550363178
 20
14.2608337528
 11
19.0779144578
 21
14.2142130052
  0
LINE
  5
2C9
100
AcDbEntity
  8
LAYER_FEATURE
100
AcDbLine
 62
7
  6
CONTINUOUS
 10
19.1304222085
 20
13.8973775544
 11
19.0779144578
 21
14.2142130052
  0
ARC
  5
2CA
100
AcDbEntity
  8
0
100
AcDbCircle
 62
7
  6
CONTINUOUS
 10
2.8613984555
 20
5.2359532301
 40
0.0258333333
100
AcDbArc
 50
192.3713234544
 51
270.0
  0
ARC
  5
2CB
100
AcDbEntity
  8
0
100
AcDbCircle
 62
7
  6
CONTINUOUS
 10
3.2073360968
 20
5.2359532301
 40
0.0258333333
100
AcDbArc
 50
270.0
 51
347.6286765456
  0
ARC
  5
2CC
100
AcDbEntity
  8
LAYER_FEATURE
100
AcDbCircle
 62
7
  6
CONTINUOUS
 10
3.5493984555
 20
5.2359532301
 40
0.0258333333
100
AcDbArc
 50
192.3713234544
 51
270.0
  0
ARC
  5
2CD
100
AcDbEntity
  8
LAYER_FEATURE
100
AcDbCircle
 62
7
  6
CONTINUOUS
 10
3.8953360968
 20
5.2359532301
 40
0.0258333333
100
AcDbArc
 50
270.0
 51
347.6286765456
  0
ARC
  5
2CE
100
AcDbEntity
  8
LAYER_FEATURE
100
AcDbCircle
 62
7
  6
CONTINUOUS
 10
4.2373984555
 20
5.2359532301
 40
0.0258333333
100
AcDbArc
 50
192.3713234544
 51
270.0
  0
ARC
  5
2CF
100
AcDbEntity
  8
LAYER_FEATURE
100
AcDbCircle
 62
7
  6
CONTINUOUS
 10
4.5833360968
 20
5.2359532301
 40
0.0258333333
100
AcDbArc
 50
270.0
 51
347.6286765456
  0
ARC
  5
2D0
100
AcDbEntity
  8
LAYER_FEATURE
100
AcDbCircle
 62
7
  6
CONTINUOUS
 10
4.9253984555
 20
5.2359532301
 40
0.0258333333
100
AcDbArc
 50
192.3713234544
 51
270.0
  0
ARC
  5
2D1
100
AcDbEntity
  8
LAYER_FEATURE
100
AcDbCircle
 62
7
  6
CONTINUOUS
 10
5.2713360968
 20
5.2359532301
 40
0.0258333333
100
AcDbArc
 50
270.0
 51
347.6286765456
  0
ARC
  5
2D2
100
AcDbEntity
  8
LAYER_FEATURE
100
AcDbCircle
 62
7
  6
CONTINUOUS
 10
5.6133984555
 20
5.2359532301
 40
0.0258333333
100
AcDbArc
 50
192.3713234544
 51
270.0
  0
ARC
  5
2D3
100
AcDbEntity
  8
LAYER_FEATURE
100
AcDbCircle
 62
7
  6
CONTINUOUS
 10
5.9593360968
 20
5.2359532301
 40
0.0258333333
100
AcDbArc
 50
270.0
 51
347.6286765456
  0
ARC
  5
2D4
100
AcDbEntity
  8
LAYER_FEATURE
100
AcDbCircle
 62
7
  6
CONTINUOUS
 10
6.3013984555
 20
5.2359532301
 40
0.0258333333
100
AcDbArc
 50
192.3713234544
 51
270.0
  0
ARC
  5
2D5
100
AcDbEntity
  8
LAYER_FEATURE
100
AcDbCircle
 62
7
  6
CONTINUOUS
 10
6.6473360968
 20
5.2359532301
 40
0.0258333333
100
AcDbArc
 50
270.0
 51
347.6286765456
  0
ARC
  5
2D6
100
AcDbEntity
  8
LAYER_FEATURE
100
AcDbCircle
 62
7
  6
CONTINUOUS
 10
6.9893984555
 20
5.2359532301
 40
0.0258333333
100
AcDbArc
 50
192.3713234544
 51
270.0
  0
ARC
  5
2D7
100
AcDbEntity
  8
LAYER_FEATURE
100
AcDbCircle
 62
7
  6
CONTINUOUS
 10
7.3353360968
 20
5.2359532301
 40
0.0258333333
100
AcDbArc
 50
270.0
 51
347.6286765456
  0
ARC
  5
2D8
100
AcDbEntity
  8
LAYER_FEATURE
100
AcDbCircle
 62
7
  6
CONTINUOUS
 10
7.6773984555
 20
5.2359532301
 40
0.0258333333
100
AcDbArc
 50
192.3713234544
 51
270.0
  0
ARC
  5
2D9
100
AcDbEntity
  8
LAYER_FEATURE
100
AcDbCircle
 62
7
  6
CONTINUOUS
 10
8.0233360968
 20
5.2359532301
 40
0.0258333333
100
AcDbArc
 50
270.0
 51
347.6286765456
  0
ARC
  5
2DA
100
AcDbEntity
  8
LAYER_FEATURE
100
AcDbCircle
 62
7
  6
CONTINUOUS
 10
9.3993360968
 20
5.2359532301
 40
0.0258333333
100
AcDbArc
 50
270.0
 51
347.6286765456
  0
ARC
  5
2DB
100
AcDbEntity
  8
LAYER_FEATURE
100
AcDbCircle
 62
7
  6
CONTINUOUS
 10
9.0533984555
 20
5.2359532301
 40
0.0258333333
100
AcDbArc
 50
192.3713234544
 51
270.0
  0
ARC
  5
2DC
100
AcDbEntity
  8
LAYER_FEATURE
100
AcDbCircle
 62
7
  6
CONTINUOUS
 10
8.7113360968
 20
5.2359532301
 40
0.0258333333
100
AcDbArc
 50
270.0
 51
347.6286765456
  0
ARC
  5
2DD
100
AcDbEntity
  8
LAYER_FEATURE
100
AcDbCircle
 62
7
  6
CONTINUOUS
 10
8.3653984555
 20
5.2359532301
 40
0.0258333333
100
AcDbArc
 50
192.3713234544
 51
270.0
  0
ARC
  5
2DE
100
AcDbEntity
  8
0
100
AcDbCircle
 62
7
  6
CONTINUOUS
 10
2.7393672762
 20
5.8151198968
 40
0.015
100
AcDbArc
 50
90.0
 51
180.0
  0
ARC
  5
2DF
100
AcDbEntity
  8
0
100
AcDbCircle
 62
7
  6
CONTINUOUS
 10
9.5213672762
 20
5.8151198968
 40
0.015
100
AcDbArc
 50
0.0
 51
90.0
  0
SPLINE
  5
2E0
100
AcDbEntity
  8
0
100
AcDbSpline
 62
7
  6
CONTINUOUS
 70
0
 71
3
 72
15
 73
11
 74
0
 42
0.0000001
 43
0.0000001
 44
0.0000000001
 40
0.0
 40
0.0
 40
0.0
 40
0.0
 40
0.1294165569
 40
0.2645180781
 40
0.4012970774
 40
0.5362628266
 40
0.6661560434
 40
0.78813941
 40
0.8999194788
 40
1.0
 40
1.0
 40
1.0
 40
1.0
 10
19.0366447749
 20
14.2701579023
 30
0.0
 10
19.0375726283
 20
14.2701579023
 30
0.0
 10
19.0394704326
 20
14.2700276941
 30
0.0
 10
19.0423044956
 20
14.2694992607
 30
0.0
 10
19.045098848
 20
14.2686412841
 30
0.0
 10
19.047746691
 20
14.2674938037
 30
0.0
 10
19.0501494382
 20
14.2660949803
 30
0.0
 10
19.0522223294
 20
14.2644988961
 30
0.0
 10
19.0538803492
 20
14.2627593611
 30
0.0
 10
19.0547202159
 20
14.2614779008
 30
0.0
 10
19.0550363178
 20
14.2608337528
 30
0.0
  0
SPLINE
  5
2E1
100
AcDbEntity
  8
0
100
AcDbSpline
 62
7
  6
CONTINUOUS
 70
0
 71
3
 72
10
 73
6
 74
0
 42
0.0000001
 43
0.0000001
 44
0.0000000001
 40
0.0
 40
0.0
 40
0.0
 40
0.0
 40
0.2343758129
 40
0.4761728829
 40
1.0
 40
1.0
 40
1.0
 40
1.0
 10
11.8119882216
 20
11.1319547729
 30
0.0
 10
11.8118829934
 20
11.1316150078
 30
0.0
 10
11.8117450423
 20
11.1308985286
 30
0.0
 10
11.8117819193
 20
11.1293728267
 30
0.0
 10
11.8121533208
 20
11.1282397718
 30
0.0
 10
11.812503533
 20
11.1275261143
 30
0.0
  0
SPLINE
  5
2E2
100
AcDbEntity
  8
0
100
AcDbSpline
 62
7
  6
CONTINUOUS
 70
0
 71
3
 72
13
 73
9
 74
0
 42
0.0000001
 43
0.0000001
 44
0.0000000001
 40
0.0
 40
0.0
 40
0.0
 40
0.0
 40
0.0997942201
 40
0.2030647278
 40
0.3128498857
 40
0.4312452013
 40
0.6971835619
 40
1.0
 40
1.0
 40
1.0
 40
1.0
 10
12.7802535152
 20
14.2652624114
 30
0.0
 10
12.7803678783
 20
14.2656316719
 30
0.0
 10
12.7806916828
 20
14.2663577805
 30
0.0
 10
12.7814283755
 20
14.2673315627
 30
0.0
 10
12.7824033698
 20
14.2681793271
 30
0.0
 10
12.7840540572
 20
14.2691645587
 30
0.0
 10
12.7866267614
 20
14.2699704464
 30
0.0
 10
12.7888361185
 20
14.2701579023
 30
0.0
 10
12.7900091136
 20
14.2701579023
 30
0.0
  0
SPLINE
  5
2E3
100
AcDbEntity
  8
LAYER_FEATURE
100
AcDbSpline
 62
7
  6
CONTINUOUS
 70
0
 71
3
 72
13
 73
9
 74
0
 42
0.0000001
 43
0.0000001
 44
0.0000000001
 40
0.0
 40
0.0
 40
0.0
 40
0.0
 40
0.3029784339
 40
0.5686874159
 40
0.6870511159
 40
0.7968225557
 40
0.900142951
 40
1.0
 40
1.0
 40
1.0
 40
1.0
 10
18.1451072792
 20
10.7514520835
 30
0.0
 10
18.1471285589
 20
10.7514520835
 30
0.0
 10
18.1509337819
 20
10.7517726093
 30
0.0
 10
18.1553624702
 20
10.7531638235
 30
0.0
 10
18.1582052482
 20
10.7548575394
 30
0.0
 10
18.1598830048
 20
10.756319129
 30
0.0
 10
18.1611547814
 20
10.7579946613
 30
0.0
 10
18.16171198
 20
10.7592466532
 30
0.0
 10
18.1619079478
 20
10.7598833605
 30
0.0
  0
SPLINE
  5
2E4
100
AcDbEntity
  8
LAYER_FEATURE
100
AcDbSpline
 62
7
  6
CONTINUOUS
 70
0
 71
3
 72
15
 73
11
 74
0
 42
0.0000001
 43
0.0000001
 44
0.0000000001
 40
0.0
 40
0.0
 40
0.0
 40
0.0
 40
0.1084931491
 40
0.2259418157
 40
0.3504335703
 40
0.4798961955
 40
0.6120757889
 40
0.7445576313
 40
0.8748189826
 40
1.0
 40
1.0
 40
1.0
 40
1.0
 10
17.7970441102
 20
10.7640699159
 30
0.0
 10
17.7977971336
 20
10.7631467898
 30
0.0
 10
17.7995254476
 20
10.7613525704
 30
0.0
 10
17.8025387059
 20
10.7589455241
 30
0.0
 10
17.8060061809
 20
10.75678286
 30
0.0
 10
17.8098232598
 20
10.7549208632
 30
0.0
 10
17.8138872481
 20
10.7534138563
 30
0.0
 10
17.818085292
 20
10.7522997141
 30
0.0
 10
17.8222965561
 20
10.7516173559
 30
0.0
 10
17.8251030667
 20
10.7514520835
 30
0.0
 10
17.8264776115
 20
10.7514520835
 30
0.0
  0
SPLINE
  5
2E5
100
AcDbEntity
  8
LAYER_FEATURE
100
AcDbSpline
 62
7
  6
CONTINUOUS
 70
0
 71
3
 72
13
 73
9
 74
0
 42
0.0000001
 43
0.0000001
 44
0.0000000001
 40
0.0
 40
0.0
 40
0.0
 40
0.0
 40
0.3029784339
 40
0.5686874159
 40
0.6870511159
 40
0.7968225557
 40
0.900142951
 40
1.0
 40
1.0
 40
1.0
 40
1.0
 10
17.5114173153
 20
10.7514520835
 30
0.0
 10
17.513438595
 20
10.7514520835
 30
0.0
 10
17.517243818
 20
10.7517726093
 30
0.0
 10
17.5216725063
 20
10.7531638235
 30
0.0
 10
17.5245152843
 20
10.7548575394
 30
0.0
 10
17.5261930409
 20
10.756319129
 30
0.0
 10
17.5274648175
 20
10.7579946613
 30
0.0
 10
17.5280220161
 20
10.7592466532
 30
0.0
 10
17.5282179839
 20
10.7598833605
 30
0.0
  0
SPLINE
  5
2E6
100
AcDbEntity
  8
LAYER_FEATURE
100
AcDbSpline
 62
7
  6
CONTINUOUS
 70
0
 71
3
 72
15
 73
11
 74
0
 42
0.0000001
 43
0.0000001
 44
0.0000000001
 40
0.0
 40
0.0
 40
0.0
 40
0.0
 40
0.1084931491
 40
0.2259418157
 40
0.3504335703
 40
0.4798961955
 40
0.6120757889
 40
0.7445576313
 40
0.8748189826
 40
1.0
 40
1.0
 40
1.0
 40
1.0
 10
17.1633541463
 20
10.7640699159
 30
0.0
 10
17.1641071697
 20
10.7631467898
 30
0.0
 10
17.1658354837
 20
10.7613525704
 30
0.0
 10
17.1688487421
 20
10.7589455241
 30
0.0
 10
17.172316217
 20
10.75678286
 30
0.0
 10
17.1761332959
 20
10.7549208632
 30
0.0
 10
17.1801972842
 20
10.7534138563
 30
0.0
 10
17.1843953282
 20
10.7522997141
 30
0.0
 10
17.1886065922
 20
10.7516173559
 30
0.0
 10
17.1914131028
 20
10.7514520835
 30
0.0
 10
17.1927876476
 20
10.7514520835
 30
0.0
  0
SPLINE
  5
2E7
100
AcDbEntity
  8
LAYER_FEATURE
100
AcDbSpline
 62
7
  6
CONTINUOUS
 70
0
 71
3
 72
13
 73
9
 74
0
 42
0.0000001
 43
0.0000001
 44
0.0000000001
 40
0.0
 40
0.0
 40
0.0
 40
0.0
 40
0.3029784339
 40
0.5686874159
 40
0.6870511159
 40
0.7968225557
 40
0.900142951
 40
1.0
 40
1.0
 40
1.0
 40
1.0
 10
16.8777273515
 20
10.7514520835
 30
0.0
 10
16.8797486312
 20
10.7514520835
 30
0.0
 10
16.8835538542
 20
10.7517726093
 30
0.0
 10
16.8879825424
 20
10.7531638235
 30
0.0
 10
16.8908253205
 20
10.7548575394
 30
0.0
 10
16.892503077
 20
10.756319129
 30
0.0
 10
16.8937748536
 20
10.7579946613
 30
0.0
 10
16.8943320523
 20
10.7592466532
 30
0.0
 10
16.89452802
 20
10.7598833605
 30
0.0
  0
SPLINE
  5
2E8
100
AcDbEntity
  8
LAYER_FEATURE
100
AcDbSpline
 62
7
  6
CONTINUOUS
 70
0
 71
3
 72
15
 73
11
 74
0
 42
0.0000001
 43
0.0000001
 44
0.0000000001
 40
0.0
 40
0.0
 40
0.0
 40
0.0
 40
0.1084931491
 40
0.2259418157
 40
0.3504335703
 40
0.4798961955
 40
0.6120757889
 40
0.7445576313
 40
0.8748189826
 40
1.0
 40
1.0
 40
1.0
 40
1.0
 10
16.5296641825
 20
10.7640699159
 30
0.0
 10
16.5304172059
 20
10.7631467898
 30
0.0
 10
16.5321455199
 20
10.7613525704
 30
0.0
 10
16.5351587782
 20
10.7589455241
 30
0.0
 10
16.5386262532
 20
10.75678286
 30
0.0
 10
16.5424433321
 20
10.7549208632
 30
0.0
 10
16.5465073203
 20
10.7534138563
 30
0.0
 10
16.5507053643
 20
10.7522997141
 30
0.0
 10
16.5549166284
 20
10.7516173559
 30
0.0
 10
16.5577231389
 20
10.7514520835
 30
0.0
 10
16.5590976837
 20
10.7514520835
 30
0.0
  0
SPLINE
  5
2E9
100
AcDbEntity
  8
LAYER_FEATURE
100
AcDbSpline
 62
7
  6
CONTINUOUS
 70
0
 71
3
 72
13
 73
9
 74
0
 42
0.0000001
 43
0.0000001
 44
0.0000000001
 40
0.0
 40
0.0
 40
0.0
 40
0.0
 40
0.3029784339
 40
0.5686874159
 40
0.6870511159
 40
0.7968225557
 40
0.900142951
 40
1.0
 40
1.0
 40
1.0
 40
1.0
 10
16.2440373876
 20
10.7514520835
 30
0.0
 10
16.2460586673
 20
10.7514520835
 30
0.0
 10
16.2498638903
 20
10.7517726093
 30
0.0
 10
16.2542925785
 20
10.7531638235
 30
0.0
 10
16.2571353566
 20
10.7548575394
 30
0.0
 10
16.2588131131
 20
10.756319129
 30
0.0
 10
16.2600848897
 20
10.7579946613
 30
0.0
 10
16.2606420884
 20
10.7592466532
 30
0.0
 10
16.2608380562
 20
10.7598833605
 30
0.0
  0
SPLINE
  5
2EA
100
AcDbEntity
  8
LAYER_FEATURE
100
AcDbSpline
 62
7
  6
CONTINUOUS
 70
0
 71
3
 72
15
 73
11
 74
0
 42
0.0000001
 43
0.0000001
 44
0.0000000001
 40
0.0
 40
0.0
 40
0.0
 40
0.0
 40
0.1084931491
 40
0.2259418157
 40
0.3504335703
 40
0.4798961955
 40
0.6120757889
 40
0.7445576313
 40
0.8748189826
 40
1.0
 40
1.0
 40
1.0
 40
1.0
 10
15.8959742186
 20
10.7640699159
 30
0.0
 10
15.896727242
 20
10.7631467898
 30
0.0
 10
15.898455556
 20
10.7613525704
 30
0.0
 10
15.9014688143
 20
10.7589455241
 30
0.0
 10
15.9049362893
 20
10.75678286
 30
0.0
 10
15.9087533682
 20
10.7549208632
 30
0.0
 10
15.9128173564
 20
10.7534138563
 30
0.0
 10
15.9170154004
 20
10.7522997141
 30
0.0
 10
15.9212266645
 20
10.7516173559
 30
0.0
 10
15.924033175
 20
10.7514520835
 30
0.0
 10
15.9254077199
 20
10.7514520835
 30
0.0
  0
SPLINE
  5
2EB
100
AcDbEntity
  8
LAYER_FEATURE
100
AcDbSpline
 62
7
  6
CONTINUOUS
 70
0
 71
3
 72
13
 73
9
 74
0
 42
0.0000001
 43
0.0000001
 44
0.0000000001
 40
0.0
 40
0.0
 40
0.0
 40
0.0
 40
0.3029784339
 40
0.5686874159
 40
0.6870511159
 40
0.7968225557
 40
0.900142951
 40
1.0
 40
1.0
 40
1.0
 40
1.0
 10
15.6103474237
 20
10.7514520835
 30
0.0
 10
15.6123687034
 20
10.7514520835
 30
0.0
 10
15.6161739264
 20
10.7517726093
 30
0.0
 10
15.6206026147
 20
10.7531638235
 30
0.0
 10
15.6234453927
 20
10.7548575394
 30
0.0
 10
15.6251231493
 20
10.756319129
 30
0.0
 10
15.6263949259
 20
10.7579946613
 30
0.0
 10
15.6269521245
 20
10.7592466532
 30
0.0
 10
15.6271480923
 20
10.7598833605
 30
0.0
  0
SPLINE
  5
2EC
100
AcDbEntity
  8
LAYER_FEATURE
100
AcDbSpline
 62
7
  6
CONTINUOUS
 70
0
 71
3
 72
15
 73
11
 74
0
 42
0.0000001
 43
0.0000001
 44
0.0000000001
 40
0.0
 40
0.0
 40
0.0
 40
0.0
 40
0.1084931491
 40
0.2259418157
 40
0.3504335703
 40
0.4798961955
 40
0.6120757889
 40
0.7445576313
 40
0.8748189826
 40
1.0
 40
1.0
 40
1.0
 40
1.0
 10
15.2622842547
 20
10.7640699159
 30
0.0
 10
15.2630372781
 20
10.7631467898
 30
0.0
 10
15.2647655921
 20
10.7613525704
 30
0.0
 10
15.2677788504
 20
10.7589455241
 30
0.0
 10
15.2712463254
 20
10.75678286
 30
0.0
 10
15.2750634043
 20
10.7549208632
 30
0.0
 10
15.2791273926
 20
10.7534138563
 30
0.0
 10
15.2833254365
 20
10.7522997141
 30
0.0
 10
15.2875367006
 20
10.7516173559
 30
0.0
 10
15.2903432112
 20
10.7514520835
 30
0.0
 10
15.291717756
 20
10.7514520835
 30
0.0
  0
SPLINE
  5
2ED
100
AcDbEntity
  8
LAYER_FEATURE
100
AcDbSpline
 62
7
  6
CONTINUOUS
 70
0
 71
3
 72
13
 73
9
 74
0
 42
0.0000001
 43
0.0000001
 44
0.0000000001
 40
0.0
 40
0.0
 40
0.0
 40
0.0
 40
0.3029785449
 40
0.5686876234
 40
0.6870512194
 40
0.7968228209
 40
0.9001433872
 40
1.0
 40
1.0
 40
1.0
 40
1.0
 10
14.9766574599
 20
10.7514520835
 30
0.0
 10
14.9786787401
 20
10.7514520835
 30
0.0
 10
14.9824839628
 20
10.7517726161
 30
0.0
 10
14.9869126551
 20
10.7531638192
 30
0.0
 10
14.9897554318
 20
10.7548575401
 30
0.0
 10
14.9914331844
 20
10.7563191369
 30
0.0
 10
14.9927049555
 20
10.7579946704
 30
0.0
 10
14.9932621661
 20
10.7592466545
 30
0.0
 10
14.9934581355
 20
10.7598833582
 30
0.0
  0
SPLINE
  5
2EE
100
AcDbEntity
  8
LAYER_FEATURE
100
AcDbSpline
 62
7
  6
CONTINUOUS
 70
0
 71
3
 72
15
 73
11
 74
0
 42
0.0000001
 43
0.0000001
 44
0.0000000001
 40
0.0
 40
0.0
 40
0.0
 40
0.0
 40
0.1084931491
 40
0.2259418157
 40
0.3504335703
 40
0.4798961955
 40
0.6120757889
 40
0.7445576313
 40
0.8748189826
 40
1.0
 40
1.0
 40
1.0
 40
1.0
 10
14.6285942908
 20
10.7640699159
 30
0.0
 10
14.6293473142
 20
10.7631467898
 30
0.0
 10
14.6310756282
 20
10.7613525704
 30
0.0
 10
14.6340888866
 20
10.7589455241
 30
0.0
 10
14.6375563615
 20
10.75678286
 30
0.0
 10
14.6413734404
 20
10.7549208632
 30
0.0
 10
14.6454374287
 20
10.7534138563
 30
0.0
 10
14.6496354727
 20
10.7522997141
 30
0.0
 10
14.6538467368
 20
10.7516173559
 30
0.0
 10
14.6566532473
 20
10.7514520835
 30
0.0
 10
14.6580277921
 20
10.7514520835
 30
0.0
  0
SPLINE
  5
2EF
100
AcDbEntity
  8
LAYER_FEATURE
100
AcDbSpline
 62
7
  6
CONTINUOUS
 70
0
 71
3
 72
13
 73
9
 74
0
 42
0.0000001
 43
0.0000001
 44
0.0000000001
 40
0.0
 40
0.0
 40
0.0
 40
0.0
 40
0.3029784339
 40
0.5686874159
 40
0.6870511159
 40
0.7968225557
 40
0.900142951
 40
1.0
 40
1.0
 40
1.0
 40
1.0
 10
14.342967496
 20
10.7514520835
 30
0.0
 10
14.3449887757
 20
10.7514520835
 30
0.0
 10
14.3487939987
 20
10.7517726093
 30
0.0
 10
14.3532226869
 20
10.7531638235
 30
0.0
 10
14.356065465
 20
10.7548575394
 30
0.0
 10
14.3577432215
 20
10.756319129
 30
0.0
 10
14.3590149981
 20
10.7579946613
 30
0.0
 10
14.3595721968
 20
10.7592466532
 30
0.0
 10
14.3597681645
 20
10.7598833605
 30
0.0
  0
SPLINE
  5
2F0
100
AcDbEntity
  8
LAYER_FEATURE
100
AcDbSpline
 62
7
  6
CONTINUOUS
 70
0
 71
3
 72
15
 73
11
 74
0
 42
0.0000001
 43
0.0000001
 44
0.0000000001
 40
0.0
 40
0.0
 40
0.0
 40
0.0
 40
0.1084931491
 40
0.2259418157
 40
0.3504335703
 40
0.4798961955
 40
0.6120757889
 40
0.7445576313
 40
0.8748189826
 40
1.0
 40
1.0
 40
1.0
 40
1.0
 10
13.994904327
 20
10.7640699159
 30
0.0
 10
13.9956573504
 20
10.7631467898
 30
0.0
 10
13.9973856644
 20
10.7613525704
 30
0.0
 10
14.0003989227
 20
10.7589455241
 30
0.0
 10
14.0038663977
 20
10.75678286
 30
0.0
 10
14.0076834766
 20
10.7549208632
 30
0.0
 10
14.0117474648
 20
10.7534138563
 30
0.0
 10
14.0159455088
 20
10.7522997141
 30
0.0
 10
14.0201567729
 20
10.7516173559
 30
0.0
 10
14.0229632834
 20
10.7514520835
 30
0.0
 10
14.0243378282
 20
10.7514520835
 30
0.0
  0
SPLINE
  5
2F1
100
AcDbEntity
  8
LAYER_FEATURE
100
AcDbSpline
 62
7
  6
CONTINUOUS
 70
0
 71
3
 72
13
 73
9
 74
0
 42
0.0000001
 43
0.0000001
 44
0.0000000001
 40
0.0
 40
0.0
 40
0.0
 40
0.0
 40
0.3029784339
 40
0.5686874159
 40
0.6870511159
 40
0.7968225557
 40
0.900142951
 40
1.0
 40
1.0
 40
1.0
 40
1.0
 10
13.7092775321
 20
10.7514520835
 30
0.0
 10
13.7112988118
 20
10.7514520835
 30
0.0
 10
13.7151040348
 20
10.7517726093
 30
0.0
 10
13.719532723
 20
10.7531638235
 30
0.0
 10
13.7223755011
 20
10.7548575394
 30
0.0
 10
13.7240532577
 20
10.756319129
 30
0.0
 10
13.7253250342
 20
10.7579946613
 30
0.0
 10
13.7258822329
 20
10.7592466532
 30
0.0
 10
13.7260782007
 20
10.7598833605
 30
0.0
  0
SPLINE
  5
2F2
100
AcDbEntity
  8
LAYER_FEATURE
100
AcDbSpline
 62
7
  6
CONTINUOUS
 70
0
 71
3
 72
15
 73
11
 74
0
 42
0.0000001
 43
0.0000001
 44
0.0000000001
 40
0.0
 40
0.0
 40
0.0
 40
0.0
 40
0.1084931491
 40
0.2259418157
 40
0.3504335703
 40
0.4798961955
 40
0.6120757889
 40
0.7445576313
 40
0.8748189826
 40
1.0
 40
1.0
 40
1.0
 40
1.0
 10
13.3612143631
 20
10.7640699159
 30
0.0
 10
13.3619673865
 20
10.7631467898
 30
0.0
 10
13.3636957005
 20
10.7613525704
 30
0.0
 10
13.3667089588
 20
10.7589455241
 30
0.0
 10
13.3701764338
 20
10.75678286
 30
0.0
 10
13.3739935127
 20
10.7549208632
 30
0.0
 10
13.3780575009
 20
10.7534138563
 30
0.0
 10
13.3822555449
 20
10.7522997141
 30
0.0
 10
13.386466809
 20
10.7516173559
 30
0.0
 10
13.3892733195
 20
10.7514520835
 30
0.0
 10
13.3906478644
 20
10.7514520835
 30
0.0
  0
SPLINE
  5
2F3
100
AcDbEntity
  8
LAYER_FEATURE
100
AcDbSpline
 62
7
  6
CONTINUOUS
 70
0
 71
3
 72
13
 73
9
 74
0
 42
0.0000001
 43
0.0000001
 44
0.0000000001
 40
0.0
 40
0.0
 40
0.0
 40
0.0
 40
0.3029784339
 40
0.5686874159
 40
0.6870511159
 40
0.7968225557
 40
0.900142951
 40
1.0
 40
1.0
 40
1.0
 40
1.0
 10
13.0755875682
 20
10.7514520835
 30
0.0
 10
13.0776088479
 20
10.7514520835
 30
0.0
 10
13.0814140709
 20
10.7517726093
 30
0.0
 10
13.0858427592
 20
10.7531638235
 30
0.0
 10
13.0886855372
 20
10.7548575394
 30
0.0
 10
13.0903632938
 20
10.756319129
 30
0.0
 10
13.0916350704
 20
10.7579946613
 30
0.0
 10
13.092192269
 20
10.7592466532
 30
0.0
 10
13.0923882368
 20
10.7598833605
 30
0.0
  0
SPLINE
  5
2F4
100
AcDbEntity
  8
LAYER_FEATURE
100
AcDbSpline
 62
7
  6
CONTINUOUS
 70
0
 71
3
 72
15
 73
11
 74
0
 42
0.0000001
 43
0.0000001
 44
0.0000000001
 40
0.0
 40
0.0
 40
0.0
 40
0.0
 40
0.1084931491
 40
0.2259418157
 40
0.3504335703
 40
0.4798961955
 40
0.6120757889
 40
0.7445576313
 40
0.8748189826
 40
1.0
 40
1.0
 40
1.0
 40
1.0
 10
12.7275243992
 20
10.7640699159
 30
0.0
 10
12.7282774226
 20
10.7631467898
 30
0.0
 10
12.7300057366
 20
10.7613525704
 30
0.0
 10
12.7330189949
 20
10.7589455241
 30
0.0
 10
12.7364864699
 20
10.75678286
 30
0.0
 10
12.7403035488
 20
10.7549208632
 30
0.0
 10
12.7443675371
 20
10.7534138563
 30
0.0
 10
12.748565581
 20
10.7522997141
 30
0.0
 10
12.7527768451
 20
10.7516173559
 30
0.0
 10
12.7555833557
 20
10.7514520835
 30
0.0
 10
12.7569579005
 20
10.7514520835
 30
0.0
  0
SPLINE
  5
2F5
100
AcDbEntity
  8
0
100
AcDbSpline
 62
7
  6
CONTINUOUS
 70
0
 71
3
 72
13
 73
9
 74
0
 42
0.0000001
 43
0.0000001
 44
0.0000000001
 40
0.0
 40
0.0
 40
0.0
 40
0.0
 40
0.3029784339
 40
0.5686874159
 40
0.6870511159
 40
0.7968225557
 40
0.900142951
 40
1.0
 40
1.0
 40
1.0
 40
1.0
 10
12.4418976044
 20
10.7514520835
 30
0.0
 10
12.443918884
 20
10.7514520835
 30
0.0
 10
12.4477241071
 20
10.7517726093
 30
0.0
 10
12.4521527953
 20
10.7531638235
 30
0.0
 10
12.4549955733
 20
10.7548575394
 30
0.0
 10
12.4566733299
 20
10.756319129
 30
0.0
 10
12.4579451065
 20
10.7579946613
 30
0.0
 10
12.4585023052
 20
10.7592466532
 30
0.0
 10
12.4586982729
 20
10.7598833605
 30
0.0
  0
SPLINE
  5
2F6
100
AcDbEntity
  8
0
100
AcDbSpline
 62
7
  6
CONTINUOUS
 70
0
 71
3
 72
15
 73
11
 74
0
 42
0.0000001
 43
0.0000001
 44
0.0000000001
 40
0.0
 40
0.0
 40
0.0
 40
0.0
 40
0.1084931491
 40
0.2259418157
 40
0.3504335703
 40
0.4798961955
 40
0.6120757889
 40
0.7445576313
 40
0.8748189826
 40
1.0
 40
1.0
 40
1.0
 40
1.0
 10
12.0938344353
 20
10.7640699159
 30
0.0
 10
12.0945874588
 20
10.7631467898
 30
0.0
 10
12.0963157727
 20
10.7613525704
 30
0.0
 10
12.0993290311
 20
10.7589455241
 30
0.0
 10
12.1027965061
 20
10.75678286
 30
0.0
 10
12.1066135849
 20
10.7549208632
 30
0.0
 10
12.1106775732
 20
10.7534138563
 30
0.0
 10
12.1148756172
 20
10.7522997141
 30
0.0
 10
12.1190868813
 20
10.7516173559
 30
0.0
 10
12.1218933918
 20
10.7514520835
 30
0.0
 10
12.1232679366
 20
10.7514520835
 30
0.0
  0
SPLINE
  5
2F7
100
AcDbEntity
  8
0
100
AcDbSpline
 62
7
  6
CONTINUOUS
 70
0
 71
3
 72
13
 73
9
 74
0
 42
0.0000001
 43
0.0000001
 44
0.0000000001
 40
0.0
 40
0.0
 40
0.0
 40
0.0
 40
0.3028164381
 40
0.5687547987
 40
0.6871501143
 40
0.7969352722
 40
0.9002057799
 40
1.0
 40
1.0
 40
1.0
 40
1.0
 10
11.8217438199
 20
11.1368502638
 30
0.0
 10
11.8205708249
 20
11.1368502638
 30
0.0
 10
11.8183614678
 20
11.1366628079
 30
0.0
 10
11.8157887636
 20
11.1358569202
 30
0.0
 10
11.8141380762
 20
11.1348716886
 30
0.0
 10
11.8131630819
 20
11.1340239242
 30
0.0
 10
11.8124263892
 20
11.133050142
 30
0.0
 10
11.8121025847
 20
11.1323240334
 30
0.0
 10
11.8119882216
 20
11.1319547729
 30
0.0
  0
SPLINE
  5
2F8
100
AcDbEntity
  8
0
100
AcDbSpline
 62
7
  6
CONTINUOUS
 70
0
 71
3
 72
15
 73
11
 74
0
 42
0.0000001
 43
0.0000001
 44
0.0000000001
 40
0.0
 40
0.0
 40
0.0
 40
0.0
 40
0.1000805212
 40
0.21186059
 40
0.3338439566
 40
0.4637371734
 40
0.5987029226
 40
0.7354819219
 40
0.8705834431
 40
1.0
 40
1.0
 40
1.0
 40
1.0
 10
18.0867710242
 20
11.1275261143
 30
0.0
 10
18.0864549223
 20
11.1281702622
 30
0.0
 10
18.0856150556
 20
11.1294517226
 30
0.0
 10
18.0839570358
 20
11.1311912576
 30
0.0
 10
18.0818841445
 20
11.1327873418
 30
0.0
 10
18.0794813974
 20
11.1341861652
 30
0.0
 10
18.0768335544
 20
11.1353336456
 30
0.0
 10
18.074039202
 20
11.1361916222
 30
0.0
 10
18.071205139
 20
11.1367200556
 30
0.0
 10
18.0693073347
 20
11.1368502638
 30
0.0
 10
18.0683794813
 20
11.1368502638
 30
0.0
  0
ENDSEC
  0
SECTION
  2
OBJECTS
  0
DICTIONARY
  5
C
100
AcDbDictionary
280
0
281
1
  3
ACAD_GROUP
350
D
  3
ACAD_MLINESTYLE
350
17
  3
ACAD_LAYOUT
350
1A
  3
ACAD_PLOTSETTINGS
350
19
  3
ACAD_PLOTSTYLENAME
350
E
  0
DICTIONARY
  5
D
102
{ACAD_REACTORS
330
C
102
}
100
AcDbDictionary
280
0
281
1
  0
ACDBDICTIONARYWDFLT
  5
E
102
{ACAD_REACTORS
330
C
102
}
100
AcDbDictionary
281
1
  3
Normal
350
F
100
AcDbDictionaryWithDefault
340
F
  0
DICTIONARY
  5
17
102
{ACAD_REACTORS
330
C
102
}
100
AcDbDictionary
280
0
281
1
  3
Standard
350
18
  0
DICTIONARY
  5
19
102
{ACAD_REACTORS
330
C
102
}
100
AcDbDictionary
281
1
  0
DICTIONARY
  5
1A
102
{ACAD_REACTORS
330
C
102
}
100
AcDbDictionary
281
1
  3
Model
350
2F9
  3
Layout1
350
2FA
  0
ACDBPLACEHOLDER
  5
F
102
{ACAD_REACTORS
330
E
102
}
  0
MLINESTYLE
  5
18
102
{ACAD_REACTORS
330
17
102
}
100
AcDbMlineStyle
  2
STANDARD
 70
0
  3

 62
256
 51
90.0
 52
90.0
 71
2
 49
0.5
 62
256
  6
BYLAYER
 49
-0.5
 62
256
  6
BYLAYER
  0
LAYOUT
  5
2F9
102
{ACAD_REACTORS
330
1A
102
}
100
AcDbPlotSettings
  1

  2
none_device
  4
ANSI_C_(22.00_x_17.00_Inches)
  6

 40
0.0
 41
0.0
 42
0.0
 43
0.0
 44
558.8
 45
431.8
 46
0.0
 47
0.0
 48
0.0
 49
0.0
140
0.0
141
0.0
142
1.0
143
1.0
 70
1024
 72
0
 73
0
 74
0
  7

 75
0
147
1.0
148
0.0
149
0.0
100
AcDbLayout
  1
Model
 70
0
 71
0
 10
0.0
 20
0.0
 11
22.0
 21
17.0
 12
0.0
 22
0.0
 32
0.0
 14
0.0
 24
0.0
 34
0.0
 15
0.0
 25
0.0
 35
0.0
146
0.0
 13
0.0
 23
0.0
 33
0.0
 16
1.0
 26
0.0
 36
0.0
 17
0.0
 27
1.0
 37
0.0
 76
0
330
21C
345
0
346
0
  0
LAYOUT
  5
2FA
102
{ACAD_REACTORS
330
1A
102
}
100
AcDbPlotSettings
  1

  2
none_device
  4
ANSI_C_(22.00_x_17.00_Inches)
  6

 40
0.0
 41
0.0
 42
0.0
 43
0.0
 44
558.8
 45
431.8
 46
0.0
 47
0.0
 48
0.0
 49
0.0
140
0.0
141
0.0
142
1.0
143
1.0
 70
0
 72
0
 73
0
 74
0
  7

 75
0
147
1.0
148
0.0
149
0.0
100
AcDbLayout
  1
Layout1
 70
0
 71
1
 10
0.0
 20
0.0
 11
22.0
 21
17.0
 12
0.0
 22
0.0
 32
0.0
 14
0.0
 24
0.0
 34
0.0
 15
0.0
 25
0.0
 35
0.0
146
0.0
 13
0.0
 23
0.0
 33
0.0
 16
1.0
 26
0.0
 36
0.0
 17
0.0
 27
1.0
 37
0.0
 76
0
330
21D
345
0
346
0
  0
ENDSEC
  0
EOF