999
DXF file: _cgs_temp_output.dxf
999
Pro/ENGINEER 2015110 by Parametric Technology Corporation
  0
SECTION
  2
HEADER
  9
$ACADVER
  1
AC1021
  9
$DWGCODEPAGE
  3
ANSI_1252
  9
$EXTMAX
 10
22.0
 20
17.0
 30
0.0
  9
$EXTMIN
 10
0.0
 20
0.0
 30
0.0
  9
$LIMMIN
 10
0.0
 20
0.0
  9
$LIMMAX
 10
22.0
 20
17.0
  9
$VIEWCTR
 10
11.0
 20
8.5
  9
$VIEWSIZE
 40
17.0
  9
$CLAYER
  8
0
  9
$LTSCALE
 40
1.21
  9
$CELTYPE
  6
BYLAYER
  9
$DIMSCALE
 40
1.0
  9
$DIMASZ
 40
0.1875
  9
$DIMEXO
 40
0.0625
  9
$DIMDLI
 40
0.836
  9
$DIMEXE
 40
0.125
  9
$DIMCEN
 40
0.198
  9
$DIMLFAC
 40
1.0
  9
$DIMBLK
  1
_CLOSED
  9
$DIMALT
 70
0
  9
$DIMALTF
 40
25.4
  9
$DIMTXT
 40
0.15625
  9
$DIMTOL
 70
0
  9
$DIMLIM
 70
0
  9
$DIMTFAC
 40
1.0
  9
$DIMGAP
 40
0.09
  9
$DIMDSEP
 70
46
  9
$AUNITS
 70
0
  9
$PDMODE
 70
3
  9
$PDSIZE
 40
0.3125
  9
$HANDSEED
  5
2FB
  9
$TILEMODE
 70
1
  9
$MEASUREMENT
 70
0
  9
$INSUNITS
 70
1
  0
ENDSEC
  0
SECTION
  2
CLASSES
  0
CLASS
  1
ACDBDICTIONARYWDFLT
  2
AcDbDictionaryWithDefault
  3
AutoCAD 2000
 90
0
 91
1
280
0
281
0
  0
CLASS
  1
ACDBPLACEHOLDER
  2
AcDbPlaceHolder
  3
AutoCAD 2000
 90
0
 91
1
280
0
281
0
  0
CLASS
  1
LAYOUT
  2
AcDbLayout
  3
AutoCAD 2000
 90
0
 91
0
280
0
281
0
  0
ENDSEC
  0
SECTION
  2
TABLES
  0
TABLE
  2
VPORT
  5
8
100
AcDbSymbolTable
 70
2
  0
VPORT
  5
1F4
100
AcDbSymbolTableRecord
100
AcDbViewportTableRecord
  2
*ACTIVE
 70
0
 10
0.0
 20
0.0
 11
1.0
 21
1.0
 12
11.0
 22
8.5
 13
0.0
 23
0.0
 14
1.0
 24
1.0
 15
0.0
 25
0.0
 16
0.0
 26
0.0
 36
1.0
 17
0.0
 27
0.0
 37
0.0
 40
17.0
 41
1.2941176471
 42
50.0
 43
0.0
 44
0.0
 50
0.0
 51
0.0
 71
0
 72
100
 73
1
 74
1
 75
0
 76
0
 77
0
 78
0
  0
ENDTAB
  0
TABLE
  2
LTYPE
  5
5
100
AcDbSymbolTable
 70
6
  0
LTYPE
  5
14
100
AcDbSymbolTableRecord
100
AcDbLinetypeTableRecord
  2
BYBLOCK
 70
0
  3

 72
65
 73
0
 40
0.0
  0
LTYPE
  5
15
100
AcDbSymbolTableRecord
100
AcDbLinetypeTableRecord
  2
BYLAYER
 70
0
  3

 72
65
 73
0
 40
0.0
  0
LTYPE
  5
16
100
AcDbSymbolTableRecord
100
AcDbLinetypeTableRecord
  2
CONTINUOUS
 70
64
  3
Solid line
 72
65
 73
0
 40
0.0
  0
LTYPE
  5
1F5
100
AcDbSymbolTableRecord
100
AcDbLinetypeTableRecord
  2
CENTER
 70
64
  3
____ _ ____ _ ____ _ ____ _ ____ _ ____ _ ____
 72
65
 73
4
 40
0.6
 49
0.375
 74
0
 49
-0.075
 74
0
 49
0.075
 74
0
 49
-0.075
 74
0
  0
LTYPE
  5
1F6
100
AcDbSymbolTableRecord
100
AcDbLinetypeTableRecord
  2
HIDDEN
 70
64
  3
- - - - - - - - - - - - - - - - - - - -
 72
65
 73
2
 40
0.2
 49
0.1
 74
0
 49
-0.1
 74
0
  0
LTYPE
  5
1F7
100
AcDbSymbolTableRecord
100
AcDbLinetypeTableRecord
  2
PHANTOM
 70
64
  3
_____ _ _ _____ _ _ _____ _ _ _____
 72
65
 73
6
 40
0.8
 49
0.45
 74
0
 49
-0.05
 74
0
 49
0.1
 74
0
 49
-0.05
 74
0
 49
0.1
 74
0
 49
-0.05
 74
0
  0
LTYPE
  5
1F8
100
AcDbSymbolTableRecord
100
AcDbLinetypeTableRecord
  2
DOT
 70
64
  3
. . . . . . . . . . . . . . . . . . . .
 72
65
 73
2
 40
0.2
 49
0.1
 74
0
 49
-0.1
 74
0
  0
LTYPE
  5
1F9
100
AcDbSymbolTableRecord
100
AcDbLinetypeTableRecord
  2
DASHED
 70
64
  3
- - - - - - - - - - - - - - - - - - - -
 72
65
 73
2
 40
0.2
 49
0.1
 74
0
 49
-0.1
 74
0
  0
ENDTAB
  0
TABLE
  2
LAYER
  5
2
100
AcDbSymbolTable
 70
36
  0
LAYER
  5
10
100
AcDbSymbolTableRecord
100
AcDbLayerTableRecord
  2
0
 70
0
 62
7
  6
CONTINUOUS
370
-3
390
F
  0
LAYER
  5
1FA
100
AcDbSymbolTableRecord
100
AcDbLayerTableRecord
  2
DEFAULT_1
 70
0
 62
7
  6
CENTER
370
-3
390
F
  0
LAYER
  5
1FB
100
AcDbSymbolTableRecord
100
AcDbLayerTableRecord
  2
DEFAULT_2
 70
0
 62
8
  6
HIDDEN
370
-3
390
F
  0
LAYER
  5
1FC
100
AcDbSymbolTableRecord
100
AcDbLayerTableRecord
  2
DEFAULT_3
 70
0
 62
7
  6
PHANTOM
370
-3
390
F
  0
LAYER
  5
1FD
100
AcDbSymbolTableRecord
100
AcDbLayerTableRecord
  2
01_ALL_DTM_PLN
 70
0
 62
7
  6
CONTINUOUS
370
-3
390
F
  0
LAYER
  5
1FE
100
AcDbSymbolTableRecord
100
AcDbLayerTableRecord
  2
01__ASM_ALL_DTM_PLN
 70
0
 62
7
  6
CONTINUOUS
370
-3
390
F
  0
LAYER
  5
1FF
100
AcDbSymbolTableRecord
100
AcDbLayerTableRecord
  2
01__ASM_DEF_DTM_PLN
 70
0
 62
7
  6
CONTINUOUS
370
-3
390
F
  0
LAYER
  5
200
100
AcDbSymbolTableRecord
100
AcDbLayerTableRecord
  2
01___PRT_ALL_DTM_PLN
 70
0
 62
7
  6
CONTINUOUS
370
-3
390
F
  0
LAYER
  5
201
100
AcDbSymbolTableRecord
100
AcDbLayerTableRecord
  2
01___PRT_DEF_DTM_PLN
 70
0
 62
7
  6
CONTINUOUS
370
-3
390
F
  0
LAYER
  5
202
100
AcDbSymbolTableRecord
100
AcDbLayerTableRecord
  2
02_ALL_AXES
 70
0
 62
7
  6
CONTINUOUS
370
-3
390
F
  0
LAYER
  5
203
100
AcDbSymbolTableRecord
100
AcDbLayerTableRecord
  2
02__ASM_ALL_AXES
 70
0
 62
7
  6
CONTINUOUS
370
-3
390
F
  0
LAYER
  5
204
100
AcDbSymbolTableRecord
100
AcDbLayerTableRecord
  2
02___PRT_ALL_AXES
 70
0
 62
7
  6
CONTINUOUS
370
-3
390
F
  0
LAYER
  5
205
100
AcDbSymbolTableRecord
100
AcDbLayerTableRecord
  2
03_ALL_CURVES
 70
0
 62
7
  6
CONTINUOUS
370
-3
390
F
  0
LAYER
  5
206
100
AcDbSymbolTableRecord
100
AcDbLayerTableRecord
  2
03__ASM_ALL_CURVES
 70
0
 62
7
  6
CONTINUOUS
370
-3
390
F
  0
LAYER
  5
207
100
AcDbSymbolTableRecord
100
AcDbLayerTableRecord
  2
03___PRT_ALL_CURVES
 70
0
 62
7
  6
CONTINUOUS
370
-3
390
F
  0
LAYER
  5
208
100
AcDbSymbolTableRecord
100
AcDbLayerTableRecord
  2
04_ALL_DTM_PNT
 70
0
 62
7
  6
CONTINUOUS
370
-3
390
F
  0
LAYER
  5
209
100
AcDbSymbolTableRecord
100
AcDbLayerTableRecord
  2
04__ASM_ALL_DTM_PNT
 70
0
 62
7
  6
CONTINUOUS
370
-3
390
F
  0
LAYER
  5
20A
100
AcDbSymbolTableRecord
100
AcDbLayerTableRecord
  2
04___PRT_ALL_DTM_PNT
 70
0
 62
7
  6
CONTINUOUS
370
-3
390
F
  0
LAYER
  5
20B
100
AcDbSymbolTableRecord
100
AcDbLayerTableRecord
  2
05_ALL_DTM_CSYS
 70
0
 62
7
  6
CONTINUOUS
370
-3
390
F
  0
LAYER
  5
20C
100
AcDbSymbolTableRecord
100
AcDbLayerTableRecord
  2
05__ASM_ALL_DTM_CSYS
 70
0
 62
7
  6
CONTINUOUS
370
-3
390
F
  0
LAYER
  5
20D
100
AcDbSymbolTableRecord
100
AcDbLayerTableRecord
  2
05__ASM_DEF_DTM_CSYS
 70
0
 62
7
  6
CONTINUOUS
370
-3
390
F
  0
LAYER
  5
20E
100
AcDbSymbolTableRecord
100
AcDbLayerTableRecord
  2
05___PRT_ALL_DTM_CSYS
 70
0
 62
7
  6
CONTINUOUS
370
-3
390
F
  0
LAYER
  5
20F
100
AcDbSymbolTableRecord
100
AcDbLayerTableRecord
  2
05___PRT_DEF_DTM_CSYS
 70
0
 62
7
  6
CONTINUOUS
370
-3
390
F
  0
LAYER
  5
210
100
AcDbSymbolTableRecord
100
AcDbLayerTableRecord
  2
06_ALL_SURFS
 70
0
 62
7
  6
CONTINUOUS
370
-3
390
F
  0
LAYER
  5
211
100
AcDbSymbolTableRecord
100
AcDbLayerTableRecord
  2
06__ASM_ALL_SURFS
 70
0
 62
7
  6
CONTINUOUS
370
-3
390
F
  0
LAYER
  5
212
100
AcDbSymbolTableRecord
100
AcDbLayerTableRecord
  2
06___PRT_ALL_SURFS
 70
0
 62
7
  6
CONTINUOUS
370
-3
390
F
  0
LAYER
  5
213
100
AcDbSymbolTableRecord
100
AcDbLayerTableRecord
  2
07__ASM_ALL_SKELETONS
 70
0
 62
7
  6
CONTINUOUS
370
-3
390
F
  0
LAYER
  5
214
100
AcDbSymbolTableRecord
100
AcDbLayerTableRecord
  2
LAYER_DIM
 70
0
 62
7
  6
CONTINUOUS
370
-3
390
F
  0
LAYER
  5
215
100
AcDbSymbolTableRecord
100
AcDbLayerTableRecord
  2
LAYER_FEATURE
 70
0
 62
7
  6
CONTINUOUS
370
-3
390
F
  0
LAYER
  5
216
100
AcDbSymbolTableRecord
100
AcDbLayerTableRecord
  2
LAYER_GEOM_FEAT
 70
0
 62
7
  6
CONTINUOUS
370
-3
390
F
  0
LAYER
  5
217
100
AcDbSymbolTableRecord
100
AcDbLayerTableRecord
  2
LAYER_PARAMETER_DIM
 70
0
 62
7
  6
CONTINUOUS
370
-3
390
F
  0
LAYER
  5
218
100
AcDbSymbolTableRecord
100
AcDbLayerTableRecord
  2
LAYER_PROTRUSION_FEAT
 70
0
 62
7
  6
CONTINUOUS
370
-3
390
F
  0
LAYER
  5
219
100
AcDbSymbolTableRecord
100
AcDbLayerTableRecord
  2
LAYER_ROUND_FEAT
 70
0
 62
7
  6
CONTINUOUS
370
-3
390
F
  0
ENDTAB
  0
TABLE
  2
STYLE
  5
3
100
AcDbSymbolTable
 70
1
  0
STYLE
  5
11
100
AcDbSymbolTableRecord
100
AcDbTextStyleTableRecord
  2
STANDARD
 70
0
 40
0.0
 41
0.8
 50
0.0
 71
0
 42
0.2
  3
txt
  4

  0
STYLE
  5
21A
100
AcDbSymbolTableRecord
100
AcDbTextStyleTableRecord
  2
TEXTSTYLE_1
 70
0
 40
0.0
 41
0.8
 50
0.0
 71
0
 42
0.2
  3
gdt
  4

  0
ENDTAB
  0
TABLE
  2
VIEW
  5
6
100
AcDbSymbolTable
 70
0
  0
ENDTAB
  0
TABLE
  2
UCS
  5
7
100
AcDbSymbolTable
 70
0
  0
ENDTAB
  0
TABLE
  2
APPID
  5
9
100
AcDbSymbolTable
 70
1
  0
APPID
  5
21B
100
AcDbSymbolTableRecord
100
AcDbRegAppTableRecord
  2
ACAD
 70
0
  0
ENDTAB
  0
TABLE
  2
BLOCK_RECORD
  5
1
100
AcDbSymbolTable
 70
0
  0
BLOCK_RECORD
  5
21C
100
AcDbSymbolTableRecord
100
AcDbBlockTableRecord
  2
*Model_Space
  0
BLOCK_RECORD
  5
21D
100
AcDbSymbolTableRecord
100
AcDbBlockTableRecord
  2
*Paper_Space
  0
ENDTAB
  0
TABLE
  2
DIMSTYLE
  5
A
100
AcDbSymbolTable
 70
1
100
AcDbDimStyleTable
 71
0
  0
DIMSTYLE
105
21E
100
AcDbSymbolTableRecord
100
AcDbDimStyleTableRecord
  2
STANDARD
 70
0
  3

  4

 40
1.0
 41
0.1875
 42
0.0625
 43
0.38
 44
0.125
 45
0.0
 46
0.0
 47
0.0001
 48
0.0001
140
0.15625
141
0.09
142
0.0
143
25.4
144
1.0
145
0.0
146
1.0
147
0.09
 71
0.0
 72
0.0
 73
1
 74
1
 75
0
 76
0
 77
0
 78
4
170
0
171
2
172
0
173
0
174
0
175
0
176
0
177
0
178
0
270
2
271
4
272
4
273
2
274
2
275
0
280
0
281
0
282
0
283
1
284
4
285
0
286
0
287
3
288
0
340
11
278
46
  0
ENDTAB
  0
ENDSEC
  0
SECTION
  2
BLOCKS
  0
BLOCK
  5
20
100
AcDbEntity
  8
0
100
AcDbBlockBegin
  2
*Model_Space
 70
0
 10
0.0
 20
0.0
 30
0.0
  3
*Model_Space
  1

  0
ENDBLK
  5
21
100
AcDbEntity
  8
0
100
AcDbBlockEnd
  0
BLOCK
  5
1C
100
AcDbEntity
  8
0
100
AcDbBlockBegin
  2
*Paper_Space
 70
0
 10
0.0
 20
0.0
 30
0.0
  3
*Paper_Space
  1

  0
ENDBLK
  5
1D
100
AcDbEntity
  8
0
100
AcDbBlockEnd
  0
ENDSEC
  0
SECTION
  2
ENTITIES
  0
MTEXT
  5
21F
100
AcDbEntity
  8
0
100
AcDbMText
 62
7
  6
CONTINUOUS
  7
STANDARD
 71
1
 72
1
 10
15.9560215477
 20
0.9479130325
 30
0.0
 11
1.0
 21
0.0
 31
0.0
 44
0.9
  1
SCALE: 1:1.000
 40
0.3
 41
3.36
  0
LINE
  5
220
100
AcDbEntity
  8
0
100
AcDbLine
 62
7
  6
CONTINUOUS
 10
0.0
 20
0.0
 11
0.0
 21
17.0
  0
LINE
  5
221
100
AcDbEntity
  8
0
100
AcDbLine
 62
7
  6
CONTINUOUS
 10
0.0
 20
0.0
 11
22.0
 21
0.0
  0
LINE
  5
222
100
AcDbEntity
  8
0
100
AcDbLine
 62
7
  6
CONTINUOUS
 10
0.0
 20
17.0
 11
22.0
 21
17.0
  0
LINE
  5
223
100
AcDbEntity
  8
0
100
AcDbLine
 62
7
  6
CONTINUOUS
 10
22.0
 20
0.0
 11
22.0
 21
17.0
  0
LINE
  5
224
100
AcDbEntity
  8
0
100
AcDbLine
 62
7
  6
CONTINUOUS
 10
4.1133672762
 20
5.6951198968
 11
4.1133672762
 21
5.6401198968
  0
LINE
  5
225
100
AcDbEntity
  8
0
100
AcDbLine
 62
7
  6
CONTINUOUS
 10
4.1133672762
 20
5.6401198968
 11
4.1817933187
 21
5.3424065888
  0
LINE
  5
226
100
AcDbEntity
  8
0
100
AcDbLine
 62
7
  6
CONTINUOUS
 10
4.4933672762
 20
5.6401198968
 11
4.4933672762
 21
5.6751198968
  0
LINE
  5
227
100
AcDbEntity
  8
LAYER_FEATURE
100
AcDbLine
 62
7
  6
CONTINUOUS
 10
4.5193672762
 20
5.6751198968
 11
4.5193672762
 21
5.6401198968
  0
LINE
  5
228
100
AcDbEntity
  8
0
100
AcDbLine
 62
7
  6
CONTINUOUS
 10
4.4249412336
 20
5.3424065888
 11
4.4933672762
 21
5.6401198968
  0
LINE
  5
229
100
AcDbEntity
  8
LAYER_FEATURE
100
AcDbLine
 62
7
  6
CONTINUOUS
 10
4.5193672762
 20
5.6401198968
 11
4.5877933187
 21
5.3424065888
  0
LINE
  5
22A
100
AcDbEntity
  8
LAYER_FEATURE
100
AcDbLine
 62
7
  6
CONTINUOUS
 10
4.8993672762
 20
5.6401198968
 11
4.8993672762
 21
5.6751198968
  0
LINE
  5
22B
100
AcDbEntity
  8
LAYER_FEATURE
100
AcDbLine
 62
7
  6
CONTINUOUS
 10
4.9253672762
 20
5.6751198968
 11
4.9253672762
 21
5.6401198968
  0
LINE
  5
22C
100
AcDbEntity
  8
LAYER_FEATURE
100
AcDbLine
 62
7
  6
CONTINUOUS
 10
4.8309412336
 20
5.3424065888
 11
4.8993672762
 21
5.6401198968
  0
LINE
  5
22D
100
AcDbEntity
  8
LAYER_FEATURE
100
AcDbLine
 62
7
  6
CONTINUOUS
 10
4.9253672762
 20
5.6401198968
 11
4.9937933187
 21
5.3424065888
  0
LINE
  5
22E
100
AcDbEntity
  8
LAYER_FEATURE
100
AcDbLine
 62
7
  6
CONTINUOUS
 10
5.3053672762
 20
5.6401198968
 11
5.3053672762
 21
5.6751198968
  0
LINE
  5
22F
100
AcDbEntity
  8
LAYER_FEATURE
100
AcDbLine
 62
7
  6
CONTINUOUS
 10
5.3313672762
 20
5.6751198968
 11
5.3313672762
 21
5.6401198968
  0
LINE
  5
230
100
AcDbEntity
  8
LAYER_FEATURE
100
AcDbLine
 62
7
  6
CONTINUOUS
 10
5.2369412336
 20
5.3424065888
 11
5.3053672762
 21
5.6401198968
  0
LINE
  5
231
100
AcDbEntity
  8
LAYER_FEATURE
100
AcDbLine
 62
7
  6
CONTINUOUS
 10
5.3313672762
 20
5.6401198968
 11
5.3997933187
 21
5.3424065888
  0
LINE
  5
232
100
AcDbEntity
  8
LAYER_FEATURE
100
AcDbLine
 62
7
  6
CONTINUOUS
 10
5.7113672762
 20
5.6401198968
 11
5.7113672762
 21
5.6751198968
  0
LINE
  5
233
100
AcDbEntity
  8
LAYER_FEATURE
100
AcDbLine
 62
7
  6
CONTINUOUS
 10
5.7373672762
 20
5.6751198968
 11
5.7373672762
 21
5.6401198968
  0
LINE
  5
234
100
AcDbEntity
  8
LAYER_FEATURE
100
AcDbLine
 62
7
  6
CONTINUOUS
 10
5.6429412336
 20
5.3424065888
 11
5.7113672762
 21
5.6401198968
  0
LINE
  5
235
100
AcDbEntity
  8
LAYER_FEATURE
100
AcDbLine
 62
7
  6
CONTINUOUS
 10
5.7373672762
 20
5.6401198968
 11
5.8057933187
 21
5.3424065888
  0
LINE
  5
236
100
AcDbEntity
  8
0
100
AcDbLine
 62
7
  6
CONTINUOUS
 10
4.1972243193
 20
5.3301198968
 11
4.409510233
 21
5.3301198968
  0
LINE
  5
237
100
AcDbEntity
  8
LAYER_FEATURE
100
AcDbLine
 62
7
  6
CONTINUOUS
 10
4.6032243193
 20
5.3301198968
 11
4.815510233
 21
5.3301198968
  0
LINE
  5
238
100
AcDbEntity
  8
LAYER_FEATURE
100
AcDbLine
 62
7
  6
CONTINUOUS
 10
5.0092243193
 20
5.3301198968
 11
5.221510233
 21
5.3301198968
  0
LINE
  5
239
100
AcDbEntity
  8
LAYER_FEATURE
100
AcDbLine
 62
7
  6
CONTINUOUS
 10
5.4152243193
 20
5.3301198968
 11
5.627510233
 21
5.3301198968
  0
LINE
  5
23A
100
AcDbEntity
  8
LAYER_FEATURE
100
AcDbLine
 62
7
  6
CONTINUOUS
 10
5.8212243193
 20
5.3301198968
 11
6.033510233
 21
5.3301198968
  0
LINE
  5
23B
100
AcDbEntity
  8
LAYER_FEATURE
100
AcDbLine
 62
7
  6
CONTINUOUS
 10
6.2272243193
 20
5.3301198968
 11
6.439510233
 21
5.3301198968
  0
LINE
  5
23C
100
AcDbEntity
  8
LAYER_FEATURE
100
AcDbLine
 62
7
  6
CONTINUOUS
 10
6.6332243193
 20
5.3301198968
 11
6.845510233
 21
5.3301198968
  0
LINE
  5
23D
100
AcDbEntity
  8
LAYER_FEATURE
100
AcDbLine
 62
7
  6
CONTINUOUS
 10
7.0392243193
 20
5.3301198968
 11
7.251510233
 21
5.3301198968
  0
LINE
  5
23E
100
AcDbEntity
  8
LAYER_FEATURE
100
AcDbLine
 62
7
  6
CONTINUOUS
 10
7.4452243193
 20
5.3301198968
 11
7.657510233
 21
5.3301198968
  0
LINE
  5
23F
100
AcDbEntity
  8
LAYER_FEATURE
100
AcDbLine
 62
7
  6
CONTINUOUS
 10
7.8512243193
 20
5.3301198968
 11
8.063510233
 21
5.3301198968
  0
LINE
  5
240
100
AcDbEntity
  8
LAYER_FEATURE
100
AcDbLine
 62
7
  6
CONTINUOUS
 10
6.1173672762
 20
5.6401198968
 11
6.1173672762
 21
5.6751198968
  0
LINE
  5
241
100
AcDbEntity
  8
LAYER_FEATURE
100
AcDbLine
 62
7
  6
CONTINUOUS
 10
6.1433672762
 20
5.6751198968
 11
6.1433672762
 21
5.6401198968
  0
LINE
  5
242
100
AcDbEntity
  8
LAYER_FEATURE
100
AcDbLine
 62
7
  6
CONTINUOUS
 10
6.0489412336
 20
5.3424065888
 11
6.1173672762
 21
5.6401198968
  0
LINE
  5
243
100
AcDbEntity
  8
LAYER_FEATURE
100
AcDbLine
 62
7
  6
CONTINUOUS
 10
6.1433672762
 20
5.6401198968
 11
6.2117933187
 21
5.3424065888
  0
LINE
  5
244
100
AcDbEntity
  8
LAYER_FEATURE
100
AcDbLine
 62
7
  6
CONTINUOUS
 10
4.4933672762
 20
5.6751198968
 11
4.5193672762
 21
5.6751198968
  0
LINE
  5
245
100
AcDbEntity
  8
LAYER_FEATURE
100
AcDbLine
 62
7
  6
CONTINUOUS
 10
4.8993672762
 20
5.6751198968
 11
4.9253672762
 21
5.6751198968
  0
LINE
  5
246
100
AcDbEntity
  8
LAYER_FEATURE
100
AcDbLine
 62
7
  6
CONTINUOUS
 10
5.3053672762
 20
5.6751198968
 11
5.3313672762
 21
5.6751198968
  0
LINE
  5
247
100
AcDbEntity
  8
LAYER_FEATURE
100
AcDbLine
 62
7
  6
CONTINUOUS
 10
5.7113672762
 20
5.6751198968
 11
5.7373672762
 21
5.6751198968
  0
LINE
  5
248
100
AcDbEntity
  8
LAYER_FEATURE
100
AcDbLine
 62
7
  6
CONTINUOUS
 10
6.1173672762
 20
5.6751198968
 11
6.1433672762
 21
5.6751198968
  0
LINE
  5
249
100
AcDbEntity
  8
LAYER_FEATURE
100
AcDbLine
 62
7
  6
CONTINUOUS
 10
6.5233672762
 20
5.6751198968
 11
6.5493672762
 21
5.6751198968
  0
LINE
  5
24A
100
AcDbEntity
  8
LAYER_FEATURE
100
AcDbLine
 62
7
  6
CONTINUOUS
 10
6.9293672762
 20
5.6751198968
 11
6.9553672762
 21
5.6751198968
  0
LINE
  5
24B
100
AcDbEntity
  8
LAYER_FEATURE
100
AcDbLine
 62
7
  6
CONTINUOUS
 10
7.3353672762
 20
5.6751198968
 11
7.3613672762
 21
5.6751198968
  0
LINE
  5
24C
100
AcDbEntity
  8
LAYER_FEATURE
100
AcDbLine
 62
7
  6
CONTINUOUS
 10
7.7413672762
 20
5.6751198968
 11
7.7673672762
 21
5.6751198968
  0
LINE
  5
24D
100
AcDbEntity
  8
0
100
AcDbLine
 62
7
  6
CONTINUOUS
 10
8.1323672762
 20
5.7101198968
 11
4.1283672762
 21
5.7101198968
  0
LINE
  5
24E
100
AcDbEntity
  8
LAYER_FEATURE
100
AcDbLine
 62
7
  6
CONTINUOUS
 10
6.5233672762
 20
5.6401198968
 11
6.5233672762
 21
5.6751198968
  0
LINE
  5
24F
100
AcDbEntity
  8
LAYER_FEATURE
100
AcDbLine
 62
7
  6
CONTINUOUS
 10
6.5493672762
 20
5.6751198968
 11
6.5493672762
 21
5.6401198968
  0
LINE
  5
250
100
AcDbEntity
  8
LAYER_FEATURE
100
AcDbLine
 62
7
  6
CONTINUOUS
 10
6.4549412336
 20
5.3424065888
 11
6.5233672762
 21
5.6401198968
  0
LINE
  5
251
100
AcDbEntity
  8
LAYER_FEATURE
100
AcDbLine
 62
7
  6
CONTINUOUS
 10
6.5493672762
 20
5.6401198968
 11
6.6177933187
 21
5.3424065888
  0
LINE
  5
252
100
AcDbEntity
  8
LAYER_FEATURE
100
AcDbLine
 62
7
  6
CONTINUOUS
 10
6.9293672762
 20
5.6401198968
 11
6.9293672762
 21
5.6751198968
  0
LINE
  5
253
100
AcDbEntity
  8
LAYER_FEATURE
100
AcDbLine
 62
7
  6
CONTINUOUS
 10
6.9553672762
 20
5.6751198968
 11
6.9553672762
 21
5.6401198968
  0
LINE
  5
254
100
AcDbEntity
  8
LAYER_FEATURE
100
AcDbLine
 62
7
  6
CONTINUOUS
 10
6.8609412336
 20
5.3424065888
 11
6.9293672762
 21
5.6401198968
  0
LINE
  5
255
100
AcDbEntity
  8
LAYER_FEATURE
100
AcDbLine
 62
7
  6
CONTINUOUS
 10
6.9553672762
 20
5.6401198968
 11
7.0237933187
 21
5.3424065888
  0
LINE
  5
256
100
AcDbEntity
  8
LAYER_FEATURE
100
AcDbLine
 62
7
  6
CONTINUOUS
 10
7.3353672762
 20
5.6401198968
 11
7.3353672762
 21
5.6751198968
  0
LINE
  5
257
100
AcDbEntity
  8
LAYER_FEATURE
100
AcDbLine
 62
7
  6
CONTINUOUS
 10
7.3613672762
 20
5.6751198968
 11
7.3613672762
 21
5.6401198968
  0
LINE
  5
258
100
AcDbEntity
  8
LAYER_FEATURE
100
AcDbLine
 62
7
  6
CONTINUOUS
 10
7.2669412336
 20
5.3424065888
 11
7.3353672762
 21
5.6401198968
  0
LINE
  5
259
100
AcDbEntity
  8
LAYER_FEATURE
100
AcDbLine
 62
7
  6
CONTINUOUS
 10
7.3613672762
 20
5.6401198968
 11
7.4297933187
 21
5.3424065888
  0
LINE
  5
25A
100
AcDbEntity
  8
LAYER_FEATURE
100
AcDbLine
 62
7
  6
CONTINUOUS
 10
7.7413672762
 20
5.6401198968
 11
7.7413672762
 21
5.6751198968
  0
LINE
  5
25B
100
AcDbEntity
  8
LAYER_FEATURE
100
AcDbLine
 62
7
  6
CONTINUOUS
 10
7.7673672762
 20
5.6751198968
 11
7.7673672762
 21
5.6401198968
  0
LINE
  5
25C
100
AcDbEntity
  8
LAYER_FEATURE
100
AcDbLine
 62
7
  6
CONTINUOUS
 10
7.6729412336
 20
5.3424065888
 11
7.7413672762
 21
5.6401198968
  0
LINE
  5
25D
100
AcDbEntity
  8
LAYER_FEATURE
100
AcDbLine
 62
7
  6
CONTINUOUS
 10
7.7673672762
 20
5.6401198968
 11
7.8357933187
 21
5.3424065888
  0
LINE
  5
25E
100
AcDbEntity
  8
0
100
AcDbLine
 62
7
  6
CONTINUOUS
 10
8.1473672762
 20
5.6401198968
 11
8.1473672762
 21
5.6951198968
  0
LINE
  5
25F
100
AcDbEntity
  8
LAYER_FEATURE
100
AcDbLine
 62
7
  6
CONTINUOUS
 10
8.0789412336
 20
5.3424065888
 11
8.1473672762
 21
5.6401198968
  0
LINE
  5
260
100
AcDbEntity
  8
0
100
AcDbLine
 62
7
  6
CONTINUOUS
 10
4.0538720839
 20
14.6000477814
 11
4.0538720839
 21
10.6000477814
  0
LINE
  5
261
100
AcDbEntity
  8
0
100
AcDbLine
 62
7
  6
CONTINUOUS
 10
8.0878720839
 20
10.6000477814
 11
4.0538720839
 21
10.6000477814
  0
LINE
  5
262
100
AcDbEntity
  8
0
100
AcDbLine
 62
7
  6
CONTINUOUS
 10
8.0878720839
 20
10.6000477814
 11
8.0878720839
 21
14.6000477814
  0
LINE
  5
263
100
AcDbEntity
  8
0
100
AcDbLine
 62
7
  6
CONTINUOUS
 10
4.0538720839
 20
14.6000477814
 11
8.0878720839
 21
14.6000477814
  0
LINE
  5
264
100
AcDbEntity
  8
LAYER_FEATURE
100
AcDbLine
 62
7
  6
CONTINUOUS
 10
13.5603552569
 20
5.2706247044
 11
13.5603552569
 21
5.5806247044
  0
LINE
  5
265
100
AcDbEntity
  8
0
100
AcDbLine
 62
7
  6
CONTINUOUS
 10
13.5603552569
 20
5.5806247044
 11
13.5603552569
 21
5.6506247044
  0
LINE
  5
266
100
AcDbEntity
  8
LAYER_FEATURE
100
AcDbLine
 62
7
  6
CONTINUOUS
 10
13.5603552569
 20
5.2706247044
 11
17.5603552569
 21
5.2706247044
  0
LINE
  5
267
100
AcDbEntity
  8
LAYER_FEATURE
100
AcDbLine
 62
7
  6
CONTINUOUS
 10
17.5603552569
 20
5.5806247044
 11
13.5603552569
 21
5.5806247044
  0
LINE
  5
268
100
AcDbEntity
  8
0
100
AcDbLine
 62
7
  6
CONTINUOUS
 10
13.5603552569
 20
5.6506247044
 11
17.5603552569
 21
5.6506247044
  0
LINE
  5
269
100
AcDbEntity
  8
0
100
AcDbLine
 62
7
  6
CONTINUOUS
 10
17.5603552569
 20
5.6506247044
 11
17.5603552569
 21
5.5806247044
  0
LINE
  5
26A
100
AcDbEntity
  8
LAYER_FEATURE
100
AcDbLine
 62
7
  6
CONTINUOUS
 10
17.5603552569
 20
5.2706247044
 11
17.5603552569
 21
5.5806247044
  0
LINE
  5
26B
100
AcDbEntity
  8
0
100
AcDbLine
 62
7
  6
CONTINUOUS
 10
13.1240435123
 20
11.0187443698
 11
13.2778830942
 21
10.8336828099
  0
LINE
  5
26C
100
AcDbEntity
  8
0
100
AcDbLine
 62
7
  6
CONTINUOUS
 10
13.1072662096
 20
11.0529329181
 11
13.1240435123
 21
11.0187443698
  0
LINE
  5
26D
100
AcDbEntity
  8
LAYER_FEATURE
100
AcDbLine
 62
7
  6
CONTINUOUS
 10
13.4979942759
 20
11.0187443698
 11
13.6518338578
 21
10.8336828099
  0
LINE
  5
26E
100
AcDbEntity
  8
0
100
AcDbLine
 62
7
  6
CONTINUOUS
 10
13.47404669
 20
11.0187443698
 11
13.4633702247
 21
11.0405007187
  0
LINE
  5
26F
100
AcDbEntity
  8
LAYER_FEATURE
100
AcDbLine
 62
7
  6
CONTINUOUS
 10
13.4873178105
 20
11.0405007187
 11
13.4979942759
 21
11.0187443698
  0
LINE
  5
270
100
AcDbEntity
  8
LAYER_FEATURE
100
AcDbLine
 62
7
  6
CONTINUOUS
 10
13.8719450394
 20
11.0187443698
 11
14.0257846214
 21
10.8336828099
  0
LINE
  5
271
100
AcDbEntity
  8
LAYER_FEATURE
100
AcDbLine
 62
7
  6
CONTINUOUS
 10
13.8479974536
 20
11.0187443698
 11
13.8373209882
 21
11.0405007187
  0
LINE
  5
272
100
AcDbEntity
  8
0
100
AcDbLine
 62
7
  6
CONTINUOUS
 10
13.5018371544
 20
10.8336828099
 11
13.47404669
 21
11.0187443698
  0
LINE
  5
273
100
AcDbEntity
  8
LAYER_FEATURE
100
AcDbLine
 62
7
  6
CONTINUOUS
 10
13.8612685741
 20
11.0405007187
 11
13.8719450394
 21
11.0187443698
  0
LINE
  5
274
100
AcDbEntity
  8
0
100
AcDbLine
 62
7
  6
CONTINUOUS
 10
13.5016705176
 20
10.8312124919
 11
13.5018371544
 21
10.8336828099
  0
LINE
  5
275
100
AcDbEntity
  8
0
100
AcDbLine
 62
7
  6
CONTINUOUS
 10
14.0750161055
 20
14.1906692672
 11
13.1067508119
 21
11.0573616287
  0
LINE
  5
276
100
AcDbEntity
  8
LAYER_FEATURE
100
AcDbLine
 62
7
  6
CONTINUOUS
 10
14.245895803
 20
11.0187443698
 11
14.3997353849
 21
10.8336828099
  0
LINE
  5
277
100
AcDbEntity
  8
LAYER_FEATURE
100
AcDbLine
 62
7
  6
CONTINUOUS
 10
14.2219482171
 20
11.0187443698
 11
14.2112717518
 21
11.0405007187
  0
LINE
  5
278
100
AcDbEntity
  8
LAYER_FEATURE
100
AcDbLine
 62
7
  6
CONTINUOUS
 10
14.2352193377
 20
11.0405007187
 11
14.245895803
 21
11.0187443698
  0
LINE
  5
279
100
AcDbEntity
  8
LAYER_FEATURE
100
AcDbLine
 62
7
  6
CONTINUOUS
 10
13.875787918
 20
10.8336828099
 11
13.8479974536
 21
11.0187443698
  0
LINE
  5
27A
100
AcDbEntity
  8
0
100
AcDbLine
 62
7
  6
CONTINUOUS
 10
13.2958439425
 20
10.8260452797
 11
13.4913722171
 21
10.8260452797
  0
LINE
  5
27B
100
AcDbEntity
  8
LAYER_FEATURE
100
AcDbLine
 62
7
  6
CONTINUOUS
 10
13.6697947061
 20
10.8260452797
 11
13.8653229807
 21
10.8260452797
  0
LINE
  5
27C
100
AcDbEntity
  8
LAYER_FEATURE
100
AcDbLine
 62
7
  6
CONTINUOUS
 10
14.0437454696
 20
10.8260452797
 11
14.2392737443
 21
10.8260452797
  0
LINE
  5
27D
100
AcDbEntity
  8
LAYER_FEATURE
100
AcDbLine
 62
7
  6
CONTINUOUS
 10
14.4176962332
 20
10.8260452797
 11
14.6132245078
 21
10.8260452797
  0
LINE
  5
27E
100
AcDbEntity
  8
LAYER_FEATURE
100
AcDbLine
 62
7
  6
CONTINUOUS
 10
14.7916469967
 20
10.8260452797
 11
14.9871752714
 21
10.8260452797
  0
LINE
  5
27F
100
AcDbEntity
  8
LAYER_FEATURE
100
AcDbLine
 62
7
  6
CONTINUOUS
 10
15.1655977603
 20
10.8260452797
 11
15.361126035
 21
10.8260452797
  0
LINE
  5
280
100
AcDbEntity
  8
LAYER_FEATURE
100
AcDbLine
 62
7
  6
CONTINUOUS
 10
15.5395485239
 20
10.8260452797
 11
15.7350767985
 21
10.8260452797
  0
LINE
  5
281
100
AcDbEntity
  8
LAYER_FEATURE
100
AcDbLine
 62
7
  6
CONTINUOUS
 10
15.9134992874
 20
10.8260452797
 11
16.1090275621
 21
10.8260452797
  0
LINE
  5
282
100
AcDbEntity
  8
LAYER_FEATURE
100
AcDbLine
 62
7
  6
CONTINUOUS
 10
16.287450051
 20
10.8260452797
 11
16.4829783257
 21
10.8260452797
  0
LINE
  5
283
100
AcDbEntity
  8
LAYER_FEATURE
100
AcDbLine
 62
7
  6
CONTINUOUS
 10
16.6614008146
 20
10.8260452797
 11
16.8569290892
 21
10.8260452797
  0
LINE
  5
284
100
AcDbEntity
  8
LAYER_FEATURE
100
AcDbLine
 62
7
  6
CONTINUOUS
 10
14.6198465666
 20
11.0187443698
 11
14.7736861485
 21
10.8336828099
  0
LINE
  5
285
100
AcDbEntity
  8
LAYER_FEATURE
100
AcDbLine
 62
7
  6
CONTINUOUS
 10
13.8756212812
 20
10.8312124919
 11
13.875787918
 21
10.8336828099
  0
LINE
  5
286
100
AcDbEntity
  8
0
100
AcDbLine
 62
7
  6
CONTINUOUS
 10
13.4807699103
 20
11.0405007187
 11
13.47404669
 21
11.0187443698
  0
LINE
  5
287
100
AcDbEntity
  8
0
100
AcDbLine
 62
7
  6
CONTINUOUS
 10
13.5023812511
 20
10.8335146714
 11
13.5429206287
 21
10.9647001452
  0
LINE
  5
288
100
AcDbEntity
  8
LAYER_FEATURE
100
AcDbLine
 62
7
  6
CONTINUOUS
 10
13.4633702247
 20
11.0405007187
 11
13.4873178105
 21
11.0405007187
  0
LINE
  5
289
100
AcDbEntity
  8
LAYER_FEATURE
100
AcDbLine
 62
7
  6
CONTINUOUS
 10
13.8373209882
 20
11.0405007187
 11
13.8612685741
 21
11.0405007187
  0
LINE
  5
28A
100
AcDbEntity
  8
LAYER_FEATURE
100
AcDbLine
 62
7
  6
CONTINUOUS
 10
14.2112717518
 20
11.0405007187
 11
14.2352193377
 21
11.0405007187
  0
LINE
  5
28B
100
AcDbEntity
  8
LAYER_FEATURE
100
AcDbLine
 62
7
  6
CONTINUOUS
 10
14.5852225154
 20
11.0405007187
 11
14.6091701012
 21
11.0405007187
  0
LINE
  5
28C
100
AcDbEntity
  8
LAYER_FEATURE
100
AcDbLine
 62
7
  6
CONTINUOUS
 10
14.9591732789
 20
11.0405007187
 11
14.9831208648
 21
11.0405007187
  0
LINE
  5
28D
100
AcDbEntity
  8
LAYER_FEATURE
100
AcDbLine
 62
7
  6
CONTINUOUS
 10
15.3331240425
 20
11.0405007187
 11
15.3570716284
 21
11.0405007187
  0
LINE
  5
28E
100
AcDbEntity
  8
LAYER_FEATURE
100
AcDbLine
 62
7
  6
CONTINUOUS
 10
15.7070748061
 20
11.0405007187
 11
15.7310223919
 21
11.0405007187
  0
LINE
  5
28F
100
AcDbEntity
  8
LAYER_FEATURE
100
AcDbLine
 62
7
  6
CONTINUOUS
 10
16.0810255696
 20
11.0405007187
 11
16.1049731555
 21
11.0405007187
  0
LINE
  5
290
100
AcDbEntity
  8
LAYER_FEATURE
100
AcDbLine
 62
7
  6
CONTINUOUS
 10
16.4549763332
 20
11.0405007187
 11
16.478923919
 21
11.0405007187
  0
LINE
  5
291
100
AcDbEntity
  8
0
100
AcDbLine
 62
7
  6
CONTINUOUS
 10
16.8044347165
 20
11.0622570676
 11
13.1165064965
 21
11.0622570676
  0
LINE
  5
292
100
AcDbEntity
  8
LAYER_FEATURE
100
AcDbLine
 62
7
  6
CONTINUOUS
 10
14.5958989807
 20
11.0187443698
 11
14.5852225154
 21
11.0405007187
  0
LINE
  5
293
100
AcDbEntity
  8
LAYER_FEATURE
100
AcDbLine
 62
7
  6
CONTINUOUS
 10
14.6091701012
 20
11.0405007187
 11
14.6198465666
 21
11.0187443698
  0
LINE
  5
294
100
AcDbEntity
  8
LAYER_FEATURE
100
AcDbLine
 62
7
  6
CONTINUOUS
 10
14.2497386816
 20
10.8336828099
 11
14.2219482171
 21
11.0187443698
  0
LINE
  5
295
100
AcDbEntity
  8
LAYER_FEATURE
100
AcDbLine
 62
7
  6
CONTINUOUS
 10
14.9937973301
 20
11.0187443698
 11
15.1476369121
 21
10.8336828099
  0
LINE
  5
296
100
AcDbEntity
  8
LAYER_FEATURE
100
AcDbLine
 62
7
  6
CONTINUOUS
 10
14.2495720448
 20
10.8312124919
 11
14.2497386816
 21
10.8336828099
  0
LINE
  5
297
100
AcDbEntity
  8
LAYER_FEATURE
100
AcDbLine
 62
7
  6
CONTINUOUS
 10
13.8547206739
 20
11.0405007187
 11
13.8479974536
 21
11.0187443698
  0
LINE
  5
298
100
AcDbEntity
  8
LAYER_FEATURE
100
AcDbLine
 62
7
  6
CONTINUOUS
 10
13.8763320147
 20
10.8335146714
 11
13.9168713922
 21
10.9647001452
  0
LINE
  5
299
100
AcDbEntity
  8
LAYER_FEATURE
100
AcDbLine
 62
7
  6
CONTINUOUS
 10
15.3677480937
 20
11.0187443698
 11
15.5215876756
 21
10.8336828099
  0
LINE
  5
29A
100
AcDbEntity
  8
LAYER_FEATURE
100
AcDbLine
 62
7
  6
CONTINUOUS
 10
14.9698497443
 20
11.0187443698
 11
14.9591732789
 21
11.0405007187
  0
LINE
  5
29B
100
AcDbEntity
  8
LAYER_FEATURE
100
AcDbLine
 62
7
  6
CONTINUOUS
 10
14.9831208648
 20
11.0405007187
 11
14.9937973301
 21
11.0187443698
  0
LINE
  5
29C
100
AcDbEntity
  8
LAYER_FEATURE
100
AcDbLine
 62
7
  6
CONTINUOUS
 10
14.6236894451
 20
10.8336828099
 11
14.5958989807
 21
11.0187443698
  0
LINE
  5
29D
100
AcDbEntity
  8
LAYER_FEATURE
100
AcDbLine
 62
7
  6
CONTINUOUS
 10
14.2286714375
 20
11.0405007187
 11
14.2219482171
 21
11.0187443698
  0
LINE
  5
29E
100
AcDbEntity
  8
LAYER_FEATURE
100
AcDbLine
 62
7
  6
CONTINUOUS
 10
15.3438005078
 20
11.0187443698
 11
15.3331240425
 21
11.0405007187
  0
LINE
  5
29F
100
AcDbEntity
  8
LAYER_FEATURE
100
AcDbLine
 62
7
  6
CONTINUOUS
 10
15.3570716284
 20
11.0405007187
 11
15.3677480937
 21
11.0187443698
  0
LINE
  5
2A0
100
AcDbEntity
  8
LAYER_FEATURE
100
AcDbLine
 62
7
  6
CONTINUOUS
 10
14.6235228083
 20
10.8312124919
 11
14.6236894451
 21
10.8336828099
  0
LINE
  5
2A1
100
AcDbEntity
  8
LAYER_FEATURE
100
AcDbLine
 62
7
  6
CONTINUOUS
 10
14.2502827782
 20
10.8335146714
 11
14.2908221558
 21
10.9647001452
  0
LINE
  5
2A2
100
AcDbEntity
  8
LAYER_FEATURE
100
AcDbLine
 62
7
  6
CONTINUOUS
 10
15.7416988573
 20
11.0187443698
 11
15.8955384392
 21
10.8336828099
  0
LINE
  5
2A3
100
AcDbEntity
  8
LAYER_FEATURE
100
AcDbLine
 62
7
  6
CONTINUOUS
 10
14.9976402087
 20
10.8336828099
 11
14.9698497443
 21
11.0187443698
  0
LINE
  5
2A4
100
AcDbEntity
  8
LAYER_FEATURE
100
AcDbLine
 62
7
  6
CONTINUOUS
 10
14.602622201
 20
11.0405007187
 11
14.5958989807
 21
11.0187443698
  0
LINE
  5
2A5
100
AcDbEntity
  8
LAYER_FEATURE
100
AcDbLine
 62
7
  6
CONTINUOUS
 10
16.1156496208
 20
11.0187443698
 11
16.2694892028
 21
10.8336828099
  0
LINE
  5
2A6
100
AcDbEntity
  8
LAYER_FEATURE
100
AcDbLine
 62
7
  6
CONTINUOUS
 10
15.7177512714
 20
11.0187443698
 11
15.7070748061
 21
11.0405007187
  0
LINE
  5
2A7
100
AcDbEntity
  8
LAYER_FEATURE
100
AcDbLine
 62
7
  6
CONTINUOUS
 10
15.7310223919
 20
11.0405007187
 11
15.7416988573
 21
11.0187443698
  0
LINE
  5
2A8
100
AcDbEntity
  8
LAYER_FEATURE
100
AcDbLine
 62
7
  6
CONTINUOUS
 10
14.9974739645
 20
10.8312123704
 11
14.9976402087
 21
10.8336828099
  0
LINE
  5
2A9
100
AcDbEntity
  8
LAYER_FEATURE
100
AcDbLine
 62
7
  6
CONTINUOUS
 10
14.6242335418
 20
10.8335146714
 11
14.6647729194
 21
10.9647001452
  0
LINE
  5
2AA
100
AcDbEntity
  8
LAYER_FEATURE
100
AcDbLine
 62
7
  6
CONTINUOUS
 10
16.4896003844
 20
11.0187443698
 11
16.6434399663
 21
10.8336828099
  0
LINE
  5
2AB
100
AcDbEntity
  8
LAYER_FEATURE
100
AcDbLine
 62
7
  6
CONTINUOUS
 10
15.3715909722
 20
10.8336828099
 11
15.3438005078
 21
11.0187443698
  0
LINE
  5
2AC
100
AcDbEntity
  8
LAYER_FEATURE
100
AcDbLine
 62
7
  6
CONTINUOUS
 10
15.3714243355
 20
10.8312124919
 11
15.3715909722
 21
10.8336828099
  0
LINE
  5
2AD
100
AcDbEntity
  8
LAYER_FEATURE
100
AcDbLine
 62
7
  6
CONTINUOUS
 10
14.9765729646
 20
11.0405007187
 11
14.9698497443
 21
11.0187443698
  0
LINE
  5
2AE
100
AcDbEntity
  8
LAYER_FEATURE
100
AcDbLine
 62
7
  6
CONTINUOUS
 10
16.091702035
 20
11.0187443698
 11
16.0810255696
 21
11.0405007187
  0
LINE
  5
2AF
100
AcDbEntity
  8
LAYER_FEATURE
100
AcDbLine
 62
7
  6
CONTINUOUS
 10
16.1049731555
 20
11.0405007187
 11
16.1156496208
 21
11.0187443698
  0
LINE
  5
2B0
100
AcDbEntity
  8
LAYER_FEATURE
100
AcDbLine
 62
7
  6
CONTINUOUS
 10
15.7455417358
 20
10.8336828099
 11
15.7177512714
 21
11.0187443698
  0
LINE
  5
2B1
100
AcDbEntity
  8
LAYER_FEATURE
100
AcDbLine
 62
7
  6
CONTINUOUS
 10
14.9981843054
 20
10.8335146714
 11
15.0387236829
 21
10.9647001452
  0
LINE
  5
2B2
100
AcDbEntity
  8
LAYER_FEATURE
100
AcDbLine
 62
7
  6
CONTINUOUS
 10
15.745375099
 20
10.8312124919
 11
15.7455417358
 21
10.8336828099
  0
LINE
  5
2B3
100
AcDbEntity
  8
LAYER_FEATURE
100
AcDbLine
 62
7
  6
CONTINUOUS
 10
15.3505237281
 20
11.0405007187
 11
15.3438005078
 21
11.0187443698
  0
LINE
  5
2B4
100
AcDbEntity
  8
LAYER_FEATURE
100
AcDbLine
 62
7
  6
CONTINUOUS
 10
15.3721350689
 20
10.8335146714
 11
15.4126744465
 21
10.9647001452
  0
LINE
  5
2B5
100
AcDbEntity
  8
LAYER_FEATURE
100
AcDbLine
 62
7
  6
CONTINUOUS
 10
16.4656527985
 20
11.0187443698
 11
16.4549763332
 21
11.0405007187
  0
LINE
  5
2B6
100
AcDbEntity
  8
LAYER_FEATURE
100
AcDbLine
 62
7
  6
CONTINUOUS
 10
16.478923919
 20
11.0405007187
 11
16.4896003844
 21
11.0187443698
  0
LINE
  5
2B7
100
AcDbEntity
  8
LAYER_FEATURE
100
AcDbLine
 62
7
  6
CONTINUOUS
 10
16.1194924994
 20
10.8336828099
 11
16.091702035
 21
11.0187443698
  0
LINE
  5
2B8
100
AcDbEntity
  8
0
100
AcDbLine
 62
7
  6
CONTINUOUS
 10
16.8396035621
 20
11.0187443698
 11
16.8228262594
 21
11.0529329181
  0
LINE
  5
2B9
100
AcDbEntity
  8
LAYER_FEATURE
100
AcDbLine
 62
7
  6
CONTINUOUS
 10
16.1193258626
 20
10.8312124919
 11
16.1194924994
 21
10.8336828099
  0
LINE
  5
2BA
100
AcDbEntity
  8
LAYER_FEATURE
100
AcDbLine
 62
7
  6
CONTINUOUS
 10
15.7244744917
 20
11.0405007187
 11
15.7177512714
 21
11.0187443698
  0
LINE
  5
2BB
100
AcDbEntity
  8
LAYER_FEATURE
100
AcDbLine
 62
7
  6
CONTINUOUS
 10
15.7460858325
 20
10.8335146714
 11
15.78662521
 21
10.9647001452
  0
LINE
  5
2BC
100
AcDbEntity
  8
LAYER_FEATURE
100
AcDbLine
 62
7
  6
CONTINUOUS
 10
16.4934432629
 20
10.8336828099
 11
16.4656527985
 21
11.0187443698
  0
LINE
  5
2BD
100
AcDbEntity
  8
LAYER_FEATURE
100
AcDbLine
 62
7
  6
CONTINUOUS
 10
16.4932766262
 20
10.8312124919
 11
16.4934432629
 21
10.8336828099
  0
LINE
  5
2BE
100
AcDbEntity
  8
LAYER_FEATURE
100
AcDbLine
 62
7
  6
CONTINUOUS
 10
16.0984252553
 20
11.0405007187
 11
16.091702035
 21
11.0187443698
  0
LINE
  5
2BF
100
AcDbEntity
  8
LAYER_FEATURE
100
AcDbLine
 62
7
  6
CONTINUOUS
 10
16.1200365961
 20
10.8335146714
 11
16.1605759736
 21
10.9647001452
  0
LINE
  5
2C0
100
AcDbEntity
  8
LAYER_FEATURE
100
AcDbLine
 62
7
  6
CONTINUOUS
 10
16.8673940265
 20
10.8336828099
 11
16.8396035621
 21
11.0187443698
  0
LINE
  5
2C1
100
AcDbEntity
  8
LAYER_FEATURE
100
AcDbLine
 62
7
  6
CONTINUOUS
 10
16.8672273897
 20
10.8312124919
 11
16.8673940265
 21
10.8336828099
  0
LINE
  5
2C2
100
AcDbEntity
  8
LAYER_FEATURE
100
AcDbLine
 62
7
  6
CONTINUOUS
 10
16.4723760188
 20
11.0405007187
 11
16.4656527985
 21
11.0187443698
  0
LINE
  5
2C3
100
AcDbEntity
  8
LAYER_FEATURE
100
AcDbLine
 62
7
  6
CONTINUOUS
 10
16.4939873596
 20
10.8335146714
 11
16.5345267372
 21
10.9647001452
  0
LINE
  5
2C4
100
AcDbEntity
  8
LAYER_FEATURE
100
AcDbLine
 62
7
  6
CONTINUOUS
 10
17.8078688557
 20
14.1520520084
 11
16.8396035621
 21
11.0187443698
  0
LINE
  5
2C5
100
AcDbEntity
  8
0
100
AcDbLine
 62
7
  6
CONTINUOUS
 10
14.0847717902
 20
14.1955647061
 11
17.7727000102
 21
14.1955647061
  0
LINE
  5
2C6
100
AcDbEntity
  8
LAYER_FEATURE
100
AcDbLine
 62
7
  6
CONTINUOUS
 10
16.8679381232
 20
10.8335146714
 11
17.83549205
 21
13.964520326
  0
LINE
  5
2C7
100
AcDbEntity
  8
LAYER_FEATURE
100
AcDbLine
 62
7
  6
CONTINUOUS
 10
17.8356593201
 20
13.9669904485
 11
17.8354926833
 21
13.9645201304
  0
LINE
  5
2C8
100
AcDbEntity
  8
0
100
AcDbLine
 62
7
  6
CONTINUOUS
 10
17.7910915531
 20
14.1862405566
 11
17.8078688557
 21
14.1520520084
  0
LINE
  5
2C9
100
AcDbEntity
  8
LAYER_FEATURE
100
AcDbLine
 62
7
  6
CONTINUOUS
 10
17.8356593201
 20
13.9669904485
 11
17.8078688557
 21
14.1520520084
  0
ARC
  5
2CA
100
AcDbEntity
  8
0
100
AcDbCircle
 62
7
  6
CONTINUOUS
 10
4.1972243193
 20
5.3459532301
 40
0.0158333333
100
AcDbArc
 50
192.9439872503
 51
270.0
  0
ARC
  5
2CB
100
AcDbEntity
  8
0
100
AcDbCircle
 62
7
  6
CONTINUOUS
 10
4.409510233
 20
5.3459532301
 40
0.0158333333
100
AcDbArc
 50
270.0
 51
347.0560127497
  0
ARC
  5
2CC
100
AcDbEntity
  8
LAYER_FEATURE
100
AcDbCircle
 62
7
  6
CONTINUOUS
 10
4.6032243193
 20
5.3459532301
 40
0.0158333333
100
AcDbArc
 50
192.9439872503
 51
270.0
  0
ARC
  5
2CD
100
AcDbEntity
  8
LAYER_FEATURE
100
AcDbCircle
 62
7
  6
CONTINUOUS
 10
4.815510233
 20
5.3459532301
 40
0.0158333333
100
AcDbArc
 50
270.0
 51
347.0560127497
  0
ARC
  5
2CE
100
AcDbEntity
  8
LAYER_FEATURE
100
AcDbCircle
 62
7
  6
CONTINUOUS
 10
5.0092243193
 20
5.3459532301
 40
0.0158333333
100
AcDbArc
 50
192.9439872503
 51
270.0
  0
ARC
  5
2CF
100
AcDbEntity
  8
LAYER_FEATURE
100
AcDbCircle
 62
7
  6
CONTINUOUS
 10
5.221510233
 20
5.3459532301
 40
0.0158333333
100
AcDbArc
 50
270.0
 51
347.0560127497
  0
ARC
  5
2D0
100
AcDbEntity
  8
LAYER_FEATURE
100
AcDbCircle
 62
7
  6
CONTINUOUS
 10
5.4152243193
 20
5.3459532301
 40
0.0158333333
100
AcDbArc
 50
192.9439872503
 51
270.0
  0
ARC
  5
2D1
100
AcDbEntity
  8
LAYER_FEATURE
100
AcDbCircle
 62
7
  6
CONTINUOUS
 10
5.627510233
 20
5.3459532301
 40
0.0158333333
100
AcDbArc
 50
270.0
 51
347.0560127497
  0
ARC
  5
2D2
100
AcDbEntity
  8
LAYER_FEATURE
100
AcDbCircle
 62
7
  6
CONTINUOUS
 10
5.8212243193
 20
5.3459532301
 40
0.0158333333
100
AcDbArc
 50
192.9439872503
 51
270.0
  0
ARC
  5
2D3
100
AcDbEntity
  8
LAYER_FEATURE
100
AcDbCircle
 62
7
  6
CONTINUOUS
 10
6.033510233
 20
5.3459532301
 40
0.0158333333
100
AcDbArc
 50
270.0
 51
347.0560127497
  0
ARC
  5
2D4
100
AcDbEntity
  8
LAYER_FEATURE
100
AcDbCircle
 62
7
  6
CONTINUOUS
 10
6.2272243193
 20
5.3459532301
 40
0.0158333333
100
AcDbArc
 50
192.9439872503
 51
270.0
  0
ARC
  5
2D5
100
AcDbEntity
  8
LAYER_FEATURE
100
AcDbCircle
 62
7
  6
CONTINUOUS
 10
6.439510233
 20
5.3459532301
 40
0.0158333333
100
AcDbArc
 50
270.0
 51
347.0560127497
  0
ARC
  5
2D6
100
AcDbEntity
  8
LAYER_FEATURE
100
AcDbCircle
 62
7
  6
CONTINUOUS
 10
6.6332243193
 20
5.3459532301
 40
0.0158333333
100
AcDbArc
 50
192.9439872503
 51
270.0
  0
ARC
  5
2D7
100
AcDbEntity
  8
LAYER_FEATURE
100
AcDbCircle
 62
7
  6
CONTINUOUS
 10
6.845510233
 20
5.3459532301
 40
0.0158333333
100
AcDbArc
 50
270.0
 51
347.0560127497
  0
ARC
  5
2D8
100
AcDbEntity
  8
LAYER_FEATURE
100
AcDbCircle
 62
7
  6
CONTINUOUS
 10
7.0392243193
 20
5.3459532301
 40
0.0158333333
100
AcDbArc
 50
192.9439872503
 51
270.0
  0
ARC
  5
2D9
100
AcDbEntity
  8
LAYER_FEATURE
100
AcDbCircle
 62
7
  6
CONTINUOUS
 10
7.251510233
 20
5.3459532301
 40
0.0158333333
100
AcDbArc
 50
270.0
 51
347.0560127497
  0
ARC
  5
2DA
100
AcDbEntity
  8
LAYER_FEATURE
100
AcDbCircle
 62
7
  6
CONTINUOUS
 10
8.063510233
 20
5.3459532301
 40
0.0158333333
100
AcDbArc
 50
270.0
 51
347.0560127497
  0
ARC
  5
2DB
100
AcDbEntity
  8
LAYER_FEATURE
100
AcDbCircle
 62
7
  6
CONTINUOUS
 10
7.8512243193
 20
5.3459532301
 40
0.0158333333
100
AcDbArc
 50
192.9439872503
 51
270.0
  0
ARC
  5
2DC
100
AcDbEntity
  8
LAYER_FEATURE
100
AcDbCircle
 62
7
  6
CONTINUOUS
 10
7.657510233
 20
5.3459532301
 40
0.0158333333
100
AcDbArc
 50
270.0
 51
347.0560127497
  0
ARC
  5
2DD
100
AcDbEntity
  8
LAYER_FEATURE
100
AcDbCircle
 62
7
  6
CONTINUOUS
 10
7.4452243193
 20
5.3459532301
 40
0.0158333333
100
AcDbArc
 50
192.9439872503
 51
270.0
  0
ARC
  5
2DE
100
AcDbEntity
  8
0
100
AcDbCircle
 62
7
  6
CONTINUOUS
 10
4.1283672762
 20
5.6951198968
 40
0.015
100
AcDbArc
 50
90.0
 51
180.0
  0
ARC
  5
2DF
100
AcDbEntity
  8
0
100
AcDbCircle
 62
7
  6
CONTINUOUS
 10
8.1323672762
 20
5.6951198968
 40
0.015
100
AcDbArc
 50
0.0
 51
90.0
  0
SPLINE
  5
2E0
100
AcDbEntity
  8
0
100
AcDbSpline
 62
7
  6
CONTINUOUS
 70
0
 71
3
 72
15
 73
11
 74
0
 42
0.0000001
 43
0.0000001
 44
0.0000000001
 40
0.0
 40
0.0
 40
0.0
 40
0.0
 40
0.1294169969
 40
0.2645192965
 40
0.4012984446
 40
0.5362635232
 40
0.6661554626
 40
0.7881380369
 40
0.899918819
 40
1.0
 40
1.0
 40
1.0
 40
1.0
 10
17.7727000102
 20
14.1955647061
 30
0.0
 10
17.7736278667
 20
14.1955647061
 30
0.0
 10
17.7755256794
 20
14.1954344934
 30
0.0
 10
17.7783597521
 20
14.1949060597
 30
0.0
 10
17.7811541056
 20
14.1940480797
 30
0.0
 10
17.7838019342
 20
14.1929006
 30
0.0
 10
17.7862046697
 20
14.1915017962
 30
0.0
 10
17.7882775497
 20
14.1899057121
 30
0.0
 10
17.7899355678
 20
14.1881661717
 30
0.0
 10
17.7907754491
 20
14.1868847088
 30
0.0
 10
17.7910915531
 20
14.1862405566
 30
0.0
  0
SPLINE
  5
2E1
100
AcDbEntity
  8
0
100
AcDbSpline
 62
7
  6
CONTINUOUS
 70
0
 71
3
 72
10
 73
6
 74
0
 42
0.0000001
 43
0.0000001
 44
0.0000000001
 40
0.0
 40
0.0
 40
0.0
 40
0.0
 40
0.2343747234
 40
0.4761726601
 40
1.0
 40
1.0
 40
1.0
 40
1.0
 10
13.1067508918
 20
11.0573615803
 30
0.0
 10
13.106645666
 20
11.0570218162
 30
0.0
 10
13.106507725
 20
11.0563053354
 30
0.0
 10
13.1065446063
 20
11.0547796356
 30
0.0
 10
13.1069159973
 20
11.0536465757
 30
0.0
 10
13.1072662096
 20
11.0529329181
 30
0.0
  0
SPLINE
  5
2E2
100
AcDbEntity
  8
0
100
AcDbSpline
 62
7
  6
CONTINUOUS
 70
0
 71
3
 72
13
 73
9
 74
0
 42
0.0000001
 43
0.0000001
 44
0.0000000001
 40
0.0
 40
0.0
 40
0.0
 40
0.0
 40
0.0997934089
 40
0.2030630443
 40
0.3128476042
 40
0.431242554
 40
0.6971821534
 40
1.0
 40
1.0
 40
1.0
 40
1.0
 10
14.0750161854
 20
14.1906692188
 30
0.0
 10
14.0751305456
 20
14.1910384769
 30
0.0
 10
14.0754543472
 20
14.1917645803
 30
0.0
 10
14.0761910392
 20
14.1927383517
 30
0.0
 10
14.0771660261
 20
14.1935861128
 30
0.0
 10
14.0788167082
 20
14.1945713558
 30
0.0
 10
14.0813894235
 20
14.1953772423
 30
0.0
 10
14.0835987897
 20
14.1955647061
 30
0.0
 10
14.0847717902
 20
14.1955647061
 30
0.0
  0
SPLINE
  5
2E3
100
AcDbEntity
  8
LAYER_FEATURE
100
AcDbSpline
 62
7
  6
CONTINUOUS
 70
0
 71
3
 72
13
 73
9
 74
0
 42
0.0000001
 43
0.0000001
 44
0.0000000001
 40
0.0
 40
0.0
 40
0.0
 40
0.0
 40
0.3029777677
 40
0.5686779684
 40
0.687043843
 40
0.7968180493
 40
0.9001410882
 40
1.0
 40
1.0
 40
1.0
 40
1.0
 10
16.8569290892
 20
10.8260452797
 30
0.0
 10
16.858167936
 20
10.8260452797
 30
0.0
 10
16.8605001469
 20
10.8262416513
 30
0.0
 10
16.8632144449
 20
10.8270944038
 30
0.0
 10
16.8649568093
 20
10.8281324347
 30
0.0
 10
16.8659851291
 20
10.8290282655
 30
0.0
 10
16.8667647002
 20
10.8300551897
 30
0.0
 10
16.8671060896
 20
10.8308226112
 30
0.0
 10
16.8672262188
 20
10.8312128533
 30
0.0
  0
SPLINE
  5
2E4
100
AcDbEntity
  8
LAYER_FEATURE
100
AcDbSpline
 62
7
  6
CONTINUOUS
 70
0
 71
3
 72
14
 73
10
 74
0
 42
0.0000001
 43
0.0000001
 44
0.0000000001
 40
0.0
 40
0.0
 40
0.0
 40
0.0
 40
0.1089012332
 40
0.2266204193
 40
0.3512478153
 40
0.4807253467
 40
0.7448557661
 40
0.8749537806
 40
1.0
 40
1.0
 40
1.0
 40
1.0
 10
16.6434399663
 20
10.8336828099
 30
0.0
 10
16.6439054562
 20
10.8331228481
 30
0.0
 10
16.6449693703
 20
10.8320352957
 30
0.0
 10
16.6468169138
 20
10.8305769781
 30
0.0
 10
16.6489366658
 20
10.8292675915
 30
0.0
 10
16.6520601665
 20
10.8277574945
 30
0.0
 10
16.6554256721
 20
10.8266978365
 30
0.0
 10
16.6588574114
 20
10.8261449548
 30
0.0
 10
16.6605646857
 20
10.8260452797
 30
0.0
 10
16.6614008146
 20
10.8260452797
 30
0.0
  0
SPLINE
  5
2E5
100
AcDbEntity
  8
LAYER_FEATURE
100
AcDbSpline
 62
7
  6
CONTINUOUS
 70
0
 71
3
 72
13
 73
9
 74
0
 42
0.0000001
 43
0.0000001
 44
0.0000000001
 40
0.0
 40
0.0
 40
0.0
 40
0.0
 40
0.3029777677
 40
0.5686779684
 40
0.687043843
 40
0.7968180493
 40
0.9001410882
 40
1.0
 40
1.0
 40
1.0
 40
1.0
 10
16.4829783257
 20
10.8260452797
 30
0.0
 10
16.4842171725
 20
10.8260452797
 30
0.0
 10
16.4865493834
 20
10.8262416513
 30
0.0
 10
16.4892636813
 20
10.8270944038
 30
0.0
 10
16.4910060457
 20
10.8281324347
 30
0.0
 10
16.4920343655
 20
10.8290282655
 30
0.0
 10
16.4928139366
 20
10.8300551897
 30
0.0
 10
16.493155326
 20
10.8308226112
 30
0.0
 10
16.4932754552
 20
10.8312128533
 30
0.0
  0
SPLINE
  5
2E6
100
AcDbEntity
  8
LAYER_FEATURE
100
AcDbSpline
 62
7
  6
CONTINUOUS
 70
0
 71
3
 72
14
 73
10
 74
0
 42
0.0000001
 43
0.0000001
 44
0.0000000001
 40
0.0
 40
0.0
 40
0.0
 40
0.0
 40
0.1089012332
 40
0.2266204193
 40
0.3512478153
 40
0.4807253467
 40
0.7448557661
 40
0.8749537806
 40
1.0
 40
1.0
 40
1.0
 40
1.0
 10
16.2694892028
 20
10.8336828099
 30
0.0
 10
16.2699546927
 20
10.8331228481
 30
0.0
 10
16.2710186067
 20
10.8320352957
 30
0.0
 10
16.2728661503
 20
10.8305769781
 30
0.0
 10
16.2749859023
 20
10.8292675915
 30
0.0
 10
16.2781094029
 20
10.8277574945
 30
0.0
 10
16.2814749086
 20
10.8266978365
 30
0.0
 10
16.2849066479
 20
10.8261449548
 30
0.0
 10
16.2866139221
 20
10.8260452797
 30
0.0
 10
16.287450051
 20
10.8260452797
 30
0.0
  0
SPLINE
  5
2E7
100
AcDbEntity
  8
LAYER_FEATURE
100
AcDbSpline
 62
7
  6
CONTINUOUS
 70
0
 71
3
 72
13
 73
9
 74
0
 42
0.0000001
 43
0.0000001
 44
0.0000000001
 40
0.0
 40
0.0
 40
0.0
 40
0.0
 40
0.3029777677
 40
0.5686779684
 40
0.687043843
 40
0.7968180493
 40
0.9001410882
 40
1.0
 40
1.0
 40
1.0
 40
1.0
 10
16.1090275621
 20
10.8260452797
 30
0.0
 10
16.1102664089
 20
10.8260452797
 30
0.0
 10
16.1125986198
 20
10.8262416513
 30
0.0
 10
16.1153129178
 20
10.8270944038
 30
0.0
 10
16.1170552822
 20
10.8281324347
 30
0.0
 10
16.118083602
 20
10.8290282655
 30
0.0
 10
16.1188631731
 20
10.8300551897
 30
0.0
 10
16.1192045624
 20
10.8308226112
 30
0.0
 10
16.1193246916
 20
10.8312128533
 30
0.0
  0
SPLINE
  5
2E8
100
AcDbEntity
  8
LAYER_FEATURE
100
AcDbSpline
 62
7
  6
CONTINUOUS
 70
0
 71
3
 72
14
 73
10
 74
0
 42
0.0000001
 43
0.0000001
 44
0.0000000001
 40
0.0
 40
0.0
 40
0.0
 40
0.0
 40
0.1089012332
 40
0.2266204193
 40
0.3512478153
 40
0.4807253467
 40
0.7448557661
 40
0.8749537806
 40
1.0
 40
1.0
 40
1.0
 40
1.0
 10
15.8955384392
 20
10.8336828099
 30
0.0
 10
15.8960039291
 20
10.8331228481
 30
0.0
 10
15.8970678432
 20
10.8320352957
 30
0.0
 10
15.8989153867
 20
10.8305769781
 30
0.0
 10
15.9010351387
 20
10.8292675915
 30
0.0
 10
15.9041586393
 20
10.8277574945
 30
0.0
 10
15.907524145
 20
10.8266978365
 30
0.0
 10
15.9109558843
 20
10.8261449548
 30
0.0
 10
15.9126631586
 20
10.8260452797
 30
0.0
 10
15.9134992874
 20
10.8260452797
 30
0.0
  0
SPLINE
  5
2E9
100
AcDbEntity
  8
LAYER_FEATURE
100
AcDbSpline
 62
7
  6
CONTINUOUS
 70
0
 71
3
 72
13
 73
9
 74
0
 42
0.0000001
 43
0.0000001
 44
0.0000000001
 40
0.0
 40
0.0
 40
0.0
 40
0.0
 40
0.3029777677
 40
0.5686779684
 40
0.687043843
 40
0.7968180493
 40
0.9001410882
 40
1.0
 40
1.0
 40
1.0
 40
1.0
 10
15.7350767985
 20
10.8260452797
 30
0.0
 10
15.7363156454
 20
10.8260452797
 30
0.0
 10
15.7386478562
 20
10.8262416513
 30
0.0
 10
15.7413621542
 20
10.8270944038
 30
0.0
 10
15.7431045186
 20
10.8281324347
 30
0.0
 10
15.7441328384
 20
10.8290282655
 30
0.0
 10
15.7449124095
 20
10.8300551897
 30
0.0
 10
15.7452537989
 20
10.8308226112
 30
0.0
 10
15.7453739281
 20
10.8312128533
 30
0.0
  0
SPLINE
  5
2EA
100
AcDbEntity
  8
LAYER_FEATURE
100
AcDbSpline
 62
7
  6
CONTINUOUS
 70
0
 71
3
 72
14
 73
10
 74
0
 42
0.0000001
 43
0.0000001
 44
0.0000000001
 40
0.0
 40
0.0
 40
0.0
 40
0.0
 40
0.1089012332
 40
0.2266204193
 40
0.3512478153
 40
0.4807253467
 40
0.7448557661
 40
0.8749537806
 40
1.0
 40
1.0
 40
1.0
 40
1.0
 10
15.5215876756
 20
10.8336828099
 30
0.0
 10
15.5220531655
 20
10.8331228481
 30
0.0
 10
15.5231170796
 20
10.8320352957
 30
0.0
 10
15.5249646231
 20
10.8305769781
 30
0.0
 10
15.5270843751
 20
10.8292675915
 30
0.0
 10
15.5302078758
 20
10.8277574945
 30
0.0
 10
15.5335733814
 20
10.8266978365
 30
0.0
 10
15.5370051207
 20
10.8261449548
 30
0.0
 10
15.538712395
 20
10.8260452797
 30
0.0
 10
15.5395485239
 20
10.8260452797
 30
0.0
  0
SPLINE
  5
2EB
100
AcDbEntity
  8
LAYER_FEATURE
100
AcDbSpline
 62
7
  6
CONTINUOUS
 70
0
 71
3
 72
13
 73
9
 74
0
 42
0.0000001
 43
0.0000001
 44
0.0000000001
 40
0.0
 40
0.0
 40
0.0
 40
0.0
 40
0.3029777677
 40
0.5686779684
 40
0.687043843
 40
0.7968180493
 40
0.9001410882
 40
1.0
 40
1.0
 40
1.0
 40
1.0
 10
15.361126035
 20
10.8260452797
 30
0.0
 10
15.3623648818
 20
10.8260452797
 30
0.0
 10
15.3646970927
 20
10.8262416513
 30
0.0
 10
15.3674113906
 20
10.8270944038
 30
0.0
 10
15.3691537551
 20
10.8281324347
 30
0.0
 10
15.3701820748
 20
10.8290282655
 30
0.0
 10
15.3709616459
 20
10.8300551897
 30
0.0
 10
15.3713030353
 20
10.8308226112
 30
0.0
 10
15.3714231645
 20
10.8312128533
 30
0.0
  0
SPLINE
  5
2EC
100
AcDbEntity
  8
LAYER_FEATURE
100
AcDbSpline
 62
7
  6
CONTINUOUS
 70
0
 71
3
 72
14
 73
10
 74
0
 42
0.0000001
 43
0.0000001
 44
0.0000000001
 40
0.0
 40
0.0
 40
0.0
 40
0.0
 40
0.1089012332
 40
0.2266204193
 40
0.3512478153
 40
0.4807253467
 40
0.7448557661
 40
0.8749537806
 40
1.0
 40
1.0
 40
1.0
 40
1.0
 10
15.1476369121
 20
10.8336828099
 30
0.0
 10
15.148102402
 20
10.8331228481
 30
0.0
 10
15.149166316
 20
10.8320352957
 30
0.0
 10
15.1510138596
 20
10.8305769781
 30
0.0
 10
15.1531336116
 20
10.8292675915
 30
0.0
 10
15.1562571122
 20
10.8277574945
 30
0.0
 10
15.1596226179
 20
10.8266978365
 30
0.0
 10
15.1630543572
 20
10.8261449548
 30
0.0
 10
15.1647616314
 20
10.8260452797
 30
0.0
 10
15.1655977603
 20
10.8260452797
 30
0.0
  0
SPLINE
  5
2ED
100
AcDbEntity
  8
LAYER_FEATURE
100
AcDbSpline
 62
7
  6
CONTINUOUS
 70
0
 71
3
 72
13
 73
9
 74
0
 42
0.0000001
 43
0.0000001
 44
0.0000000001
 40
0.0
 40
0.0
 40
0.0
 40
0.0
 40
0.3029778611
 40
0.5686786143
 40
0.6870445448
 40
0.7968191612
 40
0.9001424141
 40
1.0
 40
1.0
 40
1.0
 40
1.0
 10
14.9871752714
 20
10.8260452797
 30
0.0
 10
14.9884141184
 20
10.8260452797
 30
0.0
 10
14.9907463299
 20
10.826241659
 30
0.0
 10
14.9934606342
 20
10.8270944003
 30
0.0
 10
14.9952029995
 20
10.8281324384
 30
0.0
 10
14.996231314
 20
10.8290282804
 30
0.0
 10
14.9970108747
 20
10.8300552056
 30
0.0
 10
14.9973522814
 20
10.8308226137
 30
0.0
 10
14.9974724122
 20
10.8312128495
 30
0.0
  0
SPLINE
  5
2EE
100
AcDbEntity
  8
LAYER_FEATURE
100
AcDbSpline
 62
7
  6
CONTINUOUS
 70
0
 71
3
 72
14
 73
10
 74
0
 42
0.0000001
 43
0.0000001
 44
0.0000000001
 40
0.0
 40
0.0
 40
0.0
 40
0.0
 40
0.1089012332
 40
0.2266204193
 40
0.3512478153
 40
0.4807253467
 40
0.7448557661
 40
0.8749537806
 40
1.0
 40
1.0
 40
1.0
 40
1.0
 10
14.7736861485
 20
10.8336828099
 30
0.0
 10
14.7741516384
 20
10.8331228481
 30
0.0
 10
14.7752155525
 20
10.8320352957
 30
0.0
 10
14.777063096
 20
10.8305769781
 30
0.0
 10
14.779182848
 20
10.8292675915
 30
0.0
 10
14.7823063486
 20
10.8277574945
 30
0.0
 10
14.7856718543
 20
10.8266978365
 30
0.0
 10
14.7891035936
 20
10.8261449548
 30
0.0
 10
14.7908108679
 20
10.8260452797
 30
0.0
 10
14.7916469967
 20
10.8260452797
 30
0.0
  0
SPLINE
  5
2EF
100
AcDbEntity
  8
LAYER_FEATURE
100
AcDbSpline
 62
7
  6
CONTINUOUS
 70
0
 71
3
 72
13
 73
9
 74
0
 42
0.0000001
 43
0.0000001
 44
0.0000000001
 40
0.0
 40
0.0
 40
0.0
 40
0.0
 40
0.3029777677
 40
0.5686779684
 40
0.687043843
 40
0.7968180493
 40
0.9001410882
 40
1.0
 40
1.0
 40
1.0
 40
1.0
 10
14.6132245078
 20
10.8260452797
 30
0.0
 10
14.6144633547
 20
10.8260452797
 30
0.0
 10
14.6167955655
 20
10.8262416513
 30
0.0
 10
14.6195098635
 20
10.8270944038
 30
0.0
 10
14.6212522279
 20
10.8281324347
 30
0.0
 10
14.6222805477
 20
10.8290282655
 30
0.0
 10
14.6230601188
 20
10.8300551897
 30
0.0
 10
14.6234015082
 20
10.8308226112
 30
0.0
 10
14.6235216374
 20
10.8312128533
 30
0.0
  0
SPLINE
  5
2F0
100
AcDbEntity
  8
LAYER_FEATURE
100
AcDbSpline
 62
7
  6
CONTINUOUS
 70
0
 71
3
 72
14
 73
10
 74
0
 42
0.0000001
 43
0.0000001
 44
0.0000000001
 40
0.0
 40
0.0
 40
0.0
 40
0.0
 40
0.1089012332
 40
0.2266204193
 40
0.3512478153
 40
0.4807253467
 40
0.7448557661
 40
0.8749537806
 40
1.0
 40
1.0
 40
1.0
 40
1.0
 10
14.3997353849
 20
10.8336828099
 30
0.0
 10
14.4002008748
 20
10.8331228481
 30
0.0
 10
14.4012647889
 20
10.8320352957
 30
0.0
 10
14.4031123324
 20
10.8305769781
 30
0.0
 10
14.4052320844
 20
10.8292675915
 30
0.0
 10
14.4083555851
 20
10.8277574945
 30
0.0
 10
14.4117210907
 20
10.8266978365
 30
0.0
 10
14.41515283
 20
10.8261449548
 30
0.0
 10
14.4168601043
 20
10.8260452797
 30
0.0
 10
14.4176962332
 20
10.8260452797
 30
0.0
  0
SPLINE
  5
2F1
100
AcDbEntity
  8
LAYER_FEATURE
100
AcDbSpline
 62
7
  6
CONTINUOUS
 70
0
 71
3
 72
13
 73
9
 74
0
 42
0.0000001
 43
0.0000001
 44
0.0000000001
 40
0.0
 40
0.0
 40
0.0
 40
0.0
 40
0.3029777677
 40
0.5686779684
 40
0.687043843
 40
0.7968180493
 40
0.9001410882
 40
1.0
 40
1.0
 40
1.0
 40
1.0
 10
14.2392737443
 20
10.8260452797
 30
0.0
 10
14.2405125911
 20
10.8260452797
 30
0.0
 10
14.242844802
 20
10.8262416513
 30
0.0
 10
14.2455590999
 20
10.8270944038
 30
0.0
 10
14.2473014644
 20
10.8281324347
 30
0.0
 10
14.2483297841
 20
10.8290282655
 30
0.0
 10
14.2491093552
 20
10.8300551897
 30
0.0
 10
14.2494507446
 20
10.8308226112
 30
0.0
 10
14.2495708738
 20
10.8312128533
 30
0.0
  0
SPLINE
  5
2F2
100
AcDbEntity
  8
LAYER_FEATURE
100
AcDbSpline
 62
7
  6
CONTINUOUS
 70
0
 71
3
 72
14
 73
10
 74
0
 42
0.0000001
 43
0.0000001
 44
0.0000000001
 40
0.0
 40
0.0
 40
0.0
 40
0.0
 40
0.1089012332
 40
0.2266204193
 40
0.3512478153
 40
0.4807253467
 40
0.7448557661
 40
0.8749537806
 40
1.0
 40
1.0
 40
1.0
 40
1.0
 10
14.0257846214
 20
10.8336828099
 30
0.0
 10
14.0262501113
 20
10.8331228481
 30
0.0
 10
14.0273140253
 20
10.8320352957
 30
0.0
 10
14.0291615689
 20
10.8305769781
 30
0.0
 10
14.0312813209
 20
10.8292675915
 30
0.0
 10
14.0344048215
 20
10.8277574945
 30
0.0
 10
14.0377703272
 20
10.8266978365
 30
0.0
 10
14.0412020665
 20
10.8261449548
 30
0.0
 10
14.0429093407
 20
10.8260452797
 30
0.0
 10
14.0437454696
 20
10.8260452797
 30
0.0
  0
SPLINE
  5
2F3
100
AcDbEntity
  8
LAYER_FEATURE
100
AcDbSpline
 62
7
  6
CONTINUOUS
 70
0
 71
3
 72
13
 73
9
 74
0
 42
0.0000001
 43
0.0000001
 44
0.0000000001
 40
0.0
 40
0.0
 40
0.0
 40
0.0
 40
0.3029777677
 40
0.5686779684
 40
0.687043843
 40
0.7968180493
 40
0.9001410882
 40
1.0
 40
1.0
 40
1.0
 40
1.0
 10
13.8653229807
 20
10.8260452797
 30
0.0
 10
13.8665618275
 20
10.8260452797
 30
0.0
 10
13.8688940384
 20
10.8262416513
 30
0.0
 10
13.8716083364
 20
10.8270944038
 30
0.0
 10
13.8733507008
 20
10.8281324347
 30
0.0
 10
13.8743790206
 20
10.8290282655
 30
0.0
 10
13.8751585917
 20
10.8300551897
 30
0.0
 10
13.8754999811
 20
10.8308226112
 30
0.0
 10
13.8756201102
 20
10.8312128533
 30
0.0
  0
SPLINE
  5
2F4
100
AcDbEntity
  8
LAYER_FEATURE
100
AcDbSpline
 62
7
  6
CONTINUOUS
 70
0
 71
3
 72
14
 73
10
 74
0
 42
0.0000001
 43
0.0000001
 44
0.0000000001
 40
0.0
 40
0.0
 40
0.0
 40
0.0
 40
0.1089012332
 40
0.2266204193
 40
0.3512478153
 40
0.4807253467
 40
0.7448557661
 40
0.8749537806
 40
1.0
 40
1.0
 40
1.0
 40
1.0
 10
13.6518338578
 20
10.8336828099
 30
0.0
 10
13.6522993477
 20
10.8331228481
 30
0.0
 10
13.6533632618
 20
10.8320352957
 30
0.0
 10
13.6552108053
 20
10.8305769781
 30
0.0
 10
13.6573305573
 20
10.8292675915
 30
0.0
 10
13.660454058
 20
10.8277574945
 30
0.0
 10
13.6638195636
 20
10.8266978365
 30
0.0
 10
13.6672513029
 20
10.8261449548
 30
0.0
 10
13.6689585772
 20
10.8260452797
 30
0.0
 10
13.6697947061
 20
10.8260452797
 30
0.0
  0
SPLINE
  5
2F5
100
AcDbEntity
  8
0
100
AcDbSpline
 62
7
  6
CONTINUOUS
 70
0
 71
3
 72
13
 73
9
 74
0
 42
0.0000001
 43
0.0000001
 44
0.0000000001
 40
0.0
 40
0.0
 40
0.0
 40
0.0
 40
0.3029777677
 40
0.5686779684
 40
0.6870438431
 40
0.7968180493
 40
0.9001410882
 40
1.0
 40
1.0
 40
1.0
 40
1.0
 10
13.4913722171
 20
10.8260452797
 30
0.0
 10
13.492611064
 20
10.8260452797
 30
0.0
 10
13.4949432749
 20
10.8262416513
 30
0.0
 10
13.4976575728
 20
10.8270944038
 30
0.0
 10
13.4993999372
 20
10.8281324347
 30
0.0
 10
13.500428257
 20
10.8290282655
 30
0.0
 10
13.5012078281
 20
10.8300551897
 30
0.0
 10
13.5015492175
 20
10.8308226112
 30
0.0
 10
13.5016693467
 20
10.8312128533
 30
0.0
  0
SPLINE
  5
2F6
100
AcDbEntity
  8
0
100
AcDbSpline
 62
7
  6
CONTINUOUS
 70
0
 71
3
 72
14
 73
10
 74
0
 42
0.0000001
 43
0.0000001
 44
0.0000000001
 40
0.0
 40
0.0
 40
0.0
 40
0.0
 40
0.1089012332
 40
0.2266204193
 40
0.3512478153
 40
0.4807253467
 40
0.7448557661
 40
0.8749537806
 40
1.0
 40
1.0
 40
1.0
 40
1.0
 10
13.2778830942
 20
10.8336828099
 30
0.0
 10
13.2783485841
 20
10.8331228481
 30
0.0
 10
13.2794124982
 20
10.8320352957
 30
0.0
 10
13.2812600417
 20
10.8305769781
 30
0.0
 10
13.2833797938
 20
10.8292675915
 30
0.0
 10
13.2865032944
 20
10.8277574945
 30
0.0
 10
13.2898688001
 20
10.8266978365
 30
0.0
 10
13.2933005393
 20
10.8261449548
 30
0.0
 10
13.2950078136
 20
10.8260452797
 30
0.0
 10
13.2958439425
 20
10.8260452797
 30
0.0
  0
SPLINE
  5
2F7
100
AcDbEntity
  8
0
100
AcDbSpline
 62
7
  6
CONTINUOUS
 70
0
 71
3
 72
13
 73
9
 74
0
 42
0.0000001
 43
0.0000001
 44
0.0000000001
 40
0.0
 40
0.0
 40
0.0
 40
0.0
 40
0.3028178466
 40
0.568757446
 40
0.6871523958
 40
0.7969369557
 40
0.9002065911
 40
1.0
 40
1.0
 40
1.0
 40
1.0
 10
13.1165064965
 20
11.0622570676
 30
0.0
 10
13.115333496
 20
11.0622570676
 30
0.0
 10
13.1131241298
 20
11.0620696038
 30
0.0
 10
13.1105514146
 20
11.0612637173
 30
0.0
 10
13.1089007324
 20
11.0602784743
 30
0.0
 10
13.1079257456
 20
11.0594307132
 30
0.0
 10
13.1071890536
 20
11.0584569417
 30
0.0
 10
13.106865252
 20
11.0577308384
 30
0.0
 10
13.1067508918
 20
11.0573615803
 30
0.0
  0
SPLINE
  5
2F8
100
AcDbEntity
  8
0
100
AcDbSpline
 62
7
  6
CONTINUOUS
 70
0
 71
3
 72
15
 73
11
 74
0
 42
0.0000001
 43
0.0000001
 44
0.0000000001
 40
0.0
 40
0.0
 40
0.0
 40
0.0
 40
0.100081181
 40
0.2118619631
 40
0.3338445374
 40
0.4637364768
 40
0.5987015554
 40
0.7354807035
 40
0.8705830031
 40
1.0
 40
1.0
 40
1.0
 40
1.0
 10
16.8228262594
 20
11.0529329181
 30
0.0
 10
16.8225101555
 20
11.0535770703
 30
0.0
 10
16.8216702742
 20
11.0548585331
 30
0.0
 10
16.8200122561
 20
11.0565980736
 30
0.0
 10
16.8179393761
 20
11.0581941577
 30
0.0
 10
16.8155366405
 20
11.0595929615
 30
0.0
 10
16.812888812
 20
11.0607404412
 30
0.0
 10
16.8100944584
 20
11.0615984212
 30
0.0
 10
16.8072603858
 20
11.0621268548
 30
0.0
 10
16.8053625731
 20
11.0622570676
 30
0.0
 10
16.8044347165
 20
11.0622570676
 30
0.0
  0
ENDSEC
  0
SECTION
  2
OBJECTS
  0
DICTIONARY
  5
C
100
AcDbDictionary
280
0
281
1
  3
ACAD_GROUP
350
D
  3
ACAD_MLINESTYLE
350
17
  3
ACAD_LAYOUT
350
1A
  3
ACAD_PLOTSETTINGS
350
19
  3
ACAD_PLOTSTYLENAME
350
E
  0
DICTIONARY
  5
D
102
{ACAD_REACTORS
330
C
102
}
100
AcDbDictionary
280
0
281
1
  0
ACDBDICTIONARYWDFLT
  5
E
102
{ACAD_REACTORS
330
C
102
}
100
AcDbDictionary
281
1
  3
Normal
350
F
100
AcDbDictionaryWithDefault
340
F
  0
DICTIONARY
  5
17
102
{ACAD_REACTORS
330
C
102
}
100
AcDbDictionary
280
0
281
1
  3
Standard
350
18
  0
DICTIONARY
  5
19
102
{ACAD_REACTORS
330
C
102
}
100
AcDbDictionary
281
1
  0
DICTIONARY
  5
1A
102
{ACAD_REACTORS
330
C
102
}
100
AcDbDictionary
281
1
  3
Model
350
2F9
  3
Layout1
350
2FA
  0
ACDBPLACEHOLDER
  5
F
102
{ACAD_REACTORS
330
E
102
}
  0
MLINESTYLE
  5
18
102
{ACAD_REACTORS
330
17
102
}
100
AcDbMlineStyle
  2
STANDARD
 70
0
  3

 62
256
 51
90.0
 52
90.0
 71
2
 49
0.5
 62
256
  6
BYLAYER
 49
-0.5
 62
256
  6
BYLAYER
  0
LAYOUT
  5
2F9
102
{ACAD_REACTORS
330
1A
102
}
100
AcDbPlotSettings
  1

  2
none_device
  4
ANSI_C_(22.00_x_17.00_Inches)
  6

 40
0.0
 41
0.0
 42
0.0
 43
0.0
 44
558.8
 45
431.8
 46
0.0
 47
0.0
 48
0.0
 49
0.0
140
0.0
141
0.0
142
1.0
143
1.0
 70
1024
 72
0
 73
0
 74
0
  7

 75
0
147
1.0
148
0.0
149
0.0
100
AcDbLayout
  1
Model
 70
0
 71
0
 10
0.0
 20
0.0
 11
22.0
 21
17.0
 12
0.0
 22
0.0
 32
0.0
 14
0.0
 24
0.0
 34
0.0
 15
0.0
 25
0.0
 35
0.0
146
0.0
 13
0.0
 23
0.0
 33
0.0
 16
1.0
 26
0.0
 36
0.0
 17
0.0
 27
1.0
 37
0.0
 76
0
330
21C
345
0
346
0
  0
LAYOUT
  5
2FA
102
{ACAD_REACTORS
330
1A
102
}
100
AcDbPlotSettings
  1

  2
none_device
  4
ANSI_C_(22.00_x_17.00_Inches)
  6

 40
0.0
 41
0.0
 42
0.0
 43
0.0
 44
558.8
 45
431.8
 46
0.0
 47
0.0
 48
0.0
 49
0.0
140
0.0
141
0.0
142
1.0
143
1.0
 70
0
 72
0
 73
0
 74
0
  7

 75
0
147
1.0
148
0.0
149
0.0
100
AcDbLayout
  1
Layout1
 70
0
 71
1
 10
0.0
 20
0.0
 11
22.0
 21
17.0
 12
0.0
 22
0.0
 32
0.0
 14
0.0
 24
0.0
 34
0.0
 15
0.0
 25
0.0
 35
0.0
146
0.0
 13
0.0
 23
0.0
 33
0.0
 16
1.0
 26
0.0
 36
0.0
 17
0.0
 27
1.0
 37
0.0
 76
0
330
21D
345
0
346
0
  0
ENDSEC
  0
EOF