0
SECTION
  2
HEADER
  9
$ACADVER
  1
AC1027
  9
$ACADMAINTVER
 70
     8
  9
$DWGCODEPAGE
  3
ANSI_1252
  9
$REQUIREDVERSIONS
160
                 0
  9
$COMMENTS
  1
File was created by Cadenas
  9
$CUSTOMPROPERTYTAG
  1
NN
  9
$CUSTOMPROPERTY
  1
Take-Up Frames - HD Protected screw
  9
$CUSTOMPROPERTYTAG
  1
NT
  9
$CUSTOMPROPERTY
  1
Take - Up Frames
  9
$CUSTOMPROPERTYTAG
  1
NB
  9
$CUSTOMPROPERTY
  1
089038
  9
$CUSTOMPROPERTYTAG
  1
NBSYN
  9
$CUSTOMPROPERTY
  1
$PN.
  9
$CUSTOMPROPERTYTAG
  1
LINA
  9
$CUSTOMPROPERTY
  1
089038
  9
$CUSTOMPROPERTYTAG
  1
FS
  9
$CUSTOMPROPERTY
  1
HD-350*
  9
$CUSTOMPROPERTYTAG
  1
TRAVEL
  9
$CUSTOMPROPERTY
  1
48
  9
$CUSTOMPROPERTYTAG
  1
PN
  9
$CUSTOMPROPERTY
  1
089038
  9
$CUSTOMPROPERTYTAG
  1
WEIGHT
  9
$CUSTOMPROPERTY
  1
250
  9
$CUSTOMPROPERTYTAG
  1
B
  9
$CUSTOMPROPERTY
  1
76
  9
$CUSTOMPROPERTYTAG
  1
C
  9
$CUSTOMPROPERTY
  1
6-1/2
  9
$CUSTOMPROPERTYTAG
  1
D
  9
$CUSTOMPROPERTY
  1
73-1/4
  9
$CUSTOMPROPERTYTAG
  1
E
  9
$CUSTOMPROPERTY
  1
3
  9
$CUSTOMPROPERTYTAG
  1
F
  9
$CUSTOMPROPERTY
  1
3/4
  9
$CUSTOMPROPERTYTAG
  1
G
  9
$CUSTOMPROPERTY
  1
7/8
  9
$CUSTOMPROPERTYTAG
  1
H
  9
$CUSTOMPROPERTY
  1
7/8
  9
$CUSTOMPROPERTYTAG
  1
L
  9
$CUSTOMPROPERTY
  1
12-5/8
  9
$CUSTOMPROPERTYTAG
  1
N
  9
$CUSTOMPROPERTY
  1
7
  9
$CUSTOMPROPERTYTAG
  1
O
  9
$CUSTOMPROPERTY
  1
6
  9
$CUSTOMPROPERTYTAG
  1
P
  9
$CUSTOMPROPERTY
  1
16
  9
$CUSTOMPROPERTYTAG
  1
SDQ
  9
$CUSTOMPROPERTY
  1
6
  9
$CUSTOMPROPERTYTAG
  1
SDQ1
  9
$CUSTOMPROPERTY
  1
6.00000
  9
$CUSTOMPROPERTYTAG
  1
SDR
  9
$CUSTOMPROPERTY
  1
17
  9
$CUSTOMPROPERTYTAG
  1
S
  9
$CUSTOMPROPERTY
  1
1-1/4
  9
$CUSTOMPROPERTYTAG
  1
W
  9
$CUSTOMPROPERTY
  1
10
  9
$CUSTOMPROPERTYTAG
  1
X
  9
$CUSTOMPROPERTY
  1
3-1/2
  9
$CUSTOMPROPERTYTAG
  1
Y
  9
$CUSTOMPROPERTY
  1
7/8
  9
$CUSTOMPROPERTYTAG
  1
ZMIN
  9
$CUSTOMPROPERTY
  1
13-11/16
  9
$CUSTOMPROPERTYTAG
  1
ZMAX
  9
$CUSTOMPROPERTY
  1
10-3/4
  9
$CUSTOMPROPERTYTAG
  1
COMPANY
  9
$CUSTOMPROPERTY
  1
baldor
  9
$INSBASE
 10
0.0
 20
0.0
 30
0.0
  9
$EXTMIN
 10
1.000000000000000E+20
 20
1.000000000000000E+20
 30
1.000000000000000E+20
  9
$EXTMAX
 10
-1.000000000000000E+20
 20
-1.000000000000000E+20
 30
-1.000000000000000E+20
  9
$LIMMIN
 10
0.0
 20
0.0
  9
$LIMMAX
 10
12.0
 20
9.0
  9
$ORTHOMODE
 70
     0
  9
$REGENMODE
 70
     1
  9
$FILLMODE
 70
     1
  9
$QTEXTMODE
 70
     0
  9
$MIRRTEXT
 70
     1
  9
$LTSCALE
 40
1.0
  9
$ATTMODE
 70
     1
  9
$TEXTSIZE
 40
0.2
  9
$TRACEWID
 40
0.05
  9
$TEXTSTYLE
  7
Standard
  9
$CLAYER
  8
0
  9
$CELTYPE
  6
ByLayer
  9
$CECOLOR
 62
   256
  9
$CELTSCALE
 40
1.0
  9
$DISPSILH
 70
     0
  9
$DIMSCALE
 40
1.0
  9
$DIMASZ
 40
0.18
  9
$DIMEXO
 40
0.0625
  9
$DIMDLI
 40
0.38
  9
$DIMRND
 40
0.0
  9
$DIMDLE
 40
0.0
  9
$DIMEXE
 40
0.18
  9
$DIMTP
 40
0.0
  9
$DIMTM
 40
0.0
  9
$DIMTXT
 40
0.18
  9
$DIMCEN
 40
0.09
  9
$DIMTSZ
 40
0.0
  9
$DIMTOL
 70
     0
  9
$DIMLIM
 70
     0
  9
$DIMTIH
 70
     1
  9
$DIMTOH
 70
     1
  9
$DIMSE1
 70
     0
  9
$DIMSE2
 70
     0
  9
$DIMTAD
 70
     0
  9
$DIMZIN
 70
     0
  9
$DIMBLK
  1

  9
$DIMASO
 70
     1
  9
$DIMSHO
 70
     1
  9
$DIMPOST
  1

  9
$DIMAPOST
  1

  9
$DIMALT
 70
     0
  9
$DIMALTD
 70
     2
  9
$DIMALTF
 40
25.4
  9
$DIMLFAC
 40
1.0
  9
$DIMTOFL
 70
     0
  9
$DIMTVP
 40
0.0
  9
$DIMTIX
 70
     0
  9
$DIMSOXD
 70
     0
  9
$DIMSAH
 70
     0
  9
$DIMBLK1
  1

  9
$DIMBLK2
  1

  9
$DIMSTYLE
  2
Standard
  9
$DIMCLRD
 70
     0
  9
$DIMCLRE
 70
     0
  9
$DIMCLRT
 70
     0
  9
$DIMTFAC
 40
1.0
  9
$DIMGAP
 40
0.09
  9
$DIMJUST
 70
     0
  9
$DIMSD1
 70
     0
  9
$DIMSD2
 70
     0
  9
$DIMTOLJ
 70
     1
  9
$DIMTZIN
 70
     0
  9
$DIMALTZ
 70
     0
  9
$DIMALTTZ
 70
     0
  9
$DIMUPT
 70
     0
  9
$DIMDEC
 70
     4
  9
$DIMTDEC
 70
     4
  9
$DIMALTU
 70
     2
  9
$DIMALTTD
 70
     2
  9
$DIMTXSTY
  7
Standard
  9
$DIMAUNIT
 70
     0
  9
$DIMADEC
 70
     0
  9
$DIMALTRND
 40
0.0
  9
$DIMAZIN
 70
     0
  9
$DIMDSEP
 70
    46
  9
$DIMATFIT
 70
     3
  9
$DIMFRAC
 70
     0
  9
$DIMLDRBLK
  1

  9
$DIMLUNIT
 70
     2
  9
$DIMLWD
 70
    -2
  9
$DIMLWE
 70
    -2
  9
$DIMTMOVE
 70
     0
  9
$DIMFXL
 40
1.0
  9
$DIMFXLON
 70
     0
  9
$DIMJOGANG
 40
0.7853981633974483
  9
$DIMTFILL
 70
     0
  9
$DIMTFILLCLR
 70
     0
  9
$DIMARCSYM
 70
     0
  9
$DIMLTYPE
  6

  9
$DIMLTEX1
  6

  9
$DIMLTEX2
  6

  9
$DIMTXTDIRECTION
 70
     0
  9
$LUNITS
 70
     2
  9
$LUPREC
 70
     4
  9
$SKETCHINC
 40
0.1
  9
$FILLETRAD
 40
0.5
  9
$AUNITS
 70
     0
  9
$AUPREC
 70
     0
  9
$MENU
  1
.
  9
$ELEVATION
 40
0.0
  9
$PELEVATION
 40
0.0
  9
$THICKNESS
 40
0.0
  9
$LIMCHECK
 70
     0
  9
$CHAMFERA
 40
0.0
  9
$CHAMFERB
 40
0.0
  9
$CHAMFERC
 40
0.0
  9
$CHAMFERD
 40
0.0
  9
$SKPOLY
 70
     0
  9
$TDCREATE
 40
2458168.978325
  9
$TDUCREATE
 40
2458168.936658334
  9
$TDUPDATE
 40
2458168.978325185
  9
$TDUUPDATE
 40
2458168.936658518
  9
$TDINDWG
 40
0.0000000116
  9
$TDUSRTIMER
 40
0.0000000116
  9
$USRTIMER
 70
     1
  9
$ANGBASE
 50
0.0
  9
$ANGDIR
 70
     0
  9
$PDMODE
 70
     0
  9
$PDSIZE
 40
0.0
  9
$PLINEWID
 40
0.0
  9
$SPLFRAME
 70
     0
  9
$SPLINETYPE
 70
     6
  9
$SPLINESEGS
 70
     8
  9
$HANDSEED
  5
192
  9
$SURFTAB1
 70
     6
  9
$SURFTAB2
 70
     6
  9
$SURFTYPE
 70
     6
  9
$SURFU
 70
     6
  9
$SURFV
 70
     6
  9
$UCSBASE
  2

  9
$UCSNAME
  2

  9
$UCSORG
 10
0.0
 20
0.0
 30
0.0
  9
$UCSXDIR
 10
1.0
 20
0.0
 30
0.0
  9
$UCSYDIR
 10
0.0
 20
1.0
 30
0.0
  9
$UCSORTHOREF
  2

  9
$UCSORTHOVIEW
 70
     0
  9
$UCSORGTOP
 10
0.0
 20
0.0
 30
0.0
  9
$UCSORGBOTTOM
 10
0.0
 20
0.0
 30
0.0
  9
$UCSORGLEFT
 10
0.0
 20
0.0
 30
0.0
  9
$UCSORGRIGHT
 10
0.0
 20
0.0
 30
0.0
  9
$UCSORGFRONT
 10
0.0
 20
0.0
 30
0.0
  9
$UCSORGBACK
 10
0.0
 20
0.0
 30
0.0
  9
$PUCSBASE
  2

  9
$PUCSNAME
  2

  9
$PUCSORG
 10
0.0
 20
0.0
 30
0.0
  9
$PUCSXDIR
 10
1.0
 20
0.0
 30
0.0
  9
$PUCSYDIR
 10
0.0
 20
1.0
 30
0.0
  9
$PUCSORTHOREF
  2

  9
$PUCSORTHOVIEW
 70
     0
  9
$PUCSORGTOP
 10
0.0
 20
0.0
 30
0.0
  9
$PUCSORGBOTTOM
 10
0.0
 20
0.0
 30
0.0
  9
$PUCSORGLEFT
 10
0.0
 20
0.0
 30
0.0
  9
$PUCSORGRIGHT
 10
0.0
 20
0.0
 30
0.0
  9
$PUCSORGFRONT
 10
0.0
 20
0.0
 30
0.0
  9
$PUCSORGBACK
 10
0.0
 20
0.0
 30
0.0
  9
$USERI1
 70
     0
  9
$USERI2
 70
     0
  9
$USERI3
 70
     0
  9
$USERI4
 70
     0
  9
$USERI5
 70
     0
  9
$USERR1
 40
0.0
  9
$USERR2
 40
0.0
  9
$USERR3
 40
0.0
  9
$USERR4
 40
0.0
  9
$USERR5
 40
0.0
  9
$WORLDVIEW
 70
     1
  9
$SHADEDGE
 70
     3
  9
$SHADEDIF
 70
    70
  9
$TILEMODE
 70
     1
  9
$MAXACTVP
 70
    64
  9
$PINSBASE
 10
0.0
 20
0.0
 30
0.0
  9
$PLIMCHECK
 70
     0
  9
$PEXTMIN
 10
1.000000000000000E+20
 20
1.000000000000000E+20
 30
1.000000000000000E+20
  9
$PEXTMAX
 10
-1.000000000000000E+20
 20
-1.000000000000000E+20
 30
-1.000000000000000E+20
  9
$PLIMMIN
 10
0.0
 20
0.0
  9
$PLIMMAX
 10
12.0
 20
9.0
  9
$UNITMODE
 70
     0
  9
$VISRETAIN
 70
     1
  9
$PLINEGEN
 70
     0
  9
$PSLTSCALE
 70
     1
  9
$TREEDEPTH
 70
  3020
  9
$CMLSTYLE
  2
Standard
  9
$CMLJUST
 70
     0
  9
$CMLSCALE
 40
1.0
  9
$PROXYGRAPHICS
 70
     1
  9
$MEASUREMENT
 70
     0
  9
$CELWEIGHT
370
    -1
  9
$ENDCAPS
280
     0
  9
$JOINSTYLE
280
     0
  9
$LWDISPLAY
290
     0
  9
$INSUNITS
 70
     1
  9
$HYPERLINKBASE
  1

  9
$STYLESHEET
  1

  9
$XEDIT
290
     1
  9
$CEPSNTYPE
380
     0
  9
$PSTYLEMODE
290
     1
  9
$FINGERPRINTGUID
  2
{2FEBE1CC-C23C-4C4A-B792-2CE3ED1461FC}
  9
$VERSIONGUID
  2
{FAEB1C32-E019-11D5-929B-00C0DF256EC4}
  9
$EXTNAMES
290
     1
  9
$PSVPSCALE
 40
0.0
  9
$OLESTARTUP
290
     0
  9
$SORTENTS
280
   127
  9
$INDEXCTL
280
     0
  9
$HIDETEXT
280
     1
  9
$XCLIPFRAME
280
     2
  9
$HALOGAP
280
     0
  9
$OBSCOLOR
 70
   257
  9
$OBSLTYPE
280
     0
  9
$INTERSECTIONDISPLAY
280
     0
  9
$INTERSECTIONCOLOR
 70
   257
  9
$DIMASSOC
280
     2
  9
$PROJECTNAME
  1

  9
$CAMERADISPLAY
290
     0
  9
$LENSLENGTH
 40
50.0
  9
$CAMERAHEIGHT
 40
0.0
  9
$STEPSPERSEC
 40
2.0
  9
$STEPSIZE
 40
6.0
  9
$3DDWFPREC
 40
2.0
  9
$PSOLWIDTH
 40
0.25
  9
$PSOLHEIGHT
 40
4.0
  9
$LOFTANG1
 40
1.570796326794897
  9
$LOFTANG2
 40
1.570796326794897
  9
$LOFTMAG1
 40
0.0
  9
$LOFTMAG2
 40
0.0
  9
$LOFTPARAM
 70
     7
  9
$LOFTNORMALS
280
     1
  9
$LATITUDE
 40
37.795
  9
$LONGITUDE
 40
-122.394
  9
$NORTHDIRECTION
 40
0.0
  9
$TIMEZONE
 70
 -8000
  9
$LIGHTGLYPHDISPLAY
280
     1
  9
$TILEMODELIGHTSYNCH
280
     1
  9
$CMATERIAL
347
44
  9
$SOLIDHIST
280
     0
  9
$SHOWHIST
280
     1
  9
$DWFFRAME
280
     2
  9
$DGNFRAME
280
     2
  9
$REALWORLDSCALE
290
     1
  9
$INTERFERECOLOR
 62
   256
  9
$CSHADOW
280
     0
  9
$SHADOWPLANELOCATION
 40
0.0
  0
ENDSEC
  0
SECTION
  2
CLASSES
  0
CLASS
  1
ACDBDICTIONARYWDFLT
  2
AcDbDictionaryWithDefault
  3
ObjectDBX Classes
 90
        0
 91
        4
280
     0
281
     0
  0
CLASS
  1
VISUALSTYLE
  2
AcDbVisualStyle
  3
ObjectDBX Classes
 90
     4095
 91
        4
280
     0
281
     0
  0
CLASS
  1
MATERIAL
  2
AcDbMaterial
  3
ObjectDBX Classes
 90
     1153
 91
        4
280
     0
281
     0
  0
CLASS
  1
SCALE
  2
AcDbScale
  3
ObjectDBX Classes
 90
     1153
 91
        4
280
     0
281
     0
  0
CLASS
  1
TABLESTYLE
  2
AcDbTableStyle
  3
ObjectDBX Classes
 90
     4095
 91
        4
280
     0
281
     0
  0
CLASS
  1
MLEADERSTYLE
  2
AcDbMLeaderStyle
  3
ACDB_MLEADERSTYLE_CLASS
 90
     4095
 91
        4
280
     0
281
     0
  0
CLASS
  1
SUN
  2
AcDbSun
  3
SCENEOE
 90
     1153
 91
        4
280
     0
281
     0
  0
CLASS
  1
DICTIONARYVAR
  2
AcDbDictionaryVar
  3
ObjectDBX Classes
 90
        0
 91
        4
280
     0
281
     0
  0
CLASS
  1
CELLSTYLEMAP
  2
AcDbCellStyleMap
  3
ObjectDBX Classes
 90
     1152
 91
        4
280
     0
281
     0
  0
ENDSEC
  0
SECTION
  2
TABLES
  0
TABLE
  2
VPORT
  5
8
330
0
100
AcDbSymbolTable
 70
     1
  0
VPORT
  5
29
330
8
100
AcDbSymbolTableRecord
100
AcDbViewportTableRecord
  2
*Active
 70
     0
 10
0.0
 20
0.0
 11
1.0
 21
1.0
 12
3.788690476190478
 22
0.0
 13
0.0
 23
0.0
 14
0.5
 24
0.5
 15
0.5
 25
0.5
 16
0.0
 26
0.0
 36
1.0
 17
0.0
 27
0.0
 37
0.0
 40
15.3
 41
5.93515873015873
 42
50.0
 43
0.0
 44
0.0
 50
0.0
 51
0.0
 71
     0
 72
   100
 73
     1
 74
     3
 75
     0
 76
     0
 77
     0
 78
     0
281
     0
 65
     1
110
0.0
120
0.0
130
0.0
111
1.0
121
0.0
131
0.0
112
0.0
122
1.0
132
0.0
 79
     0
146
0.0
348
2F
 60
     3
 61
     5
292
     1
282
     1
141
0.0
142
0.0
 63
   250
361
6D
  0
ENDTAB
  0
TABLE
  2
LTYPE
  5
5
330
0
100
AcDbSymbolTable
 70
     3
  0
LTYPE
  5
14
330
5
100
AcDbSymbolTableRecord
100
AcDbLinetypeTableRecord
  2
ByBlock
 70
     0
  3

 72
    65
 73
     0
 40
0.0
  0
LTYPE
  5
15
330
5
100
AcDbSymbolTableRecord
100
AcDbLinetypeTableRecord
  2
ByLayer
 70
     0
  3

 72
    65
 73
     0
 40
0.0
  0
LTYPE
  5
16
330
5
100
AcDbSymbolTableRecord
100
AcDbLinetypeTableRecord
  2
Continuous
 70
     0
  3
Solid line
 72
    65
 73
     0
 40
0.0
  0
LTYPE
  5
8D
330
5
100
AcDbSymbolTableRecord
100
AcDbLinetypeTableRecord
  2
Dashed
 70
     0
  3

 72
    65
 73
     2
 40
2.0
 49
1.0
 74
     0
 49
-1.0
 74
     0
  0
LTYPE
  5
186
330
5
100
AcDbSymbolTableRecord
100
AcDbLinetypeTableRecord
  2
Center
 70
     0
  3

 72
    65
 73
     4
 40
1.5
 49
0.45
 74
     0
 49
-0.5
 74
     0
 49
0.05
 74
     0
 49
-0.5
 74
     0
  0
ENDTAB
  0
TABLE
  2
LAYER
  5
2
330
0
100
AcDbSymbolTable
 70
     6
  0
LAYER
  5
10
330
2
100
AcDbSymbolTableRecord
100
AcDbLayerTableRecord
  2
0
 70
     0
 62
     7
  6
Continuous
370
    -3
390
F
347
46
348
0
  0
LAYER
  5
6E
330
2
100
AcDbSymbolTableRecord
100
AcDbLayerTableRecord
  2
AM_6
 70
     0
 62
    -2
  6
Continuous
370
    35
390
F
347
46
348
0
  0
LAYER
  5
8E
330
2
100
AcDbSymbolTableRecord
100
AcDbLayerTableRecord
  2
AM_9
 70
     0
 62
     6
  6
Dashed
370
    25
390
F
347
46
348
0
  0
LAYER
  5
90
330
2
100
AcDbSymbolTableRecord
100
AcDbLayerTableRecord
  2
AM_4
 70
     0
 62
     7
  6
Continuous
370
    50
390
F
347
46
348
0
  0
LAYER
  5
183
330
2
100
AcDbSymbolTableRecord
100
AcDbLayerTableRecord
  2
AM_5
 70
     0
 62
     3
  6
Continuous
370
    25
390
F
347
46
348
0
  0
LAYER
  5
187
330
2
100
AcDbSymbolTableRecord
100
AcDbLayerTableRecord
  2
AM_7
 70
     0
 62
     7
  6
Center
370
    25
390
F
347
46
348
0
  0
ENDTAB
  0
TABLE
  2
STYLE
  5
3
330
0
100
AcDbSymbolTable
 70
     1
  0
STYLE
  5
11
330
3
100
AcDbSymbolTableRecord
100
AcDbTextStyleTableRecord
  2
Standard
 70
     0
 40
0.0
 41
1.0
 50
0.0
 71
     0
 42
0.2
  3
txt
  4

  0
ENDTAB
  0
TABLE
  2
VIEW
  5
6
330
0
100
AcDbSymbolTable
 70
     0
  0
ENDTAB
  0
TABLE
  2
UCS
  5
7
330
0
100
AcDbSymbolTable
 70
     0
  0
ENDTAB
  0
TABLE
  2
APPID
  5
9
330
0
100
AcDbSymbolTable
 70
     1
  0
APPID
  5
12
330
9
100
AcDbSymbolTableRecord
100
AcDbRegAppTableRecord
  2
ACAD
 70
     0
  0
ENDTAB
  0
TABLE
  2
DIMSTYLE
  5
A
330
0
100
AcDbSymbolTable
 70
     1
100
AcDbDimStyleTable
  0
DIMSTYLE
105
27
330
A
100
AcDbSymbolTableRecord
100
AcDbDimStyleTableRecord
  2
Standard
 70
     0
178
     0
340
11
  0
ENDTAB
  0
TABLE
  2
BLOCK_RECORD
  5
1
330
0
100
AcDbSymbolTable
 70
     1
  0
BLOCK_RECORD
  5
1F
330
1
100
AcDbSymbolTableRecord
100
AcDbBlockTableRecord
  2
*Model_Space
340
22
 70
     0
280
     1
281
     0
  0
BLOCK_RECORD
  5
1B
330
1
100
AcDbSymbolTableRecord
100
AcDbBlockTableRecord
  2
*Paper_Space
340
1E
 70
     0
280
     1
281
     0
  0
BLOCK_RECORD
  5
23
330
1
100
AcDbSymbolTableRecord
100
AcDbBlockTableRecord
  2
*Paper_Space0
340
26
 70
     0
280
     1
281
     0
  0
ENDTAB
  0
ENDSEC
  0
SECTION
  2
BLOCKS
  0
BLOCK
  5
20
330
1F
100
AcDbEntity
  8
0
100
AcDbBlockBegin
  2
*Model_Space
 70
     0
 10
0.0
 20
0.0
 30
0.0
  3
*Model_Space
  1

  0
ENDBLK
  5
21
330
1F
100
AcDbEntity
  8
0
100
AcDbBlockEnd
  0
BLOCK
  5
1C
330
1B
100
AcDbEntity
 67
     1
  8
0
100
AcDbBlockBegin
  2
*Paper_Space
 70
     0
 10
0.0
 20
0.0
 30
0.0
  3
*Paper_Space
  1

  0
ENDBLK
  5
1D
330
1B
100
AcDbEntity
 67
     1
  8
0
100
AcDbBlockEnd
  0
BLOCK
  5
24
330
23
100
AcDbEntity
  8
0
100
AcDbBlockBegin
  2
*Paper_Space0
 70
     0
 10
0.0
 20
0.0
 30
0.0
  3
*Paper_Space0
  1

  0
ENDBLK
  5
25
330
23
100
AcDbEntity
  8
0
100
AcDbBlockEnd
  0
ENDSEC
  0
SECTION
  2
ENTITIES
  0
ATTDEF
  5
6F
330
1F
100
AcDbEntity
  8
AM_6
100
AcDbText
 10
44.85
 20
7.0
 30
0.0
 40
0.5
  1
Take-Up Frames - HD Protected screw
100
AcDbAttributeDefinition
  3

  2
NN
 70
     8
280
     0
  0
ATTDEF
  5
70
330
1F
100
AcDbEntity
  8
AM_6
100
AcDbText
 10
44.85
 20
6.5
 30
0.0
 40
0.5
  1
Take - Up Frames
100
AcDbAttributeDefinition
  3

  2
NT
 70
     8
280
     0
  0
ATTDEF
  5
71
330
1F
100
AcDbEntity
  8
AM_6
100
AcDbText
 10
44.85
 20
6.0
 30
0.0
 40
0.5
  1
089038
100
AcDbAttributeDefinition
  3

  2
NB
 70
     8
280
     0
  0
ATTDEF
  5
72
330
1F
100
AcDbEntity
  8
AM_6
100
AcDbText
 10
44.85
 20
5.5
 30
0.0
 40
0.5
  1
$PN.
100
AcDbAttributeDefinition
  3

  2
NBSYN
 70
     8
280
     0
  0
ATTDEF
  5
73
330
1F
100
AcDbEntity
  8
AM_6
100
AcDbText
 10
44.85
 20
5.0
 30
0.0
 40
0.5
  1
089038
100
AcDbAttributeDefinition
  3

  2
LINA
 70
     8
280
     0
  0
ATTDEF
  5
74
330
1F
100
AcDbEntity
  8
AM_6
100
AcDbText
 10
44.85
 20
4.5
 30
0.0
 40
0.5
  1
HD-350*
100
AcDbAttributeDefinition
  3

  2
FS
 70
     8
280
     0
  0
ATTDEF
  5
75
330
1F
100
AcDbEntity
  8
AM_6
100
AcDbText
 10
44.85
 20
4.0
 30
0.0
 40
0.5
  1
48
100
AcDbAttributeDefinition
  3

  2
TRAVEL
 70
     8
280
     0
  0
ATTDEF
  5
76
330
1F
100
AcDbEntity
  8
AM_6
100
AcDbText
 10
44.85
 20
3.5
 30
0.0
 40
0.5
  1
089038
100
AcDbAttributeDefinition
  3

  2
PN
 70
     8
280
     0
  0
ATTDEF
  5
77
330
1F
100
AcDbEntity
  8
AM_6
100
AcDbText
 10
44.85
 20
3.0
 30
0.0
 40
0.5
  1
250
100
AcDbAttributeDefinition
  3

  2
WEIGHT
 70
     8
280
     0
  0
ATTDEF
  5
78
330
1F
100
AcDbEntity
  8
AM_6
100
AcDbText
 10
44.85
 20
2.5
 30
0.0
 40
0.5
  1
76
100
AcDbAttributeDefinition
  3

  2
B
 70
     8
280
     0
  0
ATTDEF
  5
79
330
1F
100
AcDbEntity
  8
AM_6
100
AcDbText
 10
44.85
 20
2.0
 30
0.0
 40
0.5
  1
6-1/2
100
AcDbAttributeDefinition
  3

  2
C
 70
     8
280
     0
  0
ATTDEF
  5
7A
330
1F
100
AcDbEntity
  8
AM_6
100
AcDbText
 10
44.85
 20
1.5
 30
0.0
 40
0.5
  1
73-1/4
100
AcDbAttributeDefinition
  3

  2
D
 70
     8
280
     0
  0
ATTDEF
  5
7B
330
1F
100
AcDbEntity
  8
AM_6
100
AcDbText
 10
44.85
 20
1.0
 30
0.0
 40
0.5
  1
3
100
AcDbAttributeDefinition
  3

  2
E
 70
     8
280
     0
  0
ATTDEF
  5
7C
330
1F
100
AcDbEntity
  8
AM_6
100
AcDbText
 10
44.85
 20
0.5
 30
0.0
 40
0.5
  1
3/4
100
AcDbAttributeDefinition
  3

  2
F
 70
     8
280
     0
  0
ATTDEF
  5
7D
330
1F
100
AcDbEntity
  8
AM_6
100
AcDbText
 10
44.85
 20
0.0
 30
0.0
 40
0.5
  1
7/8
100
AcDbAttributeDefinition
  3

  2
G
 70
     8
280
     0
  0
ATTDEF
  5
7E
330
1F
100
AcDbEntity
  8
AM_6
100
AcDbText
 10
44.85
 20
-0.5
 30
0.0
 40
0.5
  1
7/8
100
AcDbAttributeDefinition
  3

  2
H
 70
     8
280
     0
  0
ATTDEF
  5
7F
330
1F
100
AcDbEntity
  8
AM_6
100
AcDbText
 10
44.85
 20
-1.0
 30
0.0
 40
0.5
  1
12-5/8
100
AcDbAttributeDefinition
  3

  2
L
 70
     8
280
     0
  0
ATTDEF
  5
80
330
1F
100
AcDbEntity
  8
AM_6
100
AcDbText
 10
44.85
 20
-1.5
 30
0.0
 40
0.5
  1
7
100
AcDbAttributeDefinition
  3

  2
N
 70
     8
280
     0
  0
ATTDEF
  5
81
330
1F
100
AcDbEntity
  8
AM_6
100
AcDbText
 10
44.85
 20
-2.0
 30
0.0
 40
0.5
  1
6
100
AcDbAttributeDefinition
  3

  2
O
 70
     8
280
     0
  0
ATTDEF
  5
82
330
1F
100
AcDbEntity
  8
AM_6
100
AcDbText
 10
44.85
 20
-2.5
 30
0.0
 40
0.5
  1
16
100
AcDbAttributeDefinition
  3

  2
P
 70
     8
280
     0
  0
ATTDEF
  5
83
330
1F
100
AcDbEntity
  8
AM_6
100
AcDbText
 10
44.85
 20
-3.0
 30
0.0
 40
0.5
  1
6
100
AcDbAttributeDefinition
  3

  2
SDQ
 70
     8
280
     0
  0
ATTDEF
  5
84
330
1F
100
AcDbEntity
  8
AM_6
100
AcDbText
 10
44.85
 20
-3.5
 30
0.0
 40
0.5
  1
6.00000
100
AcDbAttributeDefinition
  3

  2
SDQ1
 70
     8
280
     0
  0
ATTDEF
  5
85
330
1F
100
AcDbEntity
  8
AM_6
100
AcDbText
 10
44.85
 20
-4.0
 30
0.0
 40
0.5
  1
17
100
AcDbAttributeDefinition
  3

  2
SDR
 70
     8
280
     0
  0
ATTDEF
  5
86
330
1F
100
AcDbEntity
  8
AM_6
100
AcDbText
 10
44.85
 20
-4.5
 30
0.0
 40
0.5
  1
1-1/4
100
AcDbAttributeDefinition
  3

  2
S
 70
     8
280
     0
  0
ATTDEF
  5
87
330
1F
100
AcDbEntity
  8
AM_6
100
AcDbText
 10
44.85
 20
-5.0
 30
0.0
 40
0.5
  1
10
100
AcDbAttributeDefinition
  3

  2
W
 70
     8
280
     0
  0
ATTDEF
  5
88
330
1F
100
AcDbEntity
  8
AM_6
100
AcDbText
 10
44.85
 20
-5.5
 30
0.0
 40
0.5
  1
3-1/2
100
AcDbAttributeDefinition
  3

  2
X
 70
     8
280
     0
  0
ATTDEF
  5
89
330
1F
100
AcDbEntity
  8
AM_6
100
AcDbText
 10
44.85
 20
-6.0
 30
0.0
 40
0.5
  1
7/8
100
AcDbAttributeDefinition
  3

  2
Y
 70
     8
280
     0
  0
ATTDEF
  5
8A
330
1F
100
AcDbEntity
  8
AM_6
100
AcDbText
 10
44.85
 20
-6.5
 30
0.0
 40
0.5
  1
13-11/16
100
AcDbAttributeDefinition
  3

  2
ZMIN
 70
     8
280
     0
  0
ATTDEF
  5
8B
330
1F
100
AcDbEntity
  8
AM_6
100
AcDbText
 10
44.85
 20
-7.0
 30
0.0
 40
0.5
  1
10-3/4
100
AcDbAttributeDefinition
  3

  2
ZMAX
 70
     8
280
     0
  0
ATTDEF
  5
8C
330
1F
100
AcDbEntity
  8
AM_6
100
AcDbText
 10
44.85
 20
-7.5
 30
0.0
 40
0.5
  1
baldor
100
AcDbAttributeDefinition
  3

  2
COMPANY
 70
     8
280
     0
  0
LINE
  5
8F
330
1F
100
AcDbEntity
  8
AM_9
100
AcDbLine
 10
35.0
 20
4.7180712844423
 30
0.0
 11
-35.0
 21
4.7180712844423
 31
0.0
  0
LINE
  5
91
330
1F
100
AcDbEntity
  8
AM_4
100
AcDbLine
 10
36.1875
 20
4.0754
 30
0.0
 11
36.1379
 21
4.125
 31
0.0
  0
LINE
  5
92
330
1F
100
AcDbEntity
  8
AM_4
100
AcDbLine
 10
36.1379
 20
2.875
 30
0.0
 11
36.1875
 21
2.9246
 31
0.0
  0
LINE
  5
93
330
1F
100
AcDbEntity
  8
AM_4
100
AcDbLine
 10
36.1379
 20
4.125
 30
0.0
 11
35.0
 21
4.125
 31
0.0
  0
LINE
  5
94
330
1F
100
AcDbEntity
  8
AM_9
100
AcDbLine
 10
35.0
 20
4.125
 30
0.0
 11
-35.0
 21
4.125
 31
0.0
  0
LINE
  5
95
330
1F
100
AcDbEntity
  8
AM_4
100
AcDbLine
 10
-35.0
 20
4.125
 30
0.0
 11
-36.625
 21
4.125
 31
0.0
  0
LINE
  5
96
330
1F
100
AcDbEntity
  8
AM_9
100
AcDbLine
 10
34.727272727273
 20
2.875
 30
0.0
 11
35.0
 21
2.875
 31
0.0
  0
LINE
  5
97
330
1F
100
AcDbEntity
  8
AM_4
100
AcDbLine
 10
35.0
 20
2.875
 30
0.0
 11
36.1379
 21
2.875
 31
0.0
  0
LINE
  5
98
330
1F
100
AcDbEntity
  8
AM_9
100
AcDbLine
 10
6.9333333333333
 20
2.875
 30
0.0
 11
32.0
 21
2.875
 31
0.0
  0
LINE
  5
99
330
1F
100
AcDbEntity
  8
AM_9
100
AcDbLine
 10
-5.3333333333333
 20
2.875
 30
0.0
 11
5.3333333333333
 21
2.875
 31
0.0
  0
LINE
  5
9A
330
1F
100
AcDbEntity
  8
AM_9
100
AcDbLine
 10
-32.0
 20
2.875
 30
0.0
 11
-6.9333333333333
 21
2.875
 31
0.0
  0
LINE
  5
9B
330
1F
100
AcDbEntity
  8
AM_4
100
AcDbLine
 10
-36.625
 20
2.875
 30
0.0
 11
-35.0
 21
2.875
 31
0.0
  0
LINE
  5
9C
330
1F
100
AcDbEntity
  8
AM_9
100
AcDbLine
 10
-35.0
 20
2.875
 30
0.0
 11
-34.727272727273
 21
2.875
 31
0.0
  0
LINE
  5
9D
330
1F
100
AcDbEntity
  8
AM_4
100
AcDbLine
 10
37.0625
 20
4.28125
 30
0.0
 11
36.992721564471
 21
4.4021097956088
 31
0.0
  0
LINE
  5
9E
330
1F
100
AcDbEntity
  8
AM_4
100
AcDbLine
 10
36.992721564471
 20
2.5978902043912
 30
0.0
 11
37.0625
 21
2.71875
 31
0.0
  0
LINE
  5
9F
330
1F
100
AcDbEntity
  8
AM_4
100
AcDbLine
 10
36.1875
 20
2.71875
 30
0.0
 11
36.257278435529
 21
2.5978902043912
 31
0.0
  0
LINE
  5
A0
330
1F
100
AcDbEntity
  8
AM_4
100
AcDbLine
 10
36.257278435529
 20
4.4021097956088
 30
0.0
 11
36.1875
 21
4.28125
 31
0.0
  0
LINE
  5
A1
330
1F
100
AcDbEntity
  8
AM_4
100
AcDbLine
 10
-36.625
 20
4.28125
 30
0.0
 11
-36.694778435529
 21
4.4021097956088
 31
0.0
  0
LINE
  5
A2
330
1F
100
AcDbEntity
  8
AM_4
100
AcDbLine
 10
-36.694778435529
 20
2.5978902043912
 30
0.0
 11
-36.625
 21
2.71875
 31
0.0
  0
LINE
  5
A3
330
1F
100
AcDbEntity
  8
AM_4
100
AcDbLine
 10
-37.5
 20
2.71875
 30
0.0
 11
-37.430221564471
 21
2.5978902043912
 31
0.0
  0
LINE
  5
A4
330
1F
100
AcDbEntity
  8
AM_4
100
AcDbLine
 10
-37.430221564471
 20
4.4021097956088
 30
0.0
 11
-37.5
 21
4.28125
 31
0.0
  0
LINE
  5
A5
330
1F
100
AcDbEntity
  8
AM_9
100
AcDbLine
 10
-3.2105263157895
 20
6.125
 30
0.0
 11
-3.2105263157895
 21
6.93
 31
0.0
  0
LINE
  5
A6
330
1F
100
AcDbEntity
  8
AM_9
100
AcDbLine
 10
3.2105263157895
 20
6.93
 30
0.0
 11
3.2105263157895
 21
6.125
 31
0.0
  0
LINE
  5
A7
330
1F
100
AcDbEntity
  8
AM_9
100
AcDbLine
 10
35.0
 20
4.7180712844423
 30
0.0
 11
35.0
 21
1.75
 31
0.0
  0
LINE
  5
A8
330
1F
100
AcDbEntity
  8
AM_9
100
AcDbLine
 10
-35.0
 20
4.7180712844423
 30
0.0
 11
-35.0
 21
1.75
 31
0.0
  0
LINE
  5
A9
330
1F
100
AcDbEntity
  8
AM_4
100
AcDbLine
 10
-38.0
 20
0.875
 30
0.0
 11
-38.0
 21
0.0
 31
0.0
  0
ARC
  5
AA
330
1F
100
AcDbEntity
  8
AM_4
100
AcDbCircle
 10
-35.42045454545304
 20
1.749999999998043
 30
0.0
 40
0.8749999999980429
100
AcDbArc
 50
270.0
 51
0.0
  0
LINE
  5
AB
330
1F
100
AcDbEntity
  8
AM_4
100
AcDbLine
 10
-38.0
 20
0.0
 30
0.0
 11
-32.0
 21
0.0
 31
0.0
  0
LINE
  5
AC
330
1F
100
AcDbEntity
  8
AM_4
100
AcDbLine
 10
38.0
 20
0.875
 30
0.0
 11
35.420454545455
 21
0.875
 31
0.0
  0
LINE
  5
AD
330
1F
100
AcDbEntity
  8
AM_4
100
AcDbLine
 10
38.0
 20
0.0
 30
0.0
 11
38.0
 21
0.875
 31
0.0
  0
LINE
  5
AE
330
1F
100
AcDbEntity
  8
AM_4
100
AcDbLine
 10
32.0
 20
0.0
 30
0.0
 11
38.0
 21
0.0
 31
0.0
  0
LINE
  5
AF
330
1F
100
AcDbEntity
  8
AM_4
100
AcDbLine
 10
32.0
 20
1.75
 30
0.0
 11
32.0
 21
0.0
 31
0.0
  0
ARC
  5
B0
330
1F
100
AcDbEntity
  8
AM_4
100
AcDbCircle
 10
35.42045454545304
 20
1.749999999998043
 30
0.0
 40
0.8749999999980389
100
AcDbArc
 50
180.0
 51
270.0
  0
LINE
  5
B1
330
1F
100
AcDbEntity
  8
AM_9
100
AcDbLine
 10
32.0
 20
0.875
 30
0.0
 11
35.420454545454
 21
0.875
 31
0.0
  0
LINE
  5
B2
330
1F
100
AcDbEntity
  8
AM_4
100
AcDbLine
 10
34.727272727273
 20
1.216029994342
 30
0.0
 11
34.727272727273
 21
1.75
 31
0.0
  0
LINE
  5
B3
330
1F
100
AcDbEntity
  8
AM_9
100
AcDbLine
 10
34.727272727273
 20
3.5
 30
0.0
 11
34.727272727273
 21
0.875
 31
0.0
  0
LINE
  5
B4
330
1F
100
AcDbEntity
  8
AM_9
100
AcDbLine
 10
32.0
 20
2.0570754524231
 30
0.0
 11
34.727272727273
 21
2.0570754524231
 31
0.0
  0
LINE
  5
B5
330
1F
100
AcDbEntity
  8
AM_9
100
AcDbLine
 10
32.0
 20
2.4311670017949
 30
0.0
 11
34.727272727273
 21
2.4311670017949
 31
0.0
  0
LINE
  5
B6
330
1F
100
AcDbEntity
  8
AM_9
100
AcDbLine
 10
32.0
 20
2.7590155712998
 30
0.0
 11
34.727272727273
 21
2.7590155712998
 31
0.0
  0
LINE
  5
B7
330
1F
100
AcDbEntity
  8
AM_9
100
AcDbLine
 10
32.0
 20
1.9908275353575
 30
0.0
 11
34.727272727273
 21
1.9908275353575
 31
0.0
  0
LINE
  5
B8
330
1F
100
AcDbEntity
  8
AM_9
100
AcDbLine
 10
32.0
 20
1.7148633522905
 30
0.0
 11
34.727272727273
 21
1.7148633522905
 31
0.0
  0
LINE
  5
B9
330
1F
100
AcDbEntity
  8
AM_9
100
AcDbLine
 10
32.0
 20
3.5
 30
0.0
 11
32.0
 21
1.75
 31
0.0
  0
LINE
  5
BA
330
1F
100
AcDbEntity
  8
AM_9
100
AcDbLine
 10
32.0
 20
1.8702516036966
 30
0.0
 11
34.727272727273
 21
1.8702516036966
 31
0.0
  0
LINE
  5
BB
330
1F
100
AcDbEntity
  8
AM_9
100
AcDbLine
 10
32.0
 20
2.1462157867636
 30
0.0
 11
34.727272727273
 21
2.1462157867636
 31
0.0
  0
LINE
  5
BC
330
1F
100
AcDbEntity
  8
AM_4
100
AcDbLine
 10
-35.420454545455
 20
0.875
 30
0.0
 11
-38.0
 21
0.875
 31
0.0
  0
LINE
  5
BD
330
1F
100
AcDbEntity
  8
AM_9
100
AcDbLine
 10
-35.420454545454
 20
0.875
 30
0.0
 11
-32.0
 21
0.875
 31
0.0
  0
LINE
  5
BE
330
1F
100
AcDbEntity
  8
AM_4
100
AcDbLine
 10
-34.727272727273
 20
1.75
 30
0.0
 11
-34.727272727273
 21
1.2160299943422
 31
0.0
  0
LINE
  5
BF
330
1F
100
AcDbEntity
  8
AM_9
100
AcDbLine
 10
-32.0
 20
2.4297337941571
 30
0.0
 11
-34.727272727273
 21
2.4297337941571
 31
0.0
  0
LINE
  5
C0
330
1F
100
AcDbEntity
  8
AM_9
100
AcDbLine
 10
-32.0
 20
2.138111936762
 30
0.0
 11
-34.727272727273
 21
2.138111936762
 31
0.0
  0
LINE
  5
C1
330
1F
100
AcDbEntity
  8
AM_9
100
AcDbLine
 10
-34.727272727273
 20
0.875
 30
0.0
 11
-34.727272727273
 21
3.5
 31
0.0
  0
LINE
  5
C2
330
1F
100
AcDbEntity
  8
AM_9
100
AcDbLine
 10
-32.0
 20
2.0570754524231
 30
0.0
 11
-34.727272727273
 21
2.0570754524231
 31
0.0
  0
LINE
  5
C3
330
1F
100
AcDbEntity
  8
AM_9
100
AcDbLine
 10
-32.0
 20
2.4311670017949
 30
0.0
 11
-34.727272727273
 21
2.4311670017949
 31
0.0
  0
LINE
  5
C4
330
1F
100
AcDbEntity
  8
AM_9
100
AcDbLine
 10
-32.0
 20
2.866687000263
 30
0.0
 11
-34.727272727273
 21
2.866687000263
 31
0.0
  0
LINE
  5
C5
330
1F
100
AcDbEntity
  8
AM_9
100
AcDbLine
 10
-32.0
 20
2.2626581057333
 30
0.0
 11
-34.727272727273
 21
2.2626581057333
 31
0.0
  0
LINE
  5
C6
330
1F
100
AcDbEntity
  8
AM_9
100
AcDbLine
 10
-32.0
 20
1.9710362483382
 30
0.0
 11
-34.727272727273
 21
1.9710362483382
 31
0.0
  0
LINE
  5
C7
330
1F
100
AcDbEntity
  8
AM_9
100
AcDbLine
 10
-32.0
 20
0.875
 30
0.0
 11
-32.0
 21
3.5
 31
0.0
  0
LINE
  5
C8
330
1F
100
AcDbEntity
  8
AM_4
100
AcDbLine
 10
-32.0
 20
0.0
 30
0.0
 11
-32.0
 21
1.75
 31
0.0
  0
LINE
  5
C9
330
1F
100
AcDbEntity
  8
AM_9
100
AcDbLine
 10
-32.0
 20
3.5
 30
0.0
 11
-34.727272727273
 21
3.5
 31
0.0
  0
LINE
  5
CA
330
1F
100
AcDbEntity
  8
AM_9
100
AcDbLine
 10
32.0
 20
3.5
 30
0.0
 11
34.727272727273
 21
3.5
 31
0.0
  0
LINE
  5
CB
330
1F
100
AcDbEntity
  8
AM_4
100
AcDbLine
 10
36.1379
 20
2.875
 30
0.0
 11
36.1379
 21
4.125
 31
0.0
  0
LINE
  5
CC
330
1F
100
AcDbEntity
  8
AM_9
100
AcDbLine
 10
36.1875
 20
2.9246
 30
0.0
 11
36.1875
 21
4.0754
 31
0.0
  0
LINE
  5
CD
330
1F
100
AcDbEntity
  8
AM_4
100
AcDbLine
 10
37.0625
 20
2.71875
 30
0.0
 11
37.0625
 21
4.28125
 31
0.0
  0
LINE
  5
CE
330
1F
100
AcDbEntity
  8
AM_4
100
AcDbLine
 10
36.1875
 20
2.71875
 30
0.0
 11
36.1875
 21
4.28125
 31
0.0
  0
LINE
  5
CF
330
1F
100
AcDbEntity
  8
AM_4
100
AcDbLine
 10
36.992721564471
 20
4.4021097956088
 30
0.0
 11
36.257278435529
 21
4.4021097956088
 31
0.0
  0
LWPOLYLINE
  5
D0
330
1F
100
AcDbEntity
  8
AM_4
100
AcDbPolyline
 90
       23
 70
     0
 43
0.0
 10
36.992721564471
 20
4.4021097956088
 10
36.996584733038
 20
4.3953418558009
 10
37.003954567791
 20
4.3819636546129
 10
37.010858314743
 20
4.3687801623583
 10
37.014138570344
 20
4.3622557440351
 10
37.017305944658
 20
4.35577324212
 10
37.023306181976
 20
4.3429252512842
 10
37.028866544197
 20
4.3302189617003
 10
37.033993373117
 20
4.3176374825407
 10
37.038691858183
 20
4.3051641851364
 10
37.042966052139
 20
4.2927826290802
 10
37.044944997745
 20
4.286621149863
 10
37.046818879042
 20
4.280476488902
 10
37.050252134622
 20
4.2682294806191
 10
37.053266478863
 20
4.256025287449
 10
37.05586142059
 20
4.2438474839496
 10
37.058035293723
 20
4.2316794578106
 10
37.059785224742
 20
4.2195043284699
 10
37.060499973719
 20
4.2134087306422
 10
37.061107090796
 20
4.2073048616586
 10
37.061995467717
 20
4.1950633788942
 10
37.062443567055
 20
4.182761660833
 10
37.0625
 20
4.1765823467066
  0
LWPOLYLINE
  5
D1
330
1F
100
AcDbEntity
  8
AM_4
100
AcDbPolyline
 90
       23
 70
     0
 43
0.0
 10
37.0625
 20
4.1765823467066
 10
37.062443567055
 20
4.1704030325802
 10
37.061995467717
 20
4.158101314519
 10
37.061107090796
 20
4.1458598317546
 10
37.060499973719
 20
4.139755962771
 10
37.059785224742
 20
4.1336603649433
 10
37.058035293723
 20
4.1214852356025
 10
37.05586142059
 20
4.1093172094636
 10
37.053266478863
 20
4.0971394059642
 10
37.050252134622
 20
4.0849352127941
 10
37.046818879042
 20
4.0726882045112
 10
37.044944997745
 20
4.0665435435502
 10
37.042966052139
 20
4.060382064333
 10
37.038691858183
 20
4.0480005082768
 10
37.033993373117
 20
4.0355272108725
 10
37.028866544197
 20
4.0229457317129
 10
37.023306181976
 20
4.010239442129
 10
37.017305944658
 20
3.9973914512932
 10
37.014138570344
 20
3.9909089493781
 10
37.010858314743
 20
3.9843845310549
 10
37.003954567791
 20
3.9712010388003
 10
36.996584733038
 20
3.9578228376123
 10
36.992721564471
 20
3.9510548978044
  0
LWPOLYLINE
  5
D2
330
1F
100
AcDbEntity
  8
AM_4
100
AcDbPolyline
 90
       23
 70
     0
 43
0.0
 10
36.257278435529
 20
3.9510548978044
 10
36.253415266962
 20
3.9578228376123
 10
36.246045432209
 20
3.9712010388003
 10
36.239141685257
 20
3.9843845310549
 10
36.235861429656
 20
3.9909089493781
 10
36.232694055342
 20
3.9973914512932
 10
36.226693818024
 20
4.010239442129
 10
36.221133455803
 20
4.0229457317129
 10
36.216006626883
 20
4.0355272108725
 10
36.211308141817
 20
4.0480005082768
 10
36.207033947861
 20
4.060382064333
 10
36.205055002255
 20
4.0665435435502
 10
36.203181120958
 20
4.0726882045112
 10
36.199747865378
 20
4.0849352127941
 10
36.196733521137
 20
4.0971394059642
 10
36.19413857941
 20
4.1093172094636
 10
36.191964706277
 20
4.1214852356025
 10
36.190214775258
 20
4.1336603649433
 10
36.189500026281
 20
4.139755962771
 10
36.188892909204
 20
4.1458598317546
 10
36.188004532283
 20
4.158101314519
 10
36.187556432945
 20
4.1704030325802
 10
36.1875
 20
4.1765823467066
  0
LWPOLYLINE
  5
D3
330
1F
100
AcDbEntity
  8
AM_4
100
AcDbPolyline
 90
       23
 70
     0
 43
0.0
 10
36.1875
 20
4.1765823467066
 10
36.187556432945
 20
4.182761660833
 10
36.188004532283
 20
4.1950633788942
 10
36.188892909204
 20
4.2073048616586
 10
36.189500026281
 20
4.2134087306422
 10
36.190214775258
 20
4.2195043284699
 10
36.191964706277
 20
4.2316794578106
 10
36.19413857941
 20
4.2438474839496
 10
36.196733521137
 20
4.256025287449
 10
36.199747865378
 20
4.2682294806191
 10
36.203181120958
 20
4.280476488902
 10
36.205055002255
 20
4.286621149863
 10
36.207033947861
 20
4.2927826290802
 10
36.211308141817
 20
4.3051641851364
 10
36.216006626883
 20
4.3176374825407
 10
36.221133455803
 20
4.3302189617003
 10
36.226693818024
 20
4.3429252512842
 10
36.232694055342
 20
4.35577324212
 10
36.235861429656
 20
4.3622557440351
 10
36.239141685257
 20
4.3687801623583
 10
36.246045432209
 20
4.3819636546129
 10
36.253415266962
 20
4.3953418558009
 10
36.257278435529
 20
4.4021097956088
  0
LWPOLYLINE
  5
D4
330
1F
100
AcDbEntity
  8
AM_4
100
AcDbPolyline
 90
       23
 70
     0
 43
0.0
 10
36.1875
 20
2.8234176532934
 10
36.187556432945
 20
2.8295969674198
 10
36.188004532283
 20
2.841898685481
 10
36.188892909204
 20
2.8541401682454
 10
36.189500026281
 20
2.860244037229
 10
36.190214775258
 20
2.8663396350567
 10
36.191964706277
 20
2.8785147643975
 10
36.19413857941
 20
2.8906827905364
 10
36.196733521137
 20
2.9028605940358
 10
36.199747865378
 20
2.9150647872059
 10
36.203181120958
 20
2.9273117954888
 10
36.205055002255
 20
2.9334564564498
 10
36.207033947861
 20
2.939617935667
 10
36.211308141817
 20
2.9519994917232
 10
36.216006626883
 20
2.9644727891275
 10
36.221133455803
 20
2.9770542682871
 10
36.226693818024
 20
2.989760557871
 10
36.232694055342
 20
3.0026085487068
 10
36.235861429656
 20
3.0090910506219
 10
36.239141685257
 20
3.0156154689451
 10
36.246045432209
 20
3.0287989611997
 10
36.253415266962
 20
3.0421771623877
 10
36.257278435529
 20
3.0489451021956
  0
LWPOLYLINE
  5
D5
330
1F
100
AcDbEntity
  8
AM_4
100
AcDbPolyline
 90
       23
 70
     0
 43
0.0
 10
36.992721564471
 20
3.0489451021956
 10
36.996584733038
 20
3.0421771623877
 10
37.003954567791
 20
3.0287989611997
 10
37.010858314743
 20
3.0156154689451
 10
37.014138570344
 20
3.0090910506219
 10
37.017305944658
 20
3.0026085487068
 10
37.023306181976
 20
2.989760557871
 10
37.028866544197
 20
2.9770542682871
 10
37.033993373117
 20
2.9644727891275
 10
37.038691858183
 20
2.9519994917232
 10
37.042966052139
 20
2.939617935667
 10
37.044944997745
 20
2.9334564564498
 10
37.046818879042
 20
2.9273117954888
 10
37.050252134622
 20
2.9150647872059
 10
37.053266478863
 20
2.9028605940358
 10
37.05586142059
 20
2.8906827905364
 10
37.058035293723
 20
2.8785147643975
 10
37.059785224742
 20
2.8663396350567
 10
37.060499973719
 20
2.860244037229
 10
37.061107090796
 20
2.8541401682454
 10
37.061995467717
 20
2.841898685481
 10
37.062443567055
 20
2.8295969674198
 10
37.0625
 20
2.8234176532934
  0
LWPOLYLINE
  5
D6
330
1F
100
AcDbEntity
  8
AM_4
100
AcDbPolyline
 90
       23
 70
     0
 43
0.0
 10
37.0625
 20
2.8234176532934
 10
37.062443567055
 20
2.817238339167
 10
37.061995467717
 20
2.8049366211058
 10
37.061107090796
 20
2.7926951383414
 10
37.060499973719
 20
2.7865912693578
 10
37.059785224742
 20
2.7804956715301
 10
37.058035293723
 20
2.7683205421894
 10
37.05586142059
 20
2.7561525160504
 10
37.053266478863
 20
2.743974712551
 10
37.050252134622
 20
2.7317705193809
 10
37.046818879042
 20
2.719523511098
 10
37.044944997745
 20
2.713378850137
 10
37.042966052139
 20
2.7072173709198
 10
37.038691858183
 20
2.6948358148636
 10
37.033993373117
 20
2.6823625174593
 10
37.028866544197
 20
2.6697810382997
 10
37.023306181976
 20
2.6570747487158
 10
37.017305944658
 20
2.64422675788
 10
37.014138570344
 20
2.6377442559649
 10
37.010858314743
 20
2.6312198376417
 10
37.003954567791
 20
2.6180363453871
 10
36.996584733038
 20
2.6046581441991
 10
36.992721564471
 20
2.5978902043912
  0
LWPOLYLINE
  5
D7
330
1F
100
AcDbEntity
  8
AM_4
100
AcDbPolyline
 90
       23
 70
     0
 43
0.0
 10
36.257278435529
 20
2.5978902043912
 10
36.253415266962
 20
2.6046581441991
 10
36.246045432209
 20
2.6180363453871
 10
36.239141685257
 20
2.6312198376417
 10
36.235861429656
 20
2.6377442559649
 10
36.232694055342
 20
2.64422675788
 10
36.226693818024
 20
2.6570747487158
 10
36.221133455803
 20
2.6697810382997
 10
36.216006626883
 20
2.6823625174593
 10
36.211308141817
 20
2.6948358148636
 10
36.207033947861
 20
2.7072173709198
 10
36.205055002255
 20
2.713378850137
 10
36.203181120958
 20
2.719523511098
 10
36.199747865378
 20
2.7317705193809
 10
36.196733521137
 20
2.743974712551
 10
36.19413857941
 20
2.7561525160504
 10
36.191964706277
 20
2.7683205421894
 10
36.190214775258
 20
2.7804956715301
 10
36.189500026281
 20
2.7865912693578
 10
36.188892909204
 20
2.7926951383414
 10
36.188004532283
 20
2.8049366211058
 10
36.187556432945
 20
2.817238339167
 10
36.1875
 20
2.8234176532934
  0
LWPOLYLINE
  5
D8
330
1F
100
AcDbEntity
  8
AM_4
100
AcDbPolyline
 90
       23
 70
     0
 43
0.0
 10
36.1875
 20
3.5
 10
36.187556432945
 20
3.5123586282527
 10
36.188004532283
 20
3.5369620643752
 10
36.188892909204
 20
3.561445029904
 10
36.189500026281
 20
3.5736527678712
 10
36.190214775258
 20
3.5858439635266
 10
36.191964706277
 20
3.6101942222081
 10
36.19413857941
 20
3.6345302744861
 10
36.196733521137
 20
3.6588858814849
 10
36.199747865378
 20
3.683294267825
 10
36.203181120958
 20
3.7077882843909
 10
36.205055002255
 20
3.7200776063127
 10
36.207033947861
 20
3.7324005647473
 10
36.211308141817
 20
3.7571636768597
 10
36.216006626883
 20
3.7821102716681
 10
36.221133455803
 20
3.8072732299873
 10
36.226693818024
 20
3.8326858091553
 10
36.232694055342
 20
3.8583817908267
 10
36.235861429656
 20
3.8713467946569
 10
36.239141685257
 20
3.8843956313034
 10
36.246045432209
 20
3.9107626158127
 10
36.253415266962
 20
3.9375190181887
 10
36.257278435529
 20
3.9510548978044
  0
LINE
  5
D9
330
1F
100
AcDbEntity
  8
AM_4
100
AcDbLine
 10
36.992721564471
 20
3.9510548978044
 30
0.0
 11
36.257278435529
 21
3.9510548978044
 31
0.0
  0
LWPOLYLINE
  5
DA
330
1F
100
AcDbEntity
  8
AM_4
100
AcDbPolyline
 90
       23
 70
     0
 43
0.0
 10
36.992721564471
 20
3.9510548978044
 10
36.996584733038
 20
3.9375190181887
 10
37.003954567791
 20
3.9107626158127
 10
37.010858314743
 20
3.8843956313034
 10
37.014138570344
 20
3.8713467946569
 10
37.017305944658
 20
3.8583817908267
 10
37.023306181976
 20
3.8326858091553
 10
37.028866544197
 20
3.8072732299873
 10
37.033993373117
 20
3.7821102716681
 10
37.038691858183
 20
3.7571636768597
 10
37.042966052139
 20
3.7324005647473
 10
37.044944997745
 20
3.7200776063127
 10
37.046818879042
 20
3.7077882843909
 10
37.050252134622
 20
3.683294267825
 10
37.053266478863
 20
3.6588858814849
 10
37.05586142059
 20
3.6345302744861
 10
37.058035293723
 20
3.6101942222081
 10
37.059785224742
 20
3.5858439635266
 10
37.060499973719
 20
3.5736527678712
 10
37.061107090796
 20
3.561445029904
 10
37.061995467717
 20
3.5369620643752
 10
37.062443567055
 20
3.5123586282527
 10
37.0625
 20
3.5
  0
LWPOLYLINE
  5
DB
330
1F
100
AcDbEntity
  8
AM_4
100
AcDbPolyline
 90
       23
 70
     0
 43
0.0
 10
37.0625
 20
3.5
 10
37.062443567055
 20
3.4876413717473
 10
37.061995467717
 20
3.4630379356248
 10
37.061107090796
 20
3.438554970096
 10
37.060499973719
 20
3.4263472321288
 10
37.059785224742
 20
3.4141560364734
 10
37.058035293723
 20
3.3898057777919
 10
37.05586142059
 20
3.3654697255139
 10
37.053266478863
 20
3.3411141185151
 10
37.050252134622
 20
3.316705732175
 10
37.046818879042
 20
3.2922117156091
 10
37.044944997745
 20
3.2799223936873
 10
37.042966052139
 20
3.2675994352527
 10
37.038691858183
 20
3.2428363231403
 10
37.033993373117
 20
3.2178897283319
 10
37.028866544197
 20
3.1927267700127
 10
37.023306181976
 20
3.1673141908447
 10
37.017305944658
 20
3.1416182091733
 10
37.014138570344
 20
3.1286532053431
 10
37.010858314743
 20
3.1156043686966
 10
37.003954567791
 20
3.0892373841873
 10
36.996584733038
 20
3.0624809818113
 10
36.992721564471
 20
3.0489451021956
  0
LINE
  5
DC
330
1F
100
AcDbEntity
  8
AM_4
100
AcDbLine
 10
36.992721564471
 20
3.0489451021956
 30
0.0
 11
36.257278435529
 21
3.0489451021956
 31
0.0
  0
LWPOLYLINE
  5
DD
330
1F
100
AcDbEntity
  8
AM_4
100
AcDbPolyline
 90
       23
 70
     0
 43
0.0
 10
36.257278435529
 20
3.0489451021956
 10
36.253415266962
 20
3.0624809818113
 10
36.246045432209
 20
3.0892373841873
 10
36.239141685257
 20
3.1156043686966
 10
36.235861429656
 20
3.1286532053431
 10
36.232694055342
 20
3.1416182091733
 10
36.226693818024
 20
3.1673141908447
 10
36.221133455803
 20
3.1927267700127
 10
36.216006626883
 20
3.2178897283319
 10
36.211308141817
 20
3.2428363231403
 10
36.207033947861
 20
3.2675994352527
 10
36.205055002255
 20
3.2799223936873
 10
36.203181120958
 20
3.2922117156091
 10
36.199747865378
 20
3.316705732175
 10
36.196733521137
 20
3.3411141185151
 10
36.19413857941
 20
3.3654697255139
 10
36.191964706277
 20
3.3898057777919
 10
36.190214775258
 20
3.4141560364734
 10
36.189500026281
 20
3.4263472321288
 10
36.188892909204
 20
3.438554970096
 10
36.188004532283
 20
3.4630379356248
 10
36.187556432945
 20
3.4876413717473
 10
36.1875
 20
3.5
  0
LINE
  5
DE
330
1F
100
AcDbEntity
  8
AM_4
100
AcDbLine
 10
36.992721564471
 20
2.5978902043912
 30
0.0
 11
36.257278435529
 21
2.5978902043912
 31
0.0
  0
LINE
  5
DF
330
1F
100
AcDbEntity
  8
AM_9
100
AcDbLine
 10
-36.625
 20
4.125
 30
0.0
 11
-36.625
 21
2.875
 31
0.0
  0
LINE
  5
E0
330
1F
100
AcDbEntity
  8
AM_4
100
AcDbLine
 10
-36.625
 20
2.71875
 30
0.0
 11
-36.625
 21
4.28125
 31
0.0
  0
LINE
  5
E1
330
1F
100
AcDbEntity
  8
AM_4
100
AcDbLine
 10
-37.5
 20
2.71875
 30
0.0
 11
-37.5
 21
4.28125
 31
0.0
  0
LINE
  5
E2
330
1F
100
AcDbEntity
  8
AM_4
100
AcDbLine
 10
-36.694778435529
 20
4.4021097956088
 30
0.0
 11
-37.430221564471
 21
4.4021097956088
 31
0.0
  0
LWPOLYLINE
  5
E3
330
1F
100
AcDbEntity
  8
AM_4
100
AcDbPolyline
 90
       23
 70
     0
 43
0.0
 10
-36.694778435529
 20
4.4021097956088
 10
-36.690915266962
 20
4.3953418558009
 10
-36.683545432209
 20
4.3819636546129
 10
-36.676641685257
 20
4.3687801623583
 10
-36.673361429656
 20
4.3622557440351
 10
-36.670194055342
 20
4.35577324212
 10
-36.664193818024
 20
4.3429252512842
 10
-36.658633455803
 20
4.3302189617003
 10
-36.653506626883
 20
4.3176374825407
 10
-36.648808141817
 20
4.3051641851364
 10
-36.644533947861
 20
4.2927826290802
 10
-36.642555002255
 20
4.286621149863
 10
-36.640681120958
 20
4.280476488902
 10
-36.637247865378
 20
4.2682294806191
 10
-36.634233521137
 20
4.256025287449
 10
-36.63163857941
 20
4.2438474839496
 10
-36.629464706277
 20
4.2316794578106
 10
-36.627714775258
 20
4.2195043284699
 10
-36.627000026281
 20
4.2134087306422
 10
-36.626392909204
 20
4.2073048616586
 10
-36.625504532283
 20
4.1950633788942
 10
-36.625056432945
 20
4.182761660833
 10
-36.625
 20
4.1765823467066
  0
LWPOLYLINE
  5
E4
330
1F
100
AcDbEntity
  8
AM_4
100
AcDbPolyline
 90
       23
 70
     0
 43
0.0
 10
-36.625
 20
4.1765823467066
 10
-36.625056432945
 20
4.1704030325802
 10
-36.625504532283
 20
4.158101314519
 10
-36.626392909204
 20
4.1458598317546
 10
-36.627000026281
 20
4.139755962771
 10
-36.627714775258
 20
4.1336603649433
 10
-36.629464706277
 20
4.1214852356025
 10
-36.63163857941
 20
4.1093172094636
 10
-36.634233521137
 20
4.0971394059642
 10
-36.637247865378
 20
4.0849352127941
 10
-36.640681120958
 20
4.0726882045112
 10
-36.642555002255
 20
4.0665435435502
 10
-36.644533947861
 20
4.060382064333
 10
-36.648808141817
 20
4.0480005082768
 10
-36.653506626883
 20
4.0355272108725
 10
-36.658633455803
 20
4.0229457317129
 10
-36.664193818024
 20
4.010239442129
 10
-36.670194055342
 20
3.9973914512932
 10
-36.673361429656
 20
3.9909089493781
 10
-36.676641685257
 20
3.9843845310549
 10
-36.683545432209
 20
3.9712010388003
 10
-36.690915266962
 20
3.9578228376123
 10
-36.694778435529
 20
3.9510548978044
  0
LWPOLYLINE
  5
E5
330
1F
100
AcDbEntity
  8
AM_4
100
AcDbPolyline
 90
       23
 70
     0
 43
0.0
 10
-37.430221564471
 20
3.9510548978044
 10
-37.434084733038
 20
3.9578228376123
 10
-37.441454567791
 20
3.9712010388003
 10
-37.448358314743
 20
3.9843845310549
 10
-37.451638570344
 20
3.9909089493781
 10
-37.454805944658
 20
3.9973914512932
 10
-37.460806181976
 20
4.010239442129
 10
-37.466366544197
 20
4.0229457317129
 10
-37.471493373117
 20
4.0355272108725
 10
-37.476191858183
 20
4.0480005082768
 10
-37.480466052139
 20
4.060382064333
 10
-37.482444997745
 20
4.0665435435502
 10
-37.484318879042
 20
4.0726882045112
 10
-37.487752134622
 20
4.0849352127941
 10
-37.490766478863
 20
4.0971394059642
 10
-37.49336142059
 20
4.1093172094636
 10
-37.495535293723
 20
4.1214852356025
 10
-37.497285224742
 20
4.1336603649433
 10
-37.497999973719
 20
4.139755962771
 10
-37.498607090796
 20
4.1458598317546
 10
-37.499495467717
 20
4.158101314519
 10
-37.499943567055
 20
4.1704030325802
 10
-37.5
 20
4.1765823467066
  0
LWPOLYLINE
  5
E6
330
1F
100
AcDbEntity
  8
AM_4
100
AcDbPolyline
 90
       23
 70
     0
 43
0.0
 10
-37.5
 20
4.1765823467066
 10
-37.499943567055
 20
4.182761660833
 10
-37.499495467717
 20
4.1950633788942
 10
-37.498607090796
 20
4.2073048616586
 10
-37.497999973719
 20
4.2134087306422
 10
-37.497285224742
 20
4.2195043284699
 10
-37.495535293723
 20
4.2316794578106
 10
-37.49336142059
 20
4.2438474839496
 10
-37.490766478863
 20
4.256025287449
 10
-37.487752134622
 20
4.2682294806191
 10
-37.484318879042
 20
4.280476488902
 10
-37.482444997745
 20
4.286621149863
 10
-37.480466052139
 20
4.2927826290802
 10
-37.476191858183
 20
4.3051641851364
 10
-37.471493373117
 20
4.3176374825407
 10
-37.466366544197
 20
4.3302189617003
 10
-37.460806181976
 20
4.3429252512842
 10
-37.454805944658
 20
4.35577324212
 10
-37.451638570344
 20
4.3622557440351
 10
-37.448358314743
 20
4.3687801623583
 10
-37.441454567791
 20
4.3819636546129
 10
-37.434084733038
 20
4.3953418558009
 10
-37.430221564471
 20
4.4021097956088
  0
LWPOLYLINE
  5
E7
330
1F
100
AcDbEntity
  8
AM_4
100
AcDbPolyline
 90
       23
 70
     0
 43
0.0
 10
-37.5
 20
2.8234176532934
 10
-37.499943567055
 20
2.8295969674198
 10
-37.499495467717
 20
2.841898685481
 10
-37.498607090796
 20
2.8541401682454
 10
-37.497999973719
 20
2.860244037229
 10
-37.497285224742
 20
2.8663396350567
 10
-37.495535293723
 20
2.8785147643975
 10
-37.49336142059
 20
2.8906827905364
 10
-37.490766478863
 20
2.9028605940358
 10
-37.487752134622
 20
2.9150647872059
 10
-37.484318879042
 20
2.9273117954888
 10
-37.482444997745
 20
2.9334564564498
 10
-37.480466052139
 20
2.939617935667
 10
-37.476191858183
 20
2.9519994917232
 10
-37.471493373117
 20
2.9644727891275
 10
-37.466366544197
 20
2.9770542682871
 10
-37.460806181976
 20
2.989760557871
 10
-37.454805944658
 20
3.0026085487068
 10
-37.451638570344
 20
3.0090910506219
 10
-37.448358314743
 20
3.0156154689451
 10
-37.441454567791
 20
3.0287989611997
 10
-37.434084733038
 20
3.0421771623877
 10
-37.430221564471
 20
3.0489451021956
  0
LWPOLYLINE
  5
E8
330
1F
100
AcDbEntity
  8
AM_4
100
AcDbPolyline
 90
       23
 70
     0
 43
0.0
 10
-36.694778435529
 20
3.0489451021956
 10
-36.690915266962
 20
3.0421771623877
 10
-36.683545432209
 20
3.0287989611997
 10
-36.676641685257
 20
3.0156154689451
 10
-36.673361429656
 20
3.0090910506219
 10
-36.670194055342
 20
3.0026085487068
 10
-36.664193818024
 20
2.989760557871
 10
-36.658633455803
 20
2.9770542682871
 10
-36.653506626883
 20
2.9644727891275
 10
-36.648808141817
 20
2.9519994917232
 10
-36.644533947861
 20
2.939617935667
 10
-36.642555002255
 20
2.9334564564498
 10
-36.640681120958
 20
2.9273117954888
 10
-36.637247865378
 20
2.9150647872059
 10
-36.634233521137
 20
2.9028605940358
 10
-36.63163857941
 20
2.8906827905364
 10
-36.629464706277
 20
2.8785147643975
 10
-36.627714775258
 20
2.8663396350567
 10
-36.627000026281
 20
2.860244037229
 10
-36.626392909204
 20
2.8541401682454
 10
-36.625504532283
 20
2.841898685481
 10
-36.625056432945
 20
2.8295969674198
 10
-36.625
 20
2.8234176532934
  0
LWPOLYLINE
  5
E9
330
1F
100
AcDbEntity
  8
AM_4
100
AcDbPolyline
 90
       23
 70
     0
 43
0.0
 10
-36.625
 20
2.8234176532934
 10
-36.625056432945
 20
2.817238339167
 10
-36.625504532283
 20
2.8049366211058
 10
-36.626392909204
 20
2.7926951383414
 10
-36.627000026281
 20
2.7865912693578
 10
-36.627714775258
 20
2.7804956715301
 10
-36.629464706277
 20
2.7683205421894
 10
-36.63163857941
 20
2.7561525160504
 10
-36.634233521137
 20
2.743974712551
 10
-36.637247865378
 20
2.7317705193809
 10
-36.640681120958
 20
2.719523511098
 10
-36.642555002255
 20
2.713378850137
 10
-36.644533947861
 20
2.7072173709198
 10
-36.648808141817
 20
2.6948358148636
 10
-36.653506626883
 20
2.6823625174593
 10
-36.658633455803
 20
2.6697810382997
 10
-36.664193818024
 20
2.6570747487158
 10
-36.670194055342
 20
2.64422675788
 10
-36.673361429656
 20
2.6377442559649
 10
-36.676641685257
 20
2.6312198376417
 10
-36.683545432209
 20
2.6180363453871
 10
-36.690915266962
 20
2.6046581441991
 10
-36.694778435529
 20
2.5978902043912
  0
LWPOLYLINE
  5
EA
330
1F
100
AcDbEntity
  8
AM_4
100
AcDbPolyline
 90
       23
 70
     0
 43
0.0
 10
-37.430221564471
 20
2.5978902043912
 10
-37.434084733038
 20
2.6046581441991
 10
-37.441454567791
 20
2.6180363453871
 10
-37.448358314743
 20
2.6312198376417
 10
-37.451638570344
 20
2.6377442559649
 10
-37.454805944658
 20
2.64422675788
 10
-37.460806181976
 20
2.6570747487158
 10
-37.466366544197
 20
2.6697810382997
 10
-37.471493373117
 20
2.6823625174593
 10
-37.476191858183
 20
2.6948358148636
 10
-37.480466052139
 20
2.7072173709198
 10
-37.482444997745
 20
2.713378850137
 10
-37.484318879042
 20
2.719523511098
 10
-37.487752134622
 20
2.7317705193809
 10
-37.490766478863
 20
2.743974712551
 10
-37.49336142059
 20
2.7561525160504
 10
-37.495535293723
 20
2.7683205421894
 10
-37.497285224742
 20
2.7804956715301
 10
-37.497999973719
 20
2.7865912693578
 10
-37.498607090796
 20
2.7926951383414
 10
-37.499495467717
 20
2.8049366211058
 10
-37.499943567055
 20
2.817238339167
 10
-37.5
 20
2.8234176532934
  0
LWPOLYLINE
  5
EB
330
1F
100
AcDbEntity
  8
AM_4
100
AcDbPolyline
 90
       23
 70
     0
 43
0.0
 10
-37.5
 20
3.5
 10
-37.499943567055
 20
3.5123586282527
 10
-37.499495467717
 20
3.5369620643752
 10
-37.498607090796
 20
3.561445029904
 10
-37.497999973719
 20
3.5736527678712
 10
-37.497285224742
 20
3.5858439635266
 10
-37.495535293723
 20
3.6101942222081
 10
-37.49336142059
 20
3.6345302744861
 10
-37.490766478863
 20
3.6588858814849
 10
-37.487752134622
 20
3.683294267825
 10
-37.484318879042
 20
3.7077882843909
 10
-37.482444997745
 20
3.7200776063127
 10
-37.480466052139
 20
3.7324005647473
 10
-37.476191858183
 20
3.7571636768597
 10
-37.471493373117
 20
3.7821102716681
 10
-37.466366544197
 20
3.8072732299873
 10
-37.460806181976
 20
3.8326858091553
 10
-37.454805944658
 20
3.8583817908267
 10
-37.451638570344
 20
3.8713467946569
 10
-37.448358314743
 20
3.8843956313034
 10
-37.441454567791
 20
3.9107626158127
 10
-37.434084733038
 20
3.9375190181887
 10
-37.430221564471
 20
3.9510548978044
  0
LINE
  5
EC
330
1F
100
AcDbEntity
  8
AM_4
100
AcDbLine
 10
-36.694778435529
 20
3.9510548978044
 30
0.0
 11
-37.430221564471
 21
3.9510548978044
 31
0.0
  0
LWPOLYLINE
  5
ED
330
1F
100
AcDbEntity
  8
AM_4
100
AcDbPolyline
 90
       23
 70
     0
 43
0.0
 10
-36.694778435529
 20
3.9510548978044
 10
-36.690915266962
 20
3.9375190181887
 10
-36.683545432209
 20
3.9107626158127
 10
-36.676641685257
 20
3.8843956313034
 10
-36.673361429656
 20
3.8713467946569
 10
-36.670194055342
 20
3.8583817908267
 10
-36.664193818024
 20
3.8326858091553
 10
-36.658633455803
 20
3.8072732299873
 10
-36.653506626883
 20
3.7821102716681
 10
-36.648808141817
 20
3.7571636768597
 10
-36.644533947861
 20
3.7324005647473
 10
-36.642555002255
 20
3.7200776063127
 10
-36.640681120958
 20
3.7077882843909
 10
-36.637247865378
 20
3.683294267825
 10
-36.634233521137
 20
3.6588858814849
 10
-36.63163857941
 20
3.6345302744861
 10
-36.629464706277
 20
3.6101942222081
 10
-36.627714775258
 20
3.5858439635266
 10
-36.627000026281
 20
3.5736527678712
 10
-36.626392909204
 20
3.561445029904
 10
-36.625504532283
 20
3.5369620643752
 10
-36.625056432945
 20
3.5123586282527
 10
-36.625
 20
3.5
  0
LWPOLYLINE
  5
EE
330
1F
100
AcDbEntity
  8
AM_4
100
AcDbPolyline
 90
       23
 70
     0
 43
0.0
 10
-36.625
 20
3.5
 10
-36.625056432945
 20
3.4876413717473
 10
-36.625504532283
 20
3.4630379356248
 10
-36.626392909204
 20
3.438554970096
 10
-36.627000026281
 20
3.4263472321288
 10
-36.627714775258
 20
3.4141560364734
 10
-36.629464706277
 20
3.3898057777919
 10
-36.63163857941
 20
3.3654697255139
 10
-36.634233521137
 20
3.3411141185151
 10
-36.637247865378
 20
3.316705732175
 10
-36.640681120958
 20
3.2922117156091
 10
-36.642555002255
 20
3.2799223936873
 10
-36.644533947861
 20
3.2675994352527
 10
-36.648808141817
 20
3.2428363231403
 10
-36.653506626883
 20
3.2178897283319
 10
-36.658633455803
 20
3.1927267700127
 10
-36.664193818024
 20
3.1673141908447
 10
-36.670194055342
 20
3.1416182091733
 10
-36.673361429656
 20
3.1286532053431
 10
-36.676641685257
 20
3.1156043686966
 10
-36.683545432209
 20
3.0892373841873
 10
-36.690915266962
 20
3.0624809818113
 10
-36.694778435529
 20
3.0489451021956
  0
LINE
  5
EF
330
1F
100
AcDbEntity
  8
AM_4
100
AcDbLine
 10
-36.694778435529
 20
3.0489451021956
 30
0.0
 11
-37.430221564471
 21
3.0489451021956
 31
0.0
  0
LWPOLYLINE
  5
F0
330
1F
100
AcDbEntity
  8
AM_4
100
AcDbPolyline
 90
       23
 70
     0
 43
0.0
 10
-37.430221564471
 20
3.0489451021956
 10
-37.434084733038
 20
3.0624809818113
 10
-37.441454567791
 20
3.0892373841873
 10
-37.448358314743
 20
3.1156043686966
 10
-37.451638570344
 20
3.1286532053431
 10
-37.454805944658
 20
3.1416182091733
 10
-37.460806181976
 20
3.1673141908447
 10
-37.466366544197
 20
3.1927267700127
 10
-37.471493373117
 20
3.2178897283319
 10
-37.476191858183
 20
3.2428363231403
 10
-37.480466052139
 20
3.2675994352527
 10
-37.482444997745
 20
3.2799223936873
 10
-37.484318879042
 20
3.2922117156091
 10
-37.487752134622
 20
3.316705732175
 10
-37.490766478863
 20
3.3411141185151
 10
-37.49336142059
 20
3.3654697255139
 10
-37.495535293723
 20
3.3898057777919
 10
-37.497285224742
 20
3.4141560364734
 10
-37.497999973719
 20
3.4263472321288
 10
-37.498607090796
 20
3.438554970096
 10
-37.499495467717
 20
3.4630379356248
 10
-37.499943567055
 20
3.4876413717473
 10
-37.5
 20
3.5
  0
LINE
  5
F1
330
1F
100
AcDbEntity
  8
AM_4
100
AcDbLine
 10
-36.694778435529
 20
2.5978902043912
 30
0.0
 11
-37.430221564471
 21
2.5978902043912
 31
0.0
  0
LINE
  5
F2
330
1F
100
AcDbEntity
  8
AM_9
100
AcDbLine
 10
37.0
 20
0.0
 30
0.0
 11
37.0
 21
0.875
 31
0.0
  0
LINE
  5
F3
330
1F
100
AcDbEntity
  8
AM_9
100
AcDbLine
 10
37.0
 20
0.0
 30
0.0
 11
36.25
 21
0.0
 31
0.0
  0
LINE
  5
F4
330
1F
100
AcDbEntity
  8
AM_9
100
AcDbLine
 10
36.25
 20
0.875
 30
0.0
 11
37.0
 21
0.875
 31
0.0
  0
LINE
  5
F5
330
1F
100
AcDbEntity
  8
AM_9
100
AcDbLine
 10
36.25
 20
0.0
 30
0.0
 11
36.25
 21
0.875
 31
0.0
  0
LINE
  5
F6
330
1F
100
AcDbEntity
  8
AM_9
100
AcDbLine
 10
-36.25
 20
0.0
 30
0.0
 11
-36.25
 21
0.875
 31
0.0
  0
LINE
  5
F7
330
1F
100
AcDbEntity
  8
AM_9
100
AcDbLine
 10
-36.25
 20
0.0
 30
0.0
 11
-37.0
 21
0.0
 31
0.0
  0
LINE
  5
F8
330
1F
100
AcDbEntity
  8
AM_9
100
AcDbLine
 10
-37.0
 20
0.875
 30
0.0
 11
-36.25
 21
0.875
 31
0.0
  0
LINE
  5
F9
330
1F
100
AcDbEntity
  8
AM_9
100
AcDbLine
 10
-37.0
 20
0.0
 30
0.0
 11
-37.0
 21
0.875
 31
0.0
  0
ARC
  5
FA
330
1F
100
AcDbEntity
  8
AM_4
100
AcDbCircle
 10
-3.912499999999921
 20
1.635576923076979
 30
0.0
 40
0.0875000000000785
100
AcDbArc
 50
180.0
 51
270.0
  0
LINE
  5
FB
330
1F
100
AcDbEntity
  8
AM_4
100
AcDbLine
 10
3.9125
 20
1.5480769230769
 30
0.0
 11
-3.9125
 21
1.5480769230769
 31
0.0
  0
ARC
  5
FC
330
1F
100
AcDbEntity
  8
AM_4
100
AcDbCircle
 10
3.912499999999921
 20
1.635576923076979
 30
0.0
 40
0.087500000000079
100
AcDbArc
 50
270.0
 51
0.0
  0
LINE
  5
FD
330
1F
100
AcDbEntity
  8
AM_4
100
AcDbLine
 10
-8.0
 20
0.875
 30
0.0
 11
8.0
 21
0.875
 31
0.0
  0
LINE
  5
FE
330
1F
100
AcDbEntity
  8
AM_9
100
AcDbLine
 10
-8.0
 20
5.6949830246846
 30
0.0
 11
-8.0
 21
1.75
 31
0.0
  0
LINE
  5
FF
330
1F
100
AcDbEntity
  8
AM_4
100
AcDbLine
 10
-8.0
 20
7.0
 30
0.0
 11
-8.0
 21
0.875
 31
0.0
  0
LINE
  5
100
330
1F
100
AcDbEntity
  8
AM_4
100
AcDbLine
 10
-8.0
 20
7.0
 30
0.0
 11
-4.0
 21
7.0
 31
0.0
  0
LINE
  5
101
330
1F
100
AcDbEntity
  8
AM_4
100
AcDbLine
 10
8.0
 20
3.7630177514793
 30
0.0
 11
4.0
 21
3.7630177514793
 31
0.0
  0
LINE
  5
102
330
1F
100
AcDbEntity
  8
AM_4
100
AcDbLine
 10
35.0
 20
1.75
 30
0.0
 11
-35.0
 21
1.75
 31
0.0
  0
LINE
  5
103
330
1F
100
AcDbEntity
  8
AM_4
100
AcDbLine
 10
-8.0
 20
3.7630177514793
 30
0.0
 11
-4.0
 21
3.7630177514793
 31
0.0
  0
LINE
  5
104
330
1F
100
AcDbEntity
  8
AM_9
100
AcDbLine
 10
8.0
 20
5.6949830246846
 30
0.0
 11
8.0
 21
1.75
 31
0.0
  0
LINE
  5
105
330
1F
100
AcDbEntity
  8
AM_4
100
AcDbLine
 10
8.0
 20
0.875
 30
0.0
 11
8.0
 21
7.0
 31
0.0
  0
LINE
  5
106
330
1F
100
AcDbEntity
  8
AM_4
100
AcDbLine
 10
4.0
 20
2.1875
 30
0.0
 11
-4.0
 21
2.1875
 31
0.0
  0
LINE
  5
107
330
1F
100
AcDbEntity
  8
AM_4
100
AcDbLine
 10
4.0
 20
3.6908626926783
 30
0.0
 11
-4.0
 21
3.6908626926783
 31
0.0
  0
LINE
  5
108
330
1F
100
AcDbEntity
  8
AM_9
100
AcDbLine
 10
4.0
 20
3.6908626926783
 30
0.0
 11
4.0
 21
6.93
 31
0.0
  0
LINE
  5
109
330
1F
100
AcDbEntity
  8
AM_4
100
AcDbLine
 10
-4.0
 20
1.6355769230769
 30
0.0
 11
-4.0
 21
1.75
 31
0.0
  0
LINE
  5
10A
330
1F
100
AcDbEntity
  8
AM_4
100
AcDbLine
 10
4.0
 20
1.75
 30
0.0
 11
4.0
 21
1.6355769230769
 31
0.0
  0
LINE
  5
10B
330
1F
100
AcDbEntity
  8
AM_4
100
AcDbLine
 10
34.610843918244
 20
3.1382797045615
 30
0.0
 11
34.430421959122
 21
2.9165931986417
 31
0.0
  0
LINE
  5
10C
330
1F
100
AcDbEntity
  8
AM_4
100
AcDbLine
 10
34.610843918244
 20
2.9914444331508
 30
0.0
 11
34.610843918244
 21
3.1382797045615
 31
0.0
  0
LINE
  5
10D
330
1F
100
AcDbEntity
  8
AM_4
100
AcDbLine
 10
34.430421959122
 20
3.3599662104813
 30
0.0
 11
34.610843918244
 21
3.1382797045615
 31
0.0
  0
LINE
  5
10E
330
1F
100
AcDbEntity
  8
AM_4
100
AcDbLine
 10
34.069578040878
 20
3.3599662104813
 30
0.0
 11
34.430421959122
 21
3.3599662104813
 31
0.0
  0
LINE
  5
10F
330
1F
100
AcDbEntity
  8
AM_4
100
AcDbLine
 10
33.889156081756
 20
3.1382797045615
 30
0.0
 11
34.069578040878
 21
3.3599662104813
 31
0.0
  0
LINE
  5
110
330
1F
100
AcDbEntity
  8
AM_4
100
AcDbLine
 10
33.889156081756
 20
2.9914444331508
 30
0.0
 11
33.889156081756
 21
3.1382797045615
 31
0.0
  0
LINE
  5
111
330
1F
100
AcDbEntity
  8
AM_4
100
AcDbLine
 10
34.069578040878
 20
2.9165931986417
 30
0.0
 11
33.889156081756
 21
3.1382797045615
 31
0.0
  0
LINE
  5
112
330
1F
100
AcDbEntity
  8
AM_4
100
AcDbLine
 10
34.430421959122
 20
2.769757927231
 30
0.0
 11
34.430421959122
 21
2.9165931986417
 31
0.0
  0
LINE
  5
113
330
1F
100
AcDbEntity
  8
AM_4
100
AcDbLine
 10
34.069578040878
 20
2.769757927231
 30
0.0
 11
34.069578040878
 21
2.9165931986417
 31
0.0
  0
LINE
  5
114
330
1F
100
AcDbEntity
  8
AM_4
100
AcDbLine
 10
34.430421959122
 20
2.9165931986417
 30
0.0
 11
34.069578040878
 21
2.9165931986417
 31
0.0
  0
LINE
  5
115
330
1F
100
AcDbEntity
  8
AM_4
100
AcDbLine
 10
33.360843918244
 20
3.1382797045615
 30
0.0
 11
33.180421959122
 21
2.9165931986417
 31
0.0
  0
LINE
  5
116
330
1F
100
AcDbEntity
  8
AM_4
100
AcDbLine
 10
33.360843918244
 20
2.9914444331508
 30
0.0
 11
33.360843918244
 21
3.1382797045615
 31
0.0
  0
LINE
  5
117
330
1F
100
AcDbEntity
  8
AM_4
100
AcDbLine
 10
33.180421959122
 20
3.3599662104813
 30
0.0
 11
33.360843918244
 21
3.1382797045615
 31
0.0
  0
LINE
  5
118
330
1F
100
AcDbEntity
  8
AM_4
100
AcDbLine
 10
32.819578040878
 20
3.3599662104813
 30
0.0
 11
33.180421959122
 21
3.3599662104813
 31
0.0
  0
LINE
  5
119
330
1F
100
AcDbEntity
  8
AM_4
100
AcDbLine
 10
32.639156081756
 20
3.1382797045615
 30
0.0
 11
32.819578040878
 21
3.3599662104813
 31
0.0
  0
LINE
  5
11A
330
1F
100
AcDbEntity
  8
AM_4
100
AcDbLine
 10
32.639156081756
 20
2.9914444331508
 30
0.0
 11
32.639156081756
 21
3.1382797045615
 31
0.0
  0
LINE
  5
11B
330
1F
100
AcDbEntity
  8
AM_4
100
AcDbLine
 10
32.819578040878
 20
2.9165931986417
 30
0.0
 11
32.639156081756
 21
3.1382797045615
 31
0.0
  0
LINE
  5
11C
330
1F
100
AcDbEntity
  8
AM_4
100
AcDbLine
 10
33.180421959122
 20
2.769757927231
 30
0.0
 11
33.180421959122
 21
2.9165931986417
 31
0.0
  0
LINE
  5
11D
330
1F
100
AcDbEntity
  8
AM_4
100
AcDbLine
 10
32.819578040878
 20
2.769757927231
 30
0.0
 11
32.819578040878
 21
2.9165931986417
 31
0.0
  0
LINE
  5
11E
330
1F
100
AcDbEntity
  8
AM_4
100
AcDbLine
 10
33.180421959122
 20
2.9165931986417
 30
0.0
 11
32.819578040878
 21
2.9165931986417
 31
0.0
  0
LINE
  5
11F
330
1F
100
AcDbEntity
  8
AM_9
100
AcDbLine
 10
32.819578040878
 20
3.2131309390706
 30
0.0
 11
32.819578040878
 21
3.3599662104813
 31
0.0
  0
LINE
  5
120
330
1F
100
AcDbEntity
  8
AM_9
100
AcDbLine
 10
33.180421959122
 20
3.2131309390706
 30
0.0
 11
33.180421959122
 21
3.3599662104813
 31
0.0
  0
LINE
  5
121
330
1F
100
AcDbEntity
  8
AM_9
100
AcDbLine
 10
34.069578040878
 20
3.2131309390706
 30
0.0
 11
34.069578040878
 21
3.3599662104813
 31
0.0
  0
LINE
  5
122
330
1F
100
AcDbEntity
  8
AM_9
100
AcDbLine
 10
34.430421959122
 20
3.2131309390706
 30
0.0
 11
34.430421959122
 21
3.3599662104813
 31
0.0
  0
LINE
  5
123
330
1F
100
AcDbEntity
  8
AM_4
100
AcDbLine
 10
-33.889156081756
 20
3.1382797045615
 30
0.0
 11
-34.069578040878
 21
2.9165931986417
 31
0.0
  0
LINE
  5
124
330
1F
100
AcDbEntity
  8
AM_4
100
AcDbLine
 10
-33.889156081756
 20
2.9914444331508
 30
0.0
 11
-33.889156081756
 21
3.1382797045615
 31
0.0
  0
LINE
  5
125
330
1F
100
AcDbEntity
  8
AM_4
100
AcDbLine
 10
-34.069578040878
 20
3.3599662104813
 30
0.0
 11
-33.889156081756
 21
3.1382797045615
 31
0.0
  0
LINE
  5
126
330
1F
100
AcDbEntity
  8
AM_4
100
AcDbLine
 10
-34.430421959122
 20
3.3599662104813
 30
0.0
 11
-34.069578040878
 21
3.3599662104813
 31
0.0
  0
LINE
  5
127
330
1F
100
AcDbEntity
  8
AM_4
100
AcDbLine
 10
-34.610843918244
 20
3.1382797045615
 30
0.0
 11
-34.430421959122
 21
3.3599662104813
 31
0.0
  0
LINE
  5
128
330
1F
100
AcDbEntity
  8
AM_4
100
AcDbLine
 10
-34.610843918244
 20
2.9914444331508
 30
0.0
 11
-34.610843918244
 21
3.1382797045615
 31
0.0
  0
LINE
  5
129
330
1F
100
AcDbEntity
  8
AM_4
100
AcDbLine
 10
-34.430421959122
 20
2.9165931986417
 30
0.0
 11
-34.610843918244
 21
3.1382797045615
 31
0.0
  0
LINE
  5
12A
330
1F
100
AcDbEntity
  8
AM_4
100
AcDbLine
 10
-34.069578040878
 20
2.769757927231
 30
0.0
 11
-34.069578040878
 21
2.9165931986417
 31
0.0
  0
LINE
  5
12B
330
1F
100
AcDbEntity
  8
AM_4
100
AcDbLine
 10
-34.430421959122
 20
2.769757927231
 30
0.0
 11
-34.430421959122
 21
2.9165931986417
 31
0.0
  0
LINE
  5
12C
330
1F
100
AcDbEntity
  8
AM_4
100
AcDbLine
 10
-34.069578040878
 20
2.9165931986417
 30
0.0
 11
-34.430421959122
 21
2.9165931986417
 31
0.0
  0
LINE
  5
12D
330
1F
100
AcDbEntity
  8
AM_4
100
AcDbLine
 10
-32.639156081756
 20
3.1382797045615
 30
0.0
 11
-32.819578040878
 21
2.9165931986417
 31
0.0
  0
LINE
  5
12E
330
1F
100
AcDbEntity
  8
AM_4
100
AcDbLine
 10
-32.639156081756
 20
2.9914444331508
 30
0.0
 11
-32.639156081756
 21
3.1382797045615
 31
0.0
  0
LINE
  5
12F
330
1F
100
AcDbEntity
  8
AM_4
100
AcDbLine
 10
-32.819578040878
 20
3.3599662104813
 30
0.0
 11
-32.639156081756
 21
3.1382797045615
 31
0.0
  0
LINE
  5
130
330
1F
100
AcDbEntity
  8
AM_4
100
AcDbLine
 10
-33.180421959122
 20
3.3599662104813
 30
0.0
 11
-32.819578040878
 21
3.3599662104813
 31
0.0
  0
LINE
  5
131
330
1F
100
AcDbEntity
  8
AM_4
100
AcDbLine
 10
-33.360843918244
 20
3.1382797045615
 30
0.0
 11
-33.180421959122
 21
3.3599662104813
 31
0.0
  0
LINE
  5
132
330
1F
100
AcDbEntity
  8
AM_4
100
AcDbLine
 10
-33.360843918244
 20
2.9914444331508
 30
0.0
 11
-33.360843918244
 21
3.1382797045615
 31
0.0
  0
LINE
  5
133
330
1F
100
AcDbEntity
  8
AM_4
100
AcDbLine
 10
-33.180421959122
 20
2.9165931986417
 30
0.0
 11
-33.360843918244
 21
3.1382797045615
 31
0.0
  0
LINE
  5
134
330
1F
100
AcDbEntity
  8
AM_4
100
AcDbLine
 10
-32.819578040878
 20
2.769757927231
 30
0.0
 11
-32.819578040878
 21
2.9165931986417
 31
0.0
  0
LINE
  5
135
330
1F
100
AcDbEntity
  8
AM_4
100
AcDbLine
 10
-33.180421959122
 20
2.769757927231
 30
0.0
 11
-33.180421959122
 21
2.9165931986417
 31
0.0
  0
LINE
  5
136
330
1F
100
AcDbEntity
  8
AM_4
100
AcDbLine
 10
-32.819578040878
 20
2.9165931986417
 30
0.0
 11
-33.180421959122
 21
2.9165931986417
 31
0.0
  0
LINE
  5
137
330
1F
100
AcDbEntity
  8
AM_9
100
AcDbLine
 10
-34.430421959122
 20
3.2131309390706
 30
0.0
 11
-34.430421959122
 21
3.3599662104813
 31
0.0
  0
LINE
  5
138
330
1F
100
AcDbEntity
  8
AM_9
100
AcDbLine
 10
-34.069578040878
 20
3.2131309390706
 30
0.0
 11
-34.069578040878
 21
3.3599662104813
 31
0.0
  0
LINE
  5
139
330
1F
100
AcDbEntity
  8
AM_9
100
AcDbLine
 10
-33.180421959122
 20
3.2131309390706
 30
0.0
 11
-33.180421959122
 21
3.3599662104813
 31
0.0
  0
LINE
  5
13A
330
1F
100
AcDbEntity
  8
AM_9
100
AcDbLine
 10
-32.819578040878
 20
3.2131309390706
 30
0.0
 11
-32.819578040878
 21
3.3599662104813
 31
0.0
  0
LINE
  5
13B
330
1F
100
AcDbEntity
  8
AM_9
100
AcDbLine
 10
-4.0
 20
2.1875
 30
0.0
 11
-4.0
 21
6.93
 31
0.0
  0
LINE
  5
13C
330
1F
100
AcDbEntity
  8
AM_4
100
AcDbLine
 10
-4.0
 20
2.1875
 30
0.0
 11
-4.0
 21
7.0
 31
0.0
  0
LINE
  5
13D
330
1F
100
AcDbEntity
  8
AM_4
100
AcDbLine
 10
4.0
 20
6.93
 30
0.0
 11
-4.0
 21
6.93
 31
0.0
  0
LINE
  5
13E
330
1F
100
AcDbEntity
  8
AM_9
100
AcDbLine
 10
-6.6666666666667
 20
7.0
 30
0.0
 11
-6.6666666666667
 21
6.125
 31
0.0
  0
LINE
  5
13F
330
1F
100
AcDbEntity
  8
AM_9
100
AcDbLine
 10
-6.6666666666667
 20
7.0
 30
0.0
 11
-4.0
 21
7.0
 31
0.0
  0
LINE
  5
140
330
1F
100
AcDbEntity
  8
AM_9
100
AcDbLine
 10
-3.2105263157895
 20
6.125
 30
0.0
 11
-6.6666666666667
 21
6.125
 31
0.0
  0
LINE
  5
141
330
1F
100
AcDbEntity
  8
AM_9
100
AcDbLine
 10
-4.9103805280132
 20
7.0
 30
0.0
 11
-4.9103805280132
 21
6.125
 31
0.0
  0
LINE
  5
142
330
1F
100
AcDbEntity
  8
AM_4
100
AcDbLine
 10
4.0
 20
7.0
 30
0.0
 11
4.0
 21
2.1875
 31
0.0
  0
LINE
  5
143
330
1F
100
AcDbEntity
  8
AM_4
100
AcDbLine
 10
8.0
 20
7.0
 30
0.0
 11
4.0
 21
7.0
 31
0.0
  0
LINE
  5
144
330
1F
100
AcDbEntity
  8
AM_9
100
AcDbLine
 10
3.2105263157895
 20
6.125
 30
0.0
 11
6.6666666666667
 21
6.125
 31
0.0
  0
LINE
  5
145
330
1F
100
AcDbEntity
  8
AM_9
100
AcDbLine
 10
3.2105263157895
 20
6.93
 30
0.0
 11
4.0
 21
6.93
 31
0.0
  0
LINE
  5
146
330
1F
100
AcDbEntity
  8
AM_9
100
AcDbLine
 10
6.6666666666667
 20
7.0
 30
0.0
 11
6.6666666666667
 21
6.125
 31
0.0
  0
LINE
  5
147
330
1F
100
AcDbEntity
  8
AM_9
100
AcDbLine
 10
6.6666666666667
 20
7.0
 30
0.0
 11
4.9103805280132
 21
7.0
 31
0.0
  0
LINE
  5
148
330
1F
100
AcDbEntity
  8
AM_9
100
AcDbLine
 10
4.9103805280132
 20
7.0
 30
0.0
 11
4.9103805280132
 21
6.125
 31
0.0
  0
LINE
  5
149
330
1F
100
AcDbEntity
  8
AM_9
100
AcDbLine
 10
5.3333333333333
 20
1.75
 30
0.0
 11
5.3333333333333
 21
3.2083333333333
 31
0.0
  0
LINE
  5
14A
330
1F
100
AcDbEntity
  8
AM_9
100
AcDbLine
 10
6.9333333333333
 20
3.2083333333333
 30
0.0
 11
6.9333333333333
 21
1.75
 31
0.0
  0
LINE
  5
14B
330
1F
100
AcDbEntity
  8
AM_4
100
AcDbLine
 10
5.3333333333333
 20
2.9113563950843
 30
0.0
 11
5.3333333333333
 21
3.2083333333333
 31
0.0
  0
LINE
  5
14C
330
1F
100
AcDbEntity
  8
AM_4
100
AcDbLine
 10
6.9333333333333
 20
3.2083333333333
 30
0.0
 11
5.3333333333333
 21
3.2083333333333
 31
0.0
  0
LINE
  5
14D
330
1F
100
AcDbEntity
  8
AM_4
100
AcDbLine
 10
6.9333333333333
 20
2.9113563950843
 30
0.0
 11
6.9333333333333
 21
3.2083333333333
 31
0.0
  0
LWPOLYLINE
  5
14E
330
1F
100
AcDbEntity
  8
AM_4
100
AcDbPolyline
 90
      131
 70
     0
 43
0.0
 10
6.9333333333333
 20
2.9113563950843
 10
6.9332487190244
 20
2.8996455452263
 10
6.9325719110299
 20
2.8762337540454
 10
6.9312188673835
 20
2.8528516801084
 10
6.930289092617
 20
2.8411779709119
 10
6.9291907328953
 20
2.8295191069848
 10
6.9264892235695
 20
2.8062557763616
 10
6.923116625153
 20
2.7830813713396
 10
6.9190757912006
 20
2.7600154997799
 10
6.9143701406615
 20
2.7370776777131
 10
6.909003654986
 20
2.7142873128274
 10
6.9060739961649
 20
2.7029534580619
 10
6.9029808747569
 20
2.6916636880475
 10
6.8963068958476
 20
2.6692259452192
 10
6.8889873651109
 20
2.6469930689136
 10
6.8810284756007
 20
2.6249838703644
 10
6.8724369613323
 20
2.6032169715515
 10
6.8632200915848
 20
2.5817107894449
 10
6.8583795649129
 20
2.5710611625638
 10
6.8533856647504
 20
2.5604835204225
 10
6.8429420017364
 20
2.5395531248737
 10
6.8318979389245
 20
2.5189373120033
 10
6.8261536580828
 20
2.5087528358237
 10
6.8202628206949
 20
2.4986535248477
 10
6.8080464915195
 20
2.4787189255166
 10
6.7952592876327
 20
2.4591503806717
 10
6.7886549700683
 20
2.4495085652095
 10
6.781912028286
 20
2.4399644472561
 10
6.7680160065937
 20
2.4211773584855
 10
6.753582979978
 20
2.4028050101131
 10
6.7386251602205
 20
2.3848629469805
 10
6.7231552031307
 20
2.3673663498647
 10
6.7071861978371
 20
2.3503300226342
 10
6.6990187582342
 20
2.3419889802847
 10
6.6907316557128
 20
2.3337683797232
 10
6.6738054989438
 20
2.3176954339355
 10
6.6564220487491
 20
2.3021247845884
 10
6.6385960132633
 20
2.287069606006
 10
6.6203424750928
 20
2.272542636373
 10
6.6016768785537
 20
2.2585561669565
 10
6.5921944804401
 20
2.2517693360791
 10
6.5826150166047
 20
2.2451220317062
 10
6.5631730174846
 20
2.2322515972421
 10
6.5433673310662
 20
2.2199557532373
 10
6.5232147149381
 20
2.2082449032034
 10
6.5027322202261
 20
2.1971289556893
 10
6.4819371771661
 20
2.1866173158966
 10
6.4714279384197
 20
2.1815909109201
 10
6.4608471804412
 20
2.1767188777222
 10
6.4394800742949
 20
2.1674420162334
 10
6.4178539374327
 20
2.1587945805814
 10
6.395987067726
 20
2.1507838873603
 10
6.3738979667304
 20
2.1434167144166
 10
6.3516053240312
 20
2.1366992951144
 10
6.3403885625641
 20
2.1335860408157
 10
6.3291280014304
 20
2.1306373130611
 10
6.3064850169876
 20
2.1252358972989
 10
6.2836955289287
 20
2.120499617965
 10
6.2607788194366
 20
2.1164324824248
 10
6.2377542783361
 20
2.1130379318809
 10
6.2146413866882
 20
2.1103188384623
 10
6.203057918133
 20
2.109213329501
 10
6.1914597003074
 20
2.1082775027934
 10
6.1682288332154
 20
2.1069156520481
 10
6.1449684410457
 20
2.106234438488
 10
6.1333333227282
 20
2.1061492732819
 10
6.1216982044129
 20
2.106234438488
 10
6.0984378122612
 20
2.1069156520481
 10
6.0752069452051
 20
2.1082775027934
 10
6.0636087274041
 20
2.109213329501
 10
6.0520252588781
 20
2.1103188384623
 10
6.0289123673018
 20
2.1130379318809
 10
6.0058878262906
 20
2.1164324824248
 10
5.9829711169057
 20
2.120499617965
 10
5.9601816289716
 20
2.1252358972989
 10
5.937538644671
 20
2.130637313061
 10
5.926278083615
 20
2.1335860408157
 10
5.9150613222299
 20
2.1366992951144
 10
5.8927686797076
 20
2.1434167144166
 10
5.8706795789061
 20
2.1507838873603
 10
5.8488127094105
 20
2.1587945805814
 10
5.827186572776
 20
2.1674420162334
 10
5.8058194668741
 20
2.1767188777222
 10
5.7952387090239
 20
2.1815909109201
 10
5.78472947041
 20
2.1866173158966
 10
5.7639344276269
 20
2.1971289556893
 10
5.7434519332076
 20
2.2082449032034
 10
5.723299317388
 20
2.2199557532373
 10
5.7034936312935
 20
2.2322515972421
 10
5.6840516325124
 20
2.2451220317062
 10
5.6744721688521
 20
2.2517693360791
 10
5.6649897709173
 20
2.2585561669565
 10
5.6463241747466
 20
2.272542636373
 10
5.6280706369587
 20
2.287069606006
 10
5.6102446018696
 20
2.3021247845884
 10
5.5928611520849
 20
2.3176954339355
 10
5.5759349957393
 20
2.3337683797232
 10
5.5676478934345
 20
2.3419889802847
 10
5.5594804540514
 20
2.3503300226342
 10
5.5435114492065
 20
2.3673663498647
 10
5.5280414925775
 20
2.3848629469805
 10
5.5130836732927
 20
2.4028050101131
 10
5.4986506471609
 20
2.4211773584855
 10
5.4847546259635
 20
2.4399644472561
 10
5.4780116844326
 20
2.4495085652095
 10
5.4714073671222
 20
2.4591503806717
 10
5.4586201637509
 20
2.4787189255166
 10
5.4464038351005
 20
2.4986535248477
 10
5.4405129979787
 20
2.5087528358237
 10
5.4347687174052
 20
2.5189373120033
 10
5.4237246551364
 20
2.5395531248737
 10
5.4132809926737
 20
2.5604835204225
 10
5.4082870927899
 20
2.5710611625638
 10
5.4034465663985
 20
2.5817107894449
 10
5.3942296972175
 20
2.6032169715515
 10
5.3856381835225
 20
2.6249838703644
 10
5.377679294592
 20
2.6469930689136
 10
5.370359764441
 20
2.6692259452192
 10
5.3636857861227
 20
2.6916636880475
 10
5.3605926650121
 20
2.7029534580619
 10
5.3576630064895
 20
2.7142873128274
 10
5.3522965214143
 20
2.7370776777131
 10
5.3475908714795
 20
2.7600154997799
 10
5.3435500381347
 20
2.7830813713396
 10
5.3401774403286
 20
2.8062557763616
 10
5.3374759316156
 20
2.8295191069848
 10
5.336377572201
 20
2.8411779709119
 10
5.335447797742
 20
2.8528516801084
 10
5.3340947547115
 20
2.8762337540454
 10
5.3334179473337
 20
2.8996455452263
 10
5.3333333333333
 20
2.9113563950843
  0
LWPOLYLINE
  5
14F
330
1F
100
AcDbEntity
  8
AM_9
100
AcDbPolyline
 90
      131
 70
     0
 43
0.0
 10
5.3333333333333
 20
2.9113563950843
 10
5.3334179476422
 20
2.8996455452263
 10
5.3340947556367
 20
2.8762337540454
 10
5.3354477992831
 20
2.8528516801084
 10
5.3363775740496
 20
2.8411779709119
 10
5.3374759337713
 20
2.8295191069848
 10
5.3401774430971
 20
2.8062557763616
 10
5.3435500415136
 20
2.7830813713396
 10
5.347590875466
 20
2.7600154997799
 10
5.3522965260051
 20
2.7370776777131
 10
5.3576630116806
 20
2.7142873128274
 10
5.3605926705017
 20
2.7029534580619
 10
5.3636857919097
 20
2.6916636880475
 10
5.370359770819
 20
2.6692259452192
 10
5.3776793015557
 20
2.6469930689136
 10
5.3856381910659
 20
2.6249838703644
 10
5.3942297053343
 20
2.6032169715515
 10
5.4034465750818
 20
2.5817107894449
 10
5.4082871017537
 20
2.5710611625638
 10
5.4132810019162
 20
2.5604835204225
 10
5.4237246649302
 20
2.5395531248737
 10
5.4347687277421
 20
2.5189373120033
 10
5.4405130085838
 20
2.5087528358237
 10
5.4464038459717
 20
2.4986535248477
 10
5.4586201751471
 20
2.4787189255166
 10
5.4714073790339
 20
2.4591503806717
 10
5.4780116965983
 20
2.4495085652095
 10
5.4847546383806
 20
2.4399644472561
 10
5.4986506600729
 20
2.4211773584855
 10
5.5130836866886
 20
2.4028050101131
 10
5.5280415064461
 20
2.3848629469805
 10
5.5435114635359
 20
2.3673663498647
 10
5.5594804688295
 20
2.3503300226342
 10
5.5676479084324
 20
2.3419889802847
 10
5.5759350109538
 20
2.3337683797232
 10
5.5928611677228
 20
2.3176954339355
 10
5.6102446179175
 20
2.3021247845884
 10
5.6280706534033
 20
2.287069606006
 10
5.6463241915738
 20
2.272542636373
 10
5.6649897881129
 20
2.2585561669565
 10
5.6744721862265
 20
2.2517693360791
 10
5.6840516500619
 20
2.2451220317062
 10
5.703493649182
 20
2.2322515972421
 10
5.7232993356004
 20
2.2199557532373
 10
5.7434519517285
 20
2.2082449032034
 10
5.7639344464405
 20
2.1971289556893
 10
5.7847294895005
 20
2.1866173158966
 10
5.7952387282469
 20
2.1815909109201
 10
5.8058194862254
 20
2.1767188777222
 10
5.8271865923717
 20
2.1674420162334
 10
5.8488127292339
 20
2.1587945805814
 10
5.8706795989406
 20
2.1507838873603
 10
5.8927686999362
 20
2.1434167144166
 10
5.9150613426354
 20
2.1366992951144
 10
5.9262781041025
 20
2.1335860408157
 10
5.9375386652362
 20
2.130637313061
 10
5.960181649679
 20
2.1252358972989
 10
5.9829711377379
 20
2.120499617965
 10
6.00588784723
 20
2.1164324824248
 10
6.0289123883305
 20
2.1130379318809
 10
6.0520252799784
 20
2.1103188384623
 10
6.0636087485336
 20
2.109213329501
 10
6.0752069663592
 20
2.1082775027934
 10
6.0984378334512
 20
2.1069156520481
 10
6.1216982256209
 20
2.106234438488
 10
6.1333333439384
 20
2.1061492732819
 10
6.1449684622537
 20
2.106234438488
 10
6.1682288544054
 20
2.1069156520481
 10
6.1914597214615
 20
2.1082775027934
 10
6.2030579392625
 20
2.109213329501
 10
6.2146414077885
 20
2.1103188384623
 10
6.2377542993648
 20
2.1130379318809
 10
6.260778840376
 20
2.1164324824248
 10
6.2836955497609
 20
2.120499617965
 10
6.306485037695
 20
2.1252358972989
 10
6.3291280219956
 20
2.130637313061
 10
6.3403885830516
 20
2.1335860408157
 10
6.3516053444367
 20
2.1366992951144
 10
6.373897986959
 20
2.1434167144166
 10
6.3959870877605
 20
2.1507838873603
 10
6.4178539572561
 20
2.1587945805814
 10
6.4394800938906
 20
2.1674420162334
 10
6.4608471997925
 20
2.1767188777222
 10
6.4714279576427
 20
2.1815909109201
 10
6.4819371962566
 20
2.1866173158966
 10
6.5027322390397
 20
2.1971289556893
 10
6.523214733459
 20
2.2082449032034
 10
6.5433673492786
 20
2.2199557532373
 10
6.5631730353731
 20
2.2322515972421
 10
6.5826150341542
 20
2.2451220317062
 10
6.5921944978145
 20
2.2517693360791
 10
6.6016768957493
 20
2.2585561669565
 10
6.62034249192
 20
2.272542636373
 10
6.6385960297079
 20
2.287069606006
 10
6.656422064797
 20
2.3021247845884
 10
6.6738055145817
 20
2.3176954339355
 10
6.6907316709273
 20
2.3337683797232
 10
6.6990187732321
 20
2.3419889802847
 10
6.7071862126152
 20
2.3503300226342
 10
6.7231552174601
 20
2.3673663498647
 10
6.7386251740891
 20
2.3848629469805
 10
6.7535829933739
 20
2.4028050101131
 10
6.7680160195057
 20
2.4211773584855
 10
6.7819120407031
 20
2.4399644472561
 10
6.788654982234
 20
2.4495085652095
 10
6.7952592995444
 20
2.4591503806717
 10
6.8080465029157
 20
2.4787189255166
 10
6.8202628315661
 20
2.4986535248477
 10
6.8261536686879
 20
2.5087528358237
 10
6.8318979492614
 20
2.5189373120033
 10
6.8429420115302
 20
2.5395531248737
 10
6.8533856739929
 20
2.5604835204225
 10
6.8583795738767
 20
2.5710611625638
 10
6.8632201002681
 20
2.5817107894449
 10
6.8724369694491
 20
2.6032169715515
 10
6.8810284831441
 20
2.6249838703644
 10
6.8889873720746
 20
2.6469930689136
 10
6.8963069022256
 20
2.6692259452192
 10
6.9029808805439
 20
2.6916636880475
 10
6.9060740016545
 20
2.7029534580619
 10
6.9090036601771
 20
2.7142873128274
 10
6.9143701452523
 20
2.7370776777131
 10
6.9190757951871
 20
2.7600154997799
 10
6.9231166285319
 20
2.7830813713396
 10
6.926489226338
 20
2.8062557763616
 10
6.929190735051
 20
2.8295191069848
 10
6.9302890944656
 20
2.8411779709119
 10
6.9312188689246
 20
2.8528516801084
 10
6.9325719119551
 20
2.8762337540454
 10
6.9332487193329
 20
2.8996455452263
 10
6.9333333333333
 20
2.9113563950843
  0
LINE
  5
150
330
1F
100
AcDbEntity
  8
AM_9
100
AcDbLine
 10
-4.0
 20
1.75
 30
0.0
 11
-5.3333333333333
 21
1.75
 31
0.0
  0
LINE
  5
151
330
1F
100
AcDbEntity
  8
AM_9
100
AcDbLine
 10
35.0
 20
1.75
 30
0.0
 11
6.9333333333333
 21
1.75
 31
0.0
  0
LINE
  5
152
330
1F
100
AcDbEntity
  8
AM_9
100
AcDbLine
 10
35.0
 20
4.6857848019329
 30
0.0
 11
-35.0
 21
4.6857848019329
 31
0.0
  0
LINE
  5
153
330
1F
100
AcDbEntity
  8
AM_9
100
AcDbLine
 10
-8.0
 20
1.75
 30
0.0
 11
-35.0
 21
1.75
 31
0.0
  0
LINE
  5
154
330
1F
100
AcDbEntity
  8
AM_9
100
AcDbLine
 10
-33.180421959122
 20
3.2131309390706
 30
0.0
 11
-33.360843918244
 21
2.9914444331508
 31
0.0
  0
LINE
  5
155
330
1F
100
AcDbEntity
  8
AM_9
100
AcDbLine
 10
8.0
 20
5.6949830246846
 30
0.0
 11
-8.0
 21
5.6949830246846
 31
0.0
  0
LINE
  5
156
330
1F
100
AcDbEntity
  8
AM_9
100
AcDbLine
 10
-6.9333333333333
 20
1.75
 30
0.0
 11
-6.9333333333333
 21
3.2083333333333
 31
0.0
  0
LINE
  5
157
330
1F
100
AcDbEntity
  8
AM_9
100
AcDbLine
 10
-5.3333333333333
 20
3.2083333333333
 30
0.0
 11
-5.3333333333333
 21
1.75
 31
0.0
  0
LWPOLYLINE
  5
158
330
1F
100
AcDbEntity
  8
AM_9
100
AcDbPolyline
 90
      131
 70
     0
 43
0.0
 10
-6.9333333333333
 20
2.9113563950843
 10
-6.9332487190244
 20
2.8996455452263
 10
-6.9325719110299
 20
2.8762337540454
 10
-6.9312188673835
 20
2.8528516801084
 10
-6.930289092617
 20
2.8411779709119
 10
-6.9291907328953
 20
2.8295191069848
 10
-6.9264892235695
 20
2.8062557763616
 10
-6.923116625153
 20
2.7830813713396
 10
-6.9190757912006
 20
2.7600154997799
 10
-6.9143701406615
 20
2.7370776777131
 10
-6.909003654986
 20
2.7142873128274
 10
-6.9060739961649
 20
2.7029534580619
 10
-6.9029808747569
 20
2.6916636880475
 10
-6.8963068958476
 20
2.6692259452192
 10
-6.8889873651109
 20
2.6469930689136
 10
-6.8810284756007
 20
2.6249838703644
 10
-6.8724369613323
 20
2.6032169715515
 10
-6.8632200915848
 20
2.5817107894449
 10
-6.8583795649129
 20
2.5710611625638
 10
-6.8533856647504
 20
2.5604835204225
 10
-6.8429420017364
 20
2.5395531248737
 10
-6.8318979389245
 20
2.5189373120033
 10
-6.8261536580828
 20
2.5087528358237
 10
-6.8202628206949
 20
2.4986535248477
 10
-6.8080464915195
 20
2.4787189255166
 10
-6.7952592876327
 20
2.4591503806717
 10
-6.7886549700683
 20
2.4495085652095
 10
-6.781912028286
 20
2.4399644472561
 10
-6.7680160065937
 20
2.4211773584855
 10
-6.753582979978
 20
2.4028050101131
 10
-6.7386251602205
 20
2.3848629469805
 10
-6.7231552031307
 20
2.3673663498647
 10
-6.7071861978371
 20
2.3503300226342
 10
-6.6990187582342
 20
2.3419889802847
 10
-6.6907316557128
 20
2.3337683797232
 10
-6.6738054989438
 20
2.3176954339355
 10
-6.6564220487491
 20
2.3021247845884
 10
-6.6385960132633
 20
2.287069606006
 10
-6.6203424750928
 20
2.272542636373
 10
-6.6016768785537
 20
2.2585561669565
 10
-6.5921944804401
 20
2.2517693360791
 10
-6.5826150166047
 20
2.2451220317062
 10
-6.5631730174846
 20
2.2322515972421
 10
-6.5433673310662
 20
2.2199557532373
 10
-6.5232147149381
 20
2.2082449032034
 10
-6.5027322202261
 20
2.1971289556893
 10
-6.4819371771661
 20
2.1866173158966
 10
-6.4714279384197
 20
2.1815909109201
 10
-6.4608471804412
 20
2.1767188777222
 10
-6.4394800742949
 20
2.1674420162334
 10
-6.4178539374327
 20
2.1587945805814
 10
-6.395987067726
 20
2.1507838873603
 10
-6.3738979667304
 20
2.1434167144166
 10
-6.3516053240312
 20
2.1366992951144
 10
-6.3403885625641
 20
2.1335860408157
 10
-6.3291280014304
 20
2.130637313061
 10
-6.3064850169876
 20
2.1252358972989
 10
-6.2836955289287
 20
2.120499617965
 10
-6.2607788194366
 20
2.1164324824248
 10
-6.2377542783361
 20
2.1130379318809
 10
-6.2146413866882
 20
2.1103188384623
 10
-6.203057918133
 20
2.109213329501
 10
-6.1914597003074
 20
2.1082775027934
 10
-6.1682288332154
 20
2.1069156520481
 10
-6.1449684410457
 20
2.106234438488
 10
-6.1333333227282
 20
2.1061492732819
 10
-6.1216982044129
 20
2.106234438488
 10
-6.0984378122612
 20
2.1069156520481
 10
-6.0752069452051
 20
2.1082775027934
 10
-6.0636087274041
 20
2.109213329501
 10
-6.0520252588781
 20
2.1103188384623
 10
-6.0289123673018
 20
2.1130379318809
 10
-6.0058878262906
 20
2.1164324824248
 10
-5.9829711169057
 20
2.120499617965
 10
-5.9601816289716
 20
2.1252358972989
 10
-5.937538644671
 20
2.130637313061
 10
-5.926278083615
 20
2.1335860408157
 10
-5.9150613222299
 20
2.1366992951144
 10
-5.8927686797076
 20
2.1434167144166
 10
-5.8706795789061
 20
2.1507838873603
 10
-5.8488127094105
 20
2.1587945805814
 10
-5.827186572776
 20
2.1674420162334
 10
-5.8058194668741
 20
2.1767188777222
 10
-5.7952387090239
 20
2.1815909109201
 10
-5.78472947041
 20
2.1866173158966
 10
-5.7639344276269
 20
2.1971289556893
 10
-5.7434519332076
 20
2.2082449032034
 10
-5.723299317388
 20
2.2199557532373
 10
-5.7034936312935
 20
2.2322515972421
 10
-5.6840516325124
 20
2.2451220317062
 10
-5.6744721688521
 20
2.2517693360791
 10
-5.6649897709173
 20
2.2585561669565
 10
-5.6463241747466
 20
2.272542636373
 10
-5.6280706369587
 20
2.287069606006
 10
-5.6102446018696
 20
2.3021247845884
 10
-5.5928611520849
 20
2.3176954339355
 10
-5.5759349957393
 20
2.3337683797232
 10
-5.5676478934345
 20
2.3419889802847
 10
-5.5594804540514
 20
2.3503300226342
 10
-5.5435114492065
 20
2.3673663498647
 10
-5.5280414925775
 20
2.3848629469805
 10
-5.5130836732927
 20
2.4028050101131
 10
-5.4986506471609
 20
2.4211773584855
 10
-5.4847546259635
 20
2.4399644472561
 10
-5.4780116844326
 20
2.4495085652095
 10
-5.4714073671222
 20
2.4591503806717
 10
-5.4586201637509
 20
2.4787189255166
 10
-5.4464038351005
 20
2.4986535248477
 10
-5.4405129979787
 20
2.5087528358237
 10
-5.4347687174052
 20
2.5189373120033
 10
-5.4237246551364
 20
2.5395531248737
 10
-5.4132809926737
 20
2.5604835204225
 10
-5.4082870927899
 20
2.5710611625638
 10
-5.4034465663985
 20
2.5817107894449
 10
-5.3942296972175
 20
2.6032169715515
 10
-5.3856381835225
 20
2.6249838703644
 10
-5.377679294592
 20
2.6469930689136
 10
-5.370359764441
 20
2.6692259452192
 10
-5.3636857861227
 20
2.6916636880475
 10
-5.3605926650121
 20
2.7029534580619
 10
-5.3576630064895
 20
2.7142873128274
 10
-5.3522965214143
 20
2.7370776777131
 10
-5.3475908714795
 20
2.7600154997799
 10
-5.3435500381347
 20
2.7830813713396
 10
-5.3401774403286
 20
2.8062557763616
 10
-5.3374759316156
 20
2.8295191069848
 10
-5.336377572201
 20
2.8411779709119
 10
-5.335447797742
 20
2.8528516801084
 10
-5.3340947547115
 20
2.8762337540454
 10
-5.3334179473337
 20
2.8996455452263
 10
-5.3333333333333
 20
2.9113563950843
  0
LINE
  5
159
330
1F
100
AcDbEntity
  8
AM_4
100
AcDbLine
 10
-6.9333333333333
 20
2.9113563950843
 30
0.0
 11
-6.9333333333333
 21
3.2083333333333
 31
0.0
  0
LINE
  5
15A
330
1F
100
AcDbEntity
  8
AM_4
100
AcDbLine
 10
-5.3333333333333
 20
3.2083333333333
 30
0.0
 11
-6.9333333333333
 21
3.2083333333333
 31
0.0
  0
LINE
  5
15B
330
1F
100
AcDbEntity
  8
AM_4
100
AcDbLine
 10
-5.3333333333333
 20
2.9113563950843
 30
0.0
 11
-5.3333333333333
 21
3.2083333333333
 31
0.0
  0
LWPOLYLINE
  5
15C
330
1F
100
AcDbEntity
  8
AM_4
100
AcDbPolyline
 90
      131
 70
     0
 43
0.0
 10
-5.3333333333333
 20
2.9113563950843
 10
-5.3334179476422
 20
2.8996455452263
 10
-5.3340947556367
 20
2.8762337540454
 10
-5.3354477992831
 20
2.8528516801084
 10
-5.3363775740496
 20
2.8411779709119
 10
-5.3374759337713
 20
2.8295191069848
 10
-5.3401774430971
 20
2.8062557763616
 10
-5.3435500415136
 20
2.7830813713396
 10
-5.347590875466
 20
2.7600154997799
 10
-5.3522965260051
 20
2.7370776777131
 10
-5.3576630116806
 20
2.7142873128274
 10
-5.3605926705017
 20
2.7029534580619
 10
-5.3636857919097
 20
2.6916636880475
 10
-5.370359770819
 20
2.6692259452192
 10
-5.3776793015557
 20
2.6469930689136
 10
-5.3856381910659
 20
2.6249838703644
 10
-5.3942297053343
 20
2.6032169715515
 10
-5.4034465750818
 20
2.5817107894449
 10
-5.4082871017537
 20
2.5710611625638
 10
-5.4132810019162
 20
2.5604835204225
 10
-5.4237246649302
 20
2.5395531248737
 10
-5.4347687277421
 20
2.5189373120033
 10
-5.4405130085838
 20
2.5087528358237
 10
-5.4464038459717
 20
2.4986535248477
 10
-5.4586201751471
 20
2.4787189255166
 10
-5.4714073790339
 20
2.4591503806717
 10
-5.4780116965983
 20
2.4495085652095
 10
-5.4847546383806
 20
2.4399644472561
 10
-5.4986506600729
 20
2.4211773584855
 10
-5.5130836866886
 20
2.4028050101131
 10
-5.5280415064461
 20
2.3848629469805
 10
-5.5435114635359
 20
2.3673663498647
 10
-5.5594804688295
 20
2.3503300226342
 10
-5.5676479084324
 20
2.3419889802847
 10
-5.5759350109538
 20
2.3337683797232
 10
-5.5928611677228
 20
2.3176954339355
 10
-5.6102446179175
 20
2.3021247845884
 10
-5.6280706534033
 20
2.287069606006
 10
-5.6463241915738
 20
2.272542636373
 10
-5.6649897881129
 20
2.2585561669565
 10
-5.6744721862265
 20
2.2517693360791
 10
-5.6840516500619
 20
2.2451220317062
 10
-5.703493649182
 20
2.2322515972421
 10
-5.7232993356004
 20
2.2199557532373
 10
-5.7434519517285
 20
2.2082449032034
 10
-5.7639344464405
 20
2.1971289556893
 10
-5.7847294895005
 20
2.1866173158966
 10
-5.7952387282469
 20
2.1815909109201
 10
-5.8058194862254
 20
2.1767188777222
 10
-5.8271865923717
 20
2.1674420162334
 10
-5.8488127292339
 20
2.1587945805814
 10
-5.8706795989406
 20
2.1507838873603
 10
-5.8927686999362
 20
2.1434167144166
 10
-5.9150613426354
 20
2.1366992951144
 10
-5.9262781041025
 20
2.1335860408157
 10
-5.9375386652362
 20
2.1306373130611
 10
-5.960181649679
 20
2.1252358972989
 10
-5.9829711377379
 20
2.120499617965
 10
-6.00588784723
 20
2.1164324824248
 10
-6.0289123883305
 20
2.1130379318809
 10
-6.0520252799784
 20
2.1103188384623
 10
-6.0636087485336
 20
2.109213329501
 10
-6.0752069663592
 20
2.1082775027934
 10
-6.0984378334512
 20
2.1069156520481
 10
-6.1216982256209
 20
2.106234438488
 10
-6.1333333439384
 20
2.1061492732819
 10
-6.1449684622537
 20
2.106234438488
 10
-6.1682288544054
 20
2.1069156520481
 10
-6.1914597214615
 20
2.1082775027934
 10
-6.2030579392625
 20
2.109213329501
 10
-6.2146414077885
 20
2.1103188384623
 10
-6.2377542993648
 20
2.1130379318809
 10
-6.260778840376
 20
2.1164324824248
 10
-6.2836955497609
 20
2.120499617965
 10
-6.306485037695
 20
2.1252358972989
 10
-6.3291280219956
 20
2.130637313061
 10
-6.3403885830516
 20
2.1335860408157
 10
-6.3516053444367
 20
2.1366992951144
 10
-6.373897986959
 20
2.1434167144166
 10
-6.3959870877605
 20
2.1507838873603
 10
-6.4178539572561
 20
2.1587945805814
 10
-6.4394800938906
 20
2.1674420162334
 10
-6.4608471997925
 20
2.1767188777222
 10
-6.4714279576427
 20
2.1815909109201
 10
-6.4819371962566
 20
2.1866173158966
 10
-6.5027322390397
 20
2.1971289556893
 10
-6.523214733459
 20
2.2082449032034
 10
-6.5433673492786
 20
2.2199557532373
 10
-6.5631730353731
 20
2.2322515972421
 10
-6.5826150341542
 20
2.2451220317062
 10
-6.5921944978145
 20
2.2517693360791
 10
-6.6016768957493
 20
2.2585561669565
 10
-6.62034249192
 20
2.272542636373
 10
-6.6385960297079
 20
2.287069606006
 10
-6.656422064797
 20
2.3021247845884
 10
-6.6738055145817
 20
2.3176954339355
 10
-6.6907316709273
 20
2.3337683797232
 10
-6.6990187732321
 20
2.3419889802847
 10
-6.7071862126152
 20
2.3503300226342
 10
-6.7231552174601
 20
2.3673663498647
 10
-6.7386251740891
 20
2.3848629469805
 10
-6.7535829933739
 20
2.4028050101131
 10
-6.7680160195057
 20
2.4211773584855
 10
-6.7819120407031
 20
2.4399644472561
 10
-6.788654982234
 20
2.4495085652095
 10
-6.7952592995444
 20
2.4591503806717
 10
-6.8080465029157
 20
2.4787189255166
 10
-6.8202628315661
 20
2.4986535248477
 10
-6.8261536686879
 20
2.5087528358237
 10
-6.8318979492614
 20
2.5189373120033
 10
-6.8429420115302
 20
2.5395531248737
 10
-6.8533856739929
 20
2.5604835204225
 10
-6.8583795738767
 20
2.5710611625638
 10
-6.8632201002681
 20
2.5817107894449
 10
-6.8724369694491
 20
2.6032169715515
 10
-6.8810284831441
 20
2.6249838703644
 10
-6.8889873720746
 20
2.6469930689136
 10
-6.8963069022256
 20
2.6692259452192
 10
-6.9029808805439
 20
2.6916636880475
 10
-6.9060740016545
 20
2.7029534580619
 10
-6.9090036601771
 20
2.7142873128274
 10
-6.9143701452523
 20
2.7370776777131
 10
-6.9190757951871
 20
2.7600154997799
 10
-6.9231166285319
 20
2.7830813713396
 10
-6.926489226338
 20
2.8062557763616
 10
-6.929190735051
 20
2.8295191069848
 10
-6.9302890944656
 20
2.8411779709119
 10
-6.9312188689246
 20
2.8528516801084
 10
-6.9325719119551
 20
2.8762337540454
 10
-6.9332487193329
 20
2.8996455452263
 10
-6.9333333333333
 20
2.9113563950843
  0
LINE
  5
15D
330
1F
100
AcDbEntity
  8
AM_4
100
AcDbLine
 10
35.0
 20
5.3846153846154
 30
0.0
 11
35.0
 21
1.75
 31
0.0
  0
LINE
  5
15E
330
1F
100
AcDbEntity
  8
AM_4
100
AcDbLine
 10
-35.0
 20
5.3846153846154
 30
0.0
 11
-35.0
 21
1.75
 31
0.0
  0
LINE
  5
15F
330
1F
100
AcDbEntity
  8
AM_4
100
AcDbLine
 10
35.0
 20
5.3846153846154
 30
0.0
 11
8.0
 21
5.3846153846154
 31
0.0
  0
LINE
  5
160
330
1F
100
AcDbEntity
  8
AM_9
100
AcDbLine
 10
8.0
 20
5.3846153846154
 30
0.0
 11
-8.0
 21
5.3846153846154
 31
0.0
  0
LINE
  5
161
330
1F
100
AcDbEntity
  8
AM_4
100
AcDbLine
 10
-8.0
 20
5.3846153846154
 30
0.0
 11
-35.0
 21
5.3846153846154
 31
0.0
  0
LINE
  5
162
330
1F
100
AcDbEntity
  8
AM_4
100
AcDbLine
 10
-32.639156081757
 20
2.9914444331508
 30
0.0
 11
-32.819578040878
 21
2.769757927231
 31
0.0
  0
LINE
  5
163
330
1F
100
AcDbEntity
  8
AM_9
100
AcDbLine
 10
-32.819578040878
 20
3.2131309390706
 30
0.0
 11
-32.639156081756
 21
2.9914444331508
 31
0.0
  0
LINE
  5
164
330
1F
100
AcDbEntity
  8
AM_9
100
AcDbLine
 10
-33.180421959122
 20
3.2131309390706
 30
0.0
 11
-32.819578040878
 21
3.2131309390706
 31
0.0
  0
LINE
  5
165
330
1F
100
AcDbEntity
  8
AM_4
100
AcDbLine
 10
-33.180421959122
 20
2.769757927231
 30
0.0
 11
-33.360843918244
 21
2.9914444331508
 31
0.0
  0
LINE
  5
166
330
1F
100
AcDbEntity
  8
AM_4
100
AcDbLine
 10
-32.819578040878
 20
2.769757927231
 30
0.0
 11
-33.180421959122
 21
2.769757927231
 31
0.0
  0
LINE
  5
167
330
1F
100
AcDbEntity
  8
AM_4
100
AcDbLine
 10
-33.889156081757
 20
2.9914444331508
 30
0.0
 11
-34.069578040878
 21
2.769757927231
 31
0.0
  0
LINE
  5
168
330
1F
100
AcDbEntity
  8
AM_9
100
AcDbLine
 10
-34.069578040878
 20
3.2131309390706
 30
0.0
 11
-33.889156081757
 21
2.9914444331508
 31
0.0
  0
LINE
  5
169
330
1F
100
AcDbEntity
  8
AM_9
100
AcDbLine
 10
-34.430421959122
 20
3.2131309390706
 30
0.0
 11
-34.069578040878
 21
3.2131309390706
 31
0.0
  0
LINE
  5
16A
330
1F
100
AcDbEntity
  8
AM_9
100
AcDbLine
 10
-34.610843918244
 20
2.9914444331508
 30
0.0
 11
-34.430421959122
 21
3.2131309390706
 31
0.0
  0
LINE
  5
16B
330
1F
100
AcDbEntity
  8
AM_4
100
AcDbLine
 10
-34.430421959122
 20
2.769757927231
 30
0.0
 11
-34.610843918244
 21
2.9914444331508
 31
0.0
  0
LINE
  5
16C
330
1F
100
AcDbEntity
  8
AM_4
100
AcDbLine
 10
-34.069578040878
 20
2.769757927231
 30
0.0
 11
-34.430421959122
 21
2.769757927231
 31
0.0
  0
LINE
  5
16D
330
1F
100
AcDbEntity
  8
AM_4
100
AcDbLine
 10
33.360843918244
 20
2.9914444331508
 30
0.0
 11
33.180421959122
 21
2.769757927231
 31
0.0
  0
LINE
  5
16E
330
1F
100
AcDbEntity
  8
AM_9
100
AcDbLine
 10
33.180421959122
 20
3.2131309390706
 30
0.0
 11
33.360843918244
 21
2.9914444331508
 31
0.0
  0
LINE
  5
16F
330
1F
100
AcDbEntity
  8
AM_9
100
AcDbLine
 10
32.819578040878
 20
3.2131309390706
 30
0.0
 11
33.180421959122
 21
3.2131309390706
 31
0.0
  0
LINE
  5
170
330
1F
100
AcDbEntity
  8
AM_9
100
AcDbLine
 10
32.639156081756
 20
2.9914444331508
 30
0.0
 11
32.819578040878
 21
3.2131309390706
 31
0.0
  0
LINE
  5
171
330
1F
100
AcDbEntity
  8
AM_4
100
AcDbLine
 10
32.819578040878
 20
2.769757927231
 30
0.0
 11
32.639156081756
 21
2.9914444331508
 31
0.0
  0
LINE
  5
172
330
1F
100
AcDbEntity
  8
AM_4
100
AcDbLine
 10
33.180421959122
 20
2.769757927231
 30
0.0
 11
32.819578040878
 21
2.769757927231
 31
0.0
  0
LINE
  5
173
330
1F
100
AcDbEntity
  8
AM_4
100
AcDbLine
 10
34.610843918244
 20
2.9914444331508
 30
0.0
 11
34.430421959122
 21
2.769757927231
 31
0.0
  0
LINE
  5
174
330
1F
100
AcDbEntity
  8
AM_9
100
AcDbLine
 10
34.430421959122
 20
3.2131309390706
 30
0.0
 11
34.610843918244
 21
2.9914444331508
 31
0.0
  0
LINE
  5
175
330
1F
100
AcDbEntity
  8
AM_9
100
AcDbLine
 10
34.069578040878
 20
3.2131309390706
 30
0.0
 11
34.430421959122
 21
3.2131309390706
 31
0.0
  0
LINE
  5
176
330
1F
100
AcDbEntity
  8
AM_9
100
AcDbLine
 10
33.889156081756
 20
2.9914444331508
 30
0.0
 11
34.069578040878
 21
3.2131309390706
 31
0.0
  0
LINE
  5
177
330
1F
100
AcDbEntity
  8
AM_4
100
AcDbLine
 10
34.069578040878
 20
2.769757927231
 30
0.0
 11
33.889156081756
 21
2.9914444331508
 31
0.0
  0
LINE
  5
178
330
1F
100
AcDbEntity
  8
AM_4
100
AcDbLine
 10
34.430421959122
 20
2.769757927231
 30
0.0
 11
34.069578040878
 21
2.769757927231
 31
0.0
  0
LINE
  5
179
330
1F
100
AcDbEntity
  8
AM_4
100
AcDbLine
 10
6.4000000000003
 20
3.4083333333333
 30
0.0
 11
5.866666666667
 21
3.4083333333333
 31
0.0
  0
LINE
  5
17A
330
1F
100
AcDbEntity
  8
AM_4
100
AcDbLine
 10
6.1333333333337
 20
3.2083333333333
 30
0.0
 11
6.1333333333337
 21
3.4083333333333
 31
0.0
  0
LINE
  5
17B
330
1F
100
AcDbEntity
  8
AM_4
100
AcDbLine
 10
6.4000000000003
 20
3.2083333333333
 30
0.0
 11
6.4000000000003
 21
3.4083333333333
 31
0.0
  0
LINE
  5
17C
330
1F
100
AcDbEntity
  8
AM_9
100
AcDbLine
 10
5.866666666667
 20
3.2083333333333
 30
0.0
 11
6.4000000000003
 21
3.2083333333333
 31
0.0
  0
LINE
  5
17D
330
1F
100
AcDbEntity
  8
AM_4
100
AcDbLine
 10
5.866666666667
 20
3.2083333333333
 30
0.0
 11
5.866666666667
 21
3.4083333333333
 31
0.0
  0
LINE
  5
17E
330
1F
100
AcDbEntity
  8
AM_4
100
AcDbLine
 10
-5.8666666666667
 20
3.4083333333333
 30
0.0
 11
-6.4
 21
3.4083333333333
 31
0.0
  0
LINE
  5
17F
330
1F
100
AcDbEntity
  8
AM_4
100
AcDbLine
 10
-6.1333333333333
 20
3.2083333333333
 30
0.0
 11
-6.1333333333333
 21
3.4083333333333
 31
0.0
  0
LINE
  5
180
330
1F
100
AcDbEntity
  8
AM_4
100
AcDbLine
 10
-5.8666666666667
 20
3.2083333333333
 30
0.0
 11
-5.8666666666667
 21
3.4083333333333
 31
0.0
  0
LINE
  5
181
330
1F
100
AcDbEntity
  8
AM_9
100
AcDbLine
 10
-6.4
 20
3.2083333333333
 30
0.0
 11
-5.8666666666667
 21
3.2083333333333
 31
0.0
  0
LINE
  5
182
330
1F
100
AcDbEntity
  8
AM_4
100
AcDbLine
 10
-6.4
 20
3.2083333333333
 30
0.0
 11
-6.4
 21
3.4083333333333
 31
0.0
  0
LINE
  5
184
330
1F
100
AcDbEntity
  8
AM_5
100
AcDbLine
 10
-37.0625
 20
4.0754
 30
0.0
 11
36.1875
 21
4.0754
 31
0.0
  0
LINE
  5
185
330
1F
100
AcDbEntity
  8
AM_5
100
AcDbLine
 10
-37.0625
 20
2.9246
 30
0.0
 11
36.1875
 21
2.9246
 31
0.0
  0
LINE
  5
188
330
1F
100
AcDbEntity
  8
AM_7
100
AcDbLine
 10
-40.725
 20
3.5
 30
0.0
 11
39.85
 21
3.5
 31
0.0
  0
ENDSEC
  0
SECTION
  2
OBJECTS
  0
DICTIONARY
  5
C
330
0
100
AcDbDictionary
281
     1
  3
ACAD_DETAILVIEWSTYLE
350
190
  3
ACAD_GROUP
350
D
  3
ACAD_LAYOUT
350
1A
  3
ACAD_MATERIAL
350
43
  3
ACAD_MLEADERSTYLE
350
6B
  3
ACAD_MLINESTYLE
350
17
  3
ACAD_PLOTSETTINGS
350
19
  3
ACAD_PLOTSTYLENAME
350
E
  3
ACAD_SCALELIST
350
47
  3
ACAD_SECTIONVIEWSTYLE
350
191
  3
ACAD_TABLESTYLE
350
69
  3
ACAD_VISUALSTYLE
350
2A
  3
ACDB_RECOMPOSE_DATA
350
18D
  3
AcDbVariableDictionary
350
189
  0
SUN
  5
6D
330
29
100
AcDbSun
 90
        1
290
     0
 63
     7
421
 16777215
 40
1.0
291
     1
 91
  2455826
 92
 54000000
292
     0
 70
     2
 71
   256
280
     1
  0
DICTIONARY
  5
190
102
{ACAD_REACTORS
330
C
102
}
330
C
100
AcDbDictionary
281
     1
  0
DICTIONARY
  5
D
102
{ACAD_REACTORS
330
C
102
}
330
C
100
AcDbDictionary
281
     1
  0
DICTIONARY
  5
1A
102
{ACAD_REACTORS
330
C
102
}
330
C
100
AcDbDictionary
281
     1
  3
Layout1
350
1E
  3
Layout2
350
26
  3
Model
350
22
  0
DICTIONARY
  5
43
102
{ACAD_REACTORS
330
C
102
}
330
C
100
AcDbDictionary
281
     1
  3
ByBlock
350
45
  3
ByLayer
350
44
  3
Global
350
46
  0
DICTIONARY
  5
6B
102
{ACAD_REACTORS
330
C
102
}
330
C
100
AcDbDictionary
281
     1
  3
Standard
350
6C
  0
DICTIONARY
  5
17
102
{ACAD_REACTORS
330
C
102
}
330
C
100
AcDbDictionary
281
     1
  3
Standard
350
18
  0
DICTIONARY
  5
19
102
{ACAD_REACTORS
330
C
102
}
330
C
100
AcDbDictionary
281
     1
  0
ACDBDICTIONARYWDFLT
  5
E
102
{ACAD_REACTORS
330
C
102
}
330
C
100
AcDbDictionary
281
     1
  3
Normal
350
F
100
AcDbDictionaryWithDefault
340
F
  0
DICTIONARY
  5
47
102
{ACAD_REACTORS
330
C
102
}
330
C
100
AcDbDictionary
281
     1
  3
A0
350
48
  3
A1
350
49
  3
A2
350
4A
  3
A3
350
4B
  3
A4
350
4C
  3
A5
350
4D
  3
A6
350
4E
  3
A7
350
4F
  3
A8
350
50
  3
A9
350
51
  3
B0
350
52
  3
B1
350
53
  3
B2
350
54
  3
B3
350
55
  3
B4
350
56
  3
B5
350
57
  3
B6
350
58
  3
B7
350
59
  3
B8
350
5A
  3
B9
350
5B
  3
C0
350
5C
  3
C1
350
5D
  3
C2
350
5E
  3
C3
350
5F
  3
C4
350
60
  3
C5
350
61
  3
C6
350
62
  3
C7
350
63
  3
C8
350
64
  3
C9
350
65
  3
D0
350
66
  3
D1
350
67
  3
D2
350
68
  0
DICTIONARY
  5
191
102
{ACAD_REACTORS
330
C
102
}
330
C
100
AcDbDictionary
281
     1
  0
DICTIONARY
  5
69
102
{ACAD_REACTORS
330
C
102
}
330
C
100
AcDbDictionary
281
     1
  3
Standard
350
6A
  0
DICTIONARY
  5
2A
102
{ACAD_REACTORS
330
C
102
}
330
C
100
AcDbDictionary
281
     1
  3
2dWireframe
350
2F
  3
Basic
350
32
  3
Brighten
350
36
  3
ColorChange
350
3A
  3
Conceptual
350
34
  3
Dim
350
35
  3
EdgeColorOff
350
3D
  3
Facepattern
350
39
  3
Flat
350
2B
  3
FlatWithEdges
350
2C
  3
Gouraud
350
2D
  3
GouraudWithEdges
350
2E
  3
Hidden
350
31
  3
JitterOff
350
3B
  3
Linepattern
350
38
  3
OverhangOff
350
3C
  3
Realistic
350
33
  3
Shaded
350
42
  3
Shaded with edges
350
41
  3
Shades of Gray
350
3E
  3
Sketchy
350
3F
  3
Thicken
350
37
  3
Wireframe
350
30
  3
X-Ray
350
40
  0
XRECORD
  5
18D
102
{ACAD_REACTORS
330
C
102
}
330
C
100
AcDbXrecord
280
     1
 90
        1
330
6A
  0
DICTIONARY
  5
189
102
{ACAD_REACTORS
330
C
102
}
330
C
100
AcDbDictionary
281
     1
  3
CANNOSCALE
350
18A
  3
CMLEADERSTYLE
350
18F
  3
CTABLESTYLE
350
18E
  0
LAYOUT
  5
1E
102
{ACAD_REACTORS
330
1A
102
}
330
1A
100
AcDbPlotSettings
  1

  2
none_device
  4

  6

 40
0.0
 41
0.0
 42
0.0
 43
0.0
 44
0.0
 45
0.0
 46
0.0
 47
0.0
 48
0.0
 49
0.0
140
0.0
141
0.0
142
1.0
143
1.0
 70
   688
 72
     0
 73
     0
 74
     5
  7

 75
    16
 76
     0
 77
     2
 78
   300
147
1.0
148
0.0
149
0.0
100
AcDbLayout
  1
Layout1
 70
     1
 71
     1
 10
0.0
 20
0.0
 11
12.0
 21
9.0
 12
0.0
 22
0.0
 32
0.0
 14
1.000000000000000E+20
 24
1.000000000000000E+20
 34
1.000000000000000E+20
 15
-1.000000000000000E+20
 25
-1.000000000000000E+20
 35
-1.000000000000000E+20
146
0.0
 13
0.0
 23
0.0
 33
0.0
 16
1.0
 26
0.0
 36
0.0
 17
0.0
 27
1.0
 37
0.0
 76
     0
330
1B
  0
LAYOUT
  5
26
102
{ACAD_REACTORS
330
1A
102
}
330
1A
100
AcDbPlotSettings
  1

  2
none_device
  4

  6

 40
0.0
 41
0.0
 42
0.0
 43
0.0
 44
0.0
 45
0.0
 46
0.0
 47
0.0
 48
0.0
 49
0.0
140
0.0
141
0.0
142
1.0
143
1.0
 70
   688
 72
     0
 73
     0
 74
     5
  7

 75
    16
 76
     0
 77
     2
 78
   300
147
1.0
148
0.0
149
0.0
100
AcDbLayout
  1
Layout2
 70
     1
 71
     2
 10
0.0
 20
0.0
 11
0.0
 21
0.0
 12
0.0
 22
0.0
 32
0.0
 14
0.0
 24
0.0
 34
0.0
 15
0.0
 25
0.0
 35
0.0
146
0.0
 13
0.0
 23
0.0
 33
0.0
 16
1.0
 26
0.0
 36
0.0
 17
0.0
 27
1.0
 37
0.0
 76
     0
330
23
  0
LAYOUT
  5
22
102
{ACAD_REACTORS
330
1A
102
}
330
1A
100
AcDbPlotSettings
  1

  2
none_device
  4
Letter_(8.50_x_11.00_Inches)
  6

 40
6.35
 41
6.35
 42
6.35000508
 43
6.35000508
 44
215.9
 45
279.4
 46
0.0
 47
0.0
 48
0.0
 49
0.0
140
0.0
141
0.0
142
1.0
143
1.0
 70
  1712
 72
     0
 73
     0
 74
     0
  7

 75
     0
 76
     0
 77
     2
 78
   300
147
1.0
148
0.0
149
0.0
100
AcDbLayout
  1
Model
 70
     1
 71
     0
 10
0.0
 20
0.0
 11
12.0
 21
9.0
 12
0.0
 22
0.0
 32
0.0
 14
1.000000000000000E+20
 24
1.000000000000000E+20
 34
1.000000000000000E+20
 15
-1.000000000000000E+20
 25
-1.000000000000000E+20
 35
-1.000000000000000E+20
146
0.0
 13
0.0
 23
0.0
 33
0.0
 16
1.0
 26
0.0
 36
0.0
 17
0.0
 27
1.0
 37
0.0
 76
     0
330
1F
331
29
  0
MATERIAL
  5
45
102
{ACAD_REACTORS
330
43
102
}
330
43
100
AcDbMaterial
  1
ByBlock
 72
     1
 94
      127
  0
MATERIAL
  5
44
102
{ACAD_REACTORS
330
43
102
}
330
43
100
AcDbMaterial
  1
ByLayer
 72
     1
 94
      127
  0
MATERIAL
  5
46
102
{ACAD_REACTORS
330
43
102
}
330
43
100
AcDbMaterial
  1
Global
 72
     1
 94
      127
  0
MLEADERSTYLE
  5
6C
102
{ACAD_REACTORS
330
6B
102
}
330
6B
100
AcDbMLeaderStyle
179
     2
170
     2
171
     1
172
     0
 90
        2
 40
0.0
 41
0.0
173
     1
 91
-1056964608
340
14
 92
       -2
290
     1
 42
0.09
291
     1
 43
0.36
  3
Standard
341
0
 44
0.18
300

342
11
174
     1
178
     6
175
     1
176
     0
 93
-1056964608
 45
0.18
292
     0
297
     0
 46
0.18
343
0
 94
-1056964608
 47
1.0
 49
1.0
140
1.0
293
     1
141
0.0
294
     1
177
     0
142
1.0
295
     0
296
     0
143
0.125
271
     0
272
     9
273
     9
298
     0
  0
MLINESTYLE
  5
18
102
{ACAD_REACTORS
330
17
102
}
330
17
100
AcDbMlineStyle
  2
Standard
 70
     0
  3

 62
   256
 51
90.0
 52
90.0
 71
     2
 49
0.5
 62
   256
  6
BYLAYER
 49
-0.5
 62
   256
  6
BYLAYER
  0
ACDBPLACEHOLDER
  5
F
102
{ACAD_REACTORS
330
E
102
}
330
E
  0
SCALE
  5
48
102
{ACAD_REACTORS
330
47
102
}
330
47
100
AcDbScale
 70
     0
300
1:1
140
1.0
141
1.0
290
     1
  0
SCALE
  5
49
102
{ACAD_REACTORS
330
47
102
}
330
47
100
AcDbScale
 70
     0
300
1:2
140
1.0
141
2.0
290
     0
  0
SCALE
  5
4A
102
{ACAD_REACTORS
330
47
102
}
330
47
100
AcDbScale
 70
     0
300
1:4
140
1.0
141
4.0
290
     0
  0
SCALE
  5
4B
102
{ACAD_REACTORS
330
47
102
}
330
47
100
AcDbScale
 70
     0
300
1:5
140
1.0
141
5.0
290
     0
  0
SCALE
  5
4C
102
{ACAD_REACTORS
330
47
102
}
330
47
100
AcDbScale
 70
     0
300
1:8
140
1.0
141
8.0
290
     0
  0
SCALE
  5
4D
102
{ACAD_REACTORS
330
47
102
}
330
47
100
AcDbScale
 70
     0
300
1:10
140
1.0
141
10.0
290
     0
  0
SCALE
  5
4E
102
{ACAD_REACTORS
330
47
102
}
330
47
100
AcDbScale
 70
     0
300
1:16
140
1.0
141
16.0
290
     0
  0
SCALE
  5
4F
102
{ACAD_REACTORS
330
47
102
}
330
47
100
AcDbScale
 70
     0
300
1:20
140
1.0
141
20.0
290
     0
  0
SCALE
  5
50
102
{ACAD_REACTORS
330
47
102
}
330
47
100
AcDbScale
 70
     0
300
1:30
140
1.0
141
30.0
290
     0
  0
SCALE
  5
51
102
{ACAD_REACTORS
330
47
102
}
330
47
100
AcDbScale
 70
     0
300
1:40
140
1.0
141
40.0
290
     0
  0
SCALE
  5
52
102
{ACAD_REACTORS
330
47
102
}
330
47
100
AcDbScale
 70
     0
300
1:50
140
1.0
141
50.0
290
     0
  0
SCALE
  5
53
102
{ACAD_REACTORS
330
47
102
}
330
47
100
AcDbScale
 70
     0
300
1:100
140
1.0
141
100.0
290
     0
  0
SCALE
  5
54
102
{ACAD_REACTORS
330
47
102
}
330
47
100
AcDbScale
 70
     0
300
2:1
140
2.0
141
1.0
290
     0
  0
SCALE
  5
55
102
{ACAD_REACTORS
330
47
102
}
330
47
100
AcDbScale
 70
     0
300
4:1
140
4.0
141
1.0
290
     0
  0
SCALE
  5
56
102
{ACAD_REACTORS
330
47
102
}
330
47
100
AcDbScale
 70
     0
300
8:1
140
8.0
141
1.0
290
     0
  0
SCALE
  5
57
102
{ACAD_REACTORS
330
47
102
}
330
47
100
AcDbScale
 70
     0
300
10:1
140
10.0
141
1.0
290
     0
  0
SCALE
  5
58
102
{ACAD_REACTORS
330
47
102
}
330
47
100
AcDbScale
 70
     0
300
100:1
140
100.0
141
1.0
290
     0
  0
SCALE
  5
59
102
{ACAD_REACTORS
330
47
102
}
330
47
100
AcDbScale
 70
     0
300
1/128" = 1'-0"
140
0.0078125
141
12.0
290
     0
  0
SCALE
  5
5A
102
{ACAD_REACTORS
330
47
102
}
330
47
100
AcDbScale
 70
     0
300
1/64" = 1'-0"
140
0.015625
141
12.0
290
     0
  0
SCALE
  5
5B
102
{ACAD_REACTORS
330
47
102
}
330
47
100
AcDbScale
 70
     0
300
1/32" = 1'-0"
140
0.03125
141
12.0
290
     0
  0
SCALE
  5
5C
102
{ACAD_REACTORS
330
47
102
}
330
47
100
AcDbScale
 70
     0
300
1/16" = 1'-0"
140
0.0625
141
12.0
290
     0
  0
SCALE
  5
5D
102
{ACAD_REACTORS
330
47
102
}
330
47
100
AcDbScale
 70
     0
300
3/32" = 1'-0"
140
0.09375
141
12.0
290
     0
  0
SCALE
  5
5E
102
{ACAD_REACTORS
330
47
102
}
330
47
100
AcDbScale
 70
     0
300
1/8" = 1'-0"
140
0.125
141
12.0
290
     0
  0
SCALE
  5
5F
102
{ACAD_REACTORS
330
47
102
}
330
47
100
AcDbScale
 70
     0
300
3/16" = 1'-0"
140
0.1875
141
12.0
290
     0
  0
SCALE
  5
60
102
{ACAD_REACTORS
330
47
102
}
330
47
100
AcDbScale
 70
     0
300
1/4" = 1'-0"
140
0.25
141
12.0
290
     0
  0
SCALE
  5
61
102
{ACAD_REACTORS
330
47
102
}
330
47
100
AcDbScale
 70
     0
300
3/8" = 1'-0"
140
0.375
141
12.0
290
     0
  0
SCALE
  5
62
102
{ACAD_REACTORS
330
47
102
}
330
47
100
AcDbScale
 70
     0
300
1/2" = 1'-0"
140
0.5
141
12.0
290
     0
  0
SCALE
  5
63
102
{ACAD_REACTORS
330
47
102
}
330
47
100
AcDbScale
 70
     0
300
3/4" = 1'-0"
140
0.75
141
12.0
290
     0
  0
SCALE
  5
64
102
{ACAD_REACTORS
330
47
102
}
330
47
100
AcDbScale
 70
     0
300
1" = 1'-0"
140
1.0
141
12.0
290
     0
  0
SCALE
  5
65
102
{ACAD_REACTORS
330
47
102
}
330
47
100
AcDbScale
 70
     0
300
1-1/2" = 1'-0"
140
1.5
141
12.0
290
     0
  0
SCALE
  5
66
102
{ACAD_REACTORS
330
47
102
}
330
47
100
AcDbScale
 70
     0
300
3" = 1'-0"
140
3.0
141
12.0
290
     0
  0
SCALE
  5
67
102
{ACAD_REACTORS
330
47
102
}
330
47
100
AcDbScale
 70
     0
300
6" = 1'-0"
140
6.0
141
12.0
290
     0
  0
SCALE
  5
68
102
{ACAD_REACTORS
330
47
102
}
330
47
100
AcDbScale
 70
     0
300
1'-0" = 1'-0"
140
12.0
141
12.0
290
     0
  0
TABLESTYLE
  5
6A
102
{ACAD_REACTORS
330
69
102
}
102
{ACAD_XDICTIONARY
360
18B
102
}
330
69
100
AcDbTableStyle
  3
Standard
 70
     0
 71
     0
 40
0.06
 41
0.06
280
     0
281
     0
  7
Standard
140
0.18
170
     2
 62
     0
 63
   257
283
     0
 90
        4
 91
        0
  1

274
    -2
284
     1
 64
     0
275
    -2
285
     1
 65
     0
276
    -2
286
     1
 66
     0
277
    -2
287
     1
 67
     0
278
    -2
288
     1
 68
     0
279
    -2
289
     1
 69
     0
  7
Standard
140
0.25
170
     5
 62
     0
 63
   257
283
     0
 90
        4
 91
        0
  1

274
    -2
284
     1
 64
     0
275
    -2
285
     1
 65
     0
276
    -2
286
     1
 66
     0
277
    -2
287
     1
 67
     0
278
    -2
288
     1
 68
     0
279
    -2
289
     1
 69
     0
  7
Standard
140
0.18
170
     5
 62
     0
 63
   257
283
     0
 90
        4
 91
        0
  1

274
    -2
284
     1
 64
     0
275
    -2
285
     1
 65
     0
276
    -2
286
     1
 66
     0
277
    -2
287
     1
 67
     0
278
    -2
288
     1
 68
     0
279
    -2
289
     1
 69
     0
  0
VISUALSTYLE
  5
2F
102
{ACAD_REACTORS
330
2A
102
}
330
2A
100
AcDbVisualStyle
  2
2dWireframe
 70
     4
177
     3
291
     0
 70
    58
 90
        0
176
     1
 90
        2
176
     1
 90
        0
176
     1
 90
        0
176
     1
 40
0.6
176
     1
 40
30.0
176
     1
 62
     7
420
 16777215
176
     1
 90
        1
176
     1
 90
        4
176
     1
 62
     7
176
     1
 62
   257
176
     1
 90
        1
176
     1
 90
        1
176
     1
 40
1.0
176
     1
 90
        0
176
     1
 62
   257
176
     1
 40
1.0
176
     1
 90
        1
176
     1
 90
        6
176
     1
 90
        2
176
     1
 62
     7
176
     1
 90
        5
176
     1
 90
        0
176
     1
 90
        0
176
     1
290
     0
176
     1
 90
        1
176
     1
 40
0.0
176
     1
 90
        0
176
     1
290
     1
176
     1
290
     1
176
     1
290
     0
176
     1
290
     0
176
     1
290
     0
176
     1
290
     0
176
     1
290
     0
176
     1
290
     0
176
     1
290
     0
176
     1
 90
       50
176
     1
 40
0.0
176
     1
 40
1.0
176
     1
 90
        0
176
     1
 62
    18
420
        0
176
     1
 90
       50
176
     1
 90
        3
176
     1
 62
     5
420
      255
176
     1
290
     0
176
     1
 90
       50
176
     1
 90
       50
176
     1
 90
       50
176
     1
290
     0
176
     1
 90
       50
176
     1
 62
   256
176
     0
 40
1.0
176
     0
 90
        2
176
     1
  1
strokes_ogs.tif
176
     1
290
     0
176
     1
 40
1.0
176
     1
 40
1.0
176
     1
  0
VISUALSTYLE
  5
32
102
{ACAD_REACTORS
330
2A
102
}
330
2A
100
AcDbVisualStyle
  2
Basic
 70
     7
177
     3
291
     1
 70
    58
 90
        1
176
     1
 90
        0
176
     1
 90
        1
176
     1
 90
        0
176
     1
 40
0.6
176
     1
 40
30.0
176
     1
 62
     7
420
 16777215
176
     1
 90
        0
176
     1
 90
        4
176
     1
 62
     7
176
     1
 62
   257
176
     1
 90
        1
176
     1
 90
        1
176
     1
 40
1.0
176
     1
 90
        8
176
     1
 62
     7
176
     1
 40
1.0
176
     1
 90
        1
176
     1
 90
        6
176
     1
 90
        2
176
     1
 62
     7
176
     1
 90
        5
176
     1
 90
        0
176
     1
 90
        0
176
     1
290
     0
176
     1
 90
        1
176
     1
 40
0.0
176
     1
 90
        0
176
     1
290
     0
176
     1
290
     1
176
     1
290
     1
176
     1
290
     0
176
     1
290
     0
176
     1
290
     0
176
     1
290
     0
176
     1
290
     0
176
     1
290
     0
176
     1
 90
       50
176
     1
 40
0.0
176
     1
 40
1.0
176
     1
 90
        0
176
     1
 62
    18
420
        0
176
     1
 90
       50
176
     1
 90
        3
176
     1
 62
     5
420
      255
176
     1
290
     0
176
     1
 90
       50
176
     1
 90
       50
176
     1
 90
       50
176
     1
290
     0
176
     1
 90
       50
176
     1
 62
   256
176
     0
 40
1.0
176
     0
 90
        2
176
     1
  1
strokes_ogs.tif
176
     1
290
     0
176
     1
 40
1.0
176
     1
 40
1.0
176
     1
  0
VISUALSTYLE
  5
36
102
{ACAD_REACTORS
330
2A
102
}
330
2A
100
AcDbVisualStyle
  2
Brighten
 70
    12
177
     3
291
     1
 70
    58
 90
        2
176
     1
 90
        2
176
     1
 90
        0
176
     1
 90
        0
176
     1
 40
0.6
176
     1
 40
30.0
176
     1
 62
     7
420
 16777215
176
     1
 90
        1
176
     1
 90
        4
176
     1
 62
     7
176
     1
 62
   257
176
     1
 90
        1
176
     1
 90
        1
176
     1
 40
1.0
176
     1
 90
        8
176
     1
 62
     7
176
     1
 40
1.0
176
     1
 90
        1
176
     1
 90
        6
176
     1
 90
        2
176
     1
 62
     7
176
     1
 90
        5
176
     1
 90
        0
176
     1
 90
        0
176
     1
290
     0
176
     1
 90
        1
176
     1
 40
50.0
176
     1
 90
        0
176
     1
290
     0
176
     1
290
     1
176
     1
290
     1
176
     1
290
     0
176
     1
290
     0
176
     1
290
     0
176
     1
290
     0
176
     1
290
     0
176
     1
290
     0
176
     1
 90
       50
176
     1
 40
0.0
176
     1
 40
1.0
176
     1
 90
        0
176
     1
 62
    18
420
        0
176
     1
 90
       50
176
     1
 90
        3
176
     1
 62
     5
420
      255
176
     1
290
     0
176
     1
 90
       50
176
     1
 90
       50
176
     1
 90
       50
176
     1
290
     0
176
     1
 90
       50
176
     1
 62
   256
176
     0
 40
1.0
176
     0
 90
        2
176
     1
  1
strokes_ogs.tif
176
     1
290
     0
176
     1
 40
1.0
176
     1
 40
1.0
176
     1
  0
VISUALSTYLE
  5
3A
102
{ACAD_REACTORS
330
2A
102
}
330
2A
100
AcDbVisualStyle
  2
ColorChange
 70
    16
177
     3
291
     1
 70
    58
 90
        2
176
     1
 90
        2
176
     1
 90
        3
176
     1
 90
        0
176
     1
 40
0.6
176
     1
 40
30.0
176
     1
 62
     8
420
  8421504
176
     1
 90
        1
176
     1
 90
        4
176
     1
 62
     7
176
     1
 62
   257
176
     1
 90
        1
176
     1
 90
        1
176
     1
 40
1.0
176
     1
 90
        8
176
     1
 62
     8
420
  8421504
176
     1
 40
1.0
176
     1
 90
        1
176
     1
 90
        6
176
     1
 90
        2
176
     1
 62
     7
176
     1
 90
        5
176
     1
 90
        0
176
     1
 90
        0
176
     1
290
     0
176
     1
 90
        1
176
     1
 40
0.0
176
     1
 90
        0
176
     1
290
     0
176
     1
290
     1
176
     1
290
     1
176
     1
290
     0
176
     1
290
     0
176
     1
290
     0
176
     1
290
     0
176
     1
290
     0
176
     1
290
     0
176
     1
 90
       50
176
     1
 40
0.0
176
     1
 40
1.0
176
     1
 90
        0
176
     1
 62
    18
420
        0
176
     1
 90
       50
176
     1
 90
        3
176
     1
 62
     5
420
      255
176
     1
290
     0
176
     1
 90
       50
176
     1
 90
       50
176
     1
 90
       50
176
     1
290
     0
176
     1
 90
       50
176
     1
 62
   256
176
     0
 40
1.0
176
     0
 90
        2
176
     1
  1
strokes_ogs.tif
176
     1
290
     0
176
     1
 40
1.0
176
     1
 40
1.0
176
     1
  0
VISUALSTYLE
  5
34
102
{ACAD_REACTORS
330
2A
102
}
330
2A
100
AcDbVisualStyle
  2
Conceptual
 70
     9
177
     3
291
     0
 70
    58
 90
        3
176
     1
 90
        2
176
     1
 90
        0
176
     1
 90
        0
176
     1
 40
0.6
176
     1
 40
30.0
176
     1
 62
     7
420
 16777215
176
     1
 90
        2
176
     1
 90
        2
176
     1
 62
     7
176
     1
 62
   257
176
     1
 90
        1
176
     1
 90
        1
176
     1
 40
179.0
176
     1
 90
        8
176
     1
 62
     7
176
     1
 40
1.0
176
     1
 90
        1
176
     1
 90
        6
176
     1
 90
        2
176
     1
 62
     7
176
     1
 90
        3
176
     1
 90
        0
176
     1
 90
        0
176
     1
290
     0
176
     1
 90
        1
176
     1
 40
0.0
176
     1
 90
        0
176
     1
290
     0
176
     1
290
     1
176
     1
290
     1
176
     1
290
     0
176
     1
290
     0
176
     1
290
     0
176
     1
290
     0
176
     1
290
     0
176
     1
290
     0
176
     1
 90
       50
176
     1
 40
0.0
176
     1
 40
1.0
176
     1
 90
        0
176
     1
 62
    18
420
        0
176
     1
 90
       50
176
     1
 90
        3
176
     1
 62
     5
420
      255
176
     1
290
     0
176
     1
 90
       50
176
     1
 90
       50
176
     1
 90
       50
176
     1
290
     0
176
     1
 90
       50
176
     1
 62
   256
176
     0
 40
1.0
176
     0
 90
        2
176
     1
  1
strokes_ogs.tif
176
     1
290
     0
176
     1
 40
1.0
176
     1
 40
1.0
176
     1
  0
VISUALSTYLE
  5
35
102
{ACAD_REACTORS
330
2A
102
}
330
2A
100
AcDbVisualStyle
  2
Dim
 70
    11
177
     3
291
     1
 70
    58
 90
        2
176
     1
 90
        2
176
     1
 90
        0
176
     1
 90
        0
176
     1
 40
0.6
176
     1
 40
30.0
176
     1
 62
     7
420
 16777215
176
     1
 90
        1
176
     1
 90
        4
176
     1
 62
     7
176
     1
 62
   257
176
     1
 90
        1
176
     1
 90
        1
176
     1
 40
1.0
176
     1
 90
        8
176
     1
 62
     7
176
     1
 40
1.0
176
     1
 90
        1
176
     1
 90
        6
176
     1
 90
        2
176
     1
 62
     7
176
     1
 90
        5
176
     1
 90
        0
176
     1
 90
        0
176
     1
290
     0
176
     1
 90
        1
176
     1
 40
-50.0
176
     1
 90
        0
176
     1
290
     0
176
     1
290
     1
176
     1
290
     1
176
     1
290
     0
176
     1
290
     0
176
     1
290
     0
176
     1
290
     0
176
     1
290
     0
176
     1
290
     0
176
     1
 90
       50
176
     1
 40
0.0
176
     1
 40
1.0
176
     1
 90
        0
176
     1
 62
    18
420
        0
176
     1
 90
       50
176
     1
 90
        3
176
     1
 62
     5
420
      255
176
     1
290
     0
176
     1
 90
       50
176
     1
 90
       50
176
     1
 90
       50
176
     1
290
     0
176
     1
 90
       50
176
     1
 62
   256
176
     0
 40
1.0
176
     0
 90
        2
176
     1
  1
strokes_ogs.tif
176
     1
290
     0
176
     1
 40
1.0
176
     1
 40
1.0
176
     1
  0
VISUALSTYLE
  5
3D
102
{ACAD_REACTORS
330
2A
102
}
330
2A
100
AcDbVisualStyle
  2
EdgeColorOff
 70
    22
177
     3
291
     1
 70
    58
 90
        2
176
     0
 90
        2
176
     0
 90
        0
176
     0
 90
        0
176
     0
 40
0.6
176
     0
 40
30.0
176
     0
 62
     7
420
 16777215
176
     0
 90
        1
176
     0
 90
        4
176
     0
 62
     7
176
     0
 62
   257
176
     0
 90
        1
176
     0
 90
        1
176
     0
 40
1.0
176
     0
 90
        8
176
     2
 62
     7
176
     0
 40
1.0
176
     0
 90
        1
176
     0
 90
        6
176
     0
 90
        2
176
     0
 62
     7
176
     0
 90
        5
176
     0
 90
        0
176
     0
 90
        0
176
     0
290
     0
176
     0
 90
        1
176
     0
 40
0.0
176
     0
 90
        0
176
     0
290
     0
176
     0
290
     1
176
     0
290
     1
176
     0
290
     0
176
     0
290
     0
176
     0
290
     0
176
     0
290
     0
176
     0
290
     0
176
     0
290
     0
176
     0
 90
       50
176
     0
 40
0.0
176
     0
 40
1.0
176
     0
 90
        0
176
     0
 62
    18
420
        0
176
     0
 90
       50
176
     0
 90
        3
176
     0
 62
     5
420
      255
176
     0
290
     0
176
     0
 90
       50
176
     0
 90
       50
176
     0
 90
       50
176
     0
290
     0
176
     0
 90
       50
176
     0
 62
   256
176
     0
 40
1.0
176
     0
 90
        2
176
     0
  1
strokes_ogs.tif
176
     0
290
     0
176
     0
 40
1.0
176
     0
 40
1.0
176
     0
  0
VISUALSTYLE
  5
39
102
{ACAD_REACTORS
330
2A
102
}
330
2A
100
AcDbVisualStyle
  2
Facepattern
 70
    15
177
     3
291
     1
 70
    58
 90
        2
176
     1
 90
        2
176
     1
 90
        0
176
     1
 90
        0
176
     1
 40
0.6
176
     1
 40
30.0
176
     1
 62
     7
420
 16777215
176
     1
 90
        1
176
     1
 90
        4
176
     1
 62
     7
176
     1
 62
   257
176
     1
 90
        1
176
     1
 90
        1
176
     1
 40
1.0
176
     1
 90
        8
176
     1
 62
     7
176
     1
 40
1.0
176
     1
 90
        1
176
     1
 90
        6
176
     1
 90
        2
176
     1
 62
     7
176
     1
 90
        5
176
     1
 90
        0
176
     1
 90
        0
176
     1
290
     0
176
     1
 90
        1
176
     1
 40
0.0
176
     1
 90
        0
176
     1
290
     0
176
     1
290
     1
176
     1
290
     1
176
     1
290
     0
176
     1
290
     0
176
     1
290
     0
176
     1
290
     0
176
     1
290
     0
176
     1
290
     0
176
     1
 90
       50
176
     1
 40
0.0
176
     1
 40
1.0
176
     1
 90
        0
176
     1
 62
    18
420
        0
176
     1
 90
       50
176
     1
 90
        3
176
     1
 62
     5
420
      255
176
     1
290
     0
176
     1
 90
       50
176
     1
 90
       50
176
     1
 90
       50
176
     1
290
     0
176
     1
 90
       50
176
     1
 62
   256
176
     0
 40
1.0
176
     0
 90
        2
176
     1
  1
strokes_ogs.tif
176
     1
290
     0
176
     1
 40
1.0
176
     1
 40
1.0
176
     1
  0
VISUALSTYLE
  5
2B
102
{ACAD_REACTORS
330
2A
102
}
330
2A
100
AcDbVisualStyle
  2
Flat
 70
     0
177
     3
291
     1
 70
    58
 90
        2
176
     1
 90
        1
176
     1
 90
        1
176
     1
 90
        2
176
     1
 40
0.6
176
     1
 40
30.0
176
     1
 62
     7
420
 16777215
176
     1
 90
        0
176
     1
 90
        0
176
     1
 62
     7
176
     1
 62
   257
176
     1
 90
        1
176
     1
 90
        1
176
     1
 40
1.0
176
     1
 90
        8
176
     1
 62
     7
176
     1
 40
1.0
176
     1
 90
        1
176
     1
 90
        6
176
     1
 90
        2
176
     1
 62
     7
176
     1
 90
        5
176
     1
 90
        0
176
     1
 90
        0
176
     1
290
     0
176
     1
 90
       13
176
     1
 40
0.0
176
     1
 90
        0
176
     1
290
     0
176
     1
290
     1
176
     1
290
     1
176
     1
290
     0
176
     1
290
     0
176
     1
290
     0
176
     1
290
     0
176
     1
290
     0
176
     1
290
     0
176
     1
 90
       50
176
     1
 40
0.0
176
     1
 40
1.0
176
     1
 90
        0
176
     1
 62
    18
420
        0
176
     1
 90
       50
176
     1
 90
        3
176
     1
 62
     5
420
      255
176
     1
290
     0
176
     1
 90
       50
176
     1
 90
       50
176
     1
 90
       50
176
     1
290
     0
176
     1
 90
       50
176
     1
 62
   256
176
     0
 40
1.0
176
     0
 90
        2
176
     1
  1
strokes_ogs.tif
176
     1
290
     0
176
     1
 40
1.0
176
     1
 40
1.0
176
     1
  0
VISUALSTYLE
  5
2C
102
{ACAD_REACTORS
330
2A
102
}
330
2A
100
AcDbVisualStyle
  2
FlatWithEdges
 70
     1
177
     3
291
     1
 70
    58
 90
        2
176
     1
 90
        1
176
     1
 90
        1
176
     1
 90
        2
176
     1
 40
0.6
176
     1
 40
30.0
176
     1
 62
     7
420
 16777215
176
     1
 90
        1
176
     1
 90
        0
176
     1
 62
     7
176
     1
 62
   257
176
     1
 90
        1
176
     1
 90
        1
176
     1
 40
1.0
176
     1
 90
        0
176
     1
 62
   257
176
     1
 40
1.0
176
     1
 90
        1
176
     1
 90
        6
176
     1
 90
        2
176
     1
 62
     7
176
     1
 90
        5
176
     1
 90
        0
176
     1
 90
        0
176
     1
290
     0
176
     1
 90
       13
176
     1
 40
0.0
176
     1
 90
        0
176
     1
290
     0
176
     1
290
     1
176
     1
290
     1
176
     1
290
     0
176
     1
290
     0
176
     1
290
     0
176
     1
290
     0
176
     1
290
     0
176
     1
290
     0
176
     1
 90
       50
176
     1
 40
0.0
176
     1
 40
1.0
176
     1
 90
        0
176
     1
 62
    18
420
        0
176
     1
 90
       50
176
     1
 90
        3
176
     1
 62
     5
420
      255
176
     1
290
     0
176
     1
 90
       50
176
     1
 90
       50
176
     1
 90
       50
176
     1
290
     0
176
     1
 90
       50
176
     1
 62
   256
176
     0
 40
1.0
176
     0
 90
        2
176
     1
  1
strokes_ogs.tif
176
     1
290
     0
176
     1
 40
1.0
176
     1
 40
1.0
176
     1
  0
VISUALSTYLE
  5
2D
102
{ACAD_REACTORS
330
2A
102
}
330
2A
100
AcDbVisualStyle
  2
Gouraud
 70
     2
177
     3
291
     1
 70
    58
 90
        2
176
     1
 90
        2
176
     1
 90
        1
176
     1
 90
        2
176
     1
 40
0.6
176
     1
 40
30.0
176
     1
 62
     7
420
 16777215
176
     1
 90
        0
176
     1
 90
        0
176
     1
 62
     7
176
     1
 62
   257
176
     1
 90
        1
176
     1
 90
        1
176
     1
 40
1.0
176
     1
 90
        0
176
     1
 62
     7
176
     1
 40
1.0
176
     1
 90
        1
176
     1
 90
        6
176
     1
 90
        2
176
     1
 62
     7
176
     1
 90
        5
176
     1
 90
        0
176
     1
 90
        0
176
     1
290
     0
176
     1
 90
       13
176
     1
 40
0.0
176
     1
 90
        0
176
     1
290
     0
176
     1
290
     1
176
     1
290
     1
176
     1
290
     0
176
     1
290
     0
176
     1
290
     0
176
     1
290
     0
176
     1
290
     0
176
     1
290
     0
176
     1
 90
       50
176
     1
 40
0.0
176
     1
 40
1.0
176
     1
 90
        0
176
     1
 62
    18
420
        0
176
     1
 90
       50
176
     1
 90
        3
176
     1
 62
     5
420
      255
176
     1
290
     0
176
     1
 90
       50
176
     1
 90
       50
176
     1
 90
       50
176
     1
290
     0
176
     1
 90
       50
176
     1
 62
   256
176
     0
 40
1.0
176
     0
 90
        2
176
     1
  1
strokes_ogs.tif
176
     1
290
     0
176
     1
 40
1.0
176
     1
 40
1.0
176
     1
  0
VISUALSTYLE
  5
2E
102
{ACAD_REACTORS
330
2A
102
}
330
2A
100
AcDbVisualStyle
  2
GouraudWithEdges
 70
     3
177
     3
291
     1
 70
    58
 90
        2
176
     1
 90
        2
176
     1
 90
        1
176
     1
 90
        2
176
     1
 40
0.6
176
     1
 40
30.0
176
     1
 62
     7
420
 16777215
176
     1
 90
        1
176
     1
 90
        0
176
     1
 62
     7
176
     1
 62
   257
176
     1
 90
        1
176
     1
 90
        1
176
     1
 40
1.0
176
     1
 90
        0
176
     1
 62
   257
176
     1
 40
1.0
176
     1
 90
        1
176
     1
 90
        6
176
     1
 90
        2
176
     1
 62
     7
176
     1
 90
        5
176
     1
 90
        0
176
     1
 90
        0
176
     1
290
     0
176
     1
 90
       13
176
     1
 40
0.0
176
     1
 90
        0
176
     1
290
     0
176
     1
290
     1
176
     1
290
     1
176
     1
290
     0
176
     1
290
     0
176
     1
290
     0
176
     1
290
     0
176
     1
290
     0
176
     1
290
     0
176
     1
 90
       50
176
     1
 40
0.0
176
     1
 40
1.0
176
     1
 90
        0
176
     1
 62
    18
420
        0
176
     1
 90
       50
176
     1
 90
        3
176
     1
 62
     5
420
      255
176
     1
290
     0
176
     1
 90
       50
176
     1
 90
       50
176
     1
 90
       50
176
     1
290
     0
176
     1
 90
       50
176
     1
 62
   256
176
     0
 40
1.0
176
     0
 90
        2
176
     1
  1
strokes_ogs.tif
176
     1
290
     0
176
     1
 40
1.0
176
     1
 40
1.0
176
     1
  0
VISUALSTYLE
  5
31
102
{ACAD_REACTORS
330
2A
102
}
330
2A
100
AcDbVisualStyle
  2
Hidden
 70
     6
177
     3
291
     0
 70
    58
 90
        1
176
     1
 90
        2
176
     1
 90
        2
176
     1
 90
        0
176
     1
 40
0.6
176
     1
 40
30.0
176
     1
 62
     7
420
 16777215
176
     1
 90
        2
176
     1
 90
        2
176
     1
 62
     7
176
     1
 62
   257
176
     1
 90
        2
176
     1
 90
        1
176
     1
 40
40.0
176
     1
 90
        0
176
     1
 62
   257
176
     1
 40
1.0
176
     1
 90
        1
176
     1
 90
        6
176
     1
 90
        2
176
     1
 62
     7
176
     1
 90
        3
176
     1
 90
        0
176
     1
 90
        0
176
     1
290
     0
176
     1
 90
        1
176
     1
 40
0.0
176
     1
 90
        0
176
     1
290
     0
176
     1
290
     1
176
     1
290
     1
176
     1
290
     0
176
     1
290
     0
176
     1
290
     0
176
     1
290
     0
176
     1
290
     0
176
     1
290
     0
176
     1
 90
       50
176
     1
 40
0.0
176
     1
 40
1.0
176
     1
 90
        0
176
     1
 62
    18
420
        0
176
     1
 90
       50
176
     1
 90
        3
176
     1
 62
     5
420
      255
176
     1
290
     0
176
     1
 90
       50
176
     1
 90
       50
176
     1
 90
       50
176
     1
290
     0
176
     1
 90
       50
176
     1
 62
   256
176
     0
 40
1.0
176
     0
 90
        2
176
     1
  1
strokes_ogs.tif
176
     1
290
     0
176
     1
 40
1.0
176
     1
 40
1.0
176
     1
  0
VISUALSTYLE
  5
3B
102
{ACAD_REACTORS
330
2A
102
}
330
2A
100
AcDbVisualStyle
  2
JitterOff
 70
    20
177
     3
291
     1
 70
    58
 90
        2
176
     0
 90
        2
176
     0
 90
        0
176
     0
 90
        0
176
     0
 40
0.6
176
     0
 40
30.0
176
     0
 62
     7
420
 16777215
176
     0
 90
        1
176
     0
 90
        4
176
     0
 62
     7
176
     0
 62
   257
176
     0
 90
        1
176
     0
 90
        1
176
     0
 40
1.0
176
     0
 90
       10
176
     2
 62
     7
176
     0
 40
1.0
176
     0
 90
        1
176
     0
 90
        6
176
     0
 90
        2
176
     0
 62
     7
176
     0
 90
        5
176
     0
 90
        0
176
     0
 90
        0
176
     0
290
     0
176
     0
 90
        1
176
     0
 40
0.0
176
     0
 90
        0
176
     0
290
     0
176
     0
290
     1
176
     0
290
     1
176
     0
290
     0
176
     0
290
     0
176
     0
290
     0
176
     0
290
     0
176
     0
290
     0
176
     0
290
     0
176
     0
 90
       50
176
     0
 40
0.0
176
     0
 40
1.0
176
     0
 90
        0
176
     0
 62
    18
420
        0
176
     0
 90
       50
176
     0
 90
        3
176
     0
 62
     5
420
      255
176
     0
290
     0
176
     0
 90
       50
176
     0
 90
       50
176
     0
 90
       50
176
     0
290
     0
176
     0
 90
       50
176
     0
 62
   256
176
     0
 40
1.0
176
     0
 90
        2
176
     0
  1
strokes_ogs.tif
176
     0
290
     0
176
     0
 40
1.0
176
     0
 40
1.0
176
     0
  0
VISUALSTYLE
  5
38
102
{ACAD_REACTORS
330
2A
102
}
330
2A
100
AcDbVisualStyle
  2
Linepattern
 70
    14
177
     3
291
     1
 70
    58
 90
        2
176
     1
 90
        2
176
     1
 90
        0
176
     1
 90
        0
176
     1
 40
0.6
176
     1
 40
30.0
176
     1
 62
     7
420
 16777215
176
     1
 90
        1
176
     1
 90
        4
176
     1
 62
     7
176
     1
 62
   257
176
     1
 90
        7
176
     1
 90
        7
176
     1
 40
1.0
176
     1
 90
        8
176
     1
 62
     7
176
     1
 40
1.0
176
     1
 90
        1
176
     1
 90
        6
176
     1
 90
        2
176
     1
 62
     7
176
     1
 90
        5
176
     1
 90
        0
176
     1
 90
        0
176
     1
290
     0
176
     1
 90
        1
176
     1
 40
0.0
176
     1
 90
        0
176
     1
290
     0
176
     1
290
     1
176
     1
290
     1
176
     1
290
     0
176
     1
290
     0
176
     1
290
     0
176
     1
290
     0
176
     1
290
     0
176
     1
290
     0
176
     1
 90
       50
176
     1
 40
0.0
176
     1
 40
1.0
176
     1
 90
        0
176
     1
 62
    18
420
        0
176
     1
 90
       50
176
     1
 90
        3
176
     1
 62
     5
420
      255
176
     1
290
     0
176
     1
 90
       50
176
     1
 90
       50
176
     1
 90
       50
176
     1
290
     0
176
     1
 90
       50
176
     1
 62
   256
176
     0
 40
1.0
176
     0
 90
        2
176
     1
  1
strokes_ogs.tif
176
     1
290
     0
176
     1
 40
1.0
176
     1
 40
1.0
176
     1
  0
VISUALSTYLE
  5
3C
102
{ACAD_REACTORS
330
2A
102
}
330
2A
100
AcDbVisualStyle
  2
OverhangOff
 70
    21
177
     3
291
     1
 70
    58
 90
        2
176
     0
 90
        2
176
     0
 90
        0
176
     0
 90
        0
176
     0
 40
0.6
176
     0
 40
30.0
176
     0
 62
     7
420
 16777215
176
     0
 90
        1
176
     0
 90
        4
176
     0
 62
     7
176
     0
 62
   257
176
     0
 90
        1
176
     0
 90
        1
176
     0
 40
1.0
176
     0
 90
        9
176
     2
 62
     7
176
     0
 40
1.0
176
     0
 90
        1
176
     0
 90
        6
176
     0
 90
        2
176
     0
 62
     7
176
     0
 90
        5
176
     0
 90
        0
176
     0
 90
        0
176
     0
290
     0
176
     0
 90
        1
176
     0
 40
0.0
176
     0
 90
        0
176
     0
290
     0
176
     0
290
     1
176
     0
290
     1
176
     0
290
     0
176
     0
290
     0
176
     0
290
     0
176
     0
290
     0
176
     0
290
     0
176
     0
290
     0
176
     0
 90
       50
176
     0
 40
0.0
176
     0
 40
1.0
176
     0
 90
        0
176
     0
 62
    18
420
        0
176
     0
 90
       50
176
     0
 90
        3
176
     0
 62
     5
420
      255
176
     0
290
     0
176
     0
 90
       50
176
     0
 90
       50
176
     0
 90
       50
176
     0
290
     0
176
     0
 90
       50
176
     0
 62
   256
176
     0
 40
1.0
176
     0
 90
        2
176
     0
  1
strokes_ogs.tif
176
     0
290
     0
176
     0
 40
1.0
176
     0
 40
1.0
176
     0
  0
VISUALSTYLE
  5
33
102
{ACAD_REACTORS
330
2A
102
}
330
2A
100
AcDbVisualStyle
  2
Realistic
 70
     8
177
     3
291
     0
 70
    58
 90
        2
176
     1
 90
        3
176
     1
 90
        0
176
     1
 90
        2
176
     1
 40
0.6
176
     1
 40
30.0
176
     1
 62
     7
420
 16777215
176
     1
 90
        0
176
     1
 90
        0
176
     1
 62
     7
176
     1
 62
   257
176
     1
 90
        1
176
     1
 90
        1
176
     1
 40
1.0
176
     1
 90
        8
176
     1
 62
   257
176
     1
 40
1.0
176
     1
 90
        1
176
     1
 90
        6
176
     1
 90
        2
176
     1
 62
     7
176
     1
 90
        3
176
     1
 90
        0
176
     1
 90
        0
176
     1
290
     0
176
     1
 90
       13
176
     1
 40
0.0
176
     1
 90
        0
176
     1
290
     0
176
     1
290
     1
176
     1
290
     1
176
     1
290
     0
176
     1
290
     0
176
     1
290
     0
176
     1
290
     0
176
     1
290
     0
176
     1
290
     0
176
     1
 90
       50
176
     1
 40
0.0
176
     1
 40
1.0
176
     1
 90
        0
176
     1
 62
    18
420
        0
176
     1
 90
       50
176
     1
 90
        3
176
     1
 62
     5
420
      255
176
     1
290
     0
176
     1
 90
       50
176
     1
 90
       50
176
     1
 90
       50
176
     1
290
     0
176
     1
 90
       50
176
     1
 62
   256
176
     0
 40
1.0
176
     0
 90
        2
176
     1
  1
strokes_ogs.tif
176
     1
290
     0
176
     1
 40
1.0
176
     1
 40
1.0
176
     1
  0
VISUALSTYLE
  5
42
102
{ACAD_REACTORS
330
2A
102
}
330
2A
100
AcDbVisualStyle
  2
Shaded
 70
    27
177
     3
291
     0
 70
    58
 90
        2
176
     1
 90
        2
176
     1
 90
        1
176
     1
 90
        2
176
     1
 40
0.6
176
     1
 40
30.0
176
     1
 62
     7
420
 16777215
176
     1
 90
        0
176
     1
 90
        4
176
     1
 62
     7
176
     1
 62
   257
176
     1
 90
        1
176
     1
 90
        1
176
     1
 40
1.0
176
     1
 90
        8
176
     1
 62
   257
176
     1
 40
1.0
176
     1
 90
        1
176
     1
 90
        6
176
     1
 90
        2
176
     1
 62
     8
420
  7895160
176
     1
 90
        3
176
     1
 90
        0
176
     1
 90
        0
176
     1
290
     0
176
     1
 90
        5
176
     1
 40
0.0
176
     1
 90
        0
176
     1
290
     0
176
     1
290
     1
176
     1
290
     1
176
     1
290
     0
176
     1
290
     0
176
     1
290
     0
176
     1
290
     0
176
     1
290
     0
176
     1
290
     0
176
     1
 90
       50
176
     1
 40
0.0
176
     1
 40
1.0
176
     1
 90
        0
176
     1
 62
    18
420
        0
176
     1
 90
       50
176
     1
 90
        3
176
     1
 62
     5
420
      255
176
     1
290
     0
176
     1
 90
       50
176
     1
 90
       50
176
     1
 90
       50
176
     1
290
     0
176
     1
 90
       50
176
     1
 62
   256
176
     0
 40
1.0
176
     0
 90
        2
176
     1
  1
strokes_ogs.tif
176
     1
290
     0
176
     1
 40
1.0
176
     1
 40
1.0
176
     1
  0
VISUALSTYLE
  5
41
102
{ACAD_REACTORS
330
2A
102
}
330
2A
100
AcDbVisualStyle
  2
Shaded with edges
 70
    26
177
     3
291
     0
 70
    58
 90
        2
176
     1
 90
        2
176
     1
 90
        1
176
     1
 90
        2
176
     1
 40
0.6
176
     1
 40
30.0
176
     1
 62
     7
420
 16777215
176
     1
 90
        1
176
     1
 90
       10
176
     1
 62
     7
176
     1
 62
   257
176
     1
 90
        2
176
     1
 90
        1
176
     1
 40
1.0
176
     1
 90
        8
176
     1
 62
   257
176
     1
 40
1.0
176
     1
 90
        1
176
     1
 90
        6
176
     1
 90
        2
176
     1
 62
     7
176
     1
 90
        3
176
     1
 90
        0
176
     1
 90
        0
176
     1
290
     0
176
     1
 90
        5
176
     1
 40
0.0
176
     1
 90
        0
176
     1
290
     0
176
     1
290
     1
176
     1
290
     1
176
     1
290
     0
176
     1
290
     0
176
     1
290
     0
176
     1
290
     0
176
     1
290
     0
176
     1
290
     0
176
     1
 90
       50
176
     1
 40
0.0
176
     1
 40
1.0
176
     1
 90
        0
176
     1
 62
    18
420
        0
176
     1
 90
       50
176
     1
 90
        3
176
     1
 62
     5
420
      255
176
     1
290
     0
176
     1
 90
       50
176
     1
 90
       50
176
     1
 90
       50
176
     1
290
     0
176
     1
 90
       50
176
     1
 62
   256
176
     0
 40
1.0
176
     0
 90
        2
176
     1
  1
strokes_ogs.tif
176
     1
290
     0
176
     1
 40
1.0
176
     1
 40
1.0
176
     1
  0
VISUALSTYLE
  5
3E
102
{ACAD_REACTORS
330
2A
102
}
330
2A
100
AcDbVisualStyle
  2
Shades of Gray
 70
    23
177
     3
291
     0
 70
    58
 90
        2
176
     1
 90
        2
176
     1
 90
        3
176
     1
 90
        0
176
     1
 40
0.6
176
     1
 40
30.0
176
     1
 62
     7
420
 16777215
176
     1
 90
        2
176
     1
 90
        2
176
     1
 62
     7
176
     1
 62
     7
176
     1
 90
        1
176
     1
 90
        1
176
     1
 40
40.0
176
     1
 90
        8
176
     1
 62
     7
176
     1
 40
1.0
176
     1
 90
        1
176
     1
 90
        6
176
     1
 90
        2
176
     1
 62
     7
176
     1
 90
        3
176
     1
 90
        0
176
     1
 90
        0
176
     1
290
     0
176
     1
 90
        1
176
     1
 40
0.0
176
     1
 90
        0
176
     1
290
     0
176
     1
290
     1
176
     1
290
     1
176
     1
290
     0
176
     1
290
     0
176
     1
290
     0
176
     1
290
     0
176
     1
290
     0
176
     1
290
     0
176
     1
 90
       50
176
     1
 40
0.0
176
     1
 40
1.0
176
     1
 90
        0
176
     1
 62
    18
420
        0
176
     1
 90
       50
176
     1
 90
        3
176
     1
 62
     5
420
      255
176
     1
290
     0
176
     1
 90
       50
176
     1
 90
       50
176
     1
 90
       50
176
     1
290
     0
176
     1
 90
       50
176
     1
 62
   256
176
     0
 40
1.0
176
     0
 90
        2
176
     1
  1
strokes_ogs.tif
176
     1
290
     0
176
     1
 40
1.0
176
     1
 40
1.0
176
     1
  0
VISUALSTYLE
  5
3F
102
{ACAD_REACTORS
330
2A
102
}
330
2A
100
AcDbVisualStyle
  2
Sketchy
 70
    24
177
     3
291
     0
 70
    58
 90
        1
176
     1
 90
        2
176
     1
 90
        2
176
     1
 90
        0
176
     1
 40
0.6
176
     1
 40
30.0
176
     1
 62
     7
420
 16777215
176
     1
 90
        2
176
     1
 90
        2
176
     1
 62
     7
176
     1
 62
     7
176
     1
 90
        1
176
     1
 90
        1
176
     1
 40
40.0
176
     1
 90
       11
176
     1
 62
     7
176
     1
 40
1.0
176
     1
 90
        1
176
     1
 90
        6
176
     1
 90
        2
176
     1
 62
     7
176
     1
 90
        6
176
     1
 90
        0
176
     1
 90
        0
176
     1
290
     0
176
     1
 90
        1
176
     1
 40
0.0
176
     1
 90
        0
176
     1
290
     0
176
     1
290
     1
176
     1
290
     1
176
     1
290
     0
176
     1
290
     0
176
     1
290
     0
176
     1
290
     0
176
     1
290
     0
176
     1
290
     0
176
     1
 90
       50
176
     1
 40
0.0
176
     1
 40
1.0
176
     1
 90
        0
176
     1
 62
    18
420
        0
176
     1
 90
       50
176
     1
 90
        3
176
     1
 62
     5
420
      255
176
     1
290
     0
176
     1
 90
       50
176
     1
 90
       50
176
     1
 90
       50
176
     1
290
     0
176
     1
 90
       50
176
     1
 62
   256
176
     0
 40
1.0
176
     0
 90
        2
176
     1
  1
strokes_ogs.tif
176
     1
290
     0
176
     1
 40
1.0
176
     1
 40
1.0
176
     1
  0
VISUALSTYLE
  5
37
102
{ACAD_REACTORS
330
2A
102
}
330
2A
100
AcDbVisualStyle
  2
Thicken
 70
    13
177
     3
291
     1
 70
    58
 90
        2
176
     1
 90
        2
176
     1
 90
        0
176
     1
 90
        0
176
     1
 40
0.6
176
     1
 40
30.0
176
     1
 62
     7
420
 16777215
176
     1
 90
        1
176
     1
 90
        4
176
     1
 62
     7
176
     1
 62
   257
176
     1
 90
        1
176
     1
 90
        1
176
     1
 40
1.0
176
     1
 90
       12
176
     1
 62
     7
176
     1
 40
1.0
176
     1
 90
        1
176
     1
 90
        6
176
     1
 90
        2
176
     1
 62
     7
176
     1
 90
        5
176
     1
 90
        0
176
     1
 90
        0
176
     1
290
     0
176
     1
 90
        1
176
     1
 40
0.0
176
     1
 90
        0
176
     1
290
     0
176
     1
290
     1
176
     1
290
     1
176
     1
290
     0
176
     1
290
     0
176
     1
290
     0
176
     1
290
     0
176
     1
290
     0
176
     1
290
     0
176
     1
 90
       50
176
     1
 40
0.0
176
     1
 40
1.0
176
     1
 90
        0
176
     1
 62
    18
420
        0
176
     1
 90
       50
176
     1
 90
        3
176
     1
 62
     5
420
      255
176
     1
290
     0
176
     1
 90
       50
176
     1
 90
       50
176
     1
 90
       50
176
     1
290
     0
176
     1
 90
       50
176
     1
 62
   256
176
     0
 40
1.0
176
     0
 90
        2
176
     1
  1
strokes_ogs.tif
176
     1
290
     0
176
     1
 40
1.0
176
     1
 40
1.0
176
     1
  0
VISUALSTYLE
  5
30
102
{ACAD_REACTORS
330
2A
102
}
330
2A
100
AcDbVisualStyle
  2
Wireframe
 70
     5
177
     3
291
     0
 70
    58
 90
        0
176
     1
 90
        2
176
     1
 90
        0
176
     1
 90
        0
176
     1
 40
0.6
176
     1
 40
30.0
176
     1
 62
     7
420
 16777215
176
     1
 90
        1
176
     1
 90
        4
176
     1
 62
     7
176
     1
 62
   257
176
     1
 90
        1
176
     1
 90
        1
176
     1
 40
1.0
176
     1
 90
        0
176
     1
 62
   257
176
     1
 40
1.0
176
     1
 90
        1
176
     1
 90
        6
176
     1
 90
        2
176
     1
 62
     7
176
     1
 90
        3
176
     1
 90
        0
176
     1
 90
        0
176
     1
290
     0
176
     1
 90
        1
176
     1
 40
0.0
176
     1
 90
        0
176
     1
290
     0
176
     1
290
     1
176
     1
290
     1
176
     1
290
     0
176
     1
290
     0
176
     1
290
     0
176
     1
290
     0
176
     1
290
     0
176
     1
290
     0
176
     1
 90
       50
176
     1
 40
0.0
176
     1
 40
1.0
176
     1
 90
        0
176
     1
 62
    18
420
        0
176
     1
 90
       50
176
     1
 90
        3
176
     1
 62
     5
420
      255
176
     1
290
     0
176
     1
 90
       50
176
     1
 90
       50
176
     1
 90
       50
176
     1
290
     0
176
     1
 90
       50
176
     1
 62
   256
176
     0
 40
1.0
176
     0
 90
        2
176
     1
  1
strokes_ogs.tif
176
     1
290
     0
176
     1
 40
1.0
176
     1
 40
1.0
176
     1
  0
VISUALSTYLE
  5
40
102
{ACAD_REACTORS
330
2A
102
}
330
2A
100
AcDbVisualStyle
  2
X-Ray
 70
    25
177
     3
291
     0
 70
    58
 90
        2
176
     1
 90
        2
176
     1
 90
        1
176
     1
 90
        1
176
     1
 40
0.5
176
     1
 40
30.0
176
     1
 62
     7
420
 16777215
176
     1
 90
        1
176
     1
 90
        0
176
     1
 62
     7
176
     1
 62
   257
176
     1
 90
        1
176
     1
 90
        1
176
     1
 40
1.0
176
     1
 90
        8
176
     1
 62
     7
176
     1
 40
1.0
176
     1
 90
        1
176
     1
 90
        6
176
     1
 90
        2
176
     1
 62
     7
176
     1
 90
        3
176
     1
 90
        0
176
     1
 90
        0
176
     1
290
     0
176
     1
 90
       13
176
     1
 40
0.0
176
     1
 90
        0
176
     1
290
     0
176
     1
290
     1
176
     1
290
     1
176
     1
290
     0
176
     1
290
     0
176
     1
290
     0
176
     1
290
     0
176
     1
290
     0
176
     1
290
     0
176
     1
 90
       50
176
     1
 40
0.0
176
     1
 40
1.0
176
     1
 90
        0
176
     1
 62
    18
420
        0
176
     1
 90
       50
176
     1
 90
        3
176
     1
 62
     5
420
      255
176
     1
290
     0
176
     1
 90
       50
176
     1
 90
       50
176
     1
 90
       50
176
     1
290
     0
176
     1
 90
       50
176
     1
 62
   256
176
     0
 40
1.0
176
     0
 90
        2
176
     1
  1
strokes_ogs.tif
176
     1
290
     0
176
     1
 40
1.0
176
     1
 40
1.0
176
     1
  0
DICTIONARYVAR
  5
18A
102
{ACAD_REACTORS
330
189
102
}
330
189
100
DictionaryVariables
280
     0
  1
1:1
  0
DICTIONARYVAR
  5
18F
102
{ACAD_REACTORS
330
189
102
}
330
189
100
DictionaryVariables
280
     0
  1
Standard
  0
DICTIONARYVAR
  5
18E
102
{ACAD_REACTORS
330
189
102
}
330
189
100
DictionaryVariables
280
     0
  1
Standard
  0
DICTIONARY
  5
18B
330
6A
100
AcDbDictionary
280
     1
281
     1
  3
ACAD_ROUNDTRIP_2008_TABLESTYLE_CELLSTYLEMAP
360
18C
  0
CELLSTYLEMAP
  5
18C
102
{ACAD_REACTORS
330
18B
102
}
330
18B
100
AcDbCellStyleMap
 90
        3
300
CELLSTYLE
  1
TABLEFORMAT_BEGIN
 90
        5
170
     1
 91
        0
 92
    32768
 62
   257
 93
        1
300
CONTENTFORMAT
  1
CONTENTFORMAT_BEGIN
 90
        0
 91
        0
 92
        4
 93
        0
300

 40
0.0
140
1.0
 94
        5
 62
     0
340
11
144
0.25
309
CONTENTFORMAT_END
171
     1
301
MARGIN
  1
CELLMARGIN_BEGIN
 40
0.06
 40
0.06
 40
0.06
 40
0.06
 40
0.06
 40
0.06
309
CELLMARGIN_END
 94
        6
 95
        1
302
GRIDFORMAT
  1
GRIDFORMAT_BEGIN
 90
        0
 91
        1
 62
     0
 92
       -2
340
14
 93
        0
 40
0.045
309
GRIDFORMAT_END
 95
        2
302
GRIDFORMAT
  1
GRIDFORMAT_BEGIN
 90
        0
 91
        1
 62
     0
 92
       -2
340
14
 93
        0
 40
0.045
309
GRIDFORMAT_END
 95
        4
302
GRIDFORMAT
  1
GRIDFORMAT_BEGIN
 90
        0
 91
        1
 62
     0
 92
       -2
340
14
 93
        0
 40
0.045
309
GRIDFORMAT_END
 95
        8
302
GRIDFORMAT
  1
GRIDFORMAT_BEGIN
 90
        0
 91
        1
 62
     0
 92
       -2
340
14
 93
        0
 40
0.045
309
GRIDFORMAT_END
 95
       16
302
GRIDFORMAT
  1
GRIDFORMAT_BEGIN
 90
        0
 91
        1
 62
     0
 92
       -2
340
14
 93
        0
 40
0.045
309
GRIDFORMAT_END
 95
       32
302
GRIDFORMAT
  1
GRIDFORMAT_BEGIN
 90
        0
 91
        1
 62
     0
 92
       -2
340
14
 93
        0
 40
0.045
309
GRIDFORMAT_END
309
TABLEFORMAT_END
  1
CELLSTYLE_BEGIN
 90
        1
 91
        1
300
_TITLE
309
CELLSTYLE_END
300
CELLSTYLE
  1
TABLEFORMAT_BEGIN
 90
        5
170
     1
 91
        0
 92
        0
 62
   257
 93
        1
300
CONTENTFORMAT
  1
CONTENTFORMAT_BEGIN
 90
        0
 91
        0
 92
        4
 93
        0
300

 40
0.0
140
1.0
 94
        5
 62
     0
340
11
144
0.18
309
CONTENTFORMAT_END
171
     1
301
MARGIN
  1
CELLMARGIN_BEGIN
 40
0.06
 40
0.06
 40
0.06
 40
0.06
 40
0.06
 40
0.06
309
CELLMARGIN_END
 94
        6
 95
        1
302
GRIDFORMAT
  1
GRIDFORMAT_BEGIN
 90
        0
 91
        1
 62
     0
 92
       -2
340
14
 93
        0
 40
0.045
309
GRIDFORMAT_END
 95
        2
302
GRIDFORMAT
  1
GRIDFORMAT_BEGIN
 90
        0
 91
        1
 62
     0
 92
       -2
340
14
 93
        0
 40
0.045
309
GRIDFORMAT_END
 95
        4
302
GRIDFORMAT
  1
GRIDFORMAT_BEGIN
 90
        0
 91
        1
 62
     0
 92
       -2
340
14
 93
        0
 40
0.045
309
GRIDFORMAT_END
 95
        8
302
GRIDFORMAT
  1
GRIDFORMAT_BEGIN
 90
        0
 91
        1
 62
     0
 92
       -2
340
14
 93
        0
 40
0.045
309
GRIDFORMAT_END
 95
       16
302
GRIDFORMAT
  1
GRIDFORMAT_BEGIN
 90
        0
 91
        1
 62
     0
 92
       -2
340
14
 93
        0
 40
0.045
309
GRIDFORMAT_END
 95
       32
302
GRIDFORMAT
  1
GRIDFORMAT_BEGIN
 90
        0
 91
        1
 62
     0
 92
       -2
340
14
 93
        0
 40
0.045
309
GRIDFORMAT_END
309
TABLEFORMAT_END
  1
CELLSTYLE_BEGIN
 90
        2
 91
        1
300
_HEADER
309
CELLSTYLE_END
300
CELLSTYLE
  1
TABLEFORMAT_BEGIN
 90
        5
170
     1
 91
        0
 92
        0
 62
   257
 93
        1
300
CONTENTFORMAT
  1
CONTENTFORMAT_BEGIN
 90
        0
 91
        0
 92
        4
 93
        0
300

 40
0.0
140
1.0
 94
        2
 62
     0
340
11
144
0.18
309
CONTENTFORMAT_END
171
     1
301
MARGIN
  1
CELLMARGIN_BEGIN
 40
0.06
 40
0.06
 40
0.06
 40
0.06
 40
0.06
 40
0.06
309
CELLMARGIN_END
 94
        6
 95
        1
302
GRIDFORMAT
  1
GRIDFORMAT_BEGIN
 90
        0
 91
        1
 62
     0
 92
       -2
340
14
 93
        0
 40
0.045
309
GRIDFORMAT_END
 95
        2
302
GRIDFORMAT
  1
GRIDFORMAT_BEGIN
 90
        0
 91
        1
 62
     0
 92
       -2
340
14
 93
        0
 40
0.045
309
GRIDFORMAT_END
 95
        4
302
GRIDFORMAT
  1
GRIDFORMAT_BEGIN
 90
        0
 91
        1
 62
     0
 92
       -2
340
14
 93
        0
 40
0.045
309
GRIDFORMAT_END
 95
        8
302
GRIDFORMAT
  1
GRIDFORMAT_BEGIN
 90
        0
 91
        1
 62
     0
 92
       -2
340
14
 93
        0
 40
0.045
309
GRIDFORMAT_END
 95
       16
302
GRIDFORMAT
  1
GRIDFORMAT_BEGIN
 90
        0
 91
        1
 62
     0
 92
       -2
340
14
 93
        0
 40
0.045
309
GRIDFORMAT_END
 95
       32
302
GRIDFORMAT
  1
GRIDFORMAT_BEGIN
 90
        0
 91
        1
 62
     0
 92
       -2
340
14
 93
        0
 40
0.045
309
GRIDFORMAT_END
309
TABLEFORMAT_END
  1
CELLSTYLE_BEGIN
 90
        3
 91
        2
300
_DATA
309
CELLSTYLE_END
  0
ENDSEC
  0
EOF