0
SECTION
  2
HEADER
  9
$ACADVER
  1
AC1027
  9
$ACADMAINTVER
 70
     8
  9
$DWGCODEPAGE
  3
ANSI_1252
  9
$REQUIREDVERSIONS
160
                 0
  9
$COMMENTS
  1
File was created by Cadenas
  9
$CUSTOMPROPERTYTAG
  1
NN
  9
$CUSTOMPROPERTY
  1
Take-Up Frames - HD Protected screw
  9
$CUSTOMPROPERTYTAG
  1
NT
  9
$CUSTOMPROPERTY
  1
Take - Up Frames
  9
$CUSTOMPROPERTYTAG
  1
NB
  9
$CUSTOMPROPERTY
  1
089037
  9
$CUSTOMPROPERTYTAG
  1
NBSYN
  9
$CUSTOMPROPERTY
  1
$PN.
  9
$CUSTOMPROPERTYTAG
  1
LINA
  9
$CUSTOMPROPERTY
  1
089037
  9
$CUSTOMPROPERTYTAG
  1
FS
  9
$CUSTOMPROPERTY
  1
HD-350*
  9
$CUSTOMPROPERTYTAG
  1
TRAVEL
  9
$CUSTOMPROPERTY
  1
36
  9
$CUSTOMPROPERTYTAG
  1
PN
  9
$CUSTOMPROPERTY
  1
089037
  9
$CUSTOMPROPERTYTAG
  1
WEIGHT
  9
$CUSTOMPROPERTY
  1
234
  9
$CUSTOMPROPERTYTAG
  1
B
  9
$CUSTOMPROPERTY
  1
64
  9
$CUSTOMPROPERTYTAG
  1
C
  9
$CUSTOMPROPERTY
  1
6-1/2
  9
$CUSTOMPROPERTYTAG
  1
D
  9
$CUSTOMPROPERTY
  1
61-1/4
  9
$CUSTOMPROPERTYTAG
  1
E
  9
$CUSTOMPROPERTY
  1
3
  9
$CUSTOMPROPERTYTAG
  1
F
  9
$CUSTOMPROPERTY
  1
3/4
  9
$CUSTOMPROPERTYTAG
  1
G
  9
$CUSTOMPROPERTY
  1
7/8
  9
$CUSTOMPROPERTYTAG
  1
H
  9
$CUSTOMPROPERTY
  1
7/8
  9
$CUSTOMPROPERTYTAG
  1
L
  9
$CUSTOMPROPERTY
  1
12-5/8
  9
$CUSTOMPROPERTYTAG
  1
N
  9
$CUSTOMPROPERTY
  1
7
  9
$CUSTOMPROPERTYTAG
  1
O
  9
$CUSTOMPROPERTY
  1
6
  9
$CUSTOMPROPERTYTAG
  1
P
  9
$CUSTOMPROPERTY
  1
16
  9
$CUSTOMPROPERTYTAG
  1
SDQ
  9
$CUSTOMPROPERTY
  1
6
  9
$CUSTOMPROPERTYTAG
  1
SDQ1
  9
$CUSTOMPROPERTY
  1
6.00000
  9
$CUSTOMPROPERTYTAG
  1
SDR
  9
$CUSTOMPROPERTY
  1
17
  9
$CUSTOMPROPERTYTAG
  1
S
  9
$CUSTOMPROPERTY
  1
1-1/4
  9
$CUSTOMPROPERTYTAG
  1
W
  9
$CUSTOMPROPERTY
  1
10
  9
$CUSTOMPROPERTYTAG
  1
X
  9
$CUSTOMPROPERTY
  1
3-1/2
  9
$CUSTOMPROPERTYTAG
  1
Y
  9
$CUSTOMPROPERTY
  1
7/8
  9
$CUSTOMPROPERTYTAG
  1
ZMIN
  9
$CUSTOMPROPERTY
  1
13-11/16
  9
$CUSTOMPROPERTYTAG
  1
ZMAX
  9
$CUSTOMPROPERTY
  1
10-3/4
  9
$CUSTOMPROPERTYTAG
  1
COMPANY
  9
$CUSTOMPROPERTY
  1
baldor
  9
$INSBASE
 10
0.0
 20
0.0
 30
0.0
  9
$EXTMIN
 10
1.000000000000000E+20
 20
1.000000000000000E+20
 30
1.000000000000000E+20
  9
$EXTMAX
 10
-1.000000000000000E+20
 20
-1.000000000000000E+20
 30
-1.000000000000000E+20
  9
$LIMMIN
 10
0.0
 20
0.0
  9
$LIMMAX
 10
12.0
 20
9.0
  9
$ORTHOMODE
 70
     0
  9
$REGENMODE
 70
     1
  9
$FILLMODE
 70
     1
  9
$QTEXTMODE
 70
     0
  9
$MIRRTEXT
 70
     1
  9
$LTSCALE
 40
1.0
  9
$ATTMODE
 70
     1
  9
$TEXTSIZE
 40
0.2
  9
$TRACEWID
 40
0.05
  9
$TEXTSTYLE
  7
Standard
  9
$CLAYER
  8
0
  9
$CELTYPE
  6
ByLayer
  9
$CECOLOR
 62
   256
  9
$CELTSCALE
 40
1.0
  9
$DISPSILH
 70
     0
  9
$DIMSCALE
 40
1.0
  9
$DIMASZ
 40
0.18
  9
$DIMEXO
 40
0.0625
  9
$DIMDLI
 40
0.38
  9
$DIMRND
 40
0.0
  9
$DIMDLE
 40
0.0
  9
$DIMEXE
 40
0.18
  9
$DIMTP
 40
0.0
  9
$DIMTM
 40
0.0
  9
$DIMTXT
 40
0.18
  9
$DIMCEN
 40
0.09
  9
$DIMTSZ
 40
0.0
  9
$DIMTOL
 70
     0
  9
$DIMLIM
 70
     0
  9
$DIMTIH
 70
     1
  9
$DIMTOH
 70
     1
  9
$DIMSE1
 70
     0
  9
$DIMSE2
 70
     0
  9
$DIMTAD
 70
     0
  9
$DIMZIN
 70
     0
  9
$DIMBLK
  1

  9
$DIMASO
 70
     1
  9
$DIMSHO
 70
     1
  9
$DIMPOST
  1

  9
$DIMAPOST
  1

  9
$DIMALT
 70
     0
  9
$DIMALTD
 70
     2
  9
$DIMALTF
 40
25.4
  9
$DIMLFAC
 40
1.0
  9
$DIMTOFL
 70
     0
  9
$DIMTVP
 40
0.0
  9
$DIMTIX
 70
     0
  9
$DIMSOXD
 70
     0
  9
$DIMSAH
 70
     0
  9
$DIMBLK1
  1

  9
$DIMBLK2
  1

  9
$DIMSTYLE
  2
Standard
  9
$DIMCLRD
 70
     0
  9
$DIMCLRE
 70
     0
  9
$DIMCLRT
 70
     0
  9
$DIMTFAC
 40
1.0
  9
$DIMGAP
 40
0.09
  9
$DIMJUST
 70
     0
  9
$DIMSD1
 70
     0
  9
$DIMSD2
 70
     0
  9
$DIMTOLJ
 70
     1
  9
$DIMTZIN
 70
     0
  9
$DIMALTZ
 70
     0
  9
$DIMALTTZ
 70
     0
  9
$DIMUPT
 70
     0
  9
$DIMDEC
 70
     4
  9
$DIMTDEC
 70
     4
  9
$DIMALTU
 70
     2
  9
$DIMALTTD
 70
     2
  9
$DIMTXSTY
  7
Standard
  9
$DIMAUNIT
 70
     0
  9
$DIMADEC
 70
     0
  9
$DIMALTRND
 40
0.0
  9
$DIMAZIN
 70
     0
  9
$DIMDSEP
 70
    46
  9
$DIMATFIT
 70
     3
  9
$DIMFRAC
 70
     0
  9
$DIMLDRBLK
  1

  9
$DIMLUNIT
 70
     2
  9
$DIMLWD
 70
    -2
  9
$DIMLWE
 70
    -2
  9
$DIMTMOVE
 70
     0
  9
$DIMFXL
 40
1.0
  9
$DIMFXLON
 70
     0
  9
$DIMJOGANG
 40
0.7853981633974483
  9
$DIMTFILL
 70
     0
  9
$DIMTFILLCLR
 70
     0
  9
$DIMARCSYM
 70
     0
  9
$DIMLTYPE
  6

  9
$DIMLTEX1
  6

  9
$DIMLTEX2
  6

  9
$DIMTXTDIRECTION
 70
     0
  9
$LUNITS
 70
     2
  9
$LUPREC
 70
     4
  9
$SKETCHINC
 40
0.1
  9
$FILLETRAD
 40
0.5
  9
$AUNITS
 70
     0
  9
$AUPREC
 70
     0
  9
$MENU
  1
.
  9
$ELEVATION
 40
0.0
  9
$PELEVATION
 40
0.0
  9
$THICKNESS
 40
0.0
  9
$LIMCHECK
 70
     0
  9
$CHAMFERA
 40
0.0
  9
$CHAMFERB
 40
0.0
  9
$CHAMFERC
 40
0.0
  9
$CHAMFERD
 40
0.0
  9
$SKPOLY
 70
     0
  9
$TDCREATE
 40
2458169.005892998
  9
$TDUCREATE
 40
2458168.964226331
  9
$TDUPDATE
 40
2458169.005893183
  9
$TDUUPDATE
 40
2458168.964226516
  9
$TDINDWG
 40
0.0000000116
  9
$TDUSRTIMER
 40
0.0000000116
  9
$USRTIMER
 70
     1
  9
$ANGBASE
 50
0.0
  9
$ANGDIR
 70
     0
  9
$PDMODE
 70
     0
  9
$PDSIZE
 40
0.0
  9
$PLINEWID
 40
0.0
  9
$SPLFRAME
 70
     0
  9
$SPLINETYPE
 70
     6
  9
$SPLINESEGS
 70
     8
  9
$HANDSEED
  5
217
  9
$SURFTAB1
 70
     6
  9
$SURFTAB2
 70
     6
  9
$SURFTYPE
 70
     6
  9
$SURFU
 70
     6
  9
$SURFV
 70
     6
  9
$UCSBASE
  2

  9
$UCSNAME
  2

  9
$UCSORG
 10
0.0
 20
0.0
 30
0.0
  9
$UCSXDIR
 10
1.0
 20
0.0
 30
0.0
  9
$UCSYDIR
 10
0.0
 20
1.0
 30
0.0
  9
$UCSORTHOREF
  2

  9
$UCSORTHOVIEW
 70
     0
  9
$UCSORGTOP
 10
0.0
 20
0.0
 30
0.0
  9
$UCSORGBOTTOM
 10
0.0
 20
0.0
 30
0.0
  9
$UCSORGLEFT
 10
0.0
 20
0.0
 30
0.0
  9
$UCSORGRIGHT
 10
0.0
 20
0.0
 30
0.0
  9
$UCSORGFRONT
 10
0.0
 20
0.0
 30
0.0
  9
$UCSORGBACK
 10
0.0
 20
0.0
 30
0.0
  9
$PUCSBASE
  2

  9
$PUCSNAME
  2

  9
$PUCSORG
 10
0.0
 20
0.0
 30
0.0
  9
$PUCSXDIR
 10
1.0
 20
0.0
 30
0.0
  9
$PUCSYDIR
 10
0.0
 20
1.0
 30
0.0
  9
$PUCSORTHOREF
  2

  9
$PUCSORTHOVIEW
 70
     0
  9
$PUCSORGTOP
 10
0.0
 20
0.0
 30
0.0
  9
$PUCSORGBOTTOM
 10
0.0
 20
0.0
 30
0.0
  9
$PUCSORGLEFT
 10
0.0
 20
0.0
 30
0.0
  9
$PUCSORGRIGHT
 10
0.0
 20
0.0
 30
0.0
  9
$PUCSORGFRONT
 10
0.0
 20
0.0
 30
0.0
  9
$PUCSORGBACK
 10
0.0
 20
0.0
 30
0.0
  9
$USERI1
 70
     0
  9
$USERI2
 70
     0
  9
$USERI3
 70
     0
  9
$USERI4
 70
     0
  9
$USERI5
 70
     0
  9
$USERR1
 40
0.0
  9
$USERR2
 40
0.0
  9
$USERR3
 40
0.0
  9
$USERR4
 40
0.0
  9
$USERR5
 40
0.0
  9
$WORLDVIEW
 70
     1
  9
$SHADEDGE
 70
     3
  9
$SHADEDIF
 70
    70
  9
$TILEMODE
 70
     1
  9
$MAXACTVP
 70
    64
  9
$PINSBASE
 10
0.0
 20
0.0
 30
0.0
  9
$PLIMCHECK
 70
     0
  9
$PEXTMIN
 10
1.000000000000000E+20
 20
1.000000000000000E+20
 30
1.000000000000000E+20
  9
$PEXTMAX
 10
-1.000000000000000E+20
 20
-1.000000000000000E+20
 30
-1.000000000000000E+20
  9
$PLIMMIN
 10
0.0
 20
0.0
  9
$PLIMMAX
 10
12.0
 20
9.0
  9
$UNITMODE
 70
     0
  9
$VISRETAIN
 70
     1
  9
$PLINEGEN
 70
     0
  9
$PSLTSCALE
 70
     1
  9
$TREEDEPTH
 70
  3020
  9
$CMLSTYLE
  2
Standard
  9
$CMLJUST
 70
     0
  9
$CMLSCALE
 40
1.0
  9
$PROXYGRAPHICS
 70
     1
  9
$MEASUREMENT
 70
     0
  9
$CELWEIGHT
370
    -1
  9
$ENDCAPS
280
     0
  9
$JOINSTYLE
280
     0
  9
$LWDISPLAY
290
     0
  9
$INSUNITS
 70
     1
  9
$HYPERLINKBASE
  1

  9
$STYLESHEET
  1

  9
$XEDIT
290
     1
  9
$CEPSNTYPE
380
     0
  9
$PSTYLEMODE
290
     1
  9
$FINGERPRINTGUID
  2
{C1312E57-B5AF-4C51-983A-B468912D1608}
  9
$VERSIONGUID
  2
{FAEB1C32-E019-11D5-929B-00C0DF256EC4}
  9
$EXTNAMES
290
     1
  9
$PSVPSCALE
 40
0.0
  9
$OLESTARTUP
290
     0
  9
$SORTENTS
280
   127
  9
$INDEXCTL
280
     0
  9
$HIDETEXT
280
     1
  9
$XCLIPFRAME
280
     2
  9
$HALOGAP
280
     0
  9
$OBSCOLOR
 70
   257
  9
$OBSLTYPE
280
     0
  9
$INTERSECTIONDISPLAY
280
     0
  9
$INTERSECTIONCOLOR
 70
   257
  9
$DIMASSOC
280
     2
  9
$PROJECTNAME
  1

  9
$CAMERADISPLAY
290
     0
  9
$LENSLENGTH
 40
50.0
  9
$CAMERAHEIGHT
 40
0.0
  9
$STEPSPERSEC
 40
2.0
  9
$STEPSIZE
 40
6.0
  9
$3DDWFPREC
 40
2.0
  9
$PSOLWIDTH
 40
0.25
  9
$PSOLHEIGHT
 40
4.0
  9
$LOFTANG1
 40
1.570796326794897
  9
$LOFTANG2
 40
1.570796326794897
  9
$LOFTMAG1
 40
0.0
  9
$LOFTMAG2
 40
0.0
  9
$LOFTPARAM
 70
     7
  9
$LOFTNORMALS
280
     1
  9
$LATITUDE
 40
37.795
  9
$LONGITUDE
 40
-122.394
  9
$NORTHDIRECTION
 40
0.0
  9
$TIMEZONE
 70
 -8000
  9
$LIGHTGLYPHDISPLAY
280
     1
  9
$TILEMODELIGHTSYNCH
280
     1
  9
$CMATERIAL
347
44
  9
$SOLIDHIST
280
     0
  9
$SHOWHIST
280
     1
  9
$DWFFRAME
280
     2
  9
$DGNFRAME
280
     2
  9
$REALWORLDSCALE
290
     1
  9
$INTERFERECOLOR
 62
   256
  9
$CSHADOW
280
     0
  9
$SHADOWPLANELOCATION
 40
0.0
  0
ENDSEC
  0
SECTION
  2
CLASSES
  0
CLASS
  1
ACDBDICTIONARYWDFLT
  2
AcDbDictionaryWithDefault
  3
ObjectDBX Classes
 90
        0
 91
        4
280
     0
281
     0
  0
CLASS
  1
VISUALSTYLE
  2
AcDbVisualStyle
  3
ObjectDBX Classes
 90
     4095
 91
        4
280
     0
281
     0
  0
CLASS
  1
MATERIAL
  2
AcDbMaterial
  3
ObjectDBX Classes
 90
     1153
 91
        4
280
     0
281
     0
  0
CLASS
  1
SCALE
  2
AcDbScale
  3
ObjectDBX Classes
 90
     1153
 91
        4
280
     0
281
     0
  0
CLASS
  1
TABLESTYLE
  2
AcDbTableStyle
  3
ObjectDBX Classes
 90
     4095
 91
        4
280
     0
281
     0
  0
CLASS
  1
MLEADERSTYLE
  2
AcDbMLeaderStyle
  3
ACDB_MLEADERSTYLE_CLASS
 90
     4095
 91
        4
280
     0
281
     0
  0
CLASS
  1
SUN
  2
AcDbSun
  3
SCENEOE
 90
     1153
 91
        4
280
     0
281
     0
  0
CLASS
  1
DICTIONARYVAR
  2
AcDbDictionaryVar
  3
ObjectDBX Classes
 90
        0
 91
        4
280
     0
281
     0
  0
CLASS
  1
CELLSTYLEMAP
  2
AcDbCellStyleMap
  3
ObjectDBX Classes
 90
     1152
 91
        4
280
     0
281
     0
  0
ENDSEC
  0
SECTION
  2
TABLES
  0
TABLE
  2
VPORT
  5
8
330
0
100
AcDbSymbolTable
 70
     1
  0
VPORT
  5
29
330
8
100
AcDbSymbolTableRecord
100
AcDbViewportTableRecord
  2
*Active
 70
     0
 10
0.0
 20
0.0
 11
1.0
 21
1.0
 12
3.788690476190471
 22
-2.0
 13
0.0
 23
0.0
 14
0.5
 24
0.5
 15
0.5
 25
0.5
 16
0.0
 26
0.0
 36
1.0
 17
0.0
 27
0.0
 37
0.0
 40
15.3
 41
5.05515873015873
 42
50.0
 43
0.0
 44
0.0
 50
0.0
 51
0.0
 71
     0
 72
   100
 73
     1
 74
     3
 75
     0
 76
     0
 77
     0
 78
     0
281
     0
 65
     1
110
0.0
120
0.0
130
0.0
111
1.0
121
0.0
131
0.0
112
0.0
122
1.0
132
0.0
 79
     0
146
0.0
348
2F
 60
     3
 61
     5
292
     1
282
     1
141
0.0
142
0.0
 63
   250
361
6D
  0
ENDTAB
  0
TABLE
  2
LTYPE
  5
5
330
0
100
AcDbSymbolTable
 70
     3
  0
LTYPE
  5
14
330
5
100
AcDbSymbolTableRecord
100
AcDbLinetypeTableRecord
  2
ByBlock
 70
     0
  3

 72
    65
 73
     0
 40
0.0
  0
LTYPE
  5
15
330
5
100
AcDbSymbolTableRecord
100
AcDbLinetypeTableRecord
  2
ByLayer
 70
     0
  3

 72
    65
 73
     0
 40
0.0
  0
LTYPE
  5
16
330
5
100
AcDbSymbolTableRecord
100
AcDbLinetypeTableRecord
  2
Continuous
 70
     0
  3
Solid line
 72
    65
 73
     0
 40
0.0
  0
LTYPE
  5
92
330
5
100
AcDbSymbolTableRecord
100
AcDbLinetypeTableRecord
  2
Dashed
 70
     0
  3

 72
    65
 73
     2
 40
2.0
 49
1.0
 74
     0
 49
-1.0
 74
     0
  0
LTYPE
  5
201
330
5
100
AcDbSymbolTableRecord
100
AcDbLinetypeTableRecord
  2
Center
 70
     0
  3

 72
    65
 73
     4
 40
1.5
 49
0.45
 74
     0
 49
-0.5
 74
     0
 49
0.05
 74
     0
 49
-0.5
 74
     0
  0
ENDTAB
  0
TABLE
  2
LAYER
  5
2
330
0
100
AcDbSymbolTable
 70
     6
  0
LAYER
  5
10
330
2
100
AcDbSymbolTableRecord
100
AcDbLayerTableRecord
  2
0
 70
     0
 62
     7
  6
Continuous
370
    -3
390
F
347
46
348
0
  0
LAYER
  5
6E
330
2
100
AcDbSymbolTableRecord
100
AcDbLayerTableRecord
  2
AM_6
 70
     0
 62
    -2
  6
Continuous
370
    35
390
F
347
46
348
0
  0
LAYER
  5
8D
330
2
100
AcDbSymbolTableRecord
100
AcDbLayerTableRecord
  2
AM_4
 70
     0
 62
     7
  6
Continuous
370
    50
390
F
347
46
348
0
  0
LAYER
  5
93
330
2
100
AcDbSymbolTableRecord
100
AcDbLayerTableRecord
  2
AM_9
 70
     0
 62
     6
  6
Dashed
370
    25
390
F
347
46
348
0
  0
LAYER
  5
1FE
330
2
100
AcDbSymbolTableRecord
100
AcDbLayerTableRecord
  2
AM_5
 70
     0
 62
     3
  6
Continuous
370
    25
390
F
347
46
348
0
  0
LAYER
  5
202
330
2
100
AcDbSymbolTableRecord
100
AcDbLayerTableRecord
  2
AM_7
 70
     0
 62
     7
  6
Center
370
    25
390
F
347
46
348
0
  0
ENDTAB
  0
TABLE
  2
STYLE
  5
3
330
0
100
AcDbSymbolTable
 70
     1
  0
STYLE
  5
11
330
3
100
AcDbSymbolTableRecord
100
AcDbTextStyleTableRecord
  2
Standard
 70
     0
 40
0.0
 41
1.0
 50
0.0
 71
     0
 42
0.2
  3
txt
  4

  0
ENDTAB
  0
TABLE
  2
VIEW
  5
6
330
0
100
AcDbSymbolTable
 70
     0
  0
ENDTAB
  0
TABLE
  2
UCS
  5
7
330
0
100
AcDbSymbolTable
 70
     0
  0
ENDTAB
  0
TABLE
  2
APPID
  5
9
330
0
100
AcDbSymbolTable
 70
     1
  0
APPID
  5
12
330
9
100
AcDbSymbolTableRecord
100
AcDbRegAppTableRecord
  2
ACAD
 70
     0
  0
ENDTAB
  0
TABLE
  2
DIMSTYLE
  5
A
330
0
100
AcDbSymbolTable
 70
     1
100
AcDbDimStyleTable
  0
DIMSTYLE
105
27
330
A
100
AcDbSymbolTableRecord
100
AcDbDimStyleTableRecord
  2
Standard
 70
     0
178
     0
340
11
  0
ENDTAB
  0
TABLE
  2
BLOCK_RECORD
  5
1
330
0
100
AcDbSymbolTable
 70
     1
  0
BLOCK_RECORD
  5
1F
330
1
100
AcDbSymbolTableRecord
100
AcDbBlockTableRecord
  2
*Model_Space
340
22
 70
     0
280
     1
281
     0
  0
BLOCK_RECORD
  5
1B
330
1
100
AcDbSymbolTableRecord
100
AcDbBlockTableRecord
  2
*Paper_Space
340
1E
 70
     0
280
     1
281
     0
  0
BLOCK_RECORD
  5
23
330
1
100
AcDbSymbolTableRecord
100
AcDbBlockTableRecord
  2
*Paper_Space0
340
26
 70
     0
280
     1
281
     0
  0
ENDTAB
  0
ENDSEC
  0
SECTION
  2
BLOCKS
  0
BLOCK
  5
20
330
1F
100
AcDbEntity
  8
0
100
AcDbBlockBegin
  2
*Model_Space
 70
     0
 10
0.0
 20
0.0
 30
0.0
  3
*Model_Space
  1

  0
ENDBLK
  5
21
330
1F
100
AcDbEntity
  8
0
100
AcDbBlockEnd
  0
BLOCK
  5
1C
330
1B
100
AcDbEntity
 67
     1
  8
0
100
AcDbBlockBegin
  2
*Paper_Space
 70
     0
 10
0.0
 20
0.0
 30
0.0
  3
*Paper_Space
  1

  0
ENDBLK
  5
1D
330
1B
100
AcDbEntity
 67
     1
  8
0
100
AcDbBlockEnd
  0
BLOCK
  5
24
330
23
100
AcDbEntity
  8
0
100
AcDbBlockBegin
  2
*Paper_Space0
 70
     0
 10
0.0
 20
0.0
 30
0.0
  3
*Paper_Space0
  1

  0
ENDBLK
  5
25
330
23
100
AcDbEntity
  8
0
100
AcDbBlockEnd
  0
ENDSEC
  0
SECTION
  2
ENTITIES
  0
ATTDEF
  5
6F
330
1F
100
AcDbEntity
  8
AM_6
100
AcDbText
 10
38.25
 20
5.0
 30
0.0
 40
0.5
  1
Take-Up Frames - HD Protected screw
100
AcDbAttributeDefinition
  3

  2
NN
 70
     8
280
     0
  0
ATTDEF
  5
70
330
1F
100
AcDbEntity
  8
AM_6
100
AcDbText
 10
38.25
 20
4.5
 30
0.0
 40
0.5
  1
Take - Up Frames
100
AcDbAttributeDefinition
  3

  2
NT
 70
     8
280
     0
  0
ATTDEF
  5
71
330
1F
100
AcDbEntity
  8
AM_6
100
AcDbText
 10
38.25
 20
4.0
 30
0.0
 40
0.5
  1
089037
100
AcDbAttributeDefinition
  3

  2
NB
 70
     8
280
     0
  0
ATTDEF
  5
72
330
1F
100
AcDbEntity
  8
AM_6
100
AcDbText
 10
38.25
 20
3.5
 30
0.0
 40
0.5
  1
$PN.
100
AcDbAttributeDefinition
  3

  2
NBSYN
 70
     8
280
     0
  0
ATTDEF
  5
73
330
1F
100
AcDbEntity
  8
AM_6
100
AcDbText
 10
38.25
 20
3.0
 30
0.0
 40
0.5
  1
089037
100
AcDbAttributeDefinition
  3

  2
LINA
 70
     8
280
     0
  0
ATTDEF
  5
74
330
1F
100
AcDbEntity
  8
AM_6
100
AcDbText
 10
38.25
 20
2.5
 30
0.0
 40
0.5
  1
HD-350*
100
AcDbAttributeDefinition
  3

  2
FS
 70
     8
280
     0
  0
ATTDEF
  5
75
330
1F
100
AcDbEntity
  8
AM_6
100
AcDbText
 10
38.25
 20
2.0
 30
0.0
 40
0.5
  1
36
100
AcDbAttributeDefinition
  3

  2
TRAVEL
 70
     8
280
     0
  0
ATTDEF
  5
76
330
1F
100
AcDbEntity
  8
AM_6
100
AcDbText
 10
38.25
 20
1.5
 30
0.0
 40
0.5
  1
089037
100
AcDbAttributeDefinition
  3

  2
PN
 70
     8
280
     0
  0
ATTDEF
  5
77
330
1F
100
AcDbEntity
  8
AM_6
100
AcDbText
 10
38.25
 20
1.0
 30
0.0
 40
0.5
  1
234
100
AcDbAttributeDefinition
  3

  2
WEIGHT
 70
     8
280
     0
  0
ATTDEF
  5
78
330
1F
100
AcDbEntity
  8
AM_6
100
AcDbText
 10
38.25
 20
0.5
 30
0.0
 40
0.5
  1
64
100
AcDbAttributeDefinition
  3

  2
B
 70
     8
280
     0
  0
ATTDEF
  5
79
330
1F
100
AcDbEntity
  8
AM_6
100
AcDbText
 10
38.25
 20
0.0
 30
0.0
 40
0.5
  1
6-1/2
100
AcDbAttributeDefinition
  3

  2
C
 70
     8
280
     0
  0
ATTDEF
  5
7A
330
1F
100
AcDbEntity
  8
AM_6
100
AcDbText
 10
38.25
 20
-0.5
 30
0.0
 40
0.5
  1
61-1/4
100
AcDbAttributeDefinition
  3

  2
D
 70
     8
280
     0
  0
ATTDEF
  5
7B
330
1F
100
AcDbEntity
  8
AM_6
100
AcDbText
 10
38.25
 20
-1.0
 30
0.0
 40
0.5
  1
3
100
AcDbAttributeDefinition
  3

  2
E
 70
     8
280
     0
  0
ATTDEF
  5
7C
330
1F
100
AcDbEntity
  8
AM_6
100
AcDbText
 10
38.25
 20
-1.5
 30
0.0
 40
0.5
  1
3/4
100
AcDbAttributeDefinition
  3

  2
F
 70
     8
280
     0
  0
ATTDEF
  5
7D
330
1F
100
AcDbEntity
  8
AM_6
100
AcDbText
 10
38.25
 20
-2.0
 30
0.0
 40
0.5
  1
7/8
100
AcDbAttributeDefinition
  3

  2
G
 70
     8
280
     0
  0
ATTDEF
  5
7E
330
1F
100
AcDbEntity
  8
AM_6
100
AcDbText
 10
38.25
 20
-2.5
 30
0.0
 40
0.5
  1
7/8
100
AcDbAttributeDefinition
  3

  2
H
 70
     8
280
     0
  0
ATTDEF
  5
7F
330
1F
100
AcDbEntity
  8
AM_6
100
AcDbText
 10
38.25
 20
-3.0
 30
0.0
 40
0.5
  1
12-5/8
100
AcDbAttributeDefinition
  3

  2
L
 70
     8
280
     0
  0
ATTDEF
  5
80
330
1F
100
AcDbEntity
  8
AM_6
100
AcDbText
 10
38.25
 20
-3.5
 30
0.0
 40
0.5
  1
7
100
AcDbAttributeDefinition
  3

  2
N
 70
     8
280
     0
  0
ATTDEF
  5
81
330
1F
100
AcDbEntity
  8
AM_6
100
AcDbText
 10
38.25
 20
-4.0
 30
0.0
 40
0.5
  1
6
100
AcDbAttributeDefinition
  3

  2
O
 70
     8
280
     0
  0
ATTDEF
  5
82
330
1F
100
AcDbEntity
  8
AM_6
100
AcDbText
 10
38.25
 20
-4.5
 30
0.0
 40
0.5
  1
16
100
AcDbAttributeDefinition
  3

  2
P
 70
     8
280
     0
  0
ATTDEF
  5
83
330
1F
100
AcDbEntity
  8
AM_6
100
AcDbText
 10
38.25
 20
-5.0
 30
0.0
 40
0.5
  1
6
100
AcDbAttributeDefinition
  3

  2
SDQ
 70
     8
280
     0
  0
ATTDEF
  5
84
330
1F
100
AcDbEntity
  8
AM_6
100
AcDbText
 10
38.25
 20
-5.5
 30
0.0
 40
0.5
  1
6.00000
100
AcDbAttributeDefinition
  3

  2
SDQ1
 70
     8
280
     0
  0
ATTDEF
  5
85
330
1F
100
AcDbEntity
  8
AM_6
100
AcDbText
 10
38.25
 20
-6.0
 30
0.0
 40
0.5
  1
17
100
AcDbAttributeDefinition
  3

  2
SDR
 70
     8
280
     0
  0
ATTDEF
  5
86
330
1F
100
AcDbEntity
  8
AM_6
100
AcDbText
 10
38.25
 20
-6.5
 30
0.0
 40
0.5
  1
1-1/4
100
AcDbAttributeDefinition
  3

  2
S
 70
     8
280
     0
  0
ATTDEF
  5
87
330
1F
100
AcDbEntity
  8
AM_6
100
AcDbText
 10
38.25
 20
-7.0
 30
0.0
 40
0.5
  1
10
100
AcDbAttributeDefinition
  3

  2
W
 70
     8
280
     0
  0
ATTDEF
  5
88
330
1F
100
AcDbEntity
  8
AM_6
100
AcDbText
 10
38.25
 20
-7.5
 30
0.0
 40
0.5
  1
3-1/2
100
AcDbAttributeDefinition
  3

  2
X
 70
     8
280
     0
  0
ATTDEF
  5
89
330
1F
100
AcDbEntity
  8
AM_6
100
AcDbText
 10
38.25
 20
-8.0
 30
0.0
 40
0.5
  1
7/8
100
AcDbAttributeDefinition
  3

  2
Y
 70
     8
280
     0
  0
ATTDEF
  5
8A
330
1F
100
AcDbEntity
  8
AM_6
100
AcDbText
 10
38.25
 20
-8.5
 30
0.0
 40
0.5
  1
13-11/16
100
AcDbAttributeDefinition
  3

  2
ZMIN
 70
     8
280
     0
  0
ATTDEF
  5
8B
330
1F
100
AcDbEntity
  8
AM_6
100
AcDbText
 10
38.25
 20
-9.0
 30
0.0
 40
0.5
  1
10-3/4
100
AcDbAttributeDefinition
  3

  2
ZMAX
 70
     8
280
     0
  0
ATTDEF
  5
8C
330
1F
100
AcDbEntity
  8
AM_6
100
AcDbText
 10
38.25
 20
-9.5
 30
0.0
 40
0.5
  1
baldor
100
AcDbAttributeDefinition
  3

  2
COMPANY
 70
     8
280
     0
  0
LINE
  5
8E
330
1F
100
AcDbEntity
  8
AM_4
100
AcDbLine
 10
30.1875
 20
0.5754
 30
0.0
 11
30.1379
 21
0.625
 31
0.0
  0
LINE
  5
8F
330
1F
100
AcDbEntity
  8
AM_4
100
AcDbLine
 10
30.1379
 20
-0.625
 30
0.0
 11
30.1875
 21
-0.5754
 31
0.0
  0
LINE
  5
90
330
1F
100
AcDbEntity
  8
AM_4
100
AcDbLine
 10
-29.0
 20
0.625
 30
0.0
 11
-30.625
 21
0.625
 31
0.0
  0
LINE
  5
91
330
1F
100
AcDbEntity
  8
AM_4
100
AcDbLine
 10
30.1379
 20
0.625
 30
0.0
 11
29.0
 21
0.625
 31
0.0
  0
LINE
  5
94
330
1F
100
AcDbEntity
  8
AM_9
100
AcDbLine
 10
29.0
 20
0.625
 30
0.0
 11
-29.0
 21
0.625
 31
0.0
  0
LINE
  5
95
330
1F
100
AcDbEntity
  8
AM_4
100
AcDbLine
 10
29.0
 20
-0.625
 30
0.0
 11
30.1379
 21
-0.625
 31
0.0
  0
LINE
  5
96
330
1F
100
AcDbEntity
  8
AM_4
100
AcDbLine
 10
-30.625
 20
-0.625
 30
0.0
 11
-29.0
 21
-0.625
 31
0.0
  0
LINE
  5
97
330
1F
100
AcDbEntity
  8
AM_9
100
AcDbLine
 10
-29.0
 20
-0.625
 30
0.0
 11
29.0
 21
-0.625
 31
0.0
  0
LINE
  5
98
330
1F
100
AcDbEntity
  8
AM_9
100
AcDbLine
 10
29.0
 20
0.077590277071924
 30
0.0
 11
-29.0
 21
0.077590277071924
 31
0.0
  0
LINE
  5
99
330
1F
100
AcDbEntity
  8
AM_9
100
AcDbLine
 10
-32.0
 20
-3.25
 30
0.0
 11
-26.0
 21
-3.25
 31
0.0
  0
LINE
  5
9A
330
1F
100
AcDbEntity
  8
AM_9
100
AcDbLine
 10
-32.0
 20
3.25
 30
0.0
 11
-26.0
 21
3.25
 31
0.0
  0
LINE
  5
9B
330
1F
100
AcDbEntity
  8
AM_4
100
AcDbLine
 10
29.090909090909
 20
2.375
 30
0.0
 11
29.090909090909
 21
3.25
 31
0.0
  0
LINE
  5
9C
330
1F
100
AcDbEntity
  8
AM_4
100
AcDbLine
 10
29.965909090909
 20
2.375
 30
0.0
 11
29.965909090909
 21
3.25
 31
0.0
  0
LINE
  5
9D
330
1F
100
AcDbEntity
  8
AM_4
100
AcDbLine
 10
32.0
 20
3.25
 30
0.0
 11
29.0
 21
3.25
 31
0.0
  0
LINE
  5
9E
330
1F
100
AcDbEntity
  8
AM_4
100
AcDbLine
 10
32.0
 20
-3.25
 30
0.0
 11
32.0
 21
3.25
 31
0.0
  0
LINE
  5
9F
330
1F
100
AcDbEntity
  8
AM_9
100
AcDbLine
 10
26.0
 20
-3.25
 30
0.0
 11
32.0
 21
-3.25
 31
0.0
  0
LINE
  5
A0
330
1F
100
AcDbEntity
  8
AM_9
100
AcDbLine
 10
26.0
 20
3.25
 30
0.0
 11
32.0
 21
3.25
 31
0.0
  0
LINE
  5
A1
330
1F
100
AcDbEntity
  8
AM_9
100
AcDbLine
 10
26.0
 20
-3.25
 30
0.0
 11
26.0
 21
3.25
 31
0.0
  0
LINE
  5
A2
330
1F
100
AcDbEntity
  8
AM_4
100
AcDbLine
 10
32.0
 20
-3.25
 30
0.0
 11
29.0
 21
-3.25
 31
0.0
  0
LINE
  5
A3
330
1F
100
AcDbEntity
  8
AM_4
100
AcDbLine
 10
29.965909090909
 20
-3.25
 30
0.0
 11
29.965909090909
 21
-2.375
 31
0.0
  0
LINE
  5
A4
330
1F
100
AcDbEntity
  8
AM_4
100
AcDbLine
 10
29.090909090909
 20
-3.25
 30
0.0
 11
29.090909090909
 21
-2.375
 31
0.0
  0
LINE
  5
A5
330
1F
100
AcDbEntity
  8
AM_9
100
AcDbLine
 10
26.0
 20
2.375
 30
0.0
 11
29.965909090909
 21
2.375
 31
0.0
  0
LINE
  5
A6
330
1F
100
AcDbEntity
  8
AM_4
100
AcDbLine
 10
29.0
 20
2.375
 30
0.0
 11
29.965909090909
 21
2.375
 31
0.0
  0
LINE
  5
A7
330
1F
100
AcDbEntity
  8
AM_4
100
AcDbLine
 10
29.965909090909
 20
-2.375
 30
0.0
 11
29.0
 21
-2.375
 31
0.0
  0
LINE
  5
A8
330
1F
100
AcDbEntity
  8
AM_9
100
AcDbLine
 10
26.0
 20
-2.375
 30
0.0
 11
29.965909090909
 21
-2.375
 31
0.0
  0
LINE
  5
A9
330
1F
100
AcDbEntity
  8
AM_4
100
AcDbLine
 10
-29.090909090909
 20
-3.25
 30
0.0
 11
-29.090909090909
 21
-2.375
 31
0.0
  0
LINE
  5
AA
330
1F
100
AcDbEntity
  8
AM_4
100
AcDbLine
 10
-29.090909090909
 20
2.375
 30
0.0
 11
-29.090909090909
 21
3.25
 31
0.0
  0
LINE
  5
AB
330
1F
100
AcDbEntity
  8
AM_4
100
AcDbLine
 10
-29.0
 20
-2.375
 30
0.0
 11
-29.965909090909
 21
-2.375
 31
0.0
  0
LINE
  5
AC
330
1F
100
AcDbEntity
  8
AM_4
100
AcDbLine
 10
-29.965909090909
 20
2.375
 30
0.0
 11
-29.0
 21
2.375
 31
0.0
  0
LINE
  5
AD
330
1F
100
AcDbEntity
  8
AM_9
100
AcDbLine
 10
28.727272727273
 20
2.1666666666667
 30
0.0
 11
28.727272727273
 21
-2.1666666666667
 31
0.0
  0
LINE
  5
AE
330
1F
100
AcDbEntity
  8
AM_9
100
AcDbLine
 10
26.0
 20
-1.7291666666667
 30
0.0
 11
28.727272727273
 21
-1.7291666666667
 31
0.0
  0
LINE
  5
AF
330
1F
100
AcDbEntity
  8
AM_9
100
AcDbLine
 10
26.0
 20
-1.6311515995638
 30
0.0
 11
28.727272727273
 21
-1.6311515995638
 31
0.0
  0
LINE
  5
B0
330
1F
100
AcDbEntity
  8
AM_9
100
AcDbLine
 10
26.0
 20
-1.0066986025737
 30
0.0
 11
28.727272727273
 21
-1.0066986025737
 31
0.0
  0
LINE
  5
B1
330
1F
100
AcDbEntity
  8
AM_9
100
AcDbLine
 10
26.0
 20
-0.64814814814815
 30
0.0
 11
28.727272727273
 21
-0.64814814814815
 31
0.0
  0
LINE
  5
B2
330
1F
100
AcDbEntity
  8
AM_9
100
AcDbLine
 10
26.0
 20
-0.4375
 30
0.0
 11
28.727272727273
 21
-0.4375
 31
0.0
  0
LINE
  5
B3
330
1F
100
AcDbEntity
  8
AM_9
100
AcDbLine
 10
26.0
 20
0.4375
 30
0.0
 11
28.727272727273
 21
0.4375
 31
0.0
  0
LINE
  5
B4
330
1F
100
AcDbEntity
  8
AM_9
100
AcDbLine
 10
26.0
 20
0.64814814814815
 30
0.0
 11
28.727272727273
 21
0.64814814814815
 31
0.0
  0
LINE
  5
B5
330
1F
100
AcDbEntity
  8
AM_9
100
AcDbLine
 10
26.0
 20
1.0066986025737
 30
0.0
 11
28.727272727273
 21
1.0066986025737
 31
0.0
  0
LINE
  5
B6
330
1F
100
AcDbEntity
  8
AM_9
100
AcDbLine
 10
26.0
 20
1.6311515995638
 30
0.0
 11
28.727272727273
 21
1.6311515995638
 31
0.0
  0
LINE
  5
B7
330
1F
100
AcDbEntity
  8
AM_9
100
AcDbLine
 10
26.0
 20
1.7291666666667
 30
0.0
 11
28.727272727273
 21
1.7291666666667
 31
0.0
  0
LINE
  5
B8
330
1F
100
AcDbEntity
  8
AM_9
100
AcDbLine
 10
26.0
 20
2.1666666666667
 30
0.0
 11
28.727272727273
 21
2.1666666666667
 31
0.0
  0
LINE
  5
B9
330
1F
100
AcDbEntity
  8
AM_9
100
AcDbLine
 10
26.0
 20
2.0686515995638
 30
0.0
 11
28.727272727273
 21
2.0686515995638
 31
0.0
  0
LINE
  5
BA
330
1F
100
AcDbEntity
  8
AM_9
100
AcDbLine
 10
26.0
 20
0.96817284998733
 30
0.0
 11
28.727272727273
 21
0.96817284998733
 31
0.0
  0
LINE
  5
BB
330
1F
100
AcDbEntity
  8
AM_9
100
AcDbLine
 10
26.0
 20
-0.96817284998733
 30
0.0
 11
28.727272727273
 21
-0.96817284998733
 31
0.0
  0
LINE
  5
BC
330
1F
100
AcDbEntity
  8
AM_9
100
AcDbLine
 10
26.0
 20
-2.1666666666667
 30
0.0
 11
28.727272727273
 21
-2.1666666666667
 31
0.0
  0
LINE
  5
BD
330
1F
100
AcDbEntity
  8
AM_9
100
AcDbLine
 10
26.0
 20
-2.0686515995638
 30
0.0
 11
28.727272727273
 21
-2.0686515995638
 31
0.0
  0
LINE
  5
BE
330
1F
100
AcDbEntity
  8
AM_9
100
AcDbLine
 10
-29.965909090909
 20
-2.375
 30
0.0
 11
-26.0
 21
-2.375
 31
0.0
  0
LINE
  5
BF
330
1F
100
AcDbEntity
  8
AM_4
100
AcDbLine
 10
-29.965909090909
 20
-3.25
 30
0.0
 11
-29.965909090909
 21
-2.375
 31
0.0
  0
LINE
  5
C0
330
1F
100
AcDbEntity
  8
AM_4
100
AcDbLine
 10
-29.0
 20
-3.25
 30
0.0
 11
-32.0
 21
-3.25
 31
0.0
  0
LINE
  5
C1
330
1F
100
AcDbEntity
  8
AM_4
100
AcDbLine
 10
-32.0
 20
-3.25
 30
0.0
 11
-32.0
 21
3.25
 31
0.0
  0
LINE
  5
C2
330
1F
100
AcDbEntity
  8
AM_4
100
AcDbLine
 10
-29.0
 20
3.25
 30
0.0
 11
-32.0
 21
3.25
 31
0.0
  0
LINE
  5
C3
330
1F
100
AcDbEntity
  8
AM_4
100
AcDbLine
 10
-29.965909090909
 20
2.375
 30
0.0
 11
-29.965909090909
 21
3.25
 31
0.0
  0
LINE
  5
C4
330
1F
100
AcDbEntity
  8
AM_9
100
AcDbLine
 10
-29.965909090909
 20
2.375
 30
0.0
 11
-26.0
 21
2.375
 31
0.0
  0
LINE
  5
C5
330
1F
100
AcDbEntity
  8
AM_9
100
AcDbLine
 10
-26.0
 20
-2.1666666666667
 30
0.0
 11
-28.727272727273
 21
-2.1666666666667
 31
0.0
  0
LINE
  5
C6
330
1F
100
AcDbEntity
  8
AM_9
100
AcDbLine
 10
-26.0
 20
-2.0552999864754
 30
0.0
 11
-28.727272727273
 21
-2.0552999864754
 31
0.0
  0
LINE
  5
C7
330
1F
100
AcDbEntity
  8
AM_9
100
AcDbLine
 10
-26.0
 20
-1.0982894637904
 30
0.0
 11
-28.727272727273
 21
-1.0982894637904
 31
0.0
  0
LINE
  5
C8
330
1F
100
AcDbEntity
  8
AM_9
100
AcDbLine
 10
-28.727272727273
 20
2.1666666666667
 30
0.0
 11
-28.727272727273
 21
-2.1666666666667
 31
0.0
  0
LINE
  5
C9
330
1F
100
AcDbEntity
  8
AM_9
100
AcDbLine
 10
-26.0
 20
2.0552999864754
 30
0.0
 11
-28.727272727273
 21
2.0552999864754
 31
0.0
  0
LINE
  5
CA
330
1F
100
AcDbEntity
  8
AM_9
100
AcDbLine
 10
-26.0
 20
2.1666666666667
 30
0.0
 11
-28.727272727273
 21
2.1666666666667
 31
0.0
  0
LINE
  5
CB
330
1F
100
AcDbEntity
  8
AM_9
100
AcDbLine
 10
-26.0
 20
1.7291666666667
 30
0.0
 11
-28.727272727273
 21
1.7291666666667
 31
0.0
  0
LINE
  5
CC
330
1F
100
AcDbEntity
  8
AM_9
100
AcDbLine
 10
-26.0
 20
1.6177999864754
 30
0.0
 11
-28.727272727273
 21
1.6177999864754
 31
0.0
  0
LINE
  5
CD
330
1F
100
AcDbEntity
  8
AM_9
100
AcDbLine
 10
-26.0
 20
1.0776894934832
 30
0.0
 11
-28.727272727273
 21
1.0776894934832
 31
0.0
  0
LINE
  5
CE
330
1F
100
AcDbEntity
  8
AM_9
100
AcDbLine
 10
-26.0
 20
0.64814814814815
 30
0.0
 11
-28.727272727273
 21
0.64814814814815
 31
0.0
  0
LINE
  5
CF
330
1F
100
AcDbEntity
  8
AM_9
100
AcDbLine
 10
-26.0
 20
0.4375
 30
0.0
 11
-28.727272727273
 21
0.4375
 31
0.0
  0
LINE
  5
D0
330
1F
100
AcDbEntity
  8
AM_9
100
AcDbLine
 10
-26.0
 20
-0.4375
 30
0.0
 11
-28.727272727273
 21
-0.4375
 31
0.0
  0
LINE
  5
D1
330
1F
100
AcDbEntity
  8
AM_9
100
AcDbLine
 10
-26.0
 20
-0.64814814814815
 30
0.0
 11
-28.727272727273
 21
-0.64814814814815
 31
0.0
  0
LINE
  5
D2
330
1F
100
AcDbEntity
  8
AM_9
100
AcDbLine
 10
-26.0
 20
-1.0776894934832
 30
0.0
 11
-28.727272727273
 21
-1.0776894934832
 31
0.0
  0
LINE
  5
D3
330
1F
100
AcDbEntity
  8
AM_9
100
AcDbLine
 10
-26.0
 20
-1.6177999864754
 30
0.0
 11
-28.727272727273
 21
-1.6177999864754
 31
0.0
  0
LINE
  5
D4
330
1F
100
AcDbEntity
  8
AM_9
100
AcDbLine
 10
-26.0
 20
-1.7291666666667
 30
0.0
 11
-28.727272727273
 21
-1.7291666666667
 31
0.0
  0
LINE
  5
D5
330
1F
100
AcDbEntity
  8
AM_9
100
AcDbLine
 10
-26.0
 20
-3.25
 30
0.0
 11
-26.0
 21
3.25
 31
0.0
  0
LINE
  5
D6
330
1F
100
AcDbEntity
  8
AM_9
100
AcDbLine
 10
-26.0
 20
1.0982894637904
 30
0.0
 11
-28.727272727273
 21
1.0982894637904
 31
0.0
  0
LINE
  5
D7
330
1F
100
AcDbEntity
  8
AM_4
100
AcDbLine
 10
30.1379
 20
-0.625
 30
0.0
 11
30.1379
 21
0.625
 31
0.0
  0
LINE
  5
D8
330
1F
100
AcDbEntity
  8
AM_9
100
AcDbLine
 10
30.1875
 20
0.5754
 30
0.0
 11
30.1875
 21
-0.5754
 31
0.0
  0
LINE
  5
D9
330
1F
100
AcDbEntity
  8
AM_4
100
AcDbLine
 10
31.0625
 20
-0.78125
 30
0.0
 11
31.0625
 21
0.78125
 31
0.0
  0
LINE
  5
DA
330
1F
100
AcDbEntity
  8
AM_4
100
AcDbLine
 10
30.1875
 20
-0.78125
 30
0.0
 11
30.1875
 21
0.78125
 31
0.0
  0
LINE
  5
DB
330
1F
100
AcDbEntity
  8
AM_4
100
AcDbLine
 10
31.0625
 20
0.78125
 30
0.0
 11
30.1875
 21
0.78125
 31
0.0
  0
LWPOLYLINE
  5
DC
330
1F
100
AcDbEntity
  8
AM_4
100
AcDbPolyline
 90
       23
 70
     0
 43
0.0
 10
30.992721564471
 20
0.78125
 10
30.996584733038
 20
0.7695275843902
 10
31.003954567791
 20
0.74635586021873
 10
31.010858314743
 20
0.72352138181251
 10
31.014138570344
 20
0.7122207577868
 10
31.017305944658
 20
0.7009927351097
 10
31.023306181976
 20
0.67873936220704
 10
31.028866544197
 20
0.65673142307192
 10
31.033993373117
 20
0.63493966193314
 10
31.038691858183
 20
0.61333527709107
 10
31.042966052139
 20
0.59188979292496
 10
31.044944997745
 20
0.58121779787089
 10
31.046818879042
 20
0.57057493289129
 10
31.050252134622
 20
0.54936249230453
 10
31.053266478863
 20
0.52822420966857
 10
31.05586142059
 20
0.50713163528303
 10
31.058035293723
 20
0.48605599578248
 10
31.059785224742
 20
0.46496805317558
 10
31.060499973719
 20
0.45441016803547
 10
31.061107090796
 20
0.44383795683315
 10
31.061995467717
 20
0.42263508672526
 10
31.062443567055
 20
0.40132788602279
 10
31.0625
 20
0.39062500000001
  0
LWPOLYLINE
  5
DD
330
1F
100
AcDbEntity
  8
AM_4
100
AcDbPolyline
 90
       23
 70
     0
 43
0.0
 10
31.0625
 20
0.39062500000001
 10
31.062443567055
 20
0.37992211397722
 10
31.061995467717
 20
0.35861491327475
 10
31.061107090796
 20
0.33741204316686
 10
31.060499973719
 20
0.32683983196454
 10
31.059785224742
 20
0.31628194682443
 10
31.058035293723
 20
0.29519400421752
 10
31.05586142059
 20
0.27411836471698
 10
31.053266478863
 20
0.25302579033144
 10
31.050252134622
 20
0.23188750769548
 10
31.046818879042
 20
0.21067506710872
 10
31.044944997745
 20
0.20003220212912
 10
31.042966052139
 20
0.18936020707504
 10
31.038691858183
 20
0.16791472290894
 10
31.033993373117
 20
0.14631033806687
 10
31.028866544197
 20
0.12451857692808
 10
31.023306181976
 20
0.10251063779297
 10
31.017305944658
 20
0.080257264890303
 10
31.014138570344
 20
0.0690292422132
 10
31.010858314743
 20
0.057728618187491
 10
31.003954567791
 20
0.034894139781268
 10
30.996584733038
 20
0.011722415609797
 10
30.992721564471
 20
0.0
  0
LWPOLYLINE
  5
DE
330
1F
100
AcDbEntity
  8
AM_4
100
AcDbPolyline
 90
       23
 70
     0
 43
0.0
 10
30.257278435529
 20
0.0
 10
30.253415266962
 20
0.011722415609797
 10
30.246045432209
 20
0.034894139781268
 10
30.239141685257
 20
0.057728618187491
 10
30.235861429656
 20
0.0690292422132
 10
30.232694055342
 20
0.080257264890303
 10
30.226693818024
 20
0.10251063779297
 10
30.221133455803
 20
0.12451857692808
 10
30.216006626883
 20
0.14631033806687
 10
30.211308141817
 20
0.16791472290894
 10
30.207033947861
 20
0.18936020707504
 10
30.205055002255
 20
0.20003220212912
 10
30.203181120958
 20
0.21067506710872
 10
30.199747865378
 20
0.23188750769548
 10
30.196733521137
 20
0.25302579033144
 10
30.19413857941
 20
0.27411836471698
 10
30.191964706277
 20
0.29519400421752
 10
30.190214775258
 20
0.31628194682443
 10
30.189500026281
 20
0.32683983196454
 10
30.188892909204
 20
0.33741204316686
 10
30.188004532283
 20
0.35861491327475
 10
30.187556432945
 20
0.37992211397722
 10
30.1875
 20
0.39062500000001
  0
LWPOLYLINE
  5
DF
330
1F
100
AcDbEntity
  8
AM_4
100
AcDbPolyline
 90
       23
 70
     0
 43
0.0
 10
30.1875
 20
0.39062500000001
 10
30.187556432945
 20
0.40132788602279
 10
30.188004532283
 20
0.42263508672526
 10
30.188892909204
 20
0.44383795683315
 10
30.189500026281
 20
0.45441016803547
 10
30.190214775258
 20
0.46496805317558
 10
30.191964706277
 20
0.48605599578248
 10
30.19413857941
 20
0.50713163528303
 10
30.196733521137
 20
0.52822420966857
 10
30.199747865378
 20
0.54936249230453
 10
30.203181120958
 20
0.57057493289129
 10
30.205055002255
 20
0.58121779787089
 10
30.207033947861
 20
0.59188979292496
 10
30.211308141817
 20
0.61333527709107
 10
30.216006626883
 20
0.63493966193314
 10
30.221133455803
 20
0.65673142307192
 10
30.226693818024
 20
0.67873936220704
 10
30.232694055342
 20
0.7009927351097
 10
30.235861429656
 20
0.7122207577868
 10
30.239141685257
 20
0.72352138181251
 10
30.246045432209
 20
0.74635586021873
 10
30.253415266962
 20
0.7695275843902
 10
30.257278435529
 20
0.78125
  0
LINE
  5
E0
330
1F
100
AcDbEntity
  8
AM_4
100
AcDbLine
 10
30.992721564471
 20
0.0
 30
0.0
 11
30.257278435529
 21
0.0
 31
0.0
  0
LWPOLYLINE
  5
E1
330
1F
100
AcDbEntity
  8
AM_4
100
AcDbPolyline
 90
       23
 70
     0
 43
0.0
 10
30.992721564471
 20
0.0
 10
30.996584733038
 20
-0.011722415609797
 10
31.003954567791
 20
-0.034894139781268
 10
31.010858314743
 20
-0.057728618187491
 10
31.014138570344
 20
-0.0690292422132
 10
31.017305944658
 20
-0.080257264890303
 10
31.023306181976
 20
-0.10251063779297
 10
31.028866544197
 20
-0.12451857692808
 10
31.033993373117
 20
-0.14631033806687
 10
31.038691858183
 20
-0.16791472290894
 10
31.042966052139
 20
-0.18936020707504
 10
31.044944997745
 20
-0.20003220212912
 10
31.046818879042
 20
-0.21067506710872
 10
31.050252134622
 20
-0.23188750769548
 10
31.053266478863
 20
-0.25302579033144
 10
31.05586142059
 20
-0.27411836471698
 10
31.058035293723
 20
-0.29519400421752
 10
31.059785224742
 20
-0.31628194682443
 10
31.060499973719
 20
-0.32683983196454
 10
31.061107090796
 20
-0.33741204316686
 10
31.061995467717
 20
-0.35861491327475
 10
31.062443567055
 20
-0.37992211397722
 10
31.0625
 20
-0.39062500000001
  0
LWPOLYLINE
  5
E2
330
1F
100
AcDbEntity
  8
AM_4
100
AcDbPolyline
 90
       23
 70
     0
 43
0.0
 10
31.0625
 20
-0.39062500000001
 10
31.062443567055
 20
-0.40132788602279
 10
31.061995467717
 20
-0.42263508672526
 10
31.061107090796
 20
-0.44383795683315
 10
31.060499973719
 20
-0.45441016803547
 10
31.059785224742
 20
-0.46496805317558
 10
31.058035293723
 20
-0.48605599578249
 10
31.05586142059
 20
-0.50713163528303
 10
31.053266478863
 20
-0.52822420966857
 10
31.050252134622
 20
-0.54936249230453
 10
31.046818879042
 20
-0.57057493289129
 10
31.044944997745
 20
-0.58121779787089
 10
31.042966052139
 20
-0.59188979292496
 10
31.038691858183
 20
-0.61333527709107
 10
31.033993373117
 20
-0.63493966193314
 10
31.028866544197
 20
-0.65673142307192
 10
31.023306181976
 20
-0.67873936220704
 10
31.017305944658
 20
-0.7009927351097
 10
31.014138570344
 20
-0.7122207577868
 10
31.010858314743
 20
-0.72352138181251
 10
31.003954567791
 20
-0.74635586021873
 10
30.996584733038
 20
-0.7695275843902
 10
30.992721564471
 20
-0.78125
  0
LWPOLYLINE
  5
E3
330
1F
100
AcDbEntity
  8
AM_4
100
AcDbPolyline
 90
       23
 70
     0
 43
0.0
 10
30.257278435529
 20
-0.78125
 10
30.253415266962
 20
-0.7695275843902
 10
30.246045432209
 20
-0.74635586021873
 10
30.239141685257
 20
-0.72352138181251
 10
30.235861429656
 20
-0.7122207577868
 10
30.232694055342
 20
-0.7009927351097
 10
30.226693818024
 20
-0.67873936220704
 10
30.221133455803
 20
-0.65673142307192
 10
30.216006626883
 20
-0.63493966193314
 10
30.211308141817
 20
-0.61333527709107
 10
30.207033947861
 20
-0.59188979292496
 10
30.205055002255
 20
-0.58121779787089
 10
30.203181120958
 20
-0.57057493289129
 10
30.199747865378
 20
-0.54936249230453
 10
30.196733521137
 20
-0.52822420966857
 10
30.19413857941
 20
-0.50713163528303
 10
30.191964706277
 20
-0.48605599578249
 10
30.190214775258
 20
-0.46496805317558
 10
30.189500026281
 20
-0.45441016803547
 10
30.188892909204
 20
-0.44383795683315
 10
30.188004532283
 20
-0.42263508672526
 10
30.187556432945
 20
-0.40132788602279
 10
30.1875
 20
-0.39062500000001
  0
LWPOLYLINE
  5
E4
330
1F
100
AcDbEntity
  8
AM_4
100
AcDbPolyline
 90
       23
 70
     0
 43
0.0
 10
30.1875
 20
-0.39062500000001
 10
30.187556432945
 20
-0.37992211397722
 10
30.188004532283
 20
-0.35861491327475
 10
30.188892909204
 20
-0.33741204316686
 10
30.189500026281
 20
-0.32683983196454
 10
30.190214775258
 20
-0.31628194682443
 10
30.191964706277
 20
-0.29519400421752
 10
30.19413857941
 20
-0.27411836471698
 10
30.196733521137
 20
-0.25302579033144
 10
30.199747865378
 20
-0.23188750769548
 10
30.203181120958
 20
-0.21067506710872
 10
30.205055002255
 20
-0.20003220212912
 10
30.207033947861
 20
-0.18936020707504
 10
30.211308141817
 20
-0.16791472290894
 10
30.216006626883
 20
-0.14631033806687
 10
30.221133455803
 20
-0.12451857692808
 10
30.226693818024
 20
-0.10251063779297
 10
30.232694055342
 20
-0.080257264890303
 10
30.235861429656
 20
-0.0690292422132
 10
30.239141685257
 20
-0.057728618187491
 10
30.246045432209
 20
-0.034894139781268
 10
30.253415266962
 20
-0.011722415609797
 10
30.257278435529
 20
0.0
  0
LINE
  5
E5
330
1F
100
AcDbEntity
  8
AM_4
100
AcDbLine
 10
30.1875
 20
-0.78125
 30
0.0
 11
31.0625
 21
-0.78125
 31
0.0
  0
LINE
  5
E6
330
1F
100
AcDbEntity
  8
AM_9
100
AcDbLine
 10
-30.625
 20
0.625
 30
0.0
 11
-30.625
 21
-0.625
 31
0.0
  0
LINE
  5
E7
330
1F
100
AcDbEntity
  8
AM_4
100
AcDbLine
 10
-30.625
 20
-0.78125
 30
0.0
 11
-30.625
 21
0.78125
 31
0.0
  0
LINE
  5
E8
330
1F
100
AcDbEntity
  8
AM_4
100
AcDbLine
 10
-31.5
 20
-0.78125
 30
0.0
 11
-31.5
 21
0.78125
 31
0.0
  0
LINE
  5
E9
330
1F
100
AcDbEntity
  8
AM_4
100
AcDbLine
 10
-30.625
 20
0.78125
 30
0.0
 11
-31.5
 21
0.78125
 31
0.0
  0
LWPOLYLINE
  5
EA
330
1F
100
AcDbEntity
  8
AM_4
100
AcDbPolyline
 90
       23
 70
     0
 43
0.0
 10
-30.694778435529
 20
0.78125
 10
-30.690915266962
 20
0.7695275843902
 10
-30.683545432209
 20
0.74635586021873
 10
-30.676641685257
 20
0.72352138181251
 10
-30.673361429656
 20
0.7122207577868
 10
-30.670194055342
 20
0.7009927351097
 10
-30.664193818024
 20
0.67873936220704
 10
-30.658633455803
 20
0.65673142307192
 10
-30.653506626883
 20
0.63493966193314
 10
-30.648808141817
 20
0.61333527709107
 10
-30.644533947861
 20
0.59188979292496
 10
-30.642555002255
 20
0.58121779787089
 10
-30.640681120958
 20
0.57057493289129
 10
-30.637247865378
 20
0.54936249230453
 10
-30.634233521137
 20
0.52822420966857
 10
-30.63163857941
 20
0.50713163528303
 10
-30.629464706277
 20
0.48605599578248
 10
-30.627714775258
 20
0.46496805317558
 10
-30.627000026281
 20
0.45441016803547
 10
-30.626392909204
 20
0.44383795683315
 10
-30.625504532283
 20
0.42263508672526
 10
-30.625056432945
 20
0.40132788602279
 10
-30.625
 20
0.39062500000001
  0
LWPOLYLINE
  5
EB
330
1F
100
AcDbEntity
  8
AM_4
100
AcDbPolyline
 90
       23
 70
     0
 43
0.0
 10
-30.625
 20
0.39062500000001
 10
-30.625056432945
 20
0.37992211397722
 10
-30.625504532283
 20
0.35861491327475
 10
-30.626392909204
 20
0.33741204316686
 10
-30.627000026281
 20
0.32683983196454
 10
-30.627714775258
 20
0.31628194682443
 10
-30.629464706277
 20
0.29519400421752
 10
-30.63163857941
 20
0.27411836471698
 10
-30.634233521137
 20
0.25302579033144
 10
-30.637247865378
 20
0.23188750769548
 10
-30.640681120958
 20
0.21067506710872
 10
-30.642555002255
 20
0.20003220212912
 10
-30.644533947861
 20
0.18936020707504
 10
-30.648808141817
 20
0.16791472290894
 10
-30.653506626883
 20
0.14631033806687
 10
-30.658633455803
 20
0.12451857692808
 10
-30.664193818024
 20
0.10251063779297
 10
-30.670194055342
 20
0.080257264890303
 10
-30.673361429656
 20
0.0690292422132
 10
-30.676641685257
 20
0.057728618187491
 10
-30.683545432209
 20
0.034894139781268
 10
-30.690915266962
 20
0.011722415609797
 10
-30.694778435529
 20
0.0
  0
LWPOLYLINE
  5
EC
330
1F
100
AcDbEntity
  8
AM_4
100
AcDbPolyline
 90
       23
 70
     0
 43
0.0
 10
-31.430221564471
 20
0.0
 10
-31.434084733038
 20
0.011722415609797
 10
-31.441454567791
 20
0.034894139781268
 10
-31.448358314743
 20
0.057728618187491
 10
-31.451638570344
 20
0.0690292422132
 10
-31.454805944658
 20
0.080257264890303
 10
-31.460806181976
 20
0.10251063779297
 10
-31.466366544197
 20
0.12451857692808
 10
-31.471493373117
 20
0.14631033806687
 10
-31.476191858183
 20
0.16791472290894
 10
-31.480466052139
 20
0.18936020707504
 10
-31.482444997745
 20
0.20003220212912
 10
-31.484318879042
 20
0.21067506710872
 10
-31.487752134622
 20
0.23188750769548
 10
-31.490766478863
 20
0.25302579033144
 10
-31.49336142059
 20
0.27411836471698
 10
-31.495535293723
 20
0.29519400421752
 10
-31.497285224742
 20
0.31628194682443
 10
-31.497999973719
 20
0.32683983196454
 10
-31.498607090796
 20
0.33741204316686
 10
-31.499495467717
 20
0.35861491327475
 10
-31.499943567055
 20
0.37992211397722
 10
-31.5
 20
0.39062500000001
  0
LWPOLYLINE
  5
ED
330
1F
100
AcDbEntity
  8
AM_4
100
AcDbPolyline
 90
       23
 70
     0
 43
0.0
 10
-31.5
 20
0.39062500000001
 10
-31.499943567055
 20
0.40132788602279
 10
-31.499495467717
 20
0.42263508672526
 10
-31.498607090796
 20
0.44383795683315
 10
-31.497999973719
 20
0.45441016803547
 10
-31.497285224742
 20
0.46496805317558
 10
-31.495535293723
 20
0.48605599578248
 10
-31.49336142059
 20
0.50713163528303
 10
-31.490766478863
 20
0.52822420966857
 10
-31.487752134622
 20
0.54936249230453
 10
-31.484318879042
 20
0.57057493289129
 10
-31.482444997745
 20
0.58121779787089
 10
-31.480466052139
 20
0.59188979292496
 10
-31.476191858183
 20
0.61333527709107
 10
-31.471493373117
 20
0.63493966193314
 10
-31.466366544197
 20
0.65673142307192
 10
-31.460806181976
 20
0.67873936220704
 10
-31.454805944658
 20
0.7009927351097
 10
-31.451638570344
 20
0.7122207577868
 10
-31.448358314743
 20
0.72352138181251
 10
-31.441454567791
 20
0.74635586021873
 10
-31.434084733038
 20
0.7695275843902
 10
-31.430221564471
 20
0.78125
  0
LINE
  5
EE
330
1F
100
AcDbEntity
  8
AM_4
100
AcDbLine
 10
-30.694778435529
 20
0.0
 30
0.0
 11
-31.430221564471
 21
0.0
 31
0.0
  0
LWPOLYLINE
  5
EF
330
1F
100
AcDbEntity
  8
AM_4
100
AcDbPolyline
 90
       23
 70
     0
 43
0.0
 10
-30.694778435529
 20
0.0
 10
-30.690915266962
 20
-0.011722415609797
 10
-30.683545432209
 20
-0.034894139781268
 10
-30.676641685257
 20
-0.057728618187491
 10
-30.673361429656
 20
-0.069029242213201
 10
-30.670194055342
 20
-0.080257264890304
 10
-30.664193818024
 20
-0.10251063779297
 10
-30.658633455803
 20
-0.12451857692808
 10
-30.653506626883
 20
-0.14631033806687
 10
-30.648808141817
 20
-0.16791472290894
 10
-30.644533947861
 20
-0.18936020707504
 10
-30.642555002255
 20
-0.20003220212912
 10
-30.640681120958
 20
-0.21067506710872
 10
-30.637247865378
 20
-0.23188750769548
 10
-30.634233521137
 20
-0.25302579033144
 10
-30.63163857941
 20
-0.27411836471698
 10
-30.629464706277
 20
-0.29519400421752
 10
-30.627714775258
 20
-0.31628194682443
 10
-30.627000026281
 20
-0.32683983196454
 10
-30.626392909204
 20
-0.33741204316686
 10
-30.625504532283
 20
-0.35861491327475
 10
-30.625056432945
 20
-0.37992211397722
 10
-30.625
 20
-0.39062500000001
  0
LWPOLYLINE
  5
F0
330
1F
100
AcDbEntity
  8
AM_4
100
AcDbPolyline
 90
       23
 70
     0
 43
0.0
 10
-30.625
 20
-0.39062500000001
 10
-30.625056432945
 20
-0.40132788602279
 10
-30.625504532283
 20
-0.42263508672526
 10
-30.626392909204
 20
-0.44383795683315
 10
-30.627000026281
 20
-0.45441016803547
 10
-30.627714775258
 20
-0.46496805317558
 10
-30.629464706277
 20
-0.48605599578249
 10
-30.63163857941
 20
-0.50713163528303
 10
-30.634233521137
 20
-0.52822420966857
 10
-30.637247865378
 20
-0.54936249230453
 10
-30.640681120958
 20
-0.57057493289129
 10
-30.642555002255
 20
-0.58121779787089
 10
-30.644533947861
 20
-0.59188979292496
 10
-30.648808141817
 20
-0.61333527709107
 10
-30.653506626883
 20
-0.63493966193314
 10
-30.658633455803
 20
-0.65673142307192
 10
-30.664193818024
 20
-0.67873936220704
 10
-30.670194055342
 20
-0.7009927351097
 10
-30.673361429656
 20
-0.7122207577868
 10
-30.676641685257
 20
-0.72352138181251
 10
-30.683545432209
 20
-0.74635586021873
 10
-30.690915266962
 20
-0.7695275843902
 10
-30.694778435529
 20
-0.78125
  0
LWPOLYLINE
  5
F1
330
1F
100
AcDbEntity
  8
AM_4
100
AcDbPolyline
 90
       23
 70
     0
 43
0.0
 10
-31.430221564471
 20
-0.78125
 10
-31.434084733038
 20
-0.7695275843902
 10
-31.441454567791
 20
-0.74635586021873
 10
-31.448358314743
 20
-0.72352138181251
 10
-31.451638570344
 20
-0.7122207577868
 10
-31.454805944658
 20
-0.7009927351097
 10
-31.460806181976
 20
-0.67873936220704
 10
-31.466366544197
 20
-0.65673142307192
 10
-31.471493373117
 20
-0.63493966193314
 10
-31.476191858183
 20
-0.61333527709107
 10
-31.480466052139
 20
-0.59188979292496
 10
-31.482444997745
 20
-0.58121779787089
 10
-31.484318879042
 20
-0.57057493289129
 10
-31.487752134622
 20
-0.54936249230453
 10
-31.490766478863
 20
-0.52822420966857
 10
-31.49336142059
 20
-0.50713163528303
 10
-31.495535293723
 20
-0.48605599578249
 10
-31.497285224742
 20
-0.46496805317558
 10
-31.497999973719
 20
-0.45441016803547
 10
-31.498607090796
 20
-0.44383795683315
 10
-31.499495467717
 20
-0.42263508672526
 10
-31.499943567055
 20
-0.40132788602279
 10
-31.5
 20
-0.39062500000001
  0
LWPOLYLINE
  5
F2
330
1F
100
AcDbEntity
  8
AM_4
100
AcDbPolyline
 90
       23
 70
     0
 43
0.0
 10
-31.5
 20
-0.39062500000001
 10
-31.499943567055
 20
-0.37992211397722
 10
-31.499495467717
 20
-0.35861491327475
 10
-31.498607090796
 20
-0.33741204316686
 10
-31.497999973719
 20
-0.32683983196454
 10
-31.497285224742
 20
-0.31628194682443
 10
-31.495535293723
 20
-0.29519400421752
 10
-31.49336142059
 20
-0.27411836471698
 10
-31.490766478863
 20
-0.25302579033144
 10
-31.487752134622
 20
-0.23188750769548
 10
-31.484318879042
 20
-0.21067506710872
 10
-31.482444997745
 20
-0.20003220212912
 10
-31.480466052139
 20
-0.18936020707504
 10
-31.476191858183
 20
-0.16791472290894
 10
-31.471493373117
 20
-0.14631033806687
 10
-31.466366544197
 20
-0.12451857692808
 10
-31.460806181976
 20
-0.10251063779297
 10
-31.454805944658
 20
-0.080257264890304
 10
-31.451638570344
 20
-0.0690292422132
 10
-31.448358314743
 20
-0.057728618187491
 10
-31.441454567791
 20
-0.034894139781268
 10
-31.434084733038
 20
-0.011722415609797
 10
-31.430221564471
 20
0.0
  0
LINE
  5
F3
330
1F
100
AcDbEntity
  8
AM_4
100
AcDbLine
 10
-31.5
 20
-0.78125
 30
0.0
 11
-30.625
 21
-0.78125
 31
0.0
  0
ARC
  5
F4
330
1F
100
AcDbEntity
  8
AM_4
100
AcDbCircle
 10
30.625
 20
1.44196428571428
 30
0.0
 40
0.3794642857142804
100
AcDbArc
 50
188.7974107099858
 51
351.2025892900141
  0
LINE
  5
F5
330
1F
100
AcDbEntity
  8
AM_4
100
AcDbLine
 10
31.0
 20
1.6160714285714
 30
0.0
 11
31.0
 21
1.3839285714286
 31
0.0
  0
ARC
  5
F6
330
1F
100
AcDbEntity
  8
AM_4
100
AcDbCircle
 10
30.625
 20
1.55803571428572
 30
0.0
 40
0.3794642857142804
100
AcDbArc
 50
8.797410709985892
 51
171.2025892900141
  0
LINE
  5
F7
330
1F
100
AcDbEntity
  8
AM_4
100
AcDbLine
 10
30.25
 20
1.3839285714286
 30
0.0
 11
30.25
 21
1.6160714285714
 31
0.0
  0
ARC
  5
F8
330
1F
100
AcDbEntity
  8
AM_4
100
AcDbCircle
 10
30.625
 20
-1.55803571428572
 30
0.0
 40
0.3794642857142804
100
AcDbArc
 50
188.7974107099859
 51
351.2025892900141
  0
LINE
  5
F9
330
1F
100
AcDbEntity
  8
AM_4
100
AcDbLine
 10
31.0
 20
-1.3839285714286
 30
0.0
 11
31.0
 21
-1.6160714285714
 31
0.0
  0
ARC
  5
FA
330
1F
100
AcDbEntity
  8
AM_4
100
AcDbCircle
 10
30.625
 20
-1.44196428571428
 30
0.0
 40
0.3794642857142804
100
AcDbArc
 50
8.79741070998581
 51
171.2025892900142
  0
LINE
  5
FB
330
1F
100
AcDbEntity
  8
AM_4
100
AcDbLine
 10
30.25
 20
-1.6160714285714
 30
0.0
 11
30.25
 21
-1.3839285714286
 31
0.0
  0
ARC
  5
FC
330
1F
100
AcDbEntity
  8
AM_4
100
AcDbCircle
 10
-30.625
 20
1.44196428571428
 30
0.0
 40
0.3794642857142804
100
AcDbArc
 50
188.7974107099858
 51
351.2025892900141
  0
LINE
  5
FD
330
1F
100
AcDbEntity
  8
AM_4
100
AcDbLine
 10
-30.25
 20
1.6160714285714
 30
0.0
 11
-30.25
 21
1.3839285714286
 31
0.0
  0
ARC
  5
FE
330
1F
100
AcDbEntity
  8
AM_4
100
AcDbCircle
 10
-30.625
 20
1.55803571428572
 30
0.0
 40
0.3794642857142804
100
AcDbArc
 50
8.797410709985892
 51
171.2025892900141
  0
LINE
  5
FF
330
1F
100
AcDbEntity
  8
AM_4
100
AcDbLine
 10
-31.0
 20
1.3839285714286
 30
0.0
 11
-31.0
 21
1.6160714285714
 31
0.0
  0
ARC
  5
100
330
1F
100
AcDbEntity
  8
AM_4
100
AcDbCircle
 10
-30.625
 20
-1.55803571428572
 30
0.0
 40
0.3794642857142804
100
AcDbArc
 50
188.7974107099859
 51
351.2025892900141
  0
LINE
  5
101
330
1F
100
AcDbEntity
  8
AM_4
100
AcDbLine
 10
-30.25
 20
-1.3839285714286
 30
0.0
 11
-30.25
 21
-1.6160714285714
 31
0.0
  0
ARC
  5
102
330
1F
100
AcDbEntity
  8
AM_4
100
AcDbCircle
 10
-30.625
 20
-1.44196428571428
 30
0.0
 40
0.3794642857142804
100
AcDbArc
 50
8.79741070998581
 51
171.2025892900142
  0
LINE
  5
103
330
1F
100
AcDbEntity
  8
AM_4
100
AcDbLine
 10
-31.0
 20
-1.6160714285714
 30
0.0
 11
-31.0
 21
-1.3839285714286
 31
0.0
  0
LINE
  5
104
330
1F
100
AcDbEntity
  8
AM_9
100
AcDbLine
 10
-3.9125
 20
-5.0
 30
0.0
 11
-3.9125
 21
5.0
 31
0.0
  0
LINE
  5
105
330
1F
100
AcDbEntity
  8
AM_9
100
AcDbLine
 10
3.9125
 20
-5.0
 30
0.0
 11
3.9125
 21
5.0
 31
0.0
  0
LINE
  5
106
330
1F
100
AcDbEntity
  8
AM_4
100
AcDbLine
 10
-8.0
 20
3.0
 30
0.0
 11
-4.0
 21
3.0
 31
0.0
  0
LINE
  5
107
330
1F
100
AcDbEntity
  8
AM_4
100
AcDbLine
 10
-8.0
 20
-3.0
 30
0.0
 11
-4.0
 21
-3.0
 31
0.0
  0
LINE
  5
108
330
1F
100
AcDbEntity
  8
AM_4
100
AcDbLine
 10
8.0
 20
-5.0
 30
0.0
 11
-8.0
 21
-5.0
 31
0.0
  0
LINE
  5
109
330
1F
100
AcDbEntity
  8
AM_4
100
AcDbLine
 10
-8.0
 20
5.0
 30
0.0
 11
-8.0
 21
-5.0
 31
0.0
  0
LINE
  5
10A
330
1F
100
AcDbEntity
  8
AM_4
100
AcDbLine
 10
4.0
 20
-4.565329218107
 30
0.0
 11
-4.0
 21
-4.565329218107
 31
0.0
  0
LINE
  5
10B
330
1F
100
AcDbEntity
  8
AM_4
100
AcDbLine
 10
4.0
 20
-4.3186407705035
 30
0.0
 11
-4.0
 21
-4.3186407705035
 31
0.0
  0
LINE
  5
10C
330
1F
100
AcDbEntity
  8
AM_9
100
AcDbLine
 10
-4.0
 20
-5.0
 30
0.0
 11
-4.0
 21
5.0
 31
0.0
  0
LINE
  5
10D
330
1F
100
AcDbEntity
  8
AM_9
100
AcDbLine
 10
4.0
 20
-5.0
 30
0.0
 11
4.0
 21
5.0
 31
0.0
  0
LINE
  5
10E
330
1F
100
AcDbEntity
  8
AM_4
100
AcDbLine
 10
8.0
 20
5.0
 30
0.0
 11
8.0
 21
-5.0
 31
0.0
  0
LINE
  5
10F
330
1F
100
AcDbEntity
  8
AM_4
100
AcDbLine
 10
4.0
 20
4.565329218107
 30
0.0
 11
4.0
 21
0.97758819057927
 31
0.0
  0
LINE
  5
110
330
1F
100
AcDbEntity
  8
AM_4
100
AcDbLine
 10
8.0
 20
5.0
 30
0.0
 11
-8.0
 21
5.0
 31
0.0
  0
LINE
  5
111
330
1F
100
AcDbEntity
  8
AM_4
100
AcDbLine
 10
4.0
 20
4.3186407705035
 30
0.0
 11
-4.0
 21
4.3186407705035
 31
0.0
  0
LINE
  5
112
330
1F
100
AcDbEntity
  8
AM_4
100
AcDbLine
 10
4.0
 20
4.565329218107
 30
0.0
 11
-4.0
 21
4.565329218107
 31
0.0
  0
LINE
  5
113
330
1F
100
AcDbEntity
  8
AM_4
100
AcDbLine
 10
28.610843918244
 20
-2.5254858352077
 30
0.0
 11
28.430421959122
 21
-2.7457387423237
 31
0.0
  0
LINE
  5
114
330
1F
100
AcDbEntity
  8
AM_4
100
AcDbLine
 10
28.610843918244
 20
-2.3776948312611
 30
0.0
 11
28.610843918244
 21
-2.5254858352077
 31
0.0
  0
LINE
  5
115
330
1F
100
AcDbEntity
  8
AM_4
100
AcDbLine
 10
28.430421959122
 20
-2.3052329280916
 30
0.0
 11
28.610843918244
 21
-2.5254858352077
 31
0.0
  0
LINE
  5
116
330
1F
100
AcDbEntity
  8
AM_4
100
AcDbLine
 10
28.430421959122
 20
-2.1574419241451
 30
0.0
 11
28.430421959122
 21
-2.3052329280916
 31
0.0
  0
LINE
  5
117
330
1F
100
AcDbEntity
  8
AM_4
100
AcDbLine
 10
28.069578040878
 20
-2.3052329280916
 30
0.0
 11
28.430421959122
 21
-2.3052329280916
 31
0.0
  0
LINE
  5
118
330
1F
100
AcDbEntity
  8
AM_4
100
AcDbLine
 10
28.069578040878
 20
-2.1574419241451
 30
0.0
 11
28.069578040878
 21
-2.3052329280916
 31
0.0
  0
LINE
  5
119
330
1F
100
AcDbEntity
  8
AM_4
100
AcDbLine
 10
27.889156081757
 20
-2.5254858352077
 30
0.0
 11
28.069578040878
 21
-2.3052329280916
 31
0.0
  0
LINE
  5
11A
330
1F
100
AcDbEntity
  8
AM_4
100
AcDbLine
 10
27.889156081757
 20
-2.3776948312611
 30
0.0
 11
27.889156081757
 21
-2.5254858352077
 31
0.0
  0
LINE
  5
11B
330
1F
100
AcDbEntity
  8
AM_4
100
AcDbLine
 10
28.069578040878
 20
-2.7457387423237
 30
0.0
 11
27.889156081757
 21
-2.5254858352077
 31
0.0
  0
LINE
  5
11C
330
1F
100
AcDbEntity
  8
AM_9
100
AcDbLine
 10
28.430421959122
 20
-2.5979477383772
 30
0.0
 11
28.430421959122
 21
-2.7457387423237
 31
0.0
  0
LINE
  5
11D
330
1F
100
AcDbEntity
  8
AM_9
100
AcDbLine
 10
28.069578040878
 20
-2.5979477383772
 30
0.0
 11
28.069578040878
 21
-2.7457387423237
 31
0.0
  0
LINE
  5
11E
330
1F
100
AcDbEntity
  8
AM_4
100
AcDbLine
 10
28.430421959122
 20
-2.7457387423237
 30
0.0
 11
28.069578040878
 21
-2.7457387423237
 31
0.0
  0
LINE
  5
11F
330
1F
100
AcDbEntity
  8
AM_4
100
AcDbLine
 10
27.360843918243
 20
-2.5254858352077
 30
0.0
 11
27.180421959122
 21
-2.7457387423237
 31
0.0
  0
LINE
  5
120
330
1F
100
AcDbEntity
  8
AM_4
100
AcDbLine
 10
27.360843918243
 20
-2.3776948312611
 30
0.0
 11
27.360843918243
 21
-2.5254858352077
 31
0.0
  0
LINE
  5
121
330
1F
100
AcDbEntity
  8
AM_4
100
AcDbLine
 10
27.180421959122
 20
-2.3052329280916
 30
0.0
 11
27.360843918243
 21
-2.5254858352077
 31
0.0
  0
LINE
  5
122
330
1F
100
AcDbEntity
  8
AM_4
100
AcDbLine
 10
27.180421959122
 20
-2.1574419241451
 30
0.0
 11
27.180421959122
 21
-2.3052329280916
 31
0.0
  0
LINE
  5
123
330
1F
100
AcDbEntity
  8
AM_4
100
AcDbLine
 10
26.819578040878
 20
-2.3052329280916
 30
0.0
 11
27.180421959122
 21
-2.3052329280916
 31
0.0
  0
LINE
  5
124
330
1F
100
AcDbEntity
  8
AM_4
100
AcDbLine
 10
26.819578040878
 20
-2.1574419241451
 30
0.0
 11
26.819578040878
 21
-2.3052329280916
 31
0.0
  0
LINE
  5
125
330
1F
100
AcDbEntity
  8
AM_4
100
AcDbLine
 10
26.639156081757
 20
-2.5254858352077
 30
0.0
 11
26.819578040878
 21
-2.3052329280916
 31
0.0
  0
LINE
  5
126
330
1F
100
AcDbEntity
  8
AM_4
100
AcDbLine
 10
26.639156081757
 20
-2.3776948312611
 30
0.0
 11
26.639156081757
 21
-2.5254858352077
 31
0.0
  0
LINE
  5
127
330
1F
100
AcDbEntity
  8
AM_4
100
AcDbLine
 10
26.819578040878
 20
-2.7457387423237
 30
0.0
 11
26.639156081757
 21
-2.5254858352077
 31
0.0
  0
LINE
  5
128
330
1F
100
AcDbEntity
  8
AM_9
100
AcDbLine
 10
27.180421959122
 20
-2.5979477383772
 30
0.0
 11
27.180421959122
 21
-2.7457387423237
 31
0.0
  0
LINE
  5
129
330
1F
100
AcDbEntity
  8
AM_9
100
AcDbLine
 10
26.819578040878
 20
-2.5979477383772
 30
0.0
 11
26.819578040878
 21
-2.7457387423237
 31
0.0
  0
LINE
  5
12A
330
1F
100
AcDbEntity
  8
AM_4
100
AcDbLine
 10
27.180421959122
 20
-2.7457387423237
 30
0.0
 11
26.819578040878
 21
-2.7457387423237
 31
0.0
  0
LINE
  5
12B
330
1F
100
AcDbEntity
  8
AM_4
100
AcDbLine
 10
26.639156081757
 20
2.5254858352077
 30
0.0
 11
26.819578040878
 21
2.7457387423237
 31
0.0
  0
LINE
  5
12C
330
1F
100
AcDbEntity
  8
AM_4
100
AcDbLine
 10
26.639156081757
 20
2.3776948312611
 30
0.0
 11
26.639156081757
 21
2.5254858352077
 31
0.0
  0
LINE
  5
12D
330
1F
100
AcDbEntity
  8
AM_4
100
AcDbLine
 10
26.819578040878
 20
2.3052329280916
 30
0.0
 11
26.639156081757
 21
2.5254858352077
 31
0.0
  0
LINE
  5
12E
330
1F
100
AcDbEntity
  8
AM_4
100
AcDbLine
 10
26.819578040878
 20
2.1574419241451
 30
0.0
 11
26.819578040878
 21
2.3052329280916
 31
0.0
  0
LINE
  5
12F
330
1F
100
AcDbEntity
  8
AM_4
100
AcDbLine
 10
27.180421959122
 20
2.3052329280916
 30
0.0
 11
26.819578040878
 21
2.3052329280916
 31
0.0
  0
LINE
  5
130
330
1F
100
AcDbEntity
  8
AM_4
100
AcDbLine
 10
27.180421959122
 20
2.1574419241451
 30
0.0
 11
27.180421959122
 21
2.3052329280916
 31
0.0
  0
LINE
  5
131
330
1F
100
AcDbEntity
  8
AM_4
100
AcDbLine
 10
27.360843918243
 20
2.5254858352077
 30
0.0
 11
27.180421959122
 21
2.3052329280916
 31
0.0
  0
LINE
  5
132
330
1F
100
AcDbEntity
  8
AM_4
100
AcDbLine
 10
27.360843918243
 20
2.3776948312611
 30
0.0
 11
27.360843918243
 21
2.5254858352077
 31
0.0
  0
LINE
  5
133
330
1F
100
AcDbEntity
  8
AM_4
100
AcDbLine
 10
27.180421959122
 20
2.7457387423237
 30
0.0
 11
27.360843918243
 21
2.5254858352077
 31
0.0
  0
LINE
  5
134
330
1F
100
AcDbEntity
  8
AM_9
100
AcDbLine
 10
26.819578040878
 20
2.5979477383772
 30
0.0
 11
26.819578040878
 21
2.7457387423237
 31
0.0
  0
LINE
  5
135
330
1F
100
AcDbEntity
  8
AM_9
100
AcDbLine
 10
27.180421959122
 20
2.5979477383772
 30
0.0
 11
27.180421959122
 21
2.7457387423237
 31
0.0
  0
LINE
  5
136
330
1F
100
AcDbEntity
  8
AM_4
100
AcDbLine
 10
26.819578040878
 20
2.7457387423237
 30
0.0
 11
27.180421959122
 21
2.7457387423237
 31
0.0
  0
LINE
  5
137
330
1F
100
AcDbEntity
  8
AM_4
100
AcDbLine
 10
27.889156081757
 20
2.5254858352077
 30
0.0
 11
28.069578040878
 21
2.7457387423237
 31
0.0
  0
LINE
  5
138
330
1F
100
AcDbEntity
  8
AM_4
100
AcDbLine
 10
27.889156081757
 20
2.3776948312611
 30
0.0
 11
27.889156081757
 21
2.5254858352077
 31
0.0
  0
LINE
  5
139
330
1F
100
AcDbEntity
  8
AM_4
100
AcDbLine
 10
28.069578040878
 20
2.3052329280916
 30
0.0
 11
27.889156081757
 21
2.5254858352077
 31
0.0
  0
LINE
  5
13A
330
1F
100
AcDbEntity
  8
AM_4
100
AcDbLine
 10
28.069578040878
 20
2.1574419241451
 30
0.0
 11
28.069578040878
 21
2.3052329280916
 31
0.0
  0
LINE
  5
13B
330
1F
100
AcDbEntity
  8
AM_4
100
AcDbLine
 10
28.430421959122
 20
2.3052329280916
 30
0.0
 11
28.069578040878
 21
2.3052329280916
 31
0.0
  0
LINE
  5
13C
330
1F
100
AcDbEntity
  8
AM_4
100
AcDbLine
 10
28.430421959122
 20
2.1574419241451
 30
0.0
 11
28.430421959122
 21
2.3052329280916
 31
0.0
  0
LINE
  5
13D
330
1F
100
AcDbEntity
  8
AM_4
100
AcDbLine
 10
28.610843918244
 20
2.5254858352077
 30
0.0
 11
28.430421959122
 21
2.3052329280916
 31
0.0
  0
LINE
  5
13E
330
1F
100
AcDbEntity
  8
AM_4
100
AcDbLine
 10
28.610843918244
 20
2.3776948312611
 30
0.0
 11
28.610843918244
 21
2.5254858352077
 31
0.0
  0
LINE
  5
13F
330
1F
100
AcDbEntity
  8
AM_4
100
AcDbLine
 10
28.430421959122
 20
2.7457387423237
 30
0.0
 11
28.610843918244
 21
2.5254858352077
 31
0.0
  0
LINE
  5
140
330
1F
100
AcDbEntity
  8
AM_9
100
AcDbLine
 10
28.069578040878
 20
2.5979477383772
 30
0.0
 11
28.069578040878
 21
2.7457387423237
 31
0.0
  0
LINE
  5
141
330
1F
100
AcDbEntity
  8
AM_9
100
AcDbLine
 10
28.430421959122
 20
2.5979477383772
 30
0.0
 11
28.430421959122
 21
2.7457387423237
 31
0.0
  0
LINE
  5
142
330
1F
100
AcDbEntity
  8
AM_4
100
AcDbLine
 10
28.069578040878
 20
2.7457387423237
 30
0.0
 11
28.430421959122
 21
2.7457387423237
 31
0.0
  0
LINE
  5
143
330
1F
100
AcDbEntity
  8
AM_4
100
AcDbLine
 10
-27.889156081757
 20
-2.5254858352077
 30
0.0
 11
-28.069578040878
 21
-2.7457387423237
 31
0.0
  0
LINE
  5
144
330
1F
100
AcDbEntity
  8
AM_4
100
AcDbLine
 10
-27.889156081757
 20
-2.3776948312611
 30
0.0
 11
-27.889156081757
 21
-2.5254858352077
 31
0.0
  0
LINE
  5
145
330
1F
100
AcDbEntity
  8
AM_4
100
AcDbLine
 10
-28.069578040878
 20
-2.3052329280916
 30
0.0
 11
-27.889156081757
 21
-2.5254858352077
 31
0.0
  0
LINE
  5
146
330
1F
100
AcDbEntity
  8
AM_4
100
AcDbLine
 10
-28.069578040878
 20
-2.1574419241451
 30
0.0
 11
-28.069578040878
 21
-2.3052329280916
 31
0.0
  0
LINE
  5
147
330
1F
100
AcDbEntity
  8
AM_4
100
AcDbLine
 10
-28.430421959122
 20
-2.3052329280916
 30
0.0
 11
-28.069578040878
 21
-2.3052329280916
 31
0.0
  0
LINE
  5
148
330
1F
100
AcDbEntity
  8
AM_4
100
AcDbLine
 10
-28.430421959122
 20
-2.1574419241451
 30
0.0
 11
-28.430421959122
 21
-2.3052329280916
 31
0.0
  0
LINE
  5
149
330
1F
100
AcDbEntity
  8
AM_4
100
AcDbLine
 10
-28.610843918244
 20
-2.5254858352077
 30
0.0
 11
-28.430421959122
 21
-2.3052329280916
 31
0.0
  0
LINE
  5
14A
330
1F
100
AcDbEntity
  8
AM_4
100
AcDbLine
 10
-28.610843918244
 20
-2.3776948312611
 30
0.0
 11
-28.610843918244
 21
-2.5254858352077
 31
0.0
  0
LINE
  5
14B
330
1F
100
AcDbEntity
  8
AM_4
100
AcDbLine
 10
-28.430421959122
 20
-2.7457387423237
 30
0.0
 11
-28.610843918244
 21
-2.5254858352077
 31
0.0
  0
LINE
  5
14C
330
1F
100
AcDbEntity
  8
AM_9
100
AcDbLine
 10
-28.069578040878
 20
-2.5979477383772
 30
0.0
 11
-28.069578040878
 21
-2.7457387423237
 31
0.0
  0
LINE
  5
14D
330
1F
100
AcDbEntity
  8
AM_9
100
AcDbLine
 10
-28.430421959122
 20
-2.5979477383772
 30
0.0
 11
-28.430421959122
 21
-2.7457387423237
 31
0.0
  0
LINE
  5
14E
330
1F
100
AcDbEntity
  8
AM_4
100
AcDbLine
 10
-28.069578040878
 20
-2.7457387423237
 30
0.0
 11
-28.430421959122
 21
-2.7457387423237
 31
0.0
  0
LINE
  5
14F
330
1F
100
AcDbEntity
  8
AM_4
100
AcDbLine
 10
-26.639156081757
 20
-2.5254858352077
 30
0.0
 11
-26.819578040878
 21
-2.7457387423237
 31
0.0
  0
LINE
  5
150
330
1F
100
AcDbEntity
  8
AM_4
100
AcDbLine
 10
-26.639156081757
 20
-2.3776948312611
 30
0.0
 11
-26.639156081757
 21
-2.5254858352077
 31
0.0
  0
LINE
  5
151
330
1F
100
AcDbEntity
  8
AM_4
100
AcDbLine
 10
-26.819578040878
 20
-2.3052329280916
 30
0.0
 11
-26.639156081757
 21
-2.5254858352077
 31
0.0
  0
LINE
  5
152
330
1F
100
AcDbEntity
  8
AM_4
100
AcDbLine
 10
-26.819578040878
 20
-2.1574419241451
 30
0.0
 11
-26.819578040878
 21
-2.3052329280916
 31
0.0
  0
LINE
  5
153
330
1F
100
AcDbEntity
  8
AM_4
100
AcDbLine
 10
-27.180421959122
 20
-2.3052329280916
 30
0.0
 11
-26.819578040878
 21
-2.3052329280916
 31
0.0
  0
LINE
  5
154
330
1F
100
AcDbEntity
  8
AM_4
100
AcDbLine
 10
-27.180421959122
 20
-2.1574419241451
 30
0.0
 11
-27.180421959122
 21
-2.3052329280916
 31
0.0
  0
LINE
  5
155
330
1F
100
AcDbEntity
  8
AM_4
100
AcDbLine
 10
-27.360843918243
 20
-2.5254858352077
 30
0.0
 11
-27.180421959122
 21
-2.3052329280916
 31
0.0
  0
LINE
  5
156
330
1F
100
AcDbEntity
  8
AM_4
100
AcDbLine
 10
-27.360843918243
 20
-2.3776948312611
 30
0.0
 11
-27.360843918243
 21
-2.5254858352077
 31
0.0
  0
LINE
  5
157
330
1F
100
AcDbEntity
  8
AM_4
100
AcDbLine
 10
-27.180421959122
 20
-2.7457387423237
 30
0.0
 11
-27.360843918243
 21
-2.5254858352077
 31
0.0
  0
LINE
  5
158
330
1F
100
AcDbEntity
  8
AM_9
100
AcDbLine
 10
-26.819578040878
 20
-2.5979477383772
 30
0.0
 11
-26.819578040878
 21
-2.7457387423237
 31
0.0
  0
LINE
  5
159
330
1F
100
AcDbEntity
  8
AM_9
100
AcDbLine
 10
-27.180421959122
 20
-2.5979477383772
 30
0.0
 11
-27.180421959122
 21
-2.7457387423237
 31
0.0
  0
LINE
  5
15A
330
1F
100
AcDbEntity
  8
AM_4
100
AcDbLine
 10
-26.819578040878
 20
-2.7457387423237
 30
0.0
 11
-27.180421959122
 21
-2.7457387423237
 31
0.0
  0
LINE
  5
15B
330
1F
100
AcDbEntity
  8
AM_4
100
AcDbLine
 10
-28.610843918244
 20
2.5254858352076
 30
0.0
 11
-28.430421959122
 21
2.7457387423237
 31
0.0
  0
LINE
  5
15C
330
1F
100
AcDbEntity
  8
AM_4
100
AcDbLine
 10
-28.610843918244
 20
2.3776948312611
 30
0.0
 11
-28.610843918244
 21
2.5254858352076
 31
0.0
  0
LINE
  5
15D
330
1F
100
AcDbEntity
  8
AM_4
100
AcDbLine
 10
-28.430421959122
 20
2.3052329280916
 30
0.0
 11
-28.610843918244
 21
2.5254858352076
 31
0.0
  0
LINE
  5
15E
330
1F
100
AcDbEntity
  8
AM_4
100
AcDbLine
 10
-28.430421959122
 20
2.157441924145
 30
0.0
 11
-28.430421959122
 21
2.3052329280916
 31
0.0
  0
LINE
  5
15F
330
1F
100
AcDbEntity
  8
AM_4
100
AcDbLine
 10
-28.069578040878
 20
2.3052329280916
 30
0.0
 11
-28.430421959122
 21
2.3052329280916
 31
0.0
  0
LINE
  5
160
330
1F
100
AcDbEntity
  8
AM_4
100
AcDbLine
 10
-28.069578040878
 20
2.157441924145
 30
0.0
 11
-28.069578040878
 21
2.3052329280916
 31
0.0
  0
LINE
  5
161
330
1F
100
AcDbEntity
  8
AM_4
100
AcDbLine
 10
-27.889156081757
 20
2.5254858352076
 30
0.0
 11
-28.069578040878
 21
2.3052329280916
 31
0.0
  0
LINE
  5
162
330
1F
100
AcDbEntity
  8
AM_4
100
AcDbLine
 10
-27.889156081757
 20
2.3776948312611
 30
0.0
 11
-27.889156081757
 21
2.5254858352076
 31
0.0
  0
LINE
  5
163
330
1F
100
AcDbEntity
  8
AM_4
100
AcDbLine
 10
-28.069578040878
 20
2.7457387423237
 30
0.0
 11
-27.889156081757
 21
2.5254858352076
 31
0.0
  0
LINE
  5
164
330
1F
100
AcDbEntity
  8
AM_9
100
AcDbLine
 10
-28.430421959122
 20
2.5979477383772
 30
0.0
 11
-28.430421959122
 21
2.7457387423237
 31
0.0
  0
LINE
  5
165
330
1F
100
AcDbEntity
  8
AM_9
100
AcDbLine
 10
-28.069578040878
 20
2.5979477383772
 30
0.0
 11
-28.069578040878
 21
2.7457387423237
 31
0.0
  0
LINE
  5
166
330
1F
100
AcDbEntity
  8
AM_4
100
AcDbLine
 10
-28.430421959122
 20
2.7457387423237
 30
0.0
 11
-28.069578040878
 21
2.7457387423237
 31
0.0
  0
LINE
  5
167
330
1F
100
AcDbEntity
  8
AM_4
100
AcDbLine
 10
-27.360843918243
 20
2.5254858352076
 30
0.0
 11
-27.180421959122
 21
2.7457387423237
 31
0.0
  0
LINE
  5
168
330
1F
100
AcDbEntity
  8
AM_4
100
AcDbLine
 10
-27.360843918243
 20
2.3776948312611
 30
0.0
 11
-27.360843918243
 21
2.5254858352076
 31
0.0
  0
LINE
  5
169
330
1F
100
AcDbEntity
  8
AM_4
100
AcDbLine
 10
-27.180421959122
 20
2.3052329280916
 30
0.0
 11
-27.360843918243
 21
2.5254858352076
 31
0.0
  0
LINE
  5
16A
330
1F
100
AcDbEntity
  8
AM_4
100
AcDbLine
 10
-27.180421959122
 20
2.157441924145
 30
0.0
 11
-27.180421959122
 21
2.3052329280916
 31
0.0
  0
LINE
  5
16B
330
1F
100
AcDbEntity
  8
AM_4
100
AcDbLine
 10
-26.819578040878
 20
2.3052329280916
 30
0.0
 11
-27.180421959122
 21
2.3052329280916
 31
0.0
  0
LINE
  5
16C
330
1F
100
AcDbEntity
  8
AM_4
100
AcDbLine
 10
-26.819578040878
 20
2.157441924145
 30
0.0
 11
-26.819578040878
 21
2.3052329280916
 31
0.0
  0
LINE
  5
16D
330
1F
100
AcDbEntity
  8
AM_4
100
AcDbLine
 10
-26.639156081757
 20
2.5254858352076
 30
0.0
 11
-26.819578040878
 21
2.3052329280916
 31
0.0
  0
LINE
  5
16E
330
1F
100
AcDbEntity
  8
AM_4
100
AcDbLine
 10
-26.639156081757
 20
2.3776948312611
 30
0.0
 11
-26.639156081757
 21
2.5254858352076
 31
0.0
  0
LINE
  5
16F
330
1F
100
AcDbEntity
  8
AM_4
100
AcDbLine
 10
-26.819578040878
 20
2.7457387423237
 30
0.0
 11
-26.639156081757
 21
2.5254858352076
 31
0.0
  0
LINE
  5
170
330
1F
100
AcDbEntity
  8
AM_9
100
AcDbLine
 10
-27.180421959122
 20
2.5979477383772
 30
0.0
 11
-27.180421959122
 21
2.7457387423237
 31
0.0
  0
LINE
  5
171
330
1F
100
AcDbEntity
  8
AM_9
100
AcDbLine
 10
-26.819578040878
 20
2.5979477383772
 30
0.0
 11
-26.819578040878
 21
2.7457387423237
 31
0.0
  0
LINE
  5
172
330
1F
100
AcDbEntity
  8
AM_4
100
AcDbLine
 10
-27.180421959122
 20
2.7457387423237
 30
0.0
 11
-26.819578040878
 21
2.7457387423237
 31
0.0
  0
LINE
  5
173
330
1F
100
AcDbEntity
  8
AM_4
100
AcDbLine
 10
-4.0
 20
0.97758819057927
 30
0.0
 11
-4.0
 21
4.565329218107
 31
0.0
  0
LINE
  5
174
330
1F
100
AcDbEntity
  8
AM_4
100
AcDbLine
 10
-4.0
 20
-4.565329218107
 30
0.0
 11
-4.0
 21
-0.97758819057927
 31
0.0
  0
LINE
  5
175
330
1F
100
AcDbEntity
  8
AM_4
100
AcDbLine
 10
4.0
 20
-2.825
 30
0.0
 11
-4.0
 21
-2.825
 31
0.0
  0
LINE
  5
176
330
1F
100
AcDbEntity
  8
AM_4
100
AcDbLine
 10
4.0
 20
2.825
 30
0.0
 11
-4.0
 21
2.825
 31
0.0
  0
LINE
  5
177
330
1F
100
AcDbEntity
  8
AM_4
100
AcDbLine
 10
-4.9103805280132
 20
-0.71428571428571
 30
0.0
 11
-6.6666666666667
 21
-0.71428571428571
 31
0.0
  0
LINE
  5
178
330
1F
100
AcDbEntity
  8
AM_4
100
AcDbLine
 10
-6.6666666666667
 20
-0.71428571428571
 30
0.0
 11
-6.6666666666667
 21
0.71428571428571
 31
0.0
  0
LINE
  5
179
330
1F
100
AcDbEntity
  8
AM_4
100
AcDbLine
 10
-6.6666666666667
 20
0.71428571428571
 30
0.0
 11
-4.9103805280132
 21
0.71428571428571
 31
0.0
  0
ARC
  5
17A
330
1F
100
AcDbEntity
  8
AM_4
100
AcDbCircle
 10
-4.210526315789472
 20
-0.0000000000000001
 30
0.0
 40
0.9999999999999712
100
AcDbArc
 50
225.5846914028083
 51
134.4153085971916
  0
LINE
  5
17B
330
1F
100
AcDbEntity
  8
AM_4
100
AcDbLine
 10
4.0
 20
-0.97758819057927
 30
0.0
 11
4.0
 21
-4.565329218107
 31
0.0
  0
LINE
  5
17C
330
1F
100
AcDbEntity
  8
AM_4
100
AcDbLine
 10
8.0
 20
3.0
 30
0.0
 11
4.0
 21
3.0
 31
0.0
  0
LINE
  5
17D
330
1F
100
AcDbEntity
  8
AM_4
100
AcDbLine
 10
8.0
 20
-3.0
 30
0.0
 11
4.0
 21
-3.0
 31
0.0
  0
ARC
  5
17E
330
1F
100
AcDbEntity
  8
AM_4
100
AcDbCircle
 10
4.210526315789494
 20
0.0
 30
0.0
 40
0.9999999999999557
100
AcDbArc
 50
45.58469140280926
 51
314.4153085971907
  0
LINE
  5
17F
330
1F
100
AcDbEntity
  8
AM_4
100
AcDbLine
 10
4.9103805280132
 20
0.71428571428571
 30
0.0
 11
6.6666666666667
 21
0.71428571428571
 31
0.0
  0
LINE
  5
180
330
1F
100
AcDbEntity
  8
AM_4
100
AcDbLine
 10
6.6666666666667
 20
0.71428571428571
 30
0.0
 11
6.6666666666667
 21
-0.71428571428571
 31
0.0
  0
LINE
  5
181
330
1F
100
AcDbEntity
  8
AM_4
100
AcDbLine
 10
6.6666666666667
 20
-0.71428571428571
 30
0.0
 11
4.9103805280132
 21
-0.71428571428571
 31
0.0
  0
LINE
  5
182
330
1F
100
AcDbEntity
  8
AM_9
100
AcDbLine
 10
29.0
 20
2.9943899921023
 30
0.0
 11
6.9333333333333
 21
2.9943899921023
 31
0.0
  0
LINE
  5
183
330
1F
100
AcDbEntity
  8
AM_4
100
AcDbLine
 10
6.9333333333333
 20
3.55109739369
 30
0.0
 11
5.3333333333333
 21
3.55109739369
 31
0.0
  0
LINE
  5
184
330
1F
100
AcDbEntity
  8
AM_4
100
AcDbLine
 10
5.3333333333333
 20
3.55109739369
 30
0.0
 11
5.3333333333333
 21
3.8461538461538
 31
0.0
  0
LINE
  5
185
330
1F
100
AcDbEntity
  8
AM_9
100
AcDbLine
 10
5.3333333333333
 20
-2.9943899921023
 30
0.0
 11
5.3333333333333
 21
2.9943899921023
 31
0.0
  0
LINE
  5
186
330
1F
100
AcDbEntity
  8
AM_9
100
AcDbLine
 10
6.9333333333333
 20
0.55277079839255
 30
0.0
 11
5.3333333333333
 21
0.55277079839255
 31
0.0
  0
LINE
  5
187
330
1F
100
AcDbEntity
  8
AM_9
100
AcDbLine
 10
5.3333333333333
 20
1.5454873857923
 30
0.0
 11
6.9333333333333
 21
1.5454873857923
 31
0.0
  0
LINE
  5
188
330
1F
100
AcDbEntity
  8
AM_9
100
AcDbLine
 10
5.3333333333333
 20
-0.55277079839255
 30
0.0
 11
6.9333333333333
 21
-0.55277079839255
 31
0.0
  0
LINE
  5
189
330
1F
100
AcDbEntity
  8
AM_4
100
AcDbLine
 10
5.3333333333333
 20
-3.8461538461538
 30
0.0
 11
5.3333333333333
 21
-3.55109739369
 31
0.0
  0
LINE
  5
18A
330
1F
100
AcDbEntity
  8
AM_4
100
AcDbLine
 10
5.3333333333333
 20
-3.55109739369
 30
0.0
 11
6.9333333333333
 21
-3.55109739369
 31
0.0
  0
LINE
  5
18B
330
1F
100
AcDbEntity
  8
AM_4
100
AcDbLine
 10
6.9333333333333
 20
3.8461538461538
 30
0.0
 11
6.9333333333333
 21
3.55109739369
 31
0.0
  0
LINE
  5
18C
330
1F
100
AcDbEntity
  8
AM_9
100
AcDbLine
 10
6.9333333333333
 20
2.9943899921023
 30
0.0
 11
6.9333333333333
 21
-2.9943899921023
 31
0.0
  0
LINE
  5
18D
330
1F
100
AcDbEntity
  8
AM_4
100
AcDbLine
 10
6.9333333333333
 20
-3.55109739369
 30
0.0
 11
6.9333333333333
 21
-3.8461538461538
 31
0.0
  0
ARC
  5
18E
330
1F
100
AcDbEntity
  8
AM_4
100
AcDbCircle
 10
6.1333333333333
 20
-3.8461538672273
 30
0.0
 40
0.8
100
AcDbArc
 50
179.9999987925817
 51
0.0000012074182697
  0
LWPOLYLINE
  5
18F
330
1F
100
AcDbEntity
  8
AM_9
100
AcDbPolyline
 90
      131
 70
     0
 43
0.0
 10
6.9333333333333
 20
-3.8461538461538
 10
6.9332487190244
 20
-3.8577889644724
 10
6.9325719110299
 20
-3.8810493566509
 10
6.9312188673835
 20
-3.9042802237606
 10
6.930289092617
 20
-3.9158784415984
 10
6.9291907328953
 20
-3.927461910168
 10
6.9264892235695
 20
-3.9505748018512
 10
6.923116625153
 20
-3.9735993429959
 10
6.9190757912006
 20
-3.9965160525409
 10
6.9143701406615
 20
-4.0193055406613
 10
6.909003654986
 20
-4.0419485251744
 10
6.9060739961649
 20
-4.0532090863465
 10
6.9029808747569
 20
-4.064425847854
 10
6.8963068958476
 20
-4.0867184906405
 10
6.8889873651109
 20
-4.1088075917319
 10
6.8810284756007
 20
-4.1306744615427
 10
6.8724369613323
 20
-4.1523005985173
 10
6.8632200915848
 20
-4.1736677047843
 10
6.8583795649129
 20
-4.1842484628261
 10
6.8533856647504
 20
-4.1947577016378
 10
6.8429420017364
 20
-4.2155527448345
 10
6.8318979389245
 20
-4.236035239691
 10
6.8261536580828
 20
-4.2461538550605
 10
6.8202628206949
 20
-4.2561878559714
 10
6.8080464915195
 20
-4.2759935425497
 10
6.7952592876327
 20
-4.2954355418371
 10
6.7886549700683
 20
-4.3050150057589
 10
6.781912028286
 20
-4.3144974039607
 10
6.7680160065937
 20
-4.3331630006817
 10
6.753582979978
 20
-4.351416539041
 10
6.7386251602205
 20
-4.3692425747225
 10
6.7231552031307
 20
-4.3866260251197
 10
6.7071861978371
 20
-4.4035521820977
 10
6.6990187582342
 20
-4.4118392847259
 10
6.6907316557128
 20
-4.4200067244372
 10
6.6738054989438
 20
-4.4359757299523
 10
6.6564220487491
 20
-4.4514456872696
 10
6.6385960132633
 20
-4.4664035072603
 10
6.6203424750928
 20
-4.480836534115
 10
6.6016768785537
 20
-4.4947325560515
 10
6.5921944804401
 20
-4.5014754979579
 10
6.5826150166047
 20
-4.5080798156476
 10
6.5631730174846
 20
-4.5208670197888
 10
6.5433673310662
 20
-4.5330833492234
 10
6.5232147149381
 20
-4.5447184677167
 10
6.5027322202261
 20
-4.5557625307966
 10
6.4819371771661
 20
-4.5662061940828
 10
6.4714279384197
 20
-4.5712000943827
 10
6.4608471804412
 20
-4.5760406211931
 10
6.4394800742949
 20
-4.5852574912202
 10
6.4178539374327
 20
-4.5938490057716
 10
6.395987067726
 20
-4.6018078955679
 10
6.3738979667304
 20
-4.6091274265937
 10
6.3516053240312
 20
-4.6158014057947
 10
6.3403885625641
 20
-4.6188945273495
 10
6.3291280014304
 20
-4.6218241863179
 10
6.3064850169876
 20
-4.6271906722898
 10
6.2836955289287
 20
-4.631896323127
 10
6.2607788194366
 20
-4.6359371573793
 10
6.2377542783361
 20
-4.6393097560971
 10
6.2146413866882
 20
-4.6420112657253
 10
6.203057918133
 20
-4.6431096255987
 10
6.1914597003074
 20
-4.6440394005169
 10
6.1682288332154
 20
-4.6453924444673
 10
6.1449684410457
 20
-4.6460692527661
 10
6.1333333227282
 20
-4.6461538672273
 10
6.1216982044129
 20
-4.6460692527661
 10
6.0984378122612
 20
-4.6453924444673
 10
6.0752069452051
 20
-4.6440394005169
 10
6.0636087274041
 20
-4.6431096255987
 10
6.0520252588781
 20
-4.6420112657253
 10
6.0289123673018
 20
-4.6393097560971
 10
6.0058878262906
 20
-4.6359371573793
 10
5.9829711169057
 20
-4.631896323127
 10
5.9601816289716
 20
-4.6271906722898
 10
5.937538644671
 20
-4.6218241863179
 10
5.926278083615
 20
-4.6188945273495
 10
5.9150613222299
 20
-4.6158014057947
 10
5.8927686797076
 20
-4.6091274265937
 10
5.8706795789061
 20
-4.6018078955679
 10
5.8488127094105
 20
-4.5938490057716
 10
5.827186572776
 20
-4.5852574912202
 10
5.8058194668741
 20
-4.5760406211931
 10
5.7952387090239
 20
-4.5712000943827
 10
5.78472947041
 20
-4.5662061940828
 10
5.7639344276269
 20
-4.5557625307966
 10
5.7434519332076
 20
-4.5447184677167
 10
5.723299317388
 20
-4.5330833492234
 10
5.7034936312935
 20
-4.5208670197888
 10
5.6840516325124
 20
-4.5080798156476
 10
5.6744721688521
 20
-4.5014754979579
 10
5.6649897709173
 20
-4.4947325560515
 10
5.6463241747466
 20
-4.480836534115
 10
5.6280706369587
 20
-4.4664035072603
 10
5.6102446018696
 20
-4.4514456872696
 10
5.5928611520849
 20
-4.4359757299523
 10
5.5759349957393
 20
-4.4200067244372
 10
5.5676478934345
 20
-4.4118392847259
 10
5.5594804540514
 20
-4.4035521820977
 10
5.5435114492065
 20
-4.3866260251197
 10
5.5280414925775
 20
-4.3692425747225
 10
5.5130836732927
 20
-4.351416539041
 10
5.4986506471609
 20
-4.3331630006817
 10
5.4847546259635
 20
-4.3144974039607
 10
5.4780116844326
 20
-4.3050150057589
 10
5.4714073671222
 20
-4.2954355418371
 10
5.4586201637509
 20
-4.2759935425497
 10
5.4464038351005
 20
-4.2561878559714
 10
5.4405129979787
 20
-4.2461538550605
 10
5.4347687174052
 20
-4.236035239691
 10
5.4237246551364
 20
-4.2155527448345
 10
5.4132809926737
 20
-4.1947577016378
 10
5.4082870927899
 20
-4.1842484628261
 10
5.4034465663985
 20
-4.1736677047843
 10
5.3942296972175
 20
-4.1523005985173
 10
5.3856381835225
 20
-4.1306744615427
 10
5.377679294592
 20
-4.1088075917319
 10
5.370359764441
 20
-4.0867184906405
 10
5.3636857861227
 20
-4.064425847854
 10
5.3605926650121
 20
-4.0532090863465
 10
5.3576630064895
 20
-4.0419485251744
 10
5.3522965214143
 20
-4.0193055406613
 10
5.3475908714795
 20
-3.9965160525409
 10
5.3435500381347
 20
-3.9735993429959
 10
5.3401774403286
 20
-3.9505748018512
 10
5.3374759316156
 20
-3.927461910168
 10
5.336377572201
 20
-3.9158784415984
 10
5.335447797742
 20
-3.9042802237606
 10
5.3340947547115
 20
-3.8810493566509
 10
5.3334179473337
 20
-3.8577889644724
 10
5.3333333333333
 20
-3.8461538461538
  0
ARC
  5
190
330
1F
100
AcDbEntity
  8
AM_4
100
AcDbCircle
 10
6.1333333333333
 20
3.8461538672273
 30
0.0
 40
0.8
100
AcDbArc
 50
0.0000987925816958
 51
180.0000012074183
  0
LWPOLYLINE
  5
191
330
1F
100
AcDbEntity
  8
AM_9
100
AcDbPolyline
 90
      131
 70
     0
 43
0.0
 10
5.3333333333333
 20
3.8461538461538
 10
5.3334179476422
 20
3.8577889644724
 10
5.3340947556367
 20
3.8810493566509
 10
5.3354477992831
 20
3.9042802237606
 10
5.3363775740496
 20
3.9158784415984
 10
5.3374759337713
 20
3.927461910168
 10
5.3401774430971
 20
3.9505748018512
 10
5.3435500415136
 20
3.9735993429959
 10
5.347590875466
 20
3.9965160525409
 10
5.3522965260051
 20
4.0193055406613
 10
5.3576630116806
 20
4.0419485251744
 10
5.3605926705017
 20
4.0532090863465
 10
5.3636857919097
 20
4.064425847854
 10
5.370359770819
 20
4.0867184906405
 10
5.3776793015557
 20
4.1088075917319
 10
5.3856381910659
 20
4.1306744615427
 10
5.3942297053343
 20
4.1523005985173
 10
5.4034465750818
 20
4.1736677047843
 10
5.4082871017537
 20
4.1842484628261
 10
5.4132810019162
 20
4.1947577016378
 10
5.4237246649302
 20
4.2155527448345
 10
5.4347687277421
 20
4.236035239691
 10
5.4405130085838
 20
4.2461538550605
 10
5.4464038459717
 20
4.2561878559714
 10
5.4586201751471
 20
4.2759935425497
 10
5.4714073790339
 20
4.2954355418371
 10
5.4780116965983
 20
4.3050150057589
 10
5.4847546383806
 20
4.3144974039607
 10
5.4986506600729
 20
4.3331630006817
 10
5.5130836866886
 20
4.351416539041
 10
5.5280415064461
 20
4.3692425747225
 10
5.5435114635359
 20
4.3866260251197
 10
5.5594804688295
 20
4.4035521820977
 10
5.5676479084324
 20
4.4118392847259
 10
5.5759350109538
 20
4.4200067244372
 10
5.5928611677228
 20
4.4359757299523
 10
5.6102446179175
 20
4.4514456872696
 10
5.6280706534033
 20
4.4664035072603
 10
5.6463241915738
 20
4.480836534115
 10
5.6649897881129
 20
4.4947325560515
 10
5.6744721862265
 20
4.5014754979579
 10
5.6840516500619
 20
4.5080798156476
 10
5.703493649182
 20
4.5208670197888
 10
5.7232993356004
 20
4.5330833492234
 10
5.7434519517285
 20
4.5447184677167
 10
5.7639344464405
 20
4.5557625307966
 10
5.7847294895005
 20
4.5662061940828
 10
5.7952387282469
 20
4.5712000943827
 10
5.8058194862254
 20
4.5760406211931
 10
5.8271865923717
 20
4.5852574912202
 10
5.8488127292339
 20
4.5938490057716
 10
5.8706795989406
 20
4.6018078955679
 10
5.8927686999362
 20
4.6091274265937
 10
5.9150613426354
 20
4.6158014057947
 10
5.9262781041025
 20
4.6188945273495
 10
5.9375386652362
 20
4.6218241863179
 10
5.960181649679
 20
4.6271906722898
 10
5.9829711377379
 20
4.631896323127
 10
6.00588784723
 20
4.6359371573793
 10
6.0289123883305
 20
4.6393097560971
 10
6.0520252799784
 20
4.6420112657253
 10
6.0636087485336
 20
4.6431096255987
 10
6.0752069663592
 20
4.6440394005169
 10
6.0984378334512
 20
4.6453924444673
 10
6.1216982256209
 20
4.6460692527661
 10
6.1333333439384
 20
4.6461538672273
 10
6.1449684622537
 20
4.6460692527661
 10
6.1682288544054
 20
4.6453924444673
 10
6.1914597214615
 20
4.6440394005169
 10
6.2030579392625
 20
4.6431096255987
 10
6.2146414077885
 20
4.6420112657253
 10
6.2377542993648
 20
4.6393097560971
 10
6.260778840376
 20
4.6359371573793
 10
6.2836955497609
 20
4.631896323127
 10
6.306485037695
 20
4.6271906722898
 10
6.3291280219956
 20
4.6218241863179
 10
6.3403885830516
 20
4.6188945273495
 10
6.3516053444367
 20
4.6158014057947
 10
6.373897986959
 20
4.6091274265937
 10
6.3959870877605
 20
4.6018078955679
 10
6.4178539572561
 20
4.5938490057716
 10
6.4394800938906
 20
4.5852574912202
 10
6.4608471997925
 20
4.5760406211931
 10
6.4714279576427
 20
4.5712000943827
 10
6.4819371962566
 20
4.5662061940828
 10
6.5027322390397
 20
4.5557625307966
 10
6.523214733459
 20
4.5447184677167
 10
6.5433673492786
 20
4.5330833492234
 10
6.5631730353731
 20
4.5208670197888
 10
6.5826150341542
 20
4.5080798156476
 10
6.5921944978145
 20
4.5014754979579
 10
6.6016768957493
 20
4.4947325560515
 10
6.62034249192
 20
4.480836534115
 10
6.6385960297079
 20
4.4664035072603
 10
6.656422064797
 20
4.4514456872696
 10
6.6738055145817
 20
4.4359757299523
 10
6.6907316709273
 20
4.4200067244372
 10
6.6990187732321
 20
4.4118392847259
 10
6.7071862126152
 20
4.4035521820977
 10
6.7231552174601
 20
4.3866260251197
 10
6.7386251740891
 20
4.3692425747225
 10
6.7535829933739
 20
4.351416539041
 10
6.7680160195057
 20
4.3331630006817
 10
6.7819120407031
 20
4.3144974039607
 10
6.788654982234
 20
4.3050150057589
 10
6.7952592995444
 20
4.2954355418371
 10
6.8080465029157
 20
4.2759935425497
 10
6.8202628315661
 20
4.2561878559714
 10
6.8261536686879
 20
4.2461538550605
 10
6.8318979492614
 20
4.236035239691
 10
6.8429420115302
 20
4.2155527448345
 10
6.8533856739929
 20
4.1947577016378
 10
6.8583795738767
 20
4.1842484628261
 10
6.8632201002681
 20
4.1736677047843
 10
6.8724369694491
 20
4.1523005985173
 10
6.8810284831441
 20
4.1306744615427
 10
6.8889873720746
 20
4.1088075917319
 10
6.8963069022256
 20
4.0867184906405
 10
6.9029808805439
 20
4.064425847854
 10
6.9060740016545
 20
4.0532090863465
 10
6.9090036601771
 20
4.0419485251744
 10
6.9143701452523
 20
4.0193055406613
 10
6.9190757951871
 20
3.9965160525409
 10
6.9231166285319
 20
3.9735993429959
 10
6.926489226338
 20
3.9505748018512
 10
6.929190735051
 20
3.927461910168
 10
6.9302890944656
 20
3.9158784415984
 10
6.9312188689246
 20
3.9042802237606
 10
6.9325719119551
 20
3.8810493566509
 10
6.9332487193329
 20
3.8577889644724
 10
6.9333333333333
 20
3.8461538461538
  0
LINE
  5
192
330
1F
100
AcDbEntity
  8
AM_9
100
AcDbLine
 10
5.3333333333333
 20
2.9943899921023
 30
0.0
 11
-5.3333333333333
 21
2.9943899921023
 31
0.0
  0
LINE
  5
193
330
1F
100
AcDbEntity
  8
AM_9
100
AcDbLine
 10
-6.9333333333333
 20
2.9943899921023
 30
0.0
 11
-29.0
 21
2.9943899921023
 31
0.0
  0
LINE
  5
194
330
1F
100
AcDbEntity
  8
AM_9
100
AcDbLine
 10
5.3333333333333
 20
-2.9943899921023
 30
0.0
 11
-5.3333333333333
 21
-2.9943899921023
 31
0.0
  0
LINE
  5
195
330
1F
100
AcDbEntity
  8
AM_9
100
AcDbLine
 10
6.9333333333333
 20
-1.5454873857923
 30
0.0
 11
5.3333333333333
 21
-1.5454873857923
 31
0.0
  0
LINE
  5
196
330
1F
100
AcDbEntity
  8
AM_9
100
AcDbLine
 10
29.0
 20
-2.9943899921023
 30
0.0
 11
6.9333333333333
 21
-2.9943899921023
 31
0.0
  0
LINE
  5
197
330
1F
100
AcDbEntity
  8
AM_9
100
AcDbLine
 10
29.0
 20
-0.077590277071924
 30
0.0
 11
-29.0
 21
-0.077590277071924
 31
0.0
  0
LINE
  5
198
330
1F
100
AcDbEntity
  8
AM_9
100
AcDbLine
 10
-6.9333333333333
 20
-2.9943899921023
 30
0.0
 11
-29.0
 21
-2.9943899921023
 31
0.0
  0
LINE
  5
199
330
1F
100
AcDbEntity
  8
AM_9
100
AcDbLine
 10
-28.610843918244
 20
2.3776948312611
 30
0.0
 11
-28.430421959122
 21
2.5979477383772
 31
0.0
  0
LINE
  5
19A
330
1F
100
AcDbEntity
  8
AM_4
100
AcDbLine
 10
-28.430421959122
 20
2.1574419241451
 30
0.0
 11
-28.610843918244
 21
2.3776948312611
 31
0.0
  0
LINE
  5
19B
330
1F
100
AcDbEntity
  8
AM_4
100
AcDbLine
 10
-28.069578040878
 20
2.1574419241451
 30
0.0
 11
-28.430421959122
 21
2.1574419241451
 31
0.0
  0
LINE
  5
19C
330
1F
100
AcDbEntity
  8
AM_4
100
AcDbLine
 10
-27.889156081757
 20
2.3776948312611
 30
0.0
 11
-28.069578040878
 21
2.1574419241451
 31
0.0
  0
LINE
  5
19D
330
1F
100
AcDbEntity
  8
AM_9
100
AcDbLine
 10
-28.069578040878
 20
2.5979477383772
 30
0.0
 11
-27.889156081757
 21
2.3776948312611
 31
0.0
  0
LINE
  5
19E
330
1F
100
AcDbEntity
  8
AM_9
100
AcDbLine
 10
-28.430421959122
 20
2.5979477383772
 30
0.0
 11
-28.069578040878
 21
2.5979477383772
 31
0.0
  0
LINE
  5
19F
330
1F
100
AcDbEntity
  8
AM_9
100
AcDbLine
 10
-27.360843918244
 20
2.3776948312611
 30
0.0
 11
-27.180421959122
 21
2.5979477383772
 31
0.0
  0
LINE
  5
1A0
330
1F
100
AcDbEntity
  8
AM_4
100
AcDbLine
 10
-27.180421959122
 20
2.1574419241451
 30
0.0
 11
-27.360843918243
 21
2.3776948312611
 31
0.0
  0
LINE
  5
1A1
330
1F
100
AcDbEntity
  8
AM_4
100
AcDbLine
 10
-26.819578040878
 20
2.1574419241451
 30
0.0
 11
-27.180421959122
 21
2.1574419241451
 31
0.0
  0
LINE
  5
1A2
330
1F
100
AcDbEntity
  8
AM_4
100
AcDbLine
 10
-26.639156081756
 20
2.3776948312611
 30
0.0
 11
-26.819578040878
 21
2.1574419241451
 31
0.0
  0
LINE
  5
1A3
330
1F
100
AcDbEntity
  8
AM_9
100
AcDbLine
 10
-26.819578040878
 20
2.5979477383772
 30
0.0
 11
-26.639156081757
 21
2.3776948312611
 31
0.0
  0
LINE
  5
1A4
330
1F
100
AcDbEntity
  8
AM_9
100
AcDbLine
 10
-27.180421959122
 20
2.5979477383772
 30
0.0
 11
-26.819578040878
 21
2.5979477383772
 31
0.0
  0
LINE
  5
1A5
330
1F
100
AcDbEntity
  8
AM_4
100
AcDbLine
 10
29.0
 20
3.6111111111111
 30
0.0
 11
8.0
 21
3.6111111111111
 31
0.0
  0
LINE
  5
1A6
330
1F
100
AcDbEntity
  8
AM_4
100
AcDbLine
 10
29.0
 20
3.6111111111111
 30
0.0
 11
29.0
 21
-3.6111111111111
 31
0.0
  0
LINE
  5
1A7
330
1F
100
AcDbEntity
  8
AM_4
100
AcDbLine
 10
-29.0
 20
3.6111111111111
 30
0.0
 11
-29.0
 21
-3.6111111111111
 31
0.0
  0
LINE
  5
1A8
330
1F
100
AcDbEntity
  8
AM_4
100
AcDbLine
 10
-8.0
 20
3.6111111111111
 30
0.0
 11
-29.0
 21
3.6111111111111
 31
0.0
  0
LINE
  5
1A9
330
1F
100
AcDbEntity
  8
AM_9
100
AcDbLine
 10
27.889156081757
 20
2.3776948312611
 30
0.0
 11
28.069578040878
 21
2.5979477383772
 31
0.0
  0
LINE
  5
1AA
330
1F
100
AcDbEntity
  8
AM_4
100
AcDbLine
 10
28.069578040878
 20
2.1574419241451
 30
0.0
 11
27.889156081757
 21
2.3776948312611
 31
0.0
  0
LINE
  5
1AB
330
1F
100
AcDbEntity
  8
AM_4
100
AcDbLine
 10
28.430421959122
 20
2.1574419241451
 30
0.0
 11
28.069578040878
 21
2.1574419241451
 31
0.0
  0
LINE
  5
1AC
330
1F
100
AcDbEntity
  8
AM_4
100
AcDbLine
 10
28.610843918244
 20
2.3776948312611
 30
0.0
 11
28.430421959122
 21
2.1574419241451
 31
0.0
  0
LINE
  5
1AD
330
1F
100
AcDbEntity
  8
AM_9
100
AcDbLine
 10
28.430421959122
 20
2.5979477383772
 30
0.0
 11
28.610843918244
 21
2.3776948312611
 31
0.0
  0
LINE
  5
1AE
330
1F
100
AcDbEntity
  8
AM_9
100
AcDbLine
 10
28.069578040878
 20
2.5979477383772
 30
0.0
 11
28.430421959122
 21
2.5979477383772
 31
0.0
  0
LINE
  5
1AF
330
1F
100
AcDbEntity
  8
AM_9
100
AcDbLine
 10
26.639156081757
 20
2.3776948312611
 30
0.0
 11
26.819578040878
 21
2.5979477383772
 31
0.0
  0
LINE
  5
1B0
330
1F
100
AcDbEntity
  8
AM_4
100
AcDbLine
 10
26.819578040878
 20
2.1574419241451
 30
0.0
 11
26.639156081757
 21
2.3776948312611
 31
0.0
  0
LINE
  5
1B1
330
1F
100
AcDbEntity
  8
AM_4
100
AcDbLine
 10
27.180421959122
 20
2.1574419241451
 30
0.0
 11
26.819578040878
 21
2.1574419241451
 31
0.0
  0
LINE
  5
1B2
330
1F
100
AcDbEntity
  8
AM_4
100
AcDbLine
 10
27.360843918243
 20
2.3776948312611
 30
0.0
 11
27.180421959122
 21
2.1574419241451
 31
0.0
  0
LINE
  5
1B3
330
1F
100
AcDbEntity
  8
AM_9
100
AcDbLine
 10
27.180421959122
 20
2.5979477383772
 30
0.0
 11
27.360843918243
 21
2.3776948312611
 31
0.0
  0
LINE
  5
1B4
330
1F
100
AcDbEntity
  8
AM_9
100
AcDbLine
 10
26.819578040878
 20
2.5979477383772
 30
0.0
 11
27.180421959122
 21
2.5979477383772
 31
0.0
  0
LINE
  5
1B5
330
1F
100
AcDbEntity
  8
AM_9
100
AcDbLine
 10
8.0
 20
3.6111111111111
 30
0.0
 11
-8.0
 21
3.6111111111111
 31
0.0
  0
LINE
  5
1B6
330
1F
100
AcDbEntity
  8
AM_9
100
AcDbLine
 10
8.0
 20
3.9194716706155
 30
0.0
 11
-8.0
 21
3.9194716706155
 31
0.0
  0
LINE
  5
1B7
330
1F
100
AcDbEntity
  8
AM_9
100
AcDbLine
 10
8.0
 20
0.0
 30
0.0
 11
-8.0
 21
0.0
 31
0.0
  0
LINE
  5
1B8
330
1F
100
AcDbEntity
  8
AM_9
100
AcDbLine
 10
-8.0
 20
-3.9194716706155
 30
0.0
 11
8.0
 21
-3.9194716706155
 31
0.0
  0
LINE
  5
1B9
330
1F
100
AcDbEntity
  8
AM_4
100
AcDbLine
 10
-5.3333333333333
 20
3.55109739369
 30
0.0
 11
-6.9333333333333
 21
3.55109739369
 31
0.0
  0
LINE
  5
1BA
330
1F
100
AcDbEntity
  8
AM_4
100
AcDbLine
 10
-6.9333333333333
 20
3.55109739369
 30
0.0
 11
-6.9333333333333
 21
3.8461538461538
 31
0.0
  0
LINE
  5
1BB
330
1F
100
AcDbEntity
  8
AM_9
100
AcDbLine
 10
-6.9333333333333
 20
-2.9943899921023
 30
0.0
 11
-6.9333333333333
 21
2.9943899921023
 31
0.0
  0
LINE
  5
1BC
330
1F
100
AcDbEntity
  8
AM_9
100
AcDbLine
 10
-5.3333333333333
 20
0.55277079839255
 30
0.0
 11
-6.9333333333333
 21
0.55277079839255
 31
0.0
  0
LINE
  5
1BD
330
1F
100
AcDbEntity
  8
AM_9
100
AcDbLine
 10
-6.9333333333333
 20
1.5454873857923
 30
0.0
 11
-5.3333333333333
 21
1.5454873857923
 31
0.0
  0
LINE
  5
1BE
330
1F
100
AcDbEntity
  8
AM_9
100
AcDbLine
 10
-6.9333333333333
 20
-0.55277079839255
 30
0.0
 11
-5.3333333333333
 21
-0.55277079839255
 31
0.0
  0
LINE
  5
1BF
330
1F
100
AcDbEntity
  8
AM_9
100
AcDbLine
 10
-5.3333333333333
 20
-1.5454873857923
 30
0.0
 11
-6.9333333333333
 21
-1.5454873857923
 31
0.0
  0
LINE
  5
1C0
330
1F
100
AcDbEntity
  8
AM_4
100
AcDbLine
 10
-6.9333333333333
 20
-3.8461538461538
 30
0.0
 11
-6.9333333333333
 21
-3.55109739369
 31
0.0
  0
LINE
  5
1C1
330
1F
100
AcDbEntity
  8
AM_4
100
AcDbLine
 10
-6.9333333333333
 20
-3.55109739369
 30
0.0
 11
-5.3333333333333
 21
-3.55109739369
 31
0.0
  0
LINE
  5
1C2
330
1F
100
AcDbEntity
  8
AM_4
100
AcDbLine
 10
-5.3333333333333
 20
3.8461538461538
 30
0.0
 11
-5.3333333333333
 21
3.55109739369
 31
0.0
  0
LINE
  5
1C3
330
1F
100
AcDbEntity
  8
AM_9
100
AcDbLine
 10
-5.3333333333333
 20
2.9943899921023
 30
0.0
 11
-5.3333333333333
 21
-2.9943899921023
 31
0.0
  0
LINE
  5
1C4
330
1F
100
AcDbEntity
  8
AM_4
100
AcDbLine
 10
-5.3333333333333
 20
-3.55109739369
 30
0.0
 11
-5.3333333333333
 21
-3.8461538461538
 31
0.0
  0
ARC
  5
1C5
330
1F
100
AcDbEntity
  8
AM_4
100
AcDbCircle
 10
-6.1333333333333
 20
3.8461538672273
 30
0.0
 40
0.8
100
AcDbArc
 50
0.0000987925816958
 51
180.0000012074183
  0
LWPOLYLINE
  5
1C6
330
1F
100
AcDbEntity
  8
AM_9
100
AcDbPolyline
 90
      131
 70
     0
 43
0.0
 10
-6.9333333333333
 20
3.8461538461538
 10
-6.9332487190244
 20
3.8577889644724
 10
-6.9325719110299
 20
3.8810493566509
 10
-6.9312188673835
 20
3.9042802237606
 10
-6.930289092617
 20
3.9158784415984
 10
-6.9291907328953
 20
3.927461910168
 10
-6.9264892235695
 20
3.9505748018512
 10
-6.923116625153
 20
3.9735993429959
 10
-6.9190757912006
 20
3.9965160525409
 10
-6.9143701406615
 20
4.0193055406613
 10
-6.909003654986
 20
4.0419485251744
 10
-6.9060739961649
 20
4.0532090863465
 10
-6.9029808747569
 20
4.064425847854
 10
-6.8963068958476
 20
4.0867184906405
 10
-6.8889873651109
 20
4.1088075917319
 10
-6.8810284756007
 20
4.1306744615427
 10
-6.8724369613323
 20
4.1523005985173
 10
-6.8632200915848
 20
4.1736677047843
 10
-6.8583795649129
 20
4.1842484628261
 10
-6.8533856647504
 20
4.1947577016378
 10
-6.8429420017364
 20
4.2155527448345
 10
-6.8318979389245
 20
4.236035239691
 10
-6.8261536580828
 20
4.2461538550605
 10
-6.8202628206949
 20
4.2561878559714
 10
-6.8080464915195
 20
4.2759935425497
 10
-6.7952592876327
 20
4.2954355418371
 10
-6.7886549700683
 20
4.3050150057589
 10
-6.781912028286
 20
4.3144974039607
 10
-6.7680160065937
 20
4.3331630006817
 10
-6.753582979978
 20
4.351416539041
 10
-6.7386251602205
 20
4.3692425747225
 10
-6.7231552031307
 20
4.3866260251197
 10
-6.7071861978371
 20
4.4035521820977
 10
-6.6990187582342
 20
4.4118392847259
 10
-6.6907316557128
 20
4.4200067244372
 10
-6.6738054989438
 20
4.4359757299523
 10
-6.6564220487491
 20
4.4514456872696
 10
-6.6385960132633
 20
4.4664035072603
 10
-6.6203424750928
 20
4.480836534115
 10
-6.6016768785537
 20
4.4947325560515
 10
-6.5921944804401
 20
4.5014754979579
 10
-6.5826150166047
 20
4.5080798156476
 10
-6.5631730174846
 20
4.5208670197888
 10
-6.5433673310662
 20
4.5330833492234
 10
-6.5232147149381
 20
4.5447184677167
 10
-6.5027322202261
 20
4.5557625307966
 10
-6.4819371771661
 20
4.5662061940828
 10
-6.4714279384197
 20
4.5712000943827
 10
-6.4608471804412
 20
4.5760406211931
 10
-6.4394800742949
 20
4.5852574912202
 10
-6.4178539374327
 20
4.5938490057716
 10
-6.395987067726
 20
4.6018078955679
 10
-6.3738979667304
 20
4.6091274265937
 10
-6.3516053240312
 20
4.6158014057947
 10
-6.3403885625641
 20
4.6188945273495
 10
-6.3291280014304
 20
4.6218241863179
 10
-6.3064850169876
 20
4.6271906722898
 10
-6.2836955289287
 20
4.631896323127
 10
-6.2607788194366
 20
4.6359371573793
 10
-6.2377542783361
 20
4.6393097560971
 10
-6.2146413866882
 20
4.6420112657253
 10
-6.203057918133
 20
4.6431096255987
 10
-6.1914597003074
 20
4.6440394005169
 10
-6.1682288332154
 20
4.6453924444673
 10
-6.1449684410457
 20
4.6460692527661
 10
-6.1333333227282
 20
4.6461538672273
 10
-6.1216982044129
 20
4.6460692527661
 10
-6.0984378122612
 20
4.6453924444673
 10
-6.0752069452051
 20
4.6440394005169
 10
-6.0636087274041
 20
4.6431096255987
 10
-6.0520252588781
 20
4.6420112657253
 10
-6.0289123673018
 20
4.6393097560971
 10
-6.0058878262906
 20
4.6359371573793
 10
-5.9829711169057
 20
4.631896323127
 10
-5.9601816289716
 20
4.6271906722898
 10
-5.937538644671
 20
4.6218241863179
 10
-5.926278083615
 20
4.6188945273495
 10
-5.9150613222299
 20
4.6158014057947
 10
-5.8927686797076
 20
4.6091274265937
 10
-5.8706795789061
 20
4.6018078955679
 10
-5.8488127094105
 20
4.5938490057716
 10
-5.827186572776
 20
4.5852574912202
 10
-5.8058194668741
 20
4.5760406211931
 10
-5.7952387090239
 20
4.5712000943827
 10
-5.78472947041
 20
4.5662061940828
 10
-5.7639344276269
 20
4.5557625307966
 10
-5.7434519332076
 20
4.5447184677167
 10
-5.723299317388
 20
4.5330833492234
 10
-5.7034936312935
 20
4.5208670197888
 10
-5.6840516325124
 20
4.5080798156476
 10
-5.6744721688521
 20
4.5014754979579
 10
-5.6649897709173
 20
4.4947325560515
 10
-5.6463241747466
 20
4.480836534115
 10
-5.6280706369587
 20
4.4664035072603
 10
-5.6102446018696
 20
4.4514456872696
 10
-5.5928611520849
 20
4.4359757299523
 10
-5.5759349957393
 20
4.4200067244372
 10
-5.5676478934345
 20
4.4118392847259
 10
-5.5594804540514
 20
4.4035521820977
 10
-5.5435114492065
 20
4.3866260251197
 10
-5.5280414925775
 20
4.3692425747225
 10
-5.5130836732927
 20
4.351416539041
 10
-5.4986506471609
 20
4.3331630006817
 10
-5.4847546259635
 20
4.3144974039607
 10
-5.4780116844326
 20
4.3050150057589
 10
-5.4714073671222
 20
4.2954355418371
 10
-5.4586201637509
 20
4.2759935425497
 10
-5.4464038351005
 20
4.2561878559714
 10
-5.4405129979787
 20
4.2461538550605
 10
-5.4347687174052
 20
4.236035239691
 10
-5.4237246551364
 20
4.2155527448345
 10
-5.4132809926737
 20
4.1947577016378
 10
-5.4082870927899
 20
4.1842484628261
 10
-5.4034465663985
 20
4.1736677047843
 10
-5.3942296972175
 20
4.1523005985173
 10
-5.3856381835225
 20
4.1306744615427
 10
-5.377679294592
 20
4.1088075917319
 10
-5.370359764441
 20
4.0867184906405
 10
-5.3636857861227
 20
4.064425847854
 10
-5.3605926650121
 20
4.0532090863465
 10
-5.3576630064895
 20
4.0419485251744
 10
-5.3522965214143
 20
4.0193055406613
 10
-5.3475908714795
 20
3.9965160525409
 10
-5.3435500381347
 20
3.9735993429959
 10
-5.3401774403286
 20
3.9505748018512
 10
-5.3374759316156
 20
3.927461910168
 10
-5.336377572201
 20
3.9158784415984
 10
-5.335447797742
 20
3.9042802237606
 10
-5.3340947547115
 20
3.8810493566509
 10
-5.3334179473337
 20
3.8577889644724
 10
-5.3333333333333
 20
3.8461538461538
  0
ARC
  5
1C7
330
1F
100
AcDbEntity
  8
AM_4
100
AcDbCircle
 10
-6.1333333333333
 20
-3.8461538672273
 30
0.0
 40
0.8
100
AcDbArc
 50
179.9999987925817
 51
0.0000012074182697
  0
LWPOLYLINE
  5
1C8
330
1F
100
AcDbEntity
  8
AM_9
100
AcDbPolyline
 90
      131
 70
     0
 43
0.0
 10
-5.3333333333333
 20
-3.8461538461538
 10
-5.3334179476422
 20
-3.8577889644724
 10
-5.3340947556367
 20
-3.8810493566509
 10
-5.3354477992831
 20
-3.9042802237606
 10
-5.3363775740496
 20
-3.9158784415984
 10
-5.3374759337713
 20
-3.927461910168
 10
-5.3401774430971
 20
-3.9505748018512
 10
-5.3435500415136
 20
-3.9735993429959
 10
-5.347590875466
 20
-3.9965160525409
 10
-5.3522965260051
 20
-4.0193055406613
 10
-5.3576630116806
 20
-4.0419485251744
 10
-5.3605926705017
 20
-4.0532090863465
 10
-5.3636857919097
 20
-4.064425847854
 10
-5.370359770819
 20
-4.0867184906405
 10
-5.3776793015557
 20
-4.1088075917319
 10
-5.3856381910659
 20
-4.1306744615427
 10
-5.3942297053343
 20
-4.1523005985173
 10
-5.4034465750818
 20
-4.1736677047843
 10
-5.4082871017537
 20
-4.1842484628261
 10
-5.4132810019162
 20
-4.1947577016378
 10
-5.4237246649302
 20
-4.2155527448345
 10
-5.4347687277421
 20
-4.236035239691
 10
-5.4405130085838
 20
-4.2461538550605
 10
-5.4464038459717
 20
-4.2561878559714
 10
-5.4586201751471
 20
-4.2759935425497
 10
-5.4714073790339
 20
-4.2954355418371
 10
-5.4780116965983
 20
-4.3050150057589
 10
-5.4847546383806
 20
-4.3144974039607
 10
-5.4986506600729
 20
-4.3331630006817
 10
-5.5130836866886
 20
-4.351416539041
 10
-5.5280415064461
 20
-4.3692425747225
 10
-5.5435114635359
 20
-4.3866260251197
 10
-5.5594804688295
 20
-4.4035521820977
 10
-5.5676479084324
 20
-4.4118392847259
 10
-5.5759350109538
 20
-4.4200067244372
 10
-5.5928611677228
 20
-4.4359757299523
 10
-5.6102446179175
 20
-4.4514456872696
 10
-5.6280706534033
 20
-4.4664035072603
 10
-5.6463241915738
 20
-4.480836534115
 10
-5.6649897881129
 20
-4.4947325560515
 10
-5.6744721862265
 20
-4.5014754979579
 10
-5.6840516500619
 20
-4.5080798156476
 10
-5.703493649182
 20
-4.5208670197888
 10
-5.7232993356004
 20
-4.5330833492234
 10
-5.7434519517285
 20
-4.5447184677167
 10
-5.7639344464405
 20
-4.5557625307966
 10
-5.7847294895005
 20
-4.5662061940828
 10
-5.7952387282469
 20
-4.5712000943827
 10
-5.8058194862254
 20
-4.5760406211931
 10
-5.8271865923717
 20
-4.5852574912202
 10
-5.8488127292339
 20
-4.5938490057716
 10
-5.8706795989406
 20
-4.6018078955679
 10
-5.8927686999362
 20
-4.6091274265937
 10
-5.9150613426354
 20
-4.6158014057947
 10
-5.9262781041025
 20
-4.6188945273495
 10
-5.9375386652362
 20
-4.6218241863179
 10
-5.960181649679
 20
-4.6271906722898
 10
-5.9829711377379
 20
-4.631896323127
 10
-6.00588784723
 20
-4.6359371573793
 10
-6.0289123883305
 20
-4.6393097560971
 10
-6.0520252799784
 20
-4.6420112657253
 10
-6.0636087485336
 20
-4.6431096255987
 10
-6.0752069663592
 20
-4.6440394005169
 10
-6.0984378334512
 20
-4.6453924444673
 10
-6.1216982256209
 20
-4.6460692527661
 10
-6.1333333439384
 20
-4.6461538672273
 10
-6.1449684622537
 20
-4.6460692527661
 10
-6.1682288544054
 20
-4.6453924444673
 10
-6.1914597214615
 20
-4.6440394005169
 10
-6.2030579392625
 20
-4.6431096255987
 10
-6.2146414077885
 20
-4.6420112657253
 10
-6.2377542993648
 20
-4.6393097560971
 10
-6.260778840376
 20
-4.6359371573793
 10
-6.2836955497609
 20
-4.631896323127
 10
-6.306485037695
 20
-4.6271906722898
 10
-6.3291280219956
 20
-4.6218241863179
 10
-6.3403885830516
 20
-4.6188945273495
 10
-6.3516053444367
 20
-4.6158014057947
 10
-6.373897986959
 20
-4.6091274265937
 10
-6.3959870877605
 20
-4.6018078955679
 10
-6.4178539572561
 20
-4.5938490057716
 10
-6.4394800938906
 20
-4.5852574912202
 10
-6.4608471997925
 20
-4.5760406211931
 10
-6.4714279576427
 20
-4.5712000943827
 10
-6.4819371962566
 20
-4.5662061940828
 10
-6.5027322390397
 20
-4.5557625307966
 10
-6.523214733459
 20
-4.5447184677167
 10
-6.5433673492786
 20
-4.5330833492234
 10
-6.5631730353731
 20
-4.5208670197888
 10
-6.5826150341542
 20
-4.5080798156476
 10
-6.5921944978145
 20
-4.5014754979579
 10
-6.6016768957493
 20
-4.4947325560515
 10
-6.62034249192
 20
-4.480836534115
 10
-6.6385960297079
 20
-4.4664035072603
 10
-6.656422064797
 20
-4.4514456872696
 10
-6.6738055145817
 20
-4.4359757299523
 10
-6.6907316709273
 20
-4.4200067244372
 10
-6.6990187732321
 20
-4.4118392847259
 10
-6.7071862126152
 20
-4.4035521820977
 10
-6.7231552174601
 20
-4.3866260251197
 10
-6.7386251740891
 20
-4.3692425747225
 10
-6.7535829933739
 20
-4.351416539041
 10
-6.7680160195057
 20
-4.3331630006817
 10
-6.7819120407031
 20
-4.3144974039607
 10
-6.788654982234
 20
-4.3050150057589
 10
-6.7952592995444
 20
-4.2954355418371
 10
-6.8080465029157
 20
-4.2759935425497
 10
-6.8202628315661
 20
-4.2561878559714
 10
-6.8261536686879
 20
-4.2461538550605
 10
-6.8318979492614
 20
-4.236035239691
 10
-6.8429420115302
 20
-4.2155527448345
 10
-6.8533856739929
 20
-4.1947577016378
 10
-6.8583795738767
 20
-4.1842484628261
 10
-6.8632201002681
 20
-4.1736677047843
 10
-6.8724369694491
 20
-4.1523005985173
 10
-6.8810284831441
 20
-4.1306744615427
 10
-6.8889873720746
 20
-4.1088075917319
 10
-6.8963069022256
 20
-4.0867184906405
 10
-6.9029808805439
 20
-4.064425847854
 10
-6.9060740016545
 20
-4.0532090863465
 10
-6.9090036601771
 20
-4.0419485251744
 10
-6.9143701452523
 20
-4.0193055406613
 10
-6.9190757951871
 20
-3.9965160525409
 10
-6.9231166285319
 20
-3.9735993429959
 10
-6.926489226338
 20
-3.9505748018512
 10
-6.929190735051
 20
-3.927461910168
 10
-6.9302890944656
 20
-3.9158784415984
 10
-6.9312188689246
 20
-3.9042802237606
 10
-6.9325719119551
 20
-3.8810493566509
 10
-6.9332487193329
 20
-3.8577889644724
 10
-6.9333333333333
 20
-3.8461538461538
  0
LINE
  5
1C9
330
1F
100
AcDbEntity
  8
AM_4
100
AcDbLine
 10
29.0
 20
-3.6111111111111
 30
0.0
 11
8.0
 21
-3.6111111111111
 31
0.0
  0
LINE
  5
1CA
330
1F
100
AcDbEntity
  8
AM_9
100
AcDbLine
 10
8.0
 20
-3.6111111111111
 30
0.0
 11
-8.0
 21
-3.6111111111111
 31
0.0
  0
LINE
  5
1CB
330
1F
100
AcDbEntity
  8
AM_4
100
AcDbLine
 10
-8.0
 20
-3.6111111111111
 30
0.0
 11
-29.0
 21
-3.6111111111111
 31
0.0
  0
LINE
  5
1CC
330
1F
100
AcDbEntity
  8
AM_4
100
AcDbLine
 10
29.0
 20
0.0
 30
0.0
 11
8.0
 21
0.0
 31
0.0
  0
LINE
  5
1CD
330
1F
100
AcDbEntity
  8
AM_4
100
AcDbLine
 10
-8.0
 20
0.0
 30
0.0
 11
-29.0
 21
0.0
 31
0.0
  0
LINE
  5
1CE
330
1F
100
AcDbEntity
  8
AM_9
100
AcDbLine
 10
-26.639156081757
 20
-2.3776948312611
 30
0.0
 11
-26.819578040878
 21
-2.5979477383772
 31
0.0
  0
LINE
  5
1CF
330
1F
100
AcDbEntity
  8
AM_4
100
AcDbLine
 10
-26.819578040878
 20
-2.1574419241451
 30
0.0
 11
-26.639156081756
 21
-2.3776948312611
 31
0.0
  0
LINE
  5
1D0
330
1F
100
AcDbEntity
  8
AM_4
100
AcDbLine
 10
-27.180421959122
 20
-2.1574419241451
 30
0.0
 11
-26.819578040878
 21
-2.1574419241451
 31
0.0
  0
LINE
  5
1D1
330
1F
100
AcDbEntity
  8
AM_4
100
AcDbLine
 10
-27.360843918243
 20
-2.3776948312611
 30
0.0
 11
-27.180421959122
 21
-2.1574419241451
 31
0.0
  0
LINE
  5
1D2
330
1F
100
AcDbEntity
  8
AM_9
100
AcDbLine
 10
-27.180421959122
 20
-2.5979477383772
 30
0.0
 11
-27.360843918244
 21
-2.3776948312611
 31
0.0
  0
LINE
  5
1D3
330
1F
100
AcDbEntity
  8
AM_9
100
AcDbLine
 10
-26.819578040878
 20
-2.5979477383772
 30
0.0
 11
-27.180421959122
 21
-2.5979477383772
 31
0.0
  0
LINE
  5
1D4
330
1F
100
AcDbEntity
  8
AM_9
100
AcDbLine
 10
-27.889156081757
 20
-2.3776948312611
 30
0.0
 11
-28.069578040878
 21
-2.5979477383772
 31
0.0
  0
LINE
  5
1D5
330
1F
100
AcDbEntity
  8
AM_4
100
AcDbLine
 10
-28.069578040878
 20
-2.1574419241451
 30
0.0
 11
-27.889156081757
 21
-2.3776948312611
 31
0.0
  0
LINE
  5
1D6
330
1F
100
AcDbEntity
  8
AM_4
100
AcDbLine
 10
-28.430421959122
 20
-2.1574419241451
 30
0.0
 11
-28.069578040878
 21
-2.1574419241451
 31
0.0
  0
LINE
  5
1D7
330
1F
100
AcDbEntity
  8
AM_4
100
AcDbLine
 10
-28.610843918244
 20
-2.3776948312611
 30
0.0
 11
-28.430421959122
 21
-2.1574419241451
 31
0.0
  0
LINE
  5
1D8
330
1F
100
AcDbEntity
  8
AM_9
100
AcDbLine
 10
-28.430421959122
 20
-2.5979477383772
 30
0.0
 11
-28.610843918244
 21
-2.3776948312611
 31
0.0
  0
LINE
  5
1D9
330
1F
100
AcDbEntity
  8
AM_9
100
AcDbLine
 10
-28.069578040878
 20
-2.5979477383772
 30
0.0
 11
-28.430421959122
 21
-2.5979477383772
 31
0.0
  0
LINE
  5
1DA
330
1F
100
AcDbEntity
  8
AM_9
100
AcDbLine
 10
27.360843918243
 20
-2.3776948312611
 30
0.0
 11
27.180421959122
 21
-2.5979477383772
 31
0.0
  0
LINE
  5
1DB
330
1F
100
AcDbEntity
  8
AM_4
100
AcDbLine
 10
27.180421959122
 20
-2.1574419241451
 30
0.0
 11
27.360843918243
 21
-2.3776948312611
 31
0.0
  0
LINE
  5
1DC
330
1F
100
AcDbEntity
  8
AM_4
100
AcDbLine
 10
26.819578040878
 20
-2.1574419241451
 30
0.0
 11
27.180421959122
 21
-2.1574419241451
 31
0.0
  0
LINE
  5
1DD
330
1F
100
AcDbEntity
  8
AM_4
100
AcDbLine
 10
26.639156081756
 20
-2.3776948312611
 30
0.0
 11
26.819578040878
 21
-2.1574419241451
 31
0.0
  0
LINE
  5
1DE
330
1F
100
AcDbEntity
  8
AM_9
100
AcDbLine
 10
26.819578040878
 20
-2.5979477383772
 30
0.0
 11
26.639156081757
 21
-2.3776948312611
 31
0.0
  0
LINE
  5
1DF
330
1F
100
AcDbEntity
  8
AM_9
100
AcDbLine
 10
27.180421959122
 20
-2.5979477383772
 30
0.0
 11
26.819578040878
 21
-2.5979477383772
 31
0.0
  0
LINE
  5
1E0
330
1F
100
AcDbEntity
  8
AM_9
100
AcDbLine
 10
28.610843918244
 20
-2.3776948312611
 30
0.0
 11
28.430421959122
 21
-2.5979477383772
 31
0.0
  0
LINE
  5
1E1
330
1F
100
AcDbEntity
  8
AM_4
100
AcDbLine
 10
28.430421959122
 20
-2.1574419241451
 30
0.0
 11
28.610843918244
 21
-2.3776948312611
 31
0.0
  0
LINE
  5
1E2
330
1F
100
AcDbEntity
  8
AM_4
100
AcDbLine
 10
28.069578040878
 20
-2.1574419241451
 30
0.0
 11
28.430421959122
 21
-2.1574419241451
 31
0.0
  0
LINE
  5
1E3
330
1F
100
AcDbEntity
  8
AM_4
100
AcDbLine
 10
27.889156081756
 20
-2.3776948312611
 30
0.0
 11
28.069578040878
 21
-2.1574419241451
 31
0.0
  0
LINE
  5
1E4
330
1F
100
AcDbEntity
  8
AM_9
100
AcDbLine
 10
28.069578040878
 20
-2.5979477383772
 30
0.0
 11
27.889156081757
 21
-2.3776948312611
 31
0.0
  0
LINE
  5
1E5
330
1F
100
AcDbEntity
  8
AM_9
100
AcDbLine
 10
28.430421959122
 20
-2.5979477383772
 30
0.0
 11
28.069578040878
 21
-2.5979477383772
 31
0.0
  0
LINE
  5
1E6
330
1F
100
AcDbEntity
  8
AM_4
100
AcDbLine
 10
-6.1333333333333
 20
3.8049003692527
 30
0.0
 11
-6.4
 21
3.9588604410366
 31
0.0
  0
LINE
  5
1E7
330
1F
100
AcDbEntity
  8
AM_4
100
AcDbLine
 10
-5.8666666666667
 20
3.9588604410366
 30
0.0
 11
-6.1333333333333
 21
3.8049003692527
 31
0.0
  0
LINE
  5
1E8
330
1F
100
AcDbEntity
  8
AM_4
100
AcDbLine
 10
-5.8666666666667
 20
4.2667805846044
 30
0.0
 11
-5.8666666666667
 21
3.9588604410366
 31
0.0
  0
LINE
  5
1E9
330
1F
100
AcDbEntity
  8
AM_4
100
AcDbLine
 10
-6.1333333333333
 20
4.4207406563883
 30
0.0
 11
-5.8666666666667
 21
4.2667805846044
 31
0.0
  0
LINE
  5
1EA
330
1F
100
AcDbEntity
  8
AM_4
100
AcDbLine
 10
-6.4
 20
4.2667805846044
 30
0.0
 11
-6.1333333333333
 21
4.4207406563883
 31
0.0
  0
LINE
  5
1EB
330
1F
100
AcDbEntity
  8
AM_4
100
AcDbLine
 10
-6.4
 20
3.9588604410366
 30
0.0
 11
-6.4
 21
4.2667805846044
 31
0.0
  0
LINE
  5
1EC
330
1F
100
AcDbEntity
  8
AM_4
100
AcDbLine
 10
6.1333333333337
 20
3.8049003692527
 30
0.0
 11
5.866666666667
 21
3.9588604410366
 31
0.0
  0
LINE
  5
1ED
330
1F
100
AcDbEntity
  8
AM_4
100
AcDbLine
 10
6.4000000000003
 20
3.9588604410366
 30
0.0
 11
6.1333333333337
 21
3.8049003692527
 31
0.0
  0
LINE
  5
1EE
330
1F
100
AcDbEntity
  8
AM_4
100
AcDbLine
 10
6.4000000000003
 20
4.2667805846044
 30
0.0
 11
6.4000000000003
 21
3.9588604410366
 31
0.0
  0
LINE
  5
1EF
330
1F
100
AcDbEntity
  8
AM_4
100
AcDbLine
 10
6.1333333333337
 20
4.4207406563883
 30
0.0
 11
6.4000000000003
 21
4.2667805846044
 31
0.0
  0
LINE
  5
1F0
330
1F
100
AcDbEntity
  8
AM_4
100
AcDbLine
 10
5.866666666667
 20
4.2667805846044
 30
0.0
 11
6.1333333333337
 21
4.4207406563883
 31
0.0
  0
LINE
  5
1F1
330
1F
100
AcDbEntity
  8
AM_4
100
AcDbLine
 10
5.866666666667
 20
3.9588604410366
 30
0.0
 11
5.866666666667
 21
4.2667805846044
 31
0.0
  0
LINE
  5
1F2
330
1F
100
AcDbEntity
  8
AM_4
100
AcDbLine
 10
6.1333333333337
 20
-4.4207406563883
 30
0.0
 11
5.866666666667
 21
-4.2667805846044
 31
0.0
  0
LINE
  5
1F3
330
1F
100
AcDbEntity
  8
AM_4
100
AcDbLine
 10
6.4000000000003
 20
-4.2667805846044
 30
0.0
 11
6.1333333333337
 21
-4.4207406563883
 31
0.0
  0
LINE
  5
1F4
330
1F
100
AcDbEntity
  8
AM_4
100
AcDbLine
 10
6.4000000000003
 20
-3.9588604410366
 30
0.0
 11
6.4000000000003
 21
-4.2667805846044
 31
0.0
  0
LINE
  5
1F5
330
1F
100
AcDbEntity
  8
AM_4
100
AcDbLine
 10
6.1333333333337
 20
-3.8049003692527
 30
0.0
 11
6.4000000000003
 21
-3.9588604410366
 31
0.0
  0
LINE
  5
1F6
330
1F
100
AcDbEntity
  8
AM_4
100
AcDbLine
 10
5.866666666667
 20
-3.9588604410366
 30
0.0
 11
6.1333333333337
 21
-3.8049003692527
 31
0.0
  0
LINE
  5
1F7
330
1F
100
AcDbEntity
  8
AM_4
100
AcDbLine
 10
5.866666666667
 20
-4.2667805846044
 30
0.0
 11
5.866666666667
 21
-3.9588604410366
 31
0.0
  0
LINE
  5
1F8
330
1F
100
AcDbEntity
  8
AM_4
100
AcDbLine
 10
-6.1333333333333
 20
-4.4207406563883
 30
0.0
 11
-6.4
 21
-4.2667805846044
 31
0.0
  0
LINE
  5
1F9
330
1F
100
AcDbEntity
  8
AM_4
100
AcDbLine
 10
-5.8666666666667
 20
-4.2667805846044
 30
0.0
 11
-6.1333333333333
 21
-4.4207406563883
 31
0.0
  0
LINE
  5
1FA
330
1F
100
AcDbEntity
  8
AM_4
100
AcDbLine
 10
-5.8666666666667
 20
-3.9588604410366
 30
0.0
 11
-5.8666666666667
 21
-4.2667805846044
 31
0.0
  0
LINE
  5
1FB
330
1F
100
AcDbEntity
  8
AM_4
100
AcDbLine
 10
-6.1333333333333
 20
-3.8049003692527
 30
0.0
 11
-5.8666666666667
 21
-3.9588604410366
 31
0.0
  0
LINE
  5
1FC
330
1F
100
AcDbEntity
  8
AM_4
100
AcDbLine
 10
-6.4
 20
-3.9588604410366
 30
0.0
 11
-6.1333333333333
 21
-3.8049003692527
 31
0.0
  0
LINE
  5
1FD
330
1F
100
AcDbEntity
  8
AM_4
100
AcDbLine
 10
-6.4
 20
-4.2667805846044
 30
0.0
 11
-6.4
 21
-3.9588604410366
 31
0.0
  0
LINE
  5
1FF
330
1F
100
AcDbEntity
  8
AM_5
100
AcDbLine
 10
-31.0625
 20
-0.5754
 30
0.0
 11
30.1875
 21
-0.5754
 31
0.0
  0
LINE
  5
200
330
1F
100
AcDbEntity
  8
AM_5
100
AcDbLine
 10
-31.0625
 20
0.5754
 30
0.0
 11
30.1875
 21
0.5754
 31
0.0
  0
LINE
  5
203
330
1F
100
AcDbEntity
  8
AM_7
100
AcDbLine
 10
-34.125
 20
0.0
 30
0.0
 11
33.25
 21
0.0
 31
0.0
  0
LINE
  5
204
330
1F
100
AcDbEntity
  8
AM_7
100
AcDbLine
 10
-4.210526315789472
 20
-1.04999999999997
 30
0.0
 11
-4.210526315789472
 21
1.049999999999971
 31
0.0
  0
LINE
  5
205
330
1F
100
AcDbEntity
  8
AM_7
100
AcDbLine
 10
4.210526315789472
 20
-1.049999999999971
 30
0.0
 11
4.210526315789472
 21
1.04999999999997
 31
0.0
  0
LINE
  5
206
330
1F
100
AcDbEntity
  8
AM_7
100
AcDbLine
 10
5.293333333333301
 20
3.8461538672273
 30
0.0
 11
6.973333333333299
 21
3.8461538672273
 31
0.0
  0
LINE
  5
207
330
1F
100
AcDbEntity
  8
AM_7
100
AcDbLine
 10
6.1333333333333
 20
3.006153867227301
 30
0.0
 11
6.1333333333333
 21
4.6861538672273
 31
0.0
  0
LINE
  5
208
330
1F
100
AcDbEntity
  8
AM_7
100
AcDbLine
 10
-6.973333333333299
 20
-3.8461538672273
 30
0.0
 11
-5.293333333333301
 21
-3.8461538672273
 31
0.0
  0
LINE
  5
209
330
1F
100
AcDbEntity
  8
AM_7
100
AcDbLine
 10
-6.1333333333333
 20
-4.6861538672273
 30
0.0
 11
-6.1333333333333
 21
-3.006153867227301
 31
0.0
  0
LINE
  5
20A
330
1F
100
AcDbEntity
  8
AM_7
100
AcDbLine
 10
-6.973333333333299
 20
3.8461538672273
 30
0.0
 11
-5.293333333333301
 21
3.8461538672273
 31
0.0
  0
LINE
  5
20B
330
1F
100
AcDbEntity
  8
AM_7
100
AcDbLine
 10
-6.1333333333333
 20
3.006153867227301
 30
0.0
 11
-6.1333333333333
 21
4.6861538672273
 31
0.0
  0
LINE
  5
20C
330
1F
100
AcDbEntity
  8
AM_7
100
AcDbLine
 10
5.293333333333301
 20
-3.8461538672273
 30
0.0
 11
6.973333333333299
 21
-3.8461538672273
 31
0.0
  0
LINE
  5
20D
330
1F
100
AcDbEntity
  8
AM_7
100
AcDbLine
 10
6.1333333333333
 20
-4.6861538672273
 30
0.0
 11
6.1333333333333
 21
-3.006153867227301
 31
0.0
  0
ENDSEC
  0
SECTION
  2
OBJECTS
  0
DICTIONARY
  5
C
330
0
100
AcDbDictionary
281
     1
  3
ACAD_DETAILVIEWSTYLE
350
215
  3
ACAD_GROUP
350
D
  3
ACAD_LAYOUT
350
1A
  3
ACAD_MATERIAL
350
43
  3
ACAD_MLEADERSTYLE
350
6B
  3
ACAD_MLINESTYLE
350
17
  3
ACAD_PLOTSETTINGS
350
19
  3
ACAD_PLOTSTYLENAME
350
E
  3
ACAD_SCALELIST
350
47
  3
ACAD_SECTIONVIEWSTYLE
350
216
  3
ACAD_TABLESTYLE
350
69
  3
ACAD_VISUALSTYLE
350
2A
  3
ACDB_RECOMPOSE_DATA
350
212
  3
AcDbVariableDictionary
350
20E
  0
SUN
  5
6D
330
29
100
AcDbSun
 90
        1
290
     0
 63
     7
421
 16777215
 40
1.0
291
     1
 91
  2455826
 92
 54000000
292
     0
 70
     2
 71
   256
280
     1
  0
DICTIONARY
  5
215
102
{ACAD_REACTORS
330
C
102
}
330
C
100
AcDbDictionary
281
     1
  0
DICTIONARY
  5
D
102
{ACAD_REACTORS
330
C
102
}
330
C
100
AcDbDictionary
281
     1
  0
DICTIONARY
  5
1A
102
{ACAD_REACTORS
330
C
102
}
330
C
100
AcDbDictionary
281
     1
  3
Layout1
350
1E
  3
Layout2
350
26
  3
Model
350
22
  0
DICTIONARY
  5
43
102
{ACAD_REACTORS
330
C
102
}
330
C
100
AcDbDictionary
281
     1
  3
ByBlock
350
45
  3
ByLayer
350
44
  3
Global
350
46
  0
DICTIONARY
  5
6B
102
{ACAD_REACTORS
330
C
102
}
330
C
100
AcDbDictionary
281
     1
  3
Standard
350
6C
  0
DICTIONARY
  5
17
102
{ACAD_REACTORS
330
C
102
}
330
C
100
AcDbDictionary
281
     1
  3
Standard
350
18
  0
DICTIONARY
  5
19
102
{ACAD_REACTORS
330
C
102
}
330
C
100
AcDbDictionary
281
     1
  0
ACDBDICTIONARYWDFLT
  5
E
102
{ACAD_REACTORS
330
C
102
}
330
C
100
AcDbDictionary
281
     1
  3
Normal
350
F
100
AcDbDictionaryWithDefault
340
F
  0
DICTIONARY
  5
47
102
{ACAD_REACTORS
330
C
102
}
330
C
100
AcDbDictionary
281
     1
  3
A0
350
48
  3
A1
350
49
  3
A2
350
4A
  3
A3
350
4B
  3
A4
350
4C
  3
A5
350
4D
  3
A6
350
4E
  3
A7
350
4F
  3
A8
350
50
  3
A9
350
51
  3
B0
350
52
  3
B1
350
53
  3
B2
350
54
  3
B3
350
55
  3
B4
350
56
  3
B5
350
57
  3
B6
350
58
  3
B7
350
59
  3
B8
350
5A
  3
B9
350
5B
  3
C0
350
5C
  3
C1
350
5D
  3
C2
350
5E
  3
C3
350
5F
  3
C4
350
60
  3
C5
350
61
  3
C6
350
62
  3
C7
350
63
  3
C8
350
64
  3
C9
350
65
  3
D0
350
66
  3
D1
350
67
  3
D2
350
68
  0
DICTIONARY
  5
216
102
{ACAD_REACTORS
330
C
102
}
330
C
100
AcDbDictionary
281
     1
  0
DICTIONARY
  5
69
102
{ACAD_REACTORS
330
C
102
}
330
C
100
AcDbDictionary
281
     1
  3
Standard
350
6A
  0
DICTIONARY
  5
2A
102
{ACAD_REACTORS
330
C
102
}
330
C
100
AcDbDictionary
281
     1
  3
2dWireframe
350
2F
  3
Basic
350
32
  3
Brighten
350
36
  3
ColorChange
350
3A
  3
Conceptual
350
34
  3
Dim
350
35
  3
EdgeColorOff
350
3D
  3
Facepattern
350
39
  3
Flat
350
2B
  3
FlatWithEdges
350
2C
  3
Gouraud
350
2D
  3
GouraudWithEdges
350
2E
  3
Hidden
350
31
  3
JitterOff
350
3B
  3
Linepattern
350
38
  3
OverhangOff
350
3C
  3
Realistic
350
33
  3
Shaded
350
42
  3
Shaded with edges
350
41
  3
Shades of Gray
350
3E
  3
Sketchy
350
3F
  3
Thicken
350
37
  3
Wireframe
350
30
  3
X-Ray
350
40
  0
XRECORD
  5
212
102
{ACAD_REACTORS
330
C
102
}
330
C
100
AcDbXrecord
280
     1
 90
        1
330
6A
  0
DICTIONARY
  5
20E
102
{ACAD_REACTORS
330
C
102
}
330
C
100
AcDbDictionary
281
     1
  3
CANNOSCALE
350
20F
  3
CMLEADERSTYLE
350
214
  3
CTABLESTYLE
350
213
  0
LAYOUT
  5
1E
102
{ACAD_REACTORS
330
1A
102
}
330
1A
100
AcDbPlotSettings
  1

  2
none_device
  4

  6

 40
0.0
 41
0.0
 42
0.0
 43
0.0
 44
0.0
 45
0.0
 46
0.0
 47
0.0
 48
0.0
 49
0.0
140
0.0
141
0.0
142
1.0
143
1.0
 70
   688
 72
     0
 73
     0
 74
     5
  7

 75
    16
 76
     0
 77
     2
 78
   300
147
1.0
148
0.0
149
0.0
100
AcDbLayout
  1
Layout1
 70
     1
 71
     1
 10
0.0
 20
0.0
 11
12.0
 21
9.0
 12
0.0
 22
0.0
 32
0.0
 14
1.000000000000000E+20
 24
1.000000000000000E+20
 34
1.000000000000000E+20
 15
-1.000000000000000E+20
 25
-1.000000000000000E+20
 35
-1.000000000000000E+20
146
0.0
 13
0.0
 23
0.0
 33
0.0
 16
1.0
 26
0.0
 36
0.0
 17
0.0
 27
1.0
 37
0.0
 76
     0
330
1B
  0
LAYOUT
  5
26
102
{ACAD_REACTORS
330
1A
102
}
330
1A
100
AcDbPlotSettings
  1

  2
none_device
  4

  6

 40
0.0
 41
0.0
 42
0.0
 43
0.0
 44
0.0
 45
0.0
 46
0.0
 47
0.0
 48
0.0
 49
0.0
140
0.0
141
0.0
142
1.0
143
1.0
 70
   688
 72
     0
 73
     0
 74
     5
  7

 75
    16
 76
     0
 77
     2
 78
   300
147
1.0
148
0.0
149
0.0
100
AcDbLayout
  1
Layout2
 70
     1
 71
     2
 10
0.0
 20
0.0
 11
0.0
 21
0.0
 12
0.0
 22
0.0
 32
0.0
 14
0.0
 24
0.0
 34
0.0
 15
0.0
 25
0.0
 35
0.0
146
0.0
 13
0.0
 23
0.0
 33
0.0
 16
1.0
 26
0.0
 36
0.0
 17
0.0
 27
1.0
 37
0.0
 76
     0
330
23
  0
LAYOUT
  5
22
102
{ACAD_REACTORS
330
1A
102
}
330
1A
100
AcDbPlotSettings
  1

  2
none_device
  4
Letter_(8.50_x_11.00_Inches)
  6

 40
6.35
 41
6.35
 42
6.35000508
 43
6.35000508
 44
215.9
 45
279.4
 46
0.0
 47
0.0
 48
0.0
 49
0.0
140
0.0
141
0.0
142
1.0
143
1.0
 70
  1712
 72
     0
 73
     0
 74
     0
  7

 75
     0
 76
     0
 77
     2
 78
   300
147
1.0
148
0.0
149
0.0
100
AcDbLayout
  1
Model
 70
     1
 71
     0
 10
0.0
 20
0.0
 11
12.0
 21
9.0
 12
0.0
 22
0.0
 32
0.0
 14
1.000000000000000E+20
 24
1.000000000000000E+20
 34
1.000000000000000E+20
 15
-1.000000000000000E+20
 25
-1.000000000000000E+20
 35
-1.000000000000000E+20
146
0.0
 13
0.0
 23
0.0
 33
0.0
 16
1.0
 26
0.0
 36
0.0
 17
0.0
 27
1.0
 37
0.0
 76
     0
330
1F
331
29
  0
MATERIAL
  5
45
102
{ACAD_REACTORS
330
43
102
}
330
43
100
AcDbMaterial
  1
ByBlock
 72
     1
 94
      127
  0
MATERIAL
  5
44
102
{ACAD_REACTORS
330
43
102
}
330
43
100
AcDbMaterial
  1
ByLayer
 72
     1
 94
      127
  0
MATERIAL
  5
46
102
{ACAD_REACTORS
330
43
102
}
330
43
100
AcDbMaterial
  1
Global
 72
     1
 94
      127
  0
MLEADERSTYLE
  5
6C
102
{ACAD_REACTORS
330
6B
102
}
330
6B
100
AcDbMLeaderStyle
179
     2
170
     2
171
     1
172
     0
 90
        2
 40
0.0
 41
0.0
173
     1
 91
-1056964608
340
14
 92
       -2
290
     1
 42
0.09
291
     1
 43
0.36
  3
Standard
341
0
 44
0.18
300

342
11
174
     1
178
     6
175
     1
176
     0
 93
-1056964608
 45
0.18
292
     0
297
     0
 46
0.18
343
0
 94
-1056964608
 47
1.0
 49
1.0
140
1.0
293
     1
141
0.0
294
     1
177
     0
142
1.0
295
     0
296
     0
143
0.125
271
     0
272
     9
273
     9
298
     0
  0
MLINESTYLE
  5
18
102
{ACAD_REACTORS
330
17
102
}
330
17
100
AcDbMlineStyle
  2
Standard
 70
     0
  3

 62
   256
 51
90.0
 52
90.0
 71
     2
 49
0.5
 62
   256
  6
BYLAYER
 49
-0.5
 62
   256
  6
BYLAYER
  0
ACDBPLACEHOLDER
  5
F
102
{ACAD_REACTORS
330
E
102
}
330
E
  0
SCALE
  5
48
102
{ACAD_REACTORS
330
47
102
}
330
47
100
AcDbScale
 70
     0
300
1:1
140
1.0
141
1.0
290
     1
  0
SCALE
  5
49
102
{ACAD_REACTORS
330
47
102
}
330
47
100
AcDbScale
 70
     0
300
1:2
140
1.0
141
2.0
290
     0
  0
SCALE
  5
4A
102
{ACAD_REACTORS
330
47
102
}
330
47
100
AcDbScale
 70
     0
300
1:4
140
1.0
141
4.0
290
     0
  0
SCALE
  5
4B
102
{ACAD_REACTORS
330
47
102
}
330
47
100
AcDbScale
 70
     0
300
1:5
140
1.0
141
5.0
290
     0
  0
SCALE
  5
4C
102
{ACAD_REACTORS
330
47
102
}
330
47
100
AcDbScale
 70
     0
300
1:8
140
1.0
141
8.0
290
     0
  0
SCALE
  5
4D
102
{ACAD_REACTORS
330
47
102
}
330
47
100
AcDbScale
 70
     0
300
1:10
140
1.0
141
10.0
290
     0
  0
SCALE
  5
4E
102
{ACAD_REACTORS
330
47
102
}
330
47
100
AcDbScale
 70
     0
300
1:16
140
1.0
141
16.0
290
     0
  0
SCALE
  5
4F
102
{ACAD_REACTORS
330
47
102
}
330
47
100
AcDbScale
 70
     0
300
1:20
140
1.0
141
20.0
290
     0
  0
SCALE
  5
50
102
{ACAD_REACTORS
330
47
102
}
330
47
100
AcDbScale
 70
     0
300
1:30
140
1.0
141
30.0
290
     0
  0
SCALE
  5
51
102
{ACAD_REACTORS
330
47
102
}
330
47
100
AcDbScale
 70
     0
300
1:40
140
1.0
141
40.0
290
     0
  0
SCALE
  5
52
102
{ACAD_REACTORS
330
47
102
}
330
47
100
AcDbScale
 70
     0
300
1:50
140
1.0
141
50.0
290
     0
  0
SCALE
  5
53
102
{ACAD_REACTORS
330
47
102
}
330
47
100
AcDbScale
 70
     0
300
1:100
140
1.0
141
100.0
290
     0
  0
SCALE
  5
54
102
{ACAD_REACTORS
330
47
102
}
330
47
100
AcDbScale
 70
     0
300
2:1
140
2.0
141
1.0
290
     0
  0
SCALE
  5
55
102
{ACAD_REACTORS
330
47
102
}
330
47
100
AcDbScale
 70
     0
300
4:1
140
4.0
141
1.0
290
     0
  0
SCALE
  5
56
102
{ACAD_REACTORS
330
47
102
}
330
47
100
AcDbScale
 70
     0
300
8:1
140
8.0
141
1.0
290
     0
  0
SCALE
  5
57
102
{ACAD_REACTORS
330
47
102
}
330
47
100
AcDbScale
 70
     0
300
10:1
140
10.0
141
1.0
290
     0
  0
SCALE
  5
58
102
{ACAD_REACTORS
330
47
102
}
330
47
100
AcDbScale
 70
     0
300
100:1
140
100.0
141
1.0
290
     0
  0
SCALE
  5
59
102
{ACAD_REACTORS
330
47
102
}
330
47
100
AcDbScale
 70
     0
300
1/128" = 1'-0"
140
0.0078125
141
12.0
290
     0
  0
SCALE
  5
5A
102
{ACAD_REACTORS
330
47
102
}
330
47
100
AcDbScale
 70
     0
300
1/64" = 1'-0"
140
0.015625
141
12.0
290
     0
  0
SCALE
  5
5B
102
{ACAD_REACTORS
330
47
102
}
330
47
100
AcDbScale
 70
     0
300
1/32" = 1'-0"
140
0.03125
141
12.0
290
     0
  0
SCALE
  5
5C
102
{ACAD_REACTORS
330
47
102
}
330
47
100
AcDbScale
 70
     0
300
1/16" = 1'-0"
140
0.0625
141
12.0
290
     0
  0
SCALE
  5
5D
102
{ACAD_REACTORS
330
47
102
}
330
47
100
AcDbScale
 70
     0
300
3/32" = 1'-0"
140
0.09375
141
12.0
290
     0
  0
SCALE
  5
5E
102
{ACAD_REACTORS
330
47
102
}
330
47
100
AcDbScale
 70
     0
300
1/8" = 1'-0"
140
0.125
141
12.0
290
     0
  0
SCALE
  5
5F
102
{ACAD_REACTORS
330
47
102
}
330
47
100
AcDbScale
 70
     0
300
3/16" = 1'-0"
140
0.1875
141
12.0
290
     0
  0
SCALE
  5
60
102
{ACAD_REACTORS
330
47
102
}
330
47
100
AcDbScale
 70
     0
300
1/4" = 1'-0"
140
0.25
141
12.0
290
     0
  0
SCALE
  5
61
102
{ACAD_REACTORS
330
47
102
}
330
47
100
AcDbScale
 70
     0
300
3/8" = 1'-0"
140
0.375
141
12.0
290
     0
  0
SCALE
  5
62
102
{ACAD_REACTORS
330
47
102
}
330
47
100
AcDbScale
 70
     0
300
1/2" = 1'-0"
140
0.5
141
12.0
290
     0
  0
SCALE
  5
63
102
{ACAD_REACTORS
330
47
102
}
330
47
100
AcDbScale
 70
     0
300
3/4" = 1'-0"
140
0.75
141
12.0
290
     0
  0
SCALE
  5
64
102
{ACAD_REACTORS
330
47
102
}
330
47
100
AcDbScale
 70
     0
300
1" = 1'-0"
140
1.0
141
12.0
290
     0
  0
SCALE
  5
65
102
{ACAD_REACTORS
330
47
102
}
330
47
100
AcDbScale
 70
     0
300
1-1/2" = 1'-0"
140
1.5
141
12.0
290
     0
  0
SCALE
  5
66
102
{ACAD_REACTORS
330
47
102
}
330
47
100
AcDbScale
 70
     0
300
3" = 1'-0"
140
3.0
141
12.0
290
     0
  0
SCALE
  5
67
102
{ACAD_REACTORS
330
47
102
}
330
47
100
AcDbScale
 70
     0
300
6" = 1'-0"
140
6.0
141
12.0
290
     0
  0
SCALE
  5
68
102
{ACAD_REACTORS
330
47
102
}
330
47
100
AcDbScale
 70
     0
300
1'-0" = 1'-0"
140
12.0
141
12.0
290
     0
  0
TABLESTYLE
  5
6A
102
{ACAD_REACTORS
330
69
102
}
102
{ACAD_XDICTIONARY
360
210
102
}
330
69
100
AcDbTableStyle
  3
Standard
 70
     0
 71
     0
 40
0.06
 41
0.06
280
     0
281
     0
  7
Standard
140
0.18
170
     2
 62
     0
 63
   257
283
     0
 90
        4
 91
        0
  1

274
    -2
284
     1
 64
     0
275
    -2
285
     1
 65
     0
276
    -2
286
     1
 66
     0
277
    -2
287
     1
 67
     0
278
    -2
288
     1
 68
     0
279
    -2
289
     1
 69
     0
  7
Standard
140
0.25
170
     5
 62
     0
 63
   257
283
     0
 90
        4
 91
        0
  1

274
    -2
284
     1
 64
     0
275
    -2
285
     1
 65
     0
276
    -2
286
     1
 66
     0
277
    -2
287
     1
 67
     0
278
    -2
288
     1
 68
     0
279
    -2
289
     1
 69
     0
  7
Standard
140
0.18
170
     5
 62
     0
 63
   257
283
     0
 90
        4
 91
        0
  1

274
    -2
284
     1
 64
     0
275
    -2
285
     1
 65
     0
276
    -2
286
     1
 66
     0
277
    -2
287
     1
 67
     0
278
    -2
288
     1
 68
     0
279
    -2
289
     1
 69
     0
  0
VISUALSTYLE
  5
2F
102
{ACAD_REACTORS
330
2A
102
}
330
2A
100
AcDbVisualStyle
  2
2dWireframe
 70
     4
177
     3
291
     0
 70
    58
 90
        0
176
     1
 90
        2
176
     1
 90
        0
176
     1
 90
        0
176
     1
 40
0.6
176
     1
 40
30.0
176
     1
 62
     7
420
 16777215
176
     1
 90
        1
176
     1
 90
        4
176
     1
 62
     7
176
     1
 62
   257
176
     1
 90
        1
176
     1
 90
        1
176
     1
 40
1.0
176
     1
 90
        0
176
     1
 62
   257
176
     1
 40
1.0
176
     1
 90
        1
176
     1
 90
        6
176
     1
 90
        2
176
     1
 62
     7
176
     1
 90
        5
176
     1
 90
        0
176
     1
 90
        0
176
     1
290
     0
176
     1
 90
        1
176
     1
 40
0.0
176
     1
 90
        0
176
     1
290
     1
176
     1
290
     1
176
     1
290
     0
176
     1
290
     0
176
     1
290
     0
176
     1
290
     0
176
     1
290
     0
176
     1
290
     0
176
     1
290
     0
176
     1
 90
       50
176
     1
 40
0.0
176
     1
 40
1.0
176
     1
 90
        0
176
     1
 62
    18
420
        0
176
     1
 90
       50
176
     1
 90
        3
176
     1
 62
     5
420
      255
176
     1
290
     0
176
     1
 90
       50
176
     1
 90
       50
176
     1
 90
       50
176
     1
290
     0
176
     1
 90
       50
176
     1
 62
   256
176
     0
 40
1.0
176
     0
 90
        2
176
     1
  1
strokes_ogs.tif
176
     1
290
     0
176
     1
 40
1.0
176
     1
 40
1.0
176
     1
  0
VISUALSTYLE
  5
32
102
{ACAD_REACTORS
330
2A
102
}
330
2A
100
AcDbVisualStyle
  2
Basic
 70
     7
177
     3
291
     1
 70
    58
 90
        1
176
     1
 90
        0
176
     1
 90
        1
176
     1
 90
        0
176
     1
 40
0.6
176
     1
 40
30.0
176
     1
 62
     7
420
 16777215
176
     1
 90
        0
176
     1
 90
        4
176
     1
 62
     7
176
     1
 62
   257
176
     1
 90
        1
176
     1
 90
        1
176
     1
 40
1.0
176
     1
 90
        8
176
     1
 62
     7
176
     1
 40
1.0
176
     1
 90
        1
176
     1
 90
        6
176
     1
 90
        2
176
     1
 62
     7
176
     1
 90
        5
176
     1
 90
        0
176
     1
 90
        0
176
     1
290
     0
176
     1
 90
        1
176
     1
 40
0.0
176
     1
 90
        0
176
     1
290
     0
176
     1
290
     1
176
     1
290
     1
176
     1
290
     0
176
     1
290
     0
176
     1
290
     0
176
     1
290
     0
176
     1
290
     0
176
     1
290
     0
176
     1
 90
       50
176
     1
 40
0.0
176
     1
 40
1.0
176
     1
 90
        0
176
     1
 62
    18
420
        0
176
     1
 90
       50
176
     1
 90
        3
176
     1
 62
     5
420
      255
176
     1
290
     0
176
     1
 90
       50
176
     1
 90
       50
176
     1
 90
       50
176
     1
290
     0
176
     1
 90
       50
176
     1
 62
   256
176
     0
 40
1.0
176
     0
 90
        2
176
     1
  1
strokes_ogs.tif
176
     1
290
     0
176
     1
 40
1.0
176
     1
 40
1.0
176
     1
  0
VISUALSTYLE
  5
36
102
{ACAD_REACTORS
330
2A
102
}
330
2A
100
AcDbVisualStyle
  2
Brighten
 70
    12
177
     3
291
     1
 70
    58
 90
        2
176
     1
 90
        2
176
     1
 90
        0
176
     1
 90
        0
176
     1
 40
0.6
176
     1
 40
30.0
176
     1
 62
     7
420
 16777215
176
     1
 90
        1
176
     1
 90
        4
176
     1
 62
     7
176
     1
 62
   257
176
     1
 90
        1
176
     1
 90
        1
176
     1
 40
1.0
176
     1
 90
        8
176
     1
 62
     7
176
     1
 40
1.0
176
     1
 90
        1
176
     1
 90
        6
176
     1
 90
        2
176
     1
 62
     7
176
     1
 90
        5
176
     1
 90
        0
176
     1
 90
        0
176
     1
290
     0
176
     1
 90
        1
176
     1
 40
50.0
176
     1
 90
        0
176
     1
290
     0
176
     1
290
     1
176
     1
290
     1
176
     1
290
     0
176
     1
290
     0
176
     1
290
     0
176
     1
290
     0
176
     1
290
     0
176
     1
290
     0
176
     1
 90
       50
176
     1
 40
0.0
176
     1
 40
1.0
176
     1
 90
        0
176
     1
 62
    18
420
        0
176
     1
 90
       50
176
     1
 90
        3
176
     1
 62
     5
420
      255
176
     1
290
     0
176
     1
 90
       50
176
     1
 90
       50
176
     1
 90
       50
176
     1
290
     0
176
     1
 90
       50
176
     1
 62
   256
176
     0
 40
1.0
176
     0
 90
        2
176
     1
  1
strokes_ogs.tif
176
     1
290
     0
176
     1
 40
1.0
176
     1
 40
1.0
176
     1
  0
VISUALSTYLE
  5
3A
102
{ACAD_REACTORS
330
2A
102
}
330
2A
100
AcDbVisualStyle
  2
ColorChange
 70
    16
177
     3
291
     1
 70
    58
 90
        2
176
     1
 90
        2
176
     1
 90
        3
176
     1
 90
        0
176
     1
 40
0.6
176
     1
 40
30.0
176
     1
 62
     8
420
  8421504
176
     1
 90
        1
176
     1
 90
        4
176
     1
 62
     7
176
     1
 62
   257
176
     1
 90
        1
176
     1
 90
        1
176
     1
 40
1.0
176
     1
 90
        8
176
     1
 62
     8
420
  8421504
176
     1
 40
1.0
176
     1
 90
        1
176
     1
 90
        6
176
     1
 90
        2
176
     1
 62
     7
176
     1
 90
        5
176
     1
 90
        0
176
     1
 90
        0
176
     1
290
     0
176
     1
 90
        1
176
     1
 40
0.0
176
     1
 90
        0
176
     1
290
     0
176
     1
290
     1
176
     1
290
     1
176
     1
290
     0
176
     1
290
     0
176
     1
290
     0
176
     1
290
     0
176
     1
290
     0
176
     1
290
     0
176
     1
 90
       50
176
     1
 40
0.0
176
     1
 40
1.0
176
     1
 90
        0
176
     1
 62
    18
420
        0
176
     1
 90
       50
176
     1
 90
        3
176
     1
 62
     5
420
      255
176
     1
290
     0
176
     1
 90
       50
176
     1
 90
       50
176
     1
 90
       50
176
     1
290
     0
176
     1
 90
       50
176
     1
 62
   256
176
     0
 40
1.0
176
     0
 90
        2
176
     1
  1
strokes_ogs.tif
176
     1
290
     0
176
     1
 40
1.0
176
     1
 40
1.0
176
     1
  0
VISUALSTYLE
  5
34
102
{ACAD_REACTORS
330
2A
102
}
330
2A
100
AcDbVisualStyle
  2
Conceptual
 70
     9
177
     3
291
     0
 70
    58
 90
        3
176
     1
 90
        2
176
     1
 90
        0
176
     1
 90
        0
176
     1
 40
0.6
176
     1
 40
30.0
176
     1
 62
     7
420
 16777215
176
     1
 90
        2
176
     1
 90
        2
176
     1
 62
     7
176
     1
 62
   257
176
     1
 90
        1
176
     1
 90
        1
176
     1
 40
179.0
176
     1
 90
        8
176
     1
 62
     7
176
     1
 40
1.0
176
     1
 90
        1
176
     1
 90
        6
176
     1
 90
        2
176
     1
 62
     7
176
     1
 90
        3
176
     1
 90
        0
176
     1
 90
        0
176
     1
290
     0
176
     1
 90
        1
176
     1
 40
0.0
176
     1
 90
        0
176
     1
290
     0
176
     1
290
     1
176
     1
290
     1
176
     1
290
     0
176
     1
290
     0
176
     1
290
     0
176
     1
290
     0
176
     1
290
     0
176
     1
290
     0
176
     1
 90
       50
176
     1
 40
0.0
176
     1
 40
1.0
176
     1
 90
        0
176
     1
 62
    18
420
        0
176
     1
 90
       50
176
     1
 90
        3
176
     1
 62
     5
420
      255
176
     1
290
     0
176
     1
 90
       50
176
     1
 90
       50
176
     1
 90
       50
176
     1
290
     0
176
     1
 90
       50
176
     1
 62
   256
176
     0
 40
1.0
176
     0
 90
        2
176
     1
  1
strokes_ogs.tif
176
     1
290
     0
176
     1
 40
1.0
176
     1
 40
1.0
176
     1
  0
VISUALSTYLE
  5
35
102
{ACAD_REACTORS
330
2A
102
}
330
2A
100
AcDbVisualStyle
  2
Dim
 70
    11
177
     3
291
     1
 70
    58
 90
        2
176
     1
 90
        2
176
     1
 90
        0
176
     1
 90
        0
176
     1
 40
0.6
176
     1
 40
30.0
176
     1
 62
     7
420
 16777215
176
     1
 90
        1
176
     1
 90
        4
176
     1
 62
     7
176
     1
 62
   257
176
     1
 90
        1
176
     1
 90
        1
176
     1
 40
1.0
176
     1
 90
        8
176
     1
 62
     7
176
     1
 40
1.0
176
     1
 90
        1
176
     1
 90
        6
176
     1
 90
        2
176
     1
 62
     7
176
     1
 90
        5
176
     1
 90
        0
176
     1
 90
        0
176
     1
290
     0
176
     1
 90
        1
176
     1
 40
-50.0
176
     1
 90
        0
176
     1
290
     0
176
     1
290
     1
176
     1
290
     1
176
     1
290
     0
176
     1
290
     0
176
     1
290
     0
176
     1
290
     0
176
     1
290
     0
176
     1
290
     0
176
     1
 90
       50
176
     1
 40
0.0
176
     1
 40
1.0
176
     1
 90
        0
176
     1
 62
    18
420
        0
176
     1
 90
       50
176
     1
 90
        3
176
     1
 62
     5
420
      255
176
     1
290
     0
176
     1
 90
       50
176
     1
 90
       50
176
     1
 90
       50
176
     1
290
     0
176
     1
 90
       50
176
     1
 62
   256
176
     0
 40
1.0
176
     0
 90
        2
176
     1
  1
strokes_ogs.tif
176
     1
290
     0
176
     1
 40
1.0
176
     1
 40
1.0
176
     1
  0
VISUALSTYLE
  5
3D
102
{ACAD_REACTORS
330
2A
102
}
330
2A
100
AcDbVisualStyle
  2
EdgeColorOff
 70
    22
177
     3
291
     1
 70
    58
 90
        2
176
     0
 90
        2
176
     0
 90
        0
176
     0
 90
        0
176
     0
 40
0.6
176
     0
 40
30.0
176
     0
 62
     7
420
 16777215
176
     0
 90
        1
176
     0
 90
        4
176
     0
 62
     7
176
     0
 62
   257
176
     0
 90
        1
176
     0
 90
        1
176
     0
 40
1.0
176
     0
 90
        8
176
     2
 62
     7
176
     0
 40
1.0
176
     0
 90
        1
176
     0
 90
        6
176
     0
 90
        2
176
     0
 62
     7
176
     0
 90
        5
176
     0
 90
        0
176
     0
 90
        0
176
     0
290
     0
176
     0
 90
        1
176
     0
 40
0.0
176
     0
 90
        0
176
     0
290
     0
176
     0
290
     1
176
     0
290
     1
176
     0
290
     0
176
     0
290
     0
176
     0
290
     0
176
     0
290
     0
176
     0
290
     0
176
     0
290
     0
176
     0
 90
       50
176
     0
 40
0.0
176
     0
 40
1.0
176
     0
 90
        0
176
     0
 62
    18
420
        0
176
     0
 90
       50
176
     0
 90
        3
176
     0
 62
     5
420
      255
176
     0
290
     0
176
     0
 90
       50
176
     0
 90
       50
176
     0
 90
       50
176
     0
290
     0
176
     0
 90
       50
176
     0
 62
   256
176
     0
 40
1.0
176
     0
 90
        2
176
     0
  1
strokes_ogs.tif
176
     0
290
     0
176
     0
 40
1.0
176
     0
 40
1.0
176
     0
  0
VISUALSTYLE
  5
39
102
{ACAD_REACTORS
330
2A
102
}
330
2A
100
AcDbVisualStyle
  2
Facepattern
 70
    15
177
     3
291
     1
 70
    58
 90
        2
176
     1
 90
        2
176
     1
 90
        0
176
     1
 90
        0
176
     1
 40
0.6
176
     1
 40
30.0
176
     1
 62
     7
420
 16777215
176
     1
 90
        1
176
     1
 90
        4
176
     1
 62
     7
176
     1
 62
   257
176
     1
 90
        1
176
     1
 90
        1
176
     1
 40
1.0
176
     1
 90
        8
176
     1
 62
     7
176
     1
 40
1.0
176
     1
 90
        1
176
     1
 90
        6
176
     1
 90
        2
176
     1
 62
     7
176
     1
 90
        5
176
     1
 90
        0
176
     1
 90
        0
176
     1
290
     0
176
     1
 90
        1
176
     1
 40
0.0
176
     1
 90
        0
176
     1
290
     0
176
     1
290
     1
176
     1
290
     1
176
     1
290
     0
176
     1
290
     0
176
     1
290
     0
176
     1
290
     0
176
     1
290
     0
176
     1
290
     0
176
     1
 90
       50
176
     1
 40
0.0
176
     1
 40
1.0
176
     1
 90
        0
176
     1
 62
    18
420
        0
176
     1
 90
       50
176
     1
 90
        3
176
     1
 62
     5
420
      255
176
     1
290
     0
176
     1
 90
       50
176
     1
 90
       50
176
     1
 90
       50
176
     1
290
     0
176
     1
 90
       50
176
     1
 62
   256
176
     0
 40
1.0
176
     0
 90
        2
176
     1
  1
strokes_ogs.tif
176
     1
290
     0
176
     1
 40
1.0
176
     1
 40
1.0
176
     1
  0
VISUALSTYLE
  5
2B
102
{ACAD_REACTORS
330
2A
102
}
330
2A
100
AcDbVisualStyle
  2
Flat
 70
     0
177
     3
291
     1
 70
    58
 90
        2
176
     1
 90
        1
176
     1
 90
        1
176
     1
 90
        2
176
     1
 40
0.6
176
     1
 40
30.0
176
     1
 62
     7
420
 16777215
176
     1
 90
        0
176
     1
 90
        0
176
     1
 62
     7
176
     1
 62
   257
176
     1
 90
        1
176
     1
 90
        1
176
     1
 40
1.0
176
     1
 90
        8
176
     1
 62
     7
176
     1
 40
1.0
176
     1
 90
        1
176
     1
 90
        6
176
     1
 90
        2
176
     1
 62
     7
176
     1
 90
        5
176
     1
 90
        0
176
     1
 90
        0
176
     1
290
     0
176
     1
 90
       13
176
     1
 40
0.0
176
     1
 90
        0
176
     1
290
     0
176
     1
290
     1
176
     1
290
     1
176
     1
290
     0
176
     1
290
     0
176
     1
290
     0
176
     1
290
     0
176
     1
290
     0
176
     1
290
     0
176
     1
 90
       50
176
     1
 40
0.0
176
     1
 40
1.0
176
     1
 90
        0
176
     1
 62
    18
420
        0
176
     1
 90
       50
176
     1
 90
        3
176
     1
 62
     5
420
      255
176
     1
290
     0
176
     1
 90
       50
176
     1
 90
       50
176
     1
 90
       50
176
     1
290
     0
176
     1
 90
       50
176
     1
 62
   256
176
     0
 40
1.0
176
     0
 90
        2
176
     1
  1
strokes_ogs.tif
176
     1
290
     0
176
     1
 40
1.0
176
     1
 40
1.0
176
     1
  0
VISUALSTYLE
  5
2C
102
{ACAD_REACTORS
330
2A
102
}
330
2A
100
AcDbVisualStyle
  2
FlatWithEdges
 70
     1
177
     3
291
     1
 70
    58
 90
        2
176
     1
 90
        1
176
     1
 90
        1
176
     1
 90
        2
176
     1
 40
0.6
176
     1
 40
30.0
176
     1
 62
     7
420
 16777215
176
     1
 90
        1
176
     1
 90
        0
176
     1
 62
     7
176
     1
 62
   257
176
     1
 90
        1
176
     1
 90
        1
176
     1
 40
1.0
176
     1
 90
        0
176
     1
 62
   257
176
     1
 40
1.0
176
     1
 90
        1
176
     1
 90
        6
176
     1
 90
        2
176
     1
 62
     7
176
     1
 90
        5
176
     1
 90
        0
176
     1
 90
        0
176
     1
290
     0
176
     1
 90
       13
176
     1
 40
0.0
176
     1
 90
        0
176
     1
290
     0
176
     1
290
     1
176
     1
290
     1
176
     1
290
     0
176
     1
290
     0
176
     1
290
     0
176
     1
290
     0
176
     1
290
     0
176
     1
290
     0
176
     1
 90
       50
176
     1
 40
0.0
176
     1
 40
1.0
176
     1
 90
        0
176
     1
 62
    18
420
        0
176
     1
 90
       50
176
     1
 90
        3
176
     1
 62
     5
420
      255
176
     1
290
     0
176
     1
 90
       50
176
     1
 90
       50
176
     1
 90
       50
176
     1
290
     0
176
     1
 90
       50
176
     1
 62
   256
176
     0
 40
1.0
176
     0
 90
        2
176
     1
  1
strokes_ogs.tif
176
     1
290
     0
176
     1
 40
1.0
176
     1
 40
1.0
176
     1
  0
VISUALSTYLE
  5
2D
102
{ACAD_REACTORS
330
2A
102
}
330
2A
100
AcDbVisualStyle
  2
Gouraud
 70
     2
177
     3
291
     1
 70
    58
 90
        2
176
     1
 90
        2
176
     1
 90
        1
176
     1
 90
        2
176
     1
 40
0.6
176
     1
 40
30.0
176
     1
 62
     7
420
 16777215
176
     1
 90
        0
176
     1
 90
        0
176
     1
 62
     7
176
     1
 62
   257
176
     1
 90
        1
176
     1
 90
        1
176
     1
 40
1.0
176
     1
 90
        0
176
     1
 62
     7
176
     1
 40
1.0
176
     1
 90
        1
176
     1
 90
        6
176
     1
 90
        2
176
     1
 62
     7
176
     1
 90
        5
176
     1
 90
        0
176
     1
 90
        0
176
     1
290
     0
176
     1
 90
       13
176
     1
 40
0.0
176
     1
 90
        0
176
     1
290
     0
176
     1
290
     1
176
     1
290
     1
176
     1
290
     0
176
     1
290
     0
176
     1
290
     0
176
     1
290
     0
176
     1
290
     0
176
     1
290
     0
176
     1
 90
       50
176
     1
 40
0.0
176
     1
 40
1.0
176
     1
 90
        0
176
     1
 62
    18
420
        0
176
     1
 90
       50
176
     1
 90
        3
176
     1
 62
     5
420
      255
176
     1
290
     0
176
     1
 90
       50
176
     1
 90
       50
176
     1
 90
       50
176
     1
290
     0
176
     1
 90
       50
176
     1
 62
   256
176
     0
 40
1.0
176
     0
 90
        2
176
     1
  1
strokes_ogs.tif
176
     1
290
     0
176
     1
 40
1.0
176
     1
 40
1.0
176
     1
  0
VISUALSTYLE
  5
2E
102
{ACAD_REACTORS
330
2A
102
}
330
2A
100
AcDbVisualStyle
  2
GouraudWithEdges
 70
     3
177
     3
291
     1
 70
    58
 90
        2
176
     1
 90
        2
176
     1
 90
        1
176
     1
 90
        2
176
     1
 40
0.6
176
     1
 40
30.0
176
     1
 62
     7
420
 16777215
176
     1
 90
        1
176
     1
 90
        0
176
     1
 62
     7
176
     1
 62
   257
176
     1
 90
        1
176
     1
 90
        1
176
     1
 40
1.0
176
     1
 90
        0
176
     1
 62
   257
176
     1
 40
1.0
176
     1
 90
        1
176
     1
 90
        6
176
     1
 90
        2
176
     1
 62
     7
176
     1
 90
        5
176
     1
 90
        0
176
     1
 90
        0
176
     1
290
     0
176
     1
 90
       13
176
     1
 40
0.0
176
     1
 90
        0
176
     1
290
     0
176
     1
290
     1
176
     1
290
     1
176
     1
290
     0
176
     1
290
     0
176
     1
290
     0
176
     1
290
     0
176
     1
290
     0
176
     1
290
     0
176
     1
 90
       50
176
     1
 40
0.0
176
     1
 40
1.0
176
     1
 90
        0
176
     1
 62
    18
420
        0
176
     1
 90
       50
176
     1
 90
        3
176
     1
 62
     5
420
      255
176
     1
290
     0
176
     1
 90
       50
176
     1
 90
       50
176
     1
 90
       50
176
     1
290
     0
176
     1
 90
       50
176
     1
 62
   256
176
     0
 40
1.0
176
     0
 90
        2
176
     1
  1
strokes_ogs.tif
176
     1
290
     0
176
     1
 40
1.0
176
     1
 40
1.0
176
     1
  0
VISUALSTYLE
  5
31
102
{ACAD_REACTORS
330
2A
102
}
330
2A
100
AcDbVisualStyle
  2
Hidden
 70
     6
177
     3
291
     0
 70
    58
 90
        1
176
     1
 90
        2
176
     1
 90
        2
176
     1
 90
        0
176
     1
 40
0.6
176
     1
 40
30.0
176
     1
 62
     7
420
 16777215
176
     1
 90
        2
176
     1
 90
        2
176
     1
 62
     7
176
     1
 62
   257
176
     1
 90
        2
176
     1
 90
        1
176
     1
 40
40.0
176
     1
 90
        0
176
     1
 62
   257
176
     1
 40
1.0
176
     1
 90
        1
176
     1
 90
        6
176
     1
 90
        2
176
     1
 62
     7
176
     1
 90
        3
176
     1
 90
        0
176
     1
 90
        0
176
     1
290
     0
176
     1
 90
        1
176
     1
 40
0.0
176
     1
 90
        0
176
     1
290
     0
176
     1
290
     1
176
     1
290
     1
176
     1
290
     0
176
     1
290
     0
176
     1
290
     0
176
     1
290
     0
176
     1
290
     0
176
     1
290
     0
176
     1
 90
       50
176
     1
 40
0.0
176
     1
 40
1.0
176
     1
 90
        0
176
     1
 62
    18
420
        0
176
     1
 90
       50
176
     1
 90
        3
176
     1
 62
     5
420
      255
176
     1
290
     0
176
     1
 90
       50
176
     1
 90
       50
176
     1
 90
       50
176
     1
290
     0
176
     1
 90
       50
176
     1
 62
   256
176
     0
 40
1.0
176
     0
 90
        2
176
     1
  1
strokes_ogs.tif
176
     1
290
     0
176
     1
 40
1.0
176
     1
 40
1.0
176
     1
  0
VISUALSTYLE
  5
3B
102
{ACAD_REACTORS
330
2A
102
}
330
2A
100
AcDbVisualStyle
  2
JitterOff
 70
    20
177
     3
291
     1
 70
    58
 90
        2
176
     0
 90
        2
176
     0
 90
        0
176
     0
 90
        0
176
     0
 40
0.6
176
     0
 40
30.0
176
     0
 62
     7
420
 16777215
176
     0
 90
        1
176
     0
 90
        4
176
     0
 62
     7
176
     0
 62
   257
176
     0
 90
        1
176
     0
 90
        1
176
     0
 40
1.0
176
     0
 90
       10
176
     2
 62
     7
176
     0
 40
1.0
176
     0
 90
        1
176
     0
 90
        6
176
     0
 90
        2
176
     0
 62
     7
176
     0
 90
        5
176
     0
 90
        0
176
     0
 90
        0
176
     0
290
     0
176
     0
 90
        1
176
     0
 40
0.0
176
     0
 90
        0
176
     0
290
     0
176
     0
290
     1
176
     0
290
     1
176
     0
290
     0
176
     0
290
     0
176
     0
290
     0
176
     0
290
     0
176
     0
290
     0
176
     0
290
     0
176
     0
 90
       50
176
     0
 40
0.0
176
     0
 40
1.0
176
     0
 90
        0
176
     0
 62
    18
420
        0
176
     0
 90
       50
176
     0
 90
        3
176
     0
 62
     5
420
      255
176
     0
290
     0
176
     0
 90
       50
176
     0
 90
       50
176
     0
 90
       50
176
     0
290
     0
176
     0
 90
       50
176
     0
 62
   256
176
     0
 40
1.0
176
     0
 90
        2
176
     0
  1
strokes_ogs.tif
176
     0
290
     0
176
     0
 40
1.0
176
     0
 40
1.0
176
     0
  0
VISUALSTYLE
  5
38
102
{ACAD_REACTORS
330
2A
102
}
330
2A
100
AcDbVisualStyle
  2
Linepattern
 70
    14
177
     3
291
     1
 70
    58
 90
        2
176
     1
 90
        2
176
     1
 90
        0
176
     1
 90
        0
176
     1
 40
0.6
176
     1
 40
30.0
176
     1
 62
     7
420
 16777215
176
     1
 90
        1
176
     1
 90
        4
176
     1
 62
     7
176
     1
 62
   257
176
     1
 90
        7
176
     1
 90
        7
176
     1
 40
1.0
176
     1
 90
        8
176
     1
 62
     7
176
     1
 40
1.0
176
     1
 90
        1
176
     1
 90
        6
176
     1
 90
        2
176
     1
 62
     7
176
     1
 90
        5
176
     1
 90
        0
176
     1
 90
        0
176
     1
290
     0
176
     1
 90
        1
176
     1
 40
0.0
176
     1
 90
        0
176
     1
290
     0
176
     1
290
     1
176
     1
290
     1
176
     1
290
     0
176
     1
290
     0
176
     1
290
     0
176
     1
290
     0
176
     1
290
     0
176
     1
290
     0
176
     1
 90
       50
176
     1
 40
0.0
176
     1
 40
1.0
176
     1
 90
        0
176
     1
 62
    18
420
        0
176
     1
 90
       50
176
     1
 90
        3
176
     1
 62
     5
420
      255
176
     1
290
     0
176
     1
 90
       50
176
     1
 90
       50
176
     1
 90
       50
176
     1
290
     0
176
     1
 90
       50
176
     1
 62
   256
176
     0
 40
1.0
176
     0
 90
        2
176
     1
  1
strokes_ogs.tif
176
     1
290
     0
176
     1
 40
1.0
176
     1
 40
1.0
176
     1
  0
VISUALSTYLE
  5
3C
102
{ACAD_REACTORS
330
2A
102
}
330
2A
100
AcDbVisualStyle
  2
OverhangOff
 70
    21
177
     3
291
     1
 70
    58
 90
        2
176
     0
 90
        2
176
     0
 90
        0
176
     0
 90
        0
176
     0
 40
0.6
176
     0
 40
30.0
176
     0
 62
     7
420
 16777215
176
     0
 90
        1
176
     0
 90
        4
176
     0
 62
     7
176
     0
 62
   257
176
     0
 90
        1
176
     0
 90
        1
176
     0
 40
1.0
176
     0
 90
        9
176
     2
 62
     7
176
     0
 40
1.0
176
     0
 90
        1
176
     0
 90
        6
176
     0
 90
        2
176
     0
 62
     7
176
     0
 90
        5
176
     0
 90
        0
176
     0
 90
        0
176
     0
290
     0
176
     0
 90
        1
176
     0
 40
0.0
176
     0
 90
        0
176
     0
290
     0
176
     0
290
     1
176
     0
290
     1
176
     0
290
     0
176
     0
290
     0
176
     0
290
     0
176
     0
290
     0
176
     0
290
     0
176
     0
290
     0
176
     0
 90
       50
176
     0
 40
0.0
176
     0
 40
1.0
176
     0
 90
        0
176
     0
 62
    18
420
        0
176
     0
 90
       50
176
     0
 90
        3
176
     0
 62
     5
420
      255
176
     0
290
     0
176
     0
 90
       50
176
     0
 90
       50
176
     0
 90
       50
176
     0
290
     0
176
     0
 90
       50
176
     0
 62
   256
176
     0
 40
1.0
176
     0
 90
        2
176
     0
  1
strokes_ogs.tif
176
     0
290
     0
176
     0
 40
1.0
176
     0
 40
1.0
176
     0
  0
VISUALSTYLE
  5
33
102
{ACAD_REACTORS
330
2A
102
}
330
2A
100
AcDbVisualStyle
  2
Realistic
 70
     8
177
     3
291
     0
 70
    58
 90
        2
176
     1
 90
        3
176
     1
 90
        0
176
     1
 90
        2
176
     1
 40
0.6
176
     1
 40
30.0
176
     1
 62
     7
420
 16777215
176
     1
 90
        0
176
     1
 90
        0
176
     1
 62
     7
176
     1
 62
   257
176
     1
 90
        1
176
     1
 90
        1
176
     1
 40
1.0
176
     1
 90
        8
176
     1
 62
   257
176
     1
 40
1.0
176
     1
 90
        1
176
     1
 90
        6
176
     1
 90
        2
176
     1
 62
     7
176
     1
 90
        3
176
     1
 90
        0
176
     1
 90
        0
176
     1
290
     0
176
     1
 90
       13
176
     1
 40
0.0
176
     1
 90
        0
176
     1
290
     0
176
     1
290
     1
176
     1
290
     1
176
     1
290
     0
176
     1
290
     0
176
     1
290
     0
176
     1
290
     0
176
     1
290
     0
176
     1
290
     0
176
     1
 90
       50
176
     1
 40
0.0
176
     1
 40
1.0
176
     1
 90
        0
176
     1
 62
    18
420
        0
176
     1
 90
       50
176
     1
 90
        3
176
     1
 62
     5
420
      255
176
     1
290
     0
176
     1
 90
       50
176
     1
 90
       50
176
     1
 90
       50
176
     1
290
     0
176
     1
 90
       50
176
     1
 62
   256
176
     0
 40
1.0
176
     0
 90
        2
176
     1
  1
strokes_ogs.tif
176
     1
290
     0
176
     1
 40
1.0
176
     1
 40
1.0
176
     1
  0
VISUALSTYLE
  5
42
102
{ACAD_REACTORS
330
2A
102
}
330
2A
100
AcDbVisualStyle
  2
Shaded
 70
    27
177
     3
291
     0
 70
    58
 90
        2
176
     1
 90
        2
176
     1
 90
        1
176
     1
 90
        2
176
     1
 40
0.6
176
     1
 40
30.0
176
     1
 62
     7
420
 16777215
176
     1
 90
        0
176
     1
 90
        4
176
     1
 62
     7
176
     1
 62
   257
176
     1
 90
        1
176
     1
 90
        1
176
     1
 40
1.0
176
     1
 90
        8
176
     1
 62
   257
176
     1
 40
1.0
176
     1
 90
        1
176
     1
 90
        6
176
     1
 90
        2
176
     1
 62
     8
420
  7895160
176
     1
 90
        3
176
     1
 90
        0
176
     1
 90
        0
176
     1
290
     0
176
     1
 90
        5
176
     1
 40
0.0
176
     1
 90
        0
176
     1
290
     0
176
     1
290
     1
176
     1
290
     1
176
     1
290
     0
176
     1
290
     0
176
     1
290
     0
176
     1
290
     0
176
     1
290
     0
176
     1
290
     0
176
     1
 90
       50
176
     1
 40
0.0
176
     1
 40
1.0
176
     1
 90
        0
176
     1
 62
    18
420
        0
176
     1
 90
       50
176
     1
 90
        3
176
     1
 62
     5
420
      255
176
     1
290
     0
176
     1
 90
       50
176
     1
 90
       50
176
     1
 90
       50
176
     1
290
     0
176
     1
 90
       50
176
     1
 62
   256
176
     0
 40
1.0
176
     0
 90
        2
176
     1
  1
strokes_ogs.tif
176
     1
290
     0
176
     1
 40
1.0
176
     1
 40
1.0
176
     1
  0
VISUALSTYLE
  5
41
102
{ACAD_REACTORS
330
2A
102
}
330
2A
100
AcDbVisualStyle
  2
Shaded with edges
 70
    26
177
     3
291
     0
 70
    58
 90
        2
176
     1
 90
        2
176
     1
 90
        1
176
     1
 90
        2
176
     1
 40
0.6
176
     1
 40
30.0
176
     1
 62
     7
420
 16777215
176
     1
 90
        1
176
     1
 90
       10
176
     1
 62
     7
176
     1
 62
   257
176
     1
 90
        2
176
     1
 90
        1
176
     1
 40
1.0
176
     1
 90
        8
176
     1
 62
   257
176
     1
 40
1.0
176
     1
 90
        1
176
     1
 90
        6
176
     1
 90
        2
176
     1
 62
     7
176
     1
 90
        3
176
     1
 90
        0
176
     1
 90
        0
176
     1
290
     0
176
     1
 90
        5
176
     1
 40
0.0
176
     1
 90
        0
176
     1
290
     0
176
     1
290
     1
176
     1
290
     1
176
     1
290
     0
176
     1
290
     0
176
     1
290
     0
176
     1
290
     0
176
     1
290
     0
176
     1
290
     0
176
     1
 90
       50
176
     1
 40
0.0
176
     1
 40
1.0
176
     1
 90
        0
176
     1
 62
    18
420
        0
176
     1
 90
       50
176
     1
 90
        3
176
     1
 62
     5
420
      255
176
     1
290
     0
176
     1
 90
       50
176
     1
 90
       50
176
     1
 90
       50
176
     1
290
     0
176
     1
 90
       50
176
     1
 62
   256
176
     0
 40
1.0
176
     0
 90
        2
176
     1
  1
strokes_ogs.tif
176
     1
290
     0
176
     1
 40
1.0
176
     1
 40
1.0
176
     1
  0
VISUALSTYLE
  5
3E
102
{ACAD_REACTORS
330
2A
102
}
330
2A
100
AcDbVisualStyle
  2
Shades of Gray
 70
    23
177
     3
291
     0
 70
    58
 90
        2
176
     1
 90
        2
176
     1
 90
        3
176
     1
 90
        0
176
     1
 40
0.6
176
     1
 40
30.0
176
     1
 62
     7
420
 16777215
176
     1
 90
        2
176
     1
 90
        2
176
     1
 62
     7
176
     1
 62
     7
176
     1
 90
        1
176
     1
 90
        1
176
     1
 40
40.0
176
     1
 90
        8
176
     1
 62
     7
176
     1
 40
1.0
176
     1
 90
        1
176
     1
 90
        6
176
     1
 90
        2
176
     1
 62
     7
176
     1
 90
        3
176
     1
 90
        0
176
     1
 90
        0
176
     1
290
     0
176
     1
 90
        1
176
     1
 40
0.0
176
     1
 90
        0
176
     1
290
     0
176
     1
290
     1
176
     1
290
     1
176
     1
290
     0
176
     1
290
     0
176
     1
290
     0
176
     1
290
     0
176
     1
290
     0
176
     1
290
     0
176
     1
 90
       50
176
     1
 40
0.0
176
     1
 40
1.0
176
     1
 90
        0
176
     1
 62
    18
420
        0
176
     1
 90
       50
176
     1
 90
        3
176
     1
 62
     5
420
      255
176
     1
290
     0
176
     1
 90
       50
176
     1
 90
       50
176
     1
 90
       50
176
     1
290
     0
176
     1
 90
       50
176
     1
 62
   256
176
     0
 40
1.0
176
     0
 90
        2
176
     1
  1
strokes_ogs.tif
176
     1
290
     0
176
     1
 40
1.0
176
     1
 40
1.0
176
     1
  0
VISUALSTYLE
  5
3F
102
{ACAD_REACTORS
330
2A
102
}
330
2A
100
AcDbVisualStyle
  2
Sketchy
 70
    24
177
     3
291
     0
 70
    58
 90
        1
176
     1
 90
        2
176
     1
 90
        2
176
     1
 90
        0
176
     1
 40
0.6
176
     1
 40
30.0
176
     1
 62
     7
420
 16777215
176
     1
 90
        2
176
     1
 90
        2
176
     1
 62
     7
176
     1
 62
     7
176
     1
 90
        1
176
     1
 90
        1
176
     1
 40
40.0
176
     1
 90
       11
176
     1
 62
     7
176
     1
 40
1.0
176
     1
 90
        1
176
     1
 90
        6
176
     1
 90
        2
176
     1
 62
     7
176
     1
 90
        6
176
     1
 90
        0
176
     1
 90
        0
176
     1
290
     0
176
     1
 90
        1
176
     1
 40
0.0
176
     1
 90
        0
176
     1
290
     0
176
     1
290
     1
176
     1
290
     1
176
     1
290
     0
176
     1
290
     0
176
     1
290
     0
176
     1
290
     0
176
     1
290
     0
176
     1
290
     0
176
     1
 90
       50
176
     1
 40
0.0
176
     1
 40
1.0
176
     1
 90
        0
176
     1
 62
    18
420
        0
176
     1
 90
       50
176
     1
 90
        3
176
     1
 62
     5
420
      255
176
     1
290
     0
176
     1
 90
       50
176
     1
 90
       50
176
     1
 90
       50
176
     1
290
     0
176
     1
 90
       50
176
     1
 62
   256
176
     0
 40
1.0
176
     0
 90
        2
176
     1
  1
strokes_ogs.tif
176
     1
290
     0
176
     1
 40
1.0
176
     1
 40
1.0
176
     1
  0
VISUALSTYLE
  5
37
102
{ACAD_REACTORS
330
2A
102
}
330
2A
100
AcDbVisualStyle
  2
Thicken
 70
    13
177
     3
291
     1
 70
    58
 90
        2
176
     1
 90
        2
176
     1
 90
        0
176
     1
 90
        0
176
     1
 40
0.6
176
     1
 40
30.0
176
     1
 62
     7
420
 16777215
176
     1
 90
        1
176
     1
 90
        4
176
     1
 62
     7
176
     1
 62
   257
176
     1
 90
        1
176
     1
 90
        1
176
     1
 40
1.0
176
     1
 90
       12
176
     1
 62
     7
176
     1
 40
1.0
176
     1
 90
        1
176
     1
 90
        6
176
     1
 90
        2
176
     1
 62
     7
176
     1
 90
        5
176
     1
 90
        0
176
     1
 90
        0
176
     1
290
     0
176
     1
 90
        1
176
     1
 40
0.0
176
     1
 90
        0
176
     1
290
     0
176
     1
290
     1
176
     1
290
     1
176
     1
290
     0
176
     1
290
     0
176
     1
290
     0
176
     1
290
     0
176
     1
290
     0
176
     1
290
     0
176
     1
 90
       50
176
     1
 40
0.0
176
     1
 40
1.0
176
     1
 90
        0
176
     1
 62
    18
420
        0
176
     1
 90
       50
176
     1
 90
        3
176
     1
 62
     5
420
      255
176
     1
290
     0
176
     1
 90
       50
176
     1
 90
       50
176
     1
 90
       50
176
     1
290
     0
176
     1
 90
       50
176
     1
 62
   256
176
     0
 40
1.0
176
     0
 90
        2
176
     1
  1
strokes_ogs.tif
176
     1
290
     0
176
     1
 40
1.0
176
     1
 40
1.0
176
     1
  0
VISUALSTYLE
  5
30
102
{ACAD_REACTORS
330
2A
102
}
330
2A
100
AcDbVisualStyle
  2
Wireframe
 70
     5
177
     3
291
     0
 70
    58
 90
        0
176
     1
 90
        2
176
     1
 90
        0
176
     1
 90
        0
176
     1
 40
0.6
176
     1
 40
30.0
176
     1
 62
     7
420
 16777215
176
     1
 90
        1
176
     1
 90
        4
176
     1
 62
     7
176
     1
 62
   257
176
     1
 90
        1
176
     1
 90
        1
176
     1
 40
1.0
176
     1
 90
        0
176
     1
 62
   257
176
     1
 40
1.0
176
     1
 90
        1
176
     1
 90
        6
176
     1
 90
        2
176
     1
 62
     7
176
     1
 90
        3
176
     1
 90
        0
176
     1
 90
        0
176
     1
290
     0
176
     1
 90
        1
176
     1
 40
0.0
176
     1
 90
        0
176
     1
290
     0
176
     1
290
     1
176
     1
290
     1
176
     1
290
     0
176
     1
290
     0
176
     1
290
     0
176
     1
290
     0
176
     1
290
     0
176
     1
290
     0
176
     1
 90
       50
176
     1
 40
0.0
176
     1
 40
1.0
176
     1
 90
        0
176
     1
 62
    18
420
        0
176
     1
 90
       50
176
     1
 90
        3
176
     1
 62
     5
420
      255
176
     1
290
     0
176
     1
 90
       50
176
     1
 90
       50
176
     1
 90
       50
176
     1
290
     0
176
     1
 90
       50
176
     1
 62
   256
176
     0
 40
1.0
176
     0
 90
        2
176
     1
  1
strokes_ogs.tif
176
     1
290
     0
176
     1
 40
1.0
176
     1
 40
1.0
176
     1
  0
VISUALSTYLE
  5
40
102
{ACAD_REACTORS
330
2A
102
}
330
2A
100
AcDbVisualStyle
  2
X-Ray
 70
    25
177
     3
291
     0
 70
    58
 90
        2
176
     1
 90
        2
176
     1
 90
        1
176
     1
 90
        1
176
     1
 40
0.5
176
     1
 40
30.0
176
     1
 62
     7
420
 16777215
176
     1
 90
        1
176
     1
 90
        0
176
     1
 62
     7
176
     1
 62
   257
176
     1
 90
        1
176
     1
 90
        1
176
     1
 40
1.0
176
     1
 90
        8
176
     1
 62
     7
176
     1
 40
1.0
176
     1
 90
        1
176
     1
 90
        6
176
     1
 90
        2
176
     1
 62
     7
176
     1
 90
        3
176
     1
 90
        0
176
     1
 90
        0
176
     1
290
     0
176
     1
 90
       13
176
     1
 40
0.0
176
     1
 90
        0
176
     1
290
     0
176
     1
290
     1
176
     1
290
     1
176
     1
290
     0
176
     1
290
     0
176
     1
290
     0
176
     1
290
     0
176
     1
290
     0
176
     1
290
     0
176
     1
 90
       50
176
     1
 40
0.0
176
     1
 40
1.0
176
     1
 90
        0
176
     1
 62
    18
420
        0
176
     1
 90
       50
176
     1
 90
        3
176
     1
 62
     5
420
      255
176
     1
290
     0
176
     1
 90
       50
176
     1
 90
       50
176
     1
 90
       50
176
     1
290
     0
176
     1
 90
       50
176
     1
 62
   256
176
     0
 40
1.0
176
     0
 90
        2
176
     1
  1
strokes_ogs.tif
176
     1
290
     0
176
     1
 40
1.0
176
     1
 40
1.0
176
     1
  0
DICTIONARYVAR
  5
20F
102
{ACAD_REACTORS
330
20E
102
}
330
20E
100
DictionaryVariables
280
     0
  1
1:1
  0
DICTIONARYVAR
  5
214
102
{ACAD_REACTORS
330
20E
102
}
330
20E
100
DictionaryVariables
280
     0
  1
Standard
  0
DICTIONARYVAR
  5
213
102
{ACAD_REACTORS
330
20E
102
}
330
20E
100
DictionaryVariables
280
     0
  1
Standard
  0
DICTIONARY
  5
210
330
6A
100
AcDbDictionary
280
     1
281
     1
  3
ACAD_ROUNDTRIP_2008_TABLESTYLE_CELLSTYLEMAP
360
211
  0
CELLSTYLEMAP
  5
211
102
{ACAD_REACTORS
330
210
102
}
330
210
100
AcDbCellStyleMap
 90
        3
300
CELLSTYLE
  1
TABLEFORMAT_BEGIN
 90
        5
170
     1
 91
        0
 92
    32768
 62
   257
 93
        1
300
CONTENTFORMAT
  1
CONTENTFORMAT_BEGIN
 90
        0
 91
        0
 92
        4
 93
        0
300

 40
0.0
140
1.0
 94
        5
 62
     0
340
11
144
0.25
309
CONTENTFORMAT_END
171
     1
301
MARGIN
  1
CELLMARGIN_BEGIN
 40
0.06
 40
0.06
 40
0.06
 40
0.06
 40
0.06
 40
0.06
309
CELLMARGIN_END
 94
        6
 95
        1
302
GRIDFORMAT
  1
GRIDFORMAT_BEGIN
 90
        0
 91
        1
 62
     0
 92
       -2
340
14
 93
        0
 40
0.045
309
GRIDFORMAT_END
 95
        2
302
GRIDFORMAT
  1
GRIDFORMAT_BEGIN
 90
        0
 91
        1
 62
     0
 92
       -2
340
14
 93
        0
 40
0.045
309
GRIDFORMAT_END
 95
        4
302
GRIDFORMAT
  1
GRIDFORMAT_BEGIN
 90
        0
 91
        1
 62
     0
 92
       -2
340
14
 93
        0
 40
0.045
309
GRIDFORMAT_END
 95
        8
302
GRIDFORMAT
  1
GRIDFORMAT_BEGIN
 90
        0
 91
        1
 62
     0
 92
       -2
340
14
 93
        0
 40
0.045
309
GRIDFORMAT_END
 95
       16
302
GRIDFORMAT
  1
GRIDFORMAT_BEGIN
 90
        0
 91
        1
 62
     0
 92
       -2
340
14
 93
        0
 40
0.045
309
GRIDFORMAT_END
 95
       32
302
GRIDFORMAT
  1
GRIDFORMAT_BEGIN
 90
        0
 91
        1
 62
     0
 92
       -2
340
14
 93
        0
 40
0.045
309
GRIDFORMAT_END
309
TABLEFORMAT_END
  1
CELLSTYLE_BEGIN
 90
        1
 91
        1
300
_TITLE
309
CELLSTYLE_END
300
CELLSTYLE
  1
TABLEFORMAT_BEGIN
 90
        5
170
     1
 91
        0
 92
        0
 62
   257
 93
        1
300
CONTENTFORMAT
  1
CONTENTFORMAT_BEGIN
 90
        0
 91
        0
 92
        4
 93
        0
300

 40
0.0
140
1.0
 94
        5
 62
     0
340
11
144
0.18
309
CONTENTFORMAT_END
171
     1
301
MARGIN
  1
CELLMARGIN_BEGIN
 40
0.06
 40
0.06
 40
0.06
 40
0.06
 40
0.06
 40
0.06
309
CELLMARGIN_END
 94
        6
 95
        1
302
GRIDFORMAT
  1
GRIDFORMAT_BEGIN
 90
        0
 91
        1
 62
     0
 92
       -2
340
14
 93
        0
 40
0.045
309
GRIDFORMAT_END
 95
        2
302
GRIDFORMAT
  1
GRIDFORMAT_BEGIN
 90
        0
 91
        1
 62
     0
 92
       -2
340
14
 93
        0
 40
0.045
309
GRIDFORMAT_END
 95
        4
302
GRIDFORMAT
  1
GRIDFORMAT_BEGIN
 90
        0
 91
        1
 62
     0
 92
       -2
340
14
 93
        0
 40
0.045
309
GRIDFORMAT_END
 95
        8
302
GRIDFORMAT
  1
GRIDFORMAT_BEGIN
 90
        0
 91
        1
 62
     0
 92
       -2
340
14
 93
        0
 40
0.045
309
GRIDFORMAT_END
 95
       16
302
GRIDFORMAT
  1
GRIDFORMAT_BEGIN
 90
        0
 91
        1
 62
     0
 92
       -2
340
14
 93
        0
 40
0.045
309
GRIDFORMAT_END
 95
       32
302
GRIDFORMAT
  1
GRIDFORMAT_BEGIN
 90
        0
 91
        1
 62
     0
 92
       -2
340
14
 93
        0
 40
0.045
309
GRIDFORMAT_END
309
TABLEFORMAT_END
  1
CELLSTYLE_BEGIN
 90
        2
 91
        1
300
_HEADER
309
CELLSTYLE_END
300
CELLSTYLE
  1
TABLEFORMAT_BEGIN
 90
        5
170
     1
 91
        0
 92
        0
 62
   257
 93
        1
300
CONTENTFORMAT
  1
CONTENTFORMAT_BEGIN
 90
        0
 91
        0
 92
        4
 93
        0
300

 40
0.0
140
1.0
 94
        2
 62
     0
340
11
144
0.18
309
CONTENTFORMAT_END
171
     1
301
MARGIN
  1
CELLMARGIN_BEGIN
 40
0.06
 40
0.06
 40
0.06
 40
0.06
 40
0.06
 40
0.06
309
CELLMARGIN_END
 94
        6
 95
        1
302
GRIDFORMAT
  1
GRIDFORMAT_BEGIN
 90
        0
 91
        1
 62
     0
 92
       -2
340
14
 93
        0
 40
0.045
309
GRIDFORMAT_END
 95
        2
302
GRIDFORMAT
  1
GRIDFORMAT_BEGIN
 90
        0
 91
        1
 62
     0
 92
       -2
340
14
 93
        0
 40
0.045
309
GRIDFORMAT_END
 95
        4
302
GRIDFORMAT
  1
GRIDFORMAT_BEGIN
 90
        0
 91
        1
 62
     0
 92
       -2
340
14
 93
        0
 40
0.045
309
GRIDFORMAT_END
 95
        8
302
GRIDFORMAT
  1
GRIDFORMAT_BEGIN
 90
        0
 91
        1
 62
     0
 92
       -2
340
14
 93
        0
 40
0.045
309
GRIDFORMAT_END
 95
       16
302
GRIDFORMAT
  1
GRIDFORMAT_BEGIN
 90
        0
 91
        1
 62
     0
 92
       -2
340
14
 93
        0
 40
0.045
309
GRIDFORMAT_END
 95
       32
302
GRIDFORMAT
  1
GRIDFORMAT_BEGIN
 90
        0
 91
        1
 62
     0
 92
       -2
340
14
 93
        0
 40
0.045
309
GRIDFORMAT_END
309
TABLEFORMAT_END
  1
CELLSTYLE_BEGIN
 90
        3
 91
        2
300
_DATA
309
CELLSTYLE_END
  0
ENDSEC
  0
EOF