0
SECTION
  2
HEADER
  9
$ACADVER
  1
AC1027
  9
$ACADMAINTVER
 70
     8
  9
$DWGCODEPAGE
  3
ANSI_1252
  9
$REQUIREDVERSIONS
160
                 0
  9
$COMMENTS
  1
File was created by Cadenas
  9
$CUSTOMPROPERTYTAG
  1
NN
  9
$CUSTOMPROPERTY
  1
Type C Pillow Block 4-Bolt Inch Bore
  9
$CUSTOMPROPERTYTAG
  1
NT
  9
$CUSTOMPROPERTY
  1
Type C Bearings
  9
$CUSTOMPROPERTYTAG
  1
NB
  9
$CUSTOMPROPERTY
  1
087193
  9
$CUSTOMPROPERTYTAG
  1
NBSYN
  9
$CUSTOMPROPERTY
  1
$PN.
  9
$CUSTOMPROPERTYTAG
  1
LINA
  9
$CUSTOMPROPERTY
  1
087193
  9
$CUSTOMPROPERTYTAG
  1
SS
  9
$CUSTOMPROPERTY
  1
3-7/16
  9
$CUSTOMPROPERTYTAG
  1
TYPE
  9
$CUSTOMPROPERTY
  1
Gray Iron Expansion
  9
$CUSTOMPROPERTYTAG
  1
PN
  9
$CUSTOMPROPERTY
  1
087193
  9
$CUSTOMPROPERTYTAG
  1
DESCRIPTION
  9
$CUSTOMPROPERTY
  1
P4B-C-307E
  9
$CUSTOMPROPERTYTAG
  1
WEIGHT
  9
$CUSTOMPROPERTY
  1
135
  9
$CUSTOMPROPERTYTAG
  1
A
  9
$CUSTOMPROPERTY
  1
7
  9
$CUSTOMPROPERTYTAG
  1
B
  9
$CUSTOMPROPERTY
  1
16-3/4
  9
$CUSTOMPROPERTYTAG
  1
C
  9
$CUSTOMPROPERTY
  1
5-1/2
  9
$CUSTOMPROPERTYTAG
  1
DMIN
  9
$CUSTOMPROPERTY
  1
12-7/8
  9
$CUSTOMPROPERTYTAG
  1
DMAX
  9
$CUSTOMPROPERTY
  1
14-5/8
  9
$CUSTOMPROPERTYTAG
  1
E
  9
$CUSTOMPROPERTY
  1
3-1/4
  9
$CUSTOMPROPERTYTAG
  1
F
  9
$CUSTOMPROPERTY
  1
3/4
  9
$CUSTOMPROPERTYTAG
  1
G
  9
$CUSTOMPROPERTY
  1
1-1/2
  9
$CUSTOMPROPERTYTAG
  1
H
  9
$CUSTOMPROPERTY
  1
4
  9
$CUSTOMPROPERTYTAG
  1
J
  9
$CUSTOMPROPERTY
  1
11-3/8
  9
$CUSTOMPROPERTYTAG
  1
L
  9
$CUSTOMPROPERTY
  1
5-15/16
  9
$CUSTOMPROPERTYTAG
  1
M
  9
$CUSTOMPROPERTY
  1
5-1/2
  9
$CUSTOMPROPERTYTAG
  1
P
  9
$CUSTOMPROPERTY
  1
11-5/8
  9
$CUSTOMPROPERTYTAG
  1
EXP
  9
$CUSTOMPROPERTY
  1
3/4
  9
$CUSTOMPROPERTYTAG
  1
COMPANY
  9
$CUSTOMPROPERTY
  1
baldor
  9
$INSBASE
 10
0.0
 20
0.0
 30
0.0
  9
$EXTMIN
 10
1.000000000000000E+20
 20
1.000000000000000E+20
 30
1.000000000000000E+20
  9
$EXTMAX
 10
-1.000000000000000E+20
 20
-1.000000000000000E+20
 30
-1.000000000000000E+20
  9
$LIMMIN
 10
0.0
 20
0.0
  9
$LIMMAX
 10
12.0
 20
9.0
  9
$ORTHOMODE
 70
     0
  9
$REGENMODE
 70
     1
  9
$FILLMODE
 70
     1
  9
$QTEXTMODE
 70
     0
  9
$MIRRTEXT
 70
     1
  9
$LTSCALE
 40
1.0
  9
$ATTMODE
 70
     1
  9
$TEXTSIZE
 40
0.2
  9
$TRACEWID
 40
0.05
  9
$TEXTSTYLE
  7
Standard
  9
$CLAYER
  8
0
  9
$CELTYPE
  6
ByLayer
  9
$CECOLOR
 62
   256
  9
$CELTSCALE
 40
1.0
  9
$DISPSILH
 70
     0
  9
$DIMSCALE
 40
1.0
  9
$DIMASZ
 40
0.18
  9
$DIMEXO
 40
0.0625
  9
$DIMDLI
 40
0.38
  9
$DIMRND
 40
0.0
  9
$DIMDLE
 40
0.0
  9
$DIMEXE
 40
0.18
  9
$DIMTP
 40
0.0
  9
$DIMTM
 40
0.0
  9
$DIMTXT
 40
0.18
  9
$DIMCEN
 40
0.09
  9
$DIMTSZ
 40
0.0
  9
$DIMTOL
 70
     0
  9
$DIMLIM
 70
     0
  9
$DIMTIH
 70
     1
  9
$DIMTOH
 70
     1
  9
$DIMSE1
 70
     0
  9
$DIMSE2
 70
     0
  9
$DIMTAD
 70
     0
  9
$DIMZIN
 70
     0
  9
$DIMBLK
  1

  9
$DIMASO
 70
     1
  9
$DIMSHO
 70
     1
  9
$DIMPOST
  1

  9
$DIMAPOST
  1

  9
$DIMALT
 70
     0
  9
$DIMALTD
 70
     2
  9
$DIMALTF
 40
25.4
  9
$DIMLFAC
 40
1.0
  9
$DIMTOFL
 70
     0
  9
$DIMTVP
 40
0.0
  9
$DIMTIX
 70
     0
  9
$DIMSOXD
 70
     0
  9
$DIMSAH
 70
     0
  9
$DIMBLK1
  1

  9
$DIMBLK2
  1

  9
$DIMSTYLE
  2
Standard
  9
$DIMCLRD
 70
     0
  9
$DIMCLRE
 70
     0
  9
$DIMCLRT
 70
     0
  9
$DIMTFAC
 40
1.0
  9
$DIMGAP
 40
0.09
  9
$DIMJUST
 70
     0
  9
$DIMSD1
 70
     0
  9
$DIMSD2
 70
     0
  9
$DIMTOLJ
 70
     1
  9
$DIMTZIN
 70
     0
  9
$DIMALTZ
 70
     0
  9
$DIMALTTZ
 70
     0
  9
$DIMUPT
 70
     0
  9
$DIMDEC
 70
     4
  9
$DIMTDEC
 70
     4
  9
$DIMALTU
 70
     2
  9
$DIMALTTD
 70
     2
  9
$DIMTXSTY
  7
Standard
  9
$DIMAUNIT
 70
     0
  9
$DIMADEC
 70
     0
  9
$DIMALTRND
 40
0.0
  9
$DIMAZIN
 70
     0
  9
$DIMDSEP
 70
    46
  9
$DIMATFIT
 70
     3
  9
$DIMFRAC
 70
     0
  9
$DIMLDRBLK
  1

  9
$DIMLUNIT
 70
     2
  9
$DIMLWD
 70
    -2
  9
$DIMLWE
 70
    -2
  9
$DIMTMOVE
 70
     0
  9
$DIMFXL
 40
1.0
  9
$DIMFXLON
 70
     0
  9
$DIMJOGANG
 40
0.7853981633974483
  9
$DIMTFILL
 70
     0
  9
$DIMTFILLCLR
 70
     0
  9
$DIMARCSYM
 70
     0
  9
$DIMLTYPE
  6

  9
$DIMLTEX1
  6

  9
$DIMLTEX2
  6

  9
$DIMTXTDIRECTION
 70
     0
  9
$LUNITS
 70
     2
  9
$LUPREC
 70
     4
  9
$SKETCHINC
 40
0.1
  9
$FILLETRAD
 40
0.5
  9
$AUNITS
 70
     0
  9
$AUPREC
 70
     0
  9
$MENU
  1
.
  9
$ELEVATION
 40
0.0
  9
$PELEVATION
 40
0.0
  9
$THICKNESS
 40
0.0
  9
$LIMCHECK
 70
     0
  9
$CHAMFERA
 40
0.0
  9
$CHAMFERB
 40
0.0
  9
$CHAMFERC
 40
0.0
  9
$CHAMFERD
 40
0.0
  9
$SKPOLY
 70
     0
  9
$TDCREATE
 40
2458169.014917569
  9
$TDUCREATE
 40
2458168.973250903
  9
$TDUPDATE
 40
2458169.014917743
  9
$TDUUPDATE
 40
2458168.973251076
  9
$TDINDWG
 40
0.0000000116
  9
$TDUSRTIMER
 40
0.0000000116
  9
$USRTIMER
 70
     1
  9
$ANGBASE
 50
0.0
  9
$ANGDIR
 70
     0
  9
$PDMODE
 70
     0
  9
$PDSIZE
 40
0.0
  9
$PLINEWID
 40
0.0
  9
$SPLFRAME
 70
     0
  9
$SPLINETYPE
 70
     6
  9
$SPLINESEGS
 70
     8
  9
$HANDSEED
  5
1ED
  9
$SURFTAB1
 70
     6
  9
$SURFTAB2
 70
     6
  9
$SURFTYPE
 70
     6
  9
$SURFU
 70
     6
  9
$SURFV
 70
     6
  9
$UCSBASE
  2

  9
$UCSNAME
  2

  9
$UCSORG
 10
0.0
 20
0.0
 30
0.0
  9
$UCSXDIR
 10
1.0
 20
0.0
 30
0.0
  9
$UCSYDIR
 10
0.0
 20
1.0
 30
0.0
  9
$UCSORTHOREF
  2

  9
$UCSORTHOVIEW
 70
     0
  9
$UCSORGTOP
 10
0.0
 20
0.0
 30
0.0
  9
$UCSORGBOTTOM
 10
0.0
 20
0.0
 30
0.0
  9
$UCSORGLEFT
 10
0.0
 20
0.0
 30
0.0
  9
$UCSORGRIGHT
 10
0.0
 20
0.0
 30
0.0
  9
$UCSORGFRONT
 10
0.0
 20
0.0
 30
0.0
  9
$UCSORGBACK
 10
0.0
 20
0.0
 30
0.0
  9
$PUCSBASE
  2

  9
$PUCSNAME
  2

  9
$PUCSORG
 10
0.0
 20
0.0
 30
0.0
  9
$PUCSXDIR
 10
1.0
 20
0.0
 30
0.0
  9
$PUCSYDIR
 10
0.0
 20
1.0
 30
0.0
  9
$PUCSORTHOREF
  2

  9
$PUCSORTHOVIEW
 70
     0
  9
$PUCSORGTOP
 10
0.0
 20
0.0
 30
0.0
  9
$PUCSORGBOTTOM
 10
0.0
 20
0.0
 30
0.0
  9
$PUCSORGLEFT
 10
0.0
 20
0.0
 30
0.0
  9
$PUCSORGRIGHT
 10
0.0
 20
0.0
 30
0.0
  9
$PUCSORGFRONT
 10
0.0
 20
0.0
 30
0.0
  9
$PUCSORGBACK
 10
0.0
 20
0.0
 30
0.0
  9
$USERI1
 70
     0
  9
$USERI2
 70
     0
  9
$USERI3
 70
     0
  9
$USERI4
 70
     0
  9
$USERI5
 70
     0
  9
$USERR1
 40
0.0
  9
$USERR2
 40
0.0
  9
$USERR3
 40
0.0
  9
$USERR4
 40
0.0
  9
$USERR5
 40
0.0
  9
$WORLDVIEW
 70
     1
  9
$SHADEDGE
 70
     3
  9
$SHADEDIF
 70
    70
  9
$TILEMODE
 70
     1
  9
$MAXACTVP
 70
    64
  9
$PINSBASE
 10
0.0
 20
0.0
 30
0.0
  9
$PLIMCHECK
 70
     0
  9
$PEXTMIN
 10
1.000000000000000E+20
 20
1.000000000000000E+20
 30
1.000000000000000E+20
  9
$PEXTMAX
 10
-1.000000000000000E+20
 20
-1.000000000000000E+20
 30
-1.000000000000000E+20
  9
$PLIMMIN
 10
0.0
 20
0.0
  9
$PLIMMAX
 10
12.0
 20
9.0
  9
$UNITMODE
 70
     0
  9
$VISRETAIN
 70
     1
  9
$PLINEGEN
 70
     0
  9
$PSLTSCALE
 70
     1
  9
$TREEDEPTH
 70
  3020
  9
$CMLSTYLE
  2
Standard
  9
$CMLJUST
 70
     0
  9
$CMLSCALE
 40
1.0
  9
$PROXYGRAPHICS
 70
     1
  9
$MEASUREMENT
 70
     0
  9
$CELWEIGHT
370
    -1
  9
$ENDCAPS
280
     0
  9
$JOINSTYLE
280
     0
  9
$LWDISPLAY
290
     0
  9
$INSUNITS
 70
     1
  9
$HYPERLINKBASE
  1

  9
$STYLESHEET
  1

  9
$XEDIT
290
     1
  9
$CEPSNTYPE
380
     0
  9
$PSTYLEMODE
290
     1
  9
$FINGERPRINTGUID
  2
{C4140817-DEBD-47D7-979E-6E4CBEDF682F}
  9
$VERSIONGUID
  2
{FAEB1C32-E019-11D5-929B-00C0DF256EC4}
  9
$EXTNAMES
290
     1
  9
$PSVPSCALE
 40
0.0
  9
$OLESTARTUP
290
     0
  9
$SORTENTS
280
   127
  9
$INDEXCTL
280
     0
  9
$HIDETEXT
280
     1
  9
$XCLIPFRAME
280
     2
  9
$HALOGAP
280
     0
  9
$OBSCOLOR
 70
   257
  9
$OBSLTYPE
280
     0
  9
$INTERSECTIONDISPLAY
280
     0
  9
$INTERSECTIONCOLOR
 70
   257
  9
$DIMASSOC
280
     2
  9
$PROJECTNAME
  1

  9
$CAMERADISPLAY
290
     0
  9
$LENSLENGTH
 40
50.0
  9
$CAMERAHEIGHT
 40
0.0
  9
$STEPSPERSEC
 40
2.0
  9
$STEPSIZE
 40
6.0
  9
$3DDWFPREC
 40
2.0
  9
$PSOLWIDTH
 40
0.25
  9
$PSOLHEIGHT
 40
4.0
  9
$LOFTANG1
 40
1.570796326794897
  9
$LOFTANG2
 40
1.570796326794897
  9
$LOFTMAG1
 40
0.0
  9
$LOFTMAG2
 40
0.0
  9
$LOFTPARAM
 70
     7
  9
$LOFTNORMALS
280
     1
  9
$LATITUDE
 40
37.795
  9
$LONGITUDE
 40
-122.394
  9
$NORTHDIRECTION
 40
0.0
  9
$TIMEZONE
 70
 -8000
  9
$LIGHTGLYPHDISPLAY
280
     1
  9
$TILEMODELIGHTSYNCH
280
     1
  9
$CMATERIAL
347
44
  9
$SOLIDHIST
280
     0
  9
$SHOWHIST
280
     1
  9
$DWFFRAME
280
     2
  9
$DGNFRAME
280
     2
  9
$REALWORLDSCALE
290
     1
  9
$INTERFERECOLOR
 62
   256
  9
$CSHADOW
280
     0
  9
$SHADOWPLANELOCATION
 40
0.0
  0
ENDSEC
  0
SECTION
  2
CLASSES
  0
CLASS
  1
ACDBDICTIONARYWDFLT
  2
AcDbDictionaryWithDefault
  3
ObjectDBX Classes
 90
        0
 91
        4
280
     0
281
     0
  0
CLASS
  1
VISUALSTYLE
  2
AcDbVisualStyle
  3
ObjectDBX Classes
 90
     4095
 91
        4
280
     0
281
     0
  0
CLASS
  1
MATERIAL
  2
AcDbMaterial
  3
ObjectDBX Classes
 90
     1153
 91
        4
280
     0
281
     0
  0
CLASS
  1
SCALE
  2
AcDbScale
  3
ObjectDBX Classes
 90
     1153
 91
        4
280
     0
281
     0
  0
CLASS
  1
TABLESTYLE
  2
AcDbTableStyle
  3
ObjectDBX Classes
 90
     4095
 91
        4
280
     0
281
     0
  0
CLASS
  1
MLEADERSTYLE
  2
AcDbMLeaderStyle
  3
ACDB_MLEADERSTYLE_CLASS
 90
     4095
 91
        4
280
     0
281
     0
  0
CLASS
  1
SUN
  2
AcDbSun
  3
SCENEOE
 90
     1153
 91
        4
280
     0
281
     0
  0
CLASS
  1
DICTIONARYVAR
  2
AcDbDictionaryVar
  3
ObjectDBX Classes
 90
        0
 91
        4
280
     0
281
     0
  0
CLASS
  1
CELLSTYLEMAP
  2
AcDbCellStyleMap
  3
ObjectDBX Classes
 90
     1152
 91
        4
280
     0
281
     0
  0
ENDSEC
  0
SECTION
  2
TABLES
  0
TABLE
  2
VPORT
  5
8
330
0
100
AcDbSymbolTable
 70
     1
  0
VPORT
  5
29
330
8
100
AcDbSymbolTableRecord
100
AcDbViewportTableRecord
  2
*Active
 70
     0
 10
0.0
 20
0.0
 11
1.0
 21
1.0
 12
0.0000000000000178
 22
0.2443749999999998
 13
0.0
 23
0.0
 14
0.5
 24
0.5
 15
0.5
 25
0.5
 16
0.0
 26
0.0
 36
1.0
 17
0.0
 27
0.0
 37
0.0
 40
11.718525
 41
0.67022086824067
 42
50.0
 43
0.0
 44
0.0
 50
0.0
 51
0.0
 71
     0
 72
   100
 73
     1
 74
     3
 75
     0
 76
     0
 77
     0
 78
     0
281
     0
 65
     1
110
0.0
120
0.0
130
0.0
111
1.0
121
0.0
131
0.0
112
0.0
122
1.0
132
0.0
 79
     0
146
0.0
348
2F
 60
     3
 61
     5
292
     1
282
     1
141
0.0
142
0.0
 63
   250
361
6D
  0
ENDTAB
  0
TABLE
  2
LTYPE
  5
5
330
0
100
AcDbSymbolTable
 70
     3
  0
LTYPE
  5
14
330
5
100
AcDbSymbolTableRecord
100
AcDbLinetypeTableRecord
  2
ByBlock
 70
     0
  3

 72
    65
 73
     0
 40
0.0
  0
LTYPE
  5
15
330
5
100
AcDbSymbolTableRecord
100
AcDbLinetypeTableRecord
  2
ByLayer
 70
     0
  3

 72
    65
 73
     0
 40
0.0
  0
LTYPE
  5
16
330
5
100
AcDbSymbolTableRecord
100
AcDbLinetypeTableRecord
  2
Continuous
 70
     0
  3
Solid line
 72
    65
 73
     0
 40
0.0
  0
LTYPE
  5
B3
330
5
100
AcDbSymbolTableRecord
100
AcDbLinetypeTableRecord
  2
Dashed
 70
     0
  3

 72
    65
 73
     2
 40
2.0
 49
1.0
 74
     0
 49
-1.0
 74
     0
  0
LTYPE
  5
124
330
5
100
AcDbSymbolTableRecord
100
AcDbLinetypeTableRecord
  2
Center
 70
     0
  3

 72
    65
 73
     4
 40
1.5
 49
0.45
 74
     0
 49
-0.5
 74
     0
 49
0.05
 74
     0
 49
-0.5
 74
     0
  0
ENDTAB
  0
TABLE
  2
LAYER
  5
2
330
0
100
AcDbSymbolTable
 70
     7
  0
LAYER
  5
10
330
2
100
AcDbSymbolTableRecord
100
AcDbLayerTableRecord
  2
0
 70
     0
 62
     7
  6
Continuous
370
    -3
390
F
347
46
348
0
  0
LAYER
  5
72
330
2
100
AcDbSymbolTableRecord
100
AcDbLayerTableRecord
  2
AM_6
 70
     0
 62
    -2
  6
Continuous
370
    35
390
F
347
46
348
0
  0
LAYER
  5
B4
330
2
100
AcDbSymbolTableRecord
100
AcDbLayerTableRecord
  2
AM_9
 70
     0
 62
     6
  6
Dashed
370
    25
390
F
347
46
348
0
  0
LAYER
  5
125
330
2
100
AcDbSymbolTableRecord
100
AcDbLayerTableRecord
  2
AM_7
 70
     0
 62
     7
  6
Center
370
    25
390
F
347
46
348
0
  0
LAYER
  5
129
330
2
100
AcDbSymbolTableRecord
100
AcDbLayerTableRecord
  2
AM_4
 70
     0
 62
     7
  6
Continuous
370
    50
390
F
347
46
348
0
  0
LAYER
  5
1DB
330
2
100
AcDbSymbolTableRecord
100
AcDbLayerTableRecord
  2
AM_5
 70
     0
 62
     3
  6
Continuous
370
    25
390
F
347
46
348
0
  0
LAYER
  5
1E0
330
2
100
AcDbSymbolTableRecord
100
AcDbLayerTableRecord
  2
ConnectionPoints
 70
     0
 62
     7
  6
Continuous
370
    50
390
F
347
46
348
0
  0
ENDTAB
  0
TABLE
  2
STYLE
  5
3
330
0
100
AcDbSymbolTable
 70
     1
  0
STYLE
  5
11
330
3
100
AcDbSymbolTableRecord
100
AcDbTextStyleTableRecord
  2
Standard
 70
     0
 40
0.0
 41
1.0
 50
0.0
 71
     0
 42
0.2
  3
txt
  4

  0
ENDTAB
  0
TABLE
  2
VIEW
  5
6
330
0
100
AcDbSymbolTable
 70
     0
  0
ENDTAB
  0
TABLE
  2
UCS
  5
7
330
0
100
AcDbSymbolTable
 70
     0
  0
ENDTAB
  0
TABLE
  2
APPID
  5
9
330
0
100
AcDbSymbolTable
 70
     1
  0
APPID
  5
12
330
9
100
AcDbSymbolTableRecord
100
AcDbRegAppTableRecord
  2
ACAD
 70
     0
  0
ENDTAB
  0
TABLE
  2
DIMSTYLE
  5
A
330
0
100
AcDbSymbolTable
 70
     1
100
AcDbDimStyleTable
  0
DIMSTYLE
105
27
330
A
100
AcDbSymbolTableRecord
100
AcDbDimStyleTableRecord
  2
Standard
 70
     0
178
     0
340
11
  0
ENDTAB
  0
TABLE
  2
BLOCK_RECORD
  5
1
330
0
100
AcDbSymbolTable
 70
     5
  0
BLOCK_RECORD
  5
1F
330
1
100
AcDbSymbolTableRecord
100
AcDbBlockTableRecord
  2
*Model_Space
340
22
 70
     0
280
     1
281
     0
  0
BLOCK_RECORD
  5
1B
330
1
100
AcDbSymbolTableRecord
100
AcDbBlockTableRecord
  2
*Paper_Space
340
1E
 70
     0
280
     1
281
     0
  0
BLOCK_RECORD
  5
23
330
1
100
AcDbSymbolTableRecord
100
AcDbBlockTableRecord
  2
*Paper_Space0
340
26
 70
     0
280
     1
281
     0
  0
BLOCK_RECORD
  5
6E
330
1
100
AcDbSymbolTableRecord
100
AcDbBlockTableRecord
  2
1_087193_2
340
0
102
{BLKREFS
331
6F
102
}
 70
     0
280
     1
281
     0
  0
BLOCK_RECORD
  5
8C
330
1
100
AcDbSymbolTableRecord
100
AcDbBlockTableRecord
  2
2_065297iiu_0_in_087193_2
340
0
102
{BLKREFS
331
8D
102
}
 70
     0
280
     1
281
     0
  0
BLOCK_RECORD
  5
E3
330
1
100
AcDbSymbolTableRecord
100
AcDbBlockTableRecord
  2
3_065297ii_0_in_087193_2
340
0
102
{BLKREFS
331
E4
102
}
 70
     0
280
     1
281
     0
  0
BLOCK_RECORD
  5
144
330
1
100
AcDbSymbolTableRecord
100
AcDbBlockTableRecord
  2
4_087193p_0_in_087193_2
340
0
102
{BLKREFS
331
145
102
}
 70
     0
280
     1
281
     0
  0
ENDTAB
  0
ENDSEC
  0
SECTION
  2
BLOCKS
  0
BLOCK
  5
20
330
1F
100
AcDbEntity
  8
0
100
AcDbBlockBegin
  2
*Model_Space
 70
     0
 10
0.0
 20
0.0
 30
0.0
  3
*Model_Space
  1

  0
ENDBLK
  5
21
330
1F
100
AcDbEntity
  8
0
100
AcDbBlockEnd
  0
BLOCK
  5
1C
330
1B
100
AcDbEntity
 67
     1
  8
0
100
AcDbBlockBegin
  2
*Paper_Space
 70
     0
 10
0.0
 20
0.0
 30
0.0
  3
*Paper_Space
  1

  0
ENDBLK
  5
1D
330
1B
100
AcDbEntity
 67
     1
  8
0
100
AcDbBlockEnd
  0
BLOCK
  5
24
330
23
100
AcDbEntity
  8
0
100
AcDbBlockBegin
  2
*Paper_Space0
 70
     0
 10
0.0
 20
0.0
 30
0.0
  3
*Paper_Space0
  1

  0
ENDBLK
  5
25
330
23
100
AcDbEntity
  8
0
100
AcDbBlockEnd
  0
BLOCK
  5
70
330
6E
100
AcDbEntity
  8
0
100
AcDbBlockBegin
  2
1_087193_2
 70
     2
 10
0.0
 20
0.0
 30
0.0
  3
1_087193_2
  1

  0
ATTDEF
  5
73
330
6E
100
AcDbEntity
  8
AM_6
100
AcDbText
 10
8.850000000000017
 20
5.98875
 30
0.0
 40
0.5
  1
Type C Pillow Block 4-Bolt Inch Bore
100
AcDbAttributeDefinition
  3

  2
NN
 70
     8
280
     0
  0
ATTDEF
  5
74
330
6E
100
AcDbEntity
  8
AM_6
100
AcDbText
 10
8.850000000000017
 20
5.48875
 30
0.0
 40
0.5
  1
Type C Bearings
100
AcDbAttributeDefinition
  3

  2
NT
 70
     8
280
     0
  0
ATTDEF
  5
75
330
6E
100
AcDbEntity
  8
AM_6
100
AcDbText
 10
8.850000000000017
 20
4.98875
 30
0.0
 40
0.5
  1
087193
100
AcDbAttributeDefinition
  3

  2
NB
 70
     8
280
     0
  0
ATTDEF
  5
76
330
6E
100
AcDbEntity
  8
AM_6
100
AcDbText
 10
8.850000000000017
 20
4.48875
 30
0.0
 40
0.5
  1
$PN.
100
AcDbAttributeDefinition
  3

  2
NBSYN
 70
     8
280
     0
  0
ATTDEF
  5
77
330
6E
100
AcDbEntity
  8
AM_6
100
AcDbText
 10
8.850000000000017
 20
3.98875
 30
0.0
 40
0.5
  1
087193
100
AcDbAttributeDefinition
  3

  2
LINA
 70
     8
280
     0
  0
ATTDEF
  5
78
330
6E
100
AcDbEntity
  8
AM_6
100
AcDbText
 10
8.850000000000017
 20
3.48875
 30
0.0
 40
0.5
  1
3-7/16
100
AcDbAttributeDefinition
  3

  2
SS
 70
     8
280
     0
  0
ATTDEF
  5
79
330
6E
100
AcDbEntity
  8
AM_6
100
AcDbText
 10
8.850000000000017
 20
2.98875
 30
0.0
 40
0.5
  1
Gray Iron Expansion
100
AcDbAttributeDefinition
  3

  2
TYPE
 70
     8
280
     0
  0
ATTDEF
  5
7A
330
6E
100
AcDbEntity
  8
AM_6
100
AcDbText
 10
8.850000000000017
 20
2.48875
 30
0.0
 40
0.5
  1
087193
100
AcDbAttributeDefinition
  3

  2
PN
 70
     8
280
     0
  0
ATTDEF
  5
7B
330
6E
100
AcDbEntity
  8
AM_6
100
AcDbText
 10
8.850000000000017
 20
1.98875
 30
0.0
 40
0.5
  1
P4B-C-307E
100
AcDbAttributeDefinition
  3

  2
DESCRIPTION
 70
     8
280
     0
  0
ATTDEF
  5
7C
330
6E
100
AcDbEntity
  8
AM_6
100
AcDbText
 10
8.850000000000017
 20
1.48875
 30
0.0
 40
0.5
  1
135
100
AcDbAttributeDefinition
  3

  2
WEIGHT
 70
     8
280
     0
  0
ATTDEF
  5
7D
330
6E
100
AcDbEntity
  8
AM_6
100
AcDbText
 10
8.850000000000017
 20
0.9887499999999996
 30
0.0
 40
0.5
  1
7
100
AcDbAttributeDefinition
  3

  2
A
 70
     8
280
     0
  0
ATTDEF
  5
7E
330
6E
100
AcDbEntity
  8
AM_6
100
AcDbText
 10
8.850000000000017
 20
0.4887499999999996
 30
0.0
 40
0.5
  1
16-3/4
100
AcDbAttributeDefinition
  3

  2
B
 70
     8
280
     0
  0
ATTDEF
  5
7F
330
6E
100
AcDbEntity
  8
AM_6
100
AcDbText
 10
8.850000000000017
 20
-0.0112500000000004
 30
0.0
 40
0.5
  1
5-1/2
100
AcDbAttributeDefinition
  3

  2
C
 70
     8
280
     0
  0
ATTDEF
  5
80
330
6E
100
AcDbEntity
  8
AM_6
100
AcDbText
 10
8.850000000000017
 20
-0.5112500000000004
 30
0.0
 40
0.5
  1
12-7/8
100
AcDbAttributeDefinition
  3

  2
DMIN
 70
     8
280
     0
  0
ATTDEF
  5
81
330
6E
100
AcDbEntity
  8
AM_6
100
AcDbText
 10
8.850000000000017
 20
-1.01125
 30
0.0
 40
0.5
  1
14-5/8
100
AcDbAttributeDefinition
  3

  2
DMAX
 70
     8
280
     0
  0
ATTDEF
  5
82
330
6E
100
AcDbEntity
  8
AM_6
100
AcDbText
 10
8.850000000000017
 20
-1.51125
 30
0.0
 40
0.5
  1
3-1/4
100
AcDbAttributeDefinition
  3

  2
E
 70
     8
280
     0
  0
ATTDEF
  5
83
330
6E
100
AcDbEntity
  8
AM_6
100
AcDbText
 10
8.850000000000017
 20
-2.01125
 30
0.0
 40
0.5
  1
3/4
100
AcDbAttributeDefinition
  3

  2
F
 70
     8
280
     0
  0
ATTDEF
  5
84
330
6E
100
AcDbEntity
  8
AM_6
100
AcDbText
 10
8.850000000000017
 20
-2.51125
 30
0.0
 40
0.5
  1
1-1/2
100
AcDbAttributeDefinition
  3

  2
G
 70
     8
280
     0
  0
ATTDEF
  5
85
330
6E
100
AcDbEntity
  8
AM_6
100
AcDbText
 10
8.850000000000017
 20
-3.01125
 30
0.0
 40
0.5
  1
4
100
AcDbAttributeDefinition
  3

  2
H
 70
     8
280
     0
  0
ATTDEF
  5
86
330
6E
100
AcDbEntity
  8
AM_6
100
AcDbText
 10
8.850000000000017
 20
-3.51125
 30
0.0
 40
0.5
  1
11-3/8
100
AcDbAttributeDefinition
  3

  2
J
 70
     8
280
     0
  0
ATTDEF
  5
87
330
6E
100
AcDbEntity
  8
AM_6
100
AcDbText
 10
8.850000000000017
 20
-4.01125
 30
0.0
 40
0.5
  1
5-15/16
100
AcDbAttributeDefinition
  3

  2
L
 70
     8
280
     0
  0
ATTDEF
  5
88
330
6E
100
AcDbEntity
  8
AM_6
100
AcDbText
 10
8.850000000000017
 20
-4.51125
 30
0.0
 40
0.5
  1
5-1/2
100
AcDbAttributeDefinition
  3

  2
M
 70
     8
280
     0
  0
ATTDEF
  5
89
330
6E
100
AcDbEntity
  8
AM_6
100
AcDbText
 10
8.850000000000017
 20
-5.01125
 30
0.0
 40
0.5
  1
11-5/8
100
AcDbAttributeDefinition
  3

  2
P
 70
     8
280
     0
  0
ATTDEF
  5
8A
330
6E
100
AcDbEntity
  8
AM_6
100
AcDbText
 10
8.850000000000017
 20
-5.51125
 30
0.0
 40
0.5
  1
3/4
100
AcDbAttributeDefinition
  3

  2
EXP
 70
     8
280
     0
  0
ATTDEF
  5
8B
330
6E
100
AcDbEntity
  8
AM_6
100
AcDbText
 10
8.850000000000017
 20
-6.01125
 30
0.0
 40
0.5
  1
baldor
100
AcDbAttributeDefinition
  3

  2
COMPANY
 70
     8
280
     0
  0
INSERT
  5
8D
330
6E
100
AcDbEntity
  8
0
100
AcDbBlockReference
  2
2_065297iiu_0_in_087193_2
 10
0.0
 20
0.0
 30
0.0
  0
INSERT
  5
E4
330
6E
100
AcDbEntity
  8
0
100
AcDbBlockReference
  2
3_065297ii_0_in_087193_2
 10
0.0
 20
0.0
 30
0.0
  0
INSERT
  5
145
330
6E
100
AcDbEntity
  8
0
100
AcDbBlockReference
  2
4_087193p_0_in_087193_2
 10
0.0
 20
0.0
 30
0.0
  0
ENDBLK
  5
71
330
6E
100
AcDbEntity
  8
0
100
AcDbBlockEnd
  0
BLOCK
  5
8E
330
8C
100
AcDbEntity
  8
0
100
AcDbBlockBegin
  2
2_065297iiu_0_in_087193_2
 70
     2
 10
0.0
 20
0.0
 30
0.0
  3
2_065297iiu_0_in_087193_2
  1

  0
ATTDEF
  5
90
330
8C
100
AcDbEntity
  8
AM_6
100
AcDbText
 10
8.043478260869566
 20
1.80921052631579
 30
0.0
 40
0.5
  1
Type C Pillow Block - Inch - Body - Insert ring
100
AcDbAttributeDefinition
  3

  2
NN
 70
     8
280
     0
  0
ATTDEF
  5
91
330
8C
100
AcDbEntity
  8
AM_6
100
AcDbText
 10
8.043478260869566
 20
1.30921052631579
 30
0.0
 40
0.5
  1
Type C Bearings
100
AcDbAttributeDefinition
  3

  2
NT
 70
     8
280
     0
  0
ATTDEF
  5
92
330
8C
100
AcDbEntity
  8
AM_6
100
AcDbText
 10
8.043478260869566
 20
0.8092105263157896
 30
0.0
 40
0.5
  1
065297iiu
100
AcDbAttributeDefinition
  3

  2
NB
 70
     8
280
     0
  0
ATTDEF
  5
93
330
8C
100
AcDbEntity
  8
AM_6
100
AcDbText
 10
8.043478260869566
 20
0.3092105263157896
 30
0.0
 40
0.5
  1
$PN1.
100
AcDbAttributeDefinition
  3

  2
NBSYN
 70
     8
280
     0
  0
ATTDEF
  5
94
330
8C
100
AcDbEntity
  8
AM_6
100
AcDbText
 10
8.043478260869566
 20
-0.1907894736842104
 30
0.0
 40
0.5
  1
065297iiu
100
AcDbAttributeDefinition
  3

  2
LINA
 70
     8
280
     0
  0
ATTDEF
  5
95
330
8C
100
AcDbEntity
  8
AM_6
100
AcDbText
 10
8.043478260869566
 20
-0.6907894736842104
 30
0.0
 40
0.5
  1
3.43750
100
AcDbAttributeDefinition
  3

  2
SS1
 70
     8
280
     0
  0
ATTDEF
  5
96
330
8C
100
AcDbEntity
  8
AM_6
100
AcDbText
 10
8.043478260869566
 20
-1.19078947368421
 30
0.0
 40
0.5
  1
065297iiu
100
AcDbAttributeDefinition
  3

  2
PN1
 70
     8
280
     0
  0
ATTDEF
  5
97
330
8C
100
AcDbEntity
  8
AM_6
100
AcDbText
 10
8.043478260869566
 20
-1.69078947368421
 30
0.0
 40
0.5
  1
P2B-C-307
100
AcDbAttributeDefinition
  3

  2
DESCRIPTION1
 70
     8
280
     0
  0
ATTDEF
  5
98
330
8C
100
AcDbEntity
  8
AM_6
100
AcDbText
 10
8.043478260869566
 20
-2.190789473684211
 30
0.0
 40
0.5
  1
132
100
AcDbAttributeDefinition
  3

  2
WEIGHT1
 70
     8
280
     0
  0
ATTDEF
  5
99
330
8C
100
AcDbEntity
  8
AM_6
100
AcDbText
 10
8.043478260869566
 20
-2.690789473684211
 30
0.0
 40
0.5
  1
7
100
AcDbAttributeDefinition
  3

  2
A
 70
     8
280
     0
  0
ATTDEF
  5
9A
330
8C
100
AcDbEntity
  8
AM_6
100
AcDbText
 10
8.043478260869566
 20
-3.190789473684211
 30
0.0
 40
0.5
  1
7.00000
100
AcDbAttributeDefinition
  3

  2
A1
 70
     8
280
     0
  0
ATTDEF
  5
9B
330
8C
100
AcDbEntity
  8
AM_6
100
AcDbText
 10
8.043478260869566
 20
-3.690789473684211
 30
0.0
 40
0.5
  1
16-3/4
100
AcDbAttributeDefinition
  3

  2
B
 70
     8
280
     0
  0
ATTDEF
  5
9C
330
8C
100
AcDbEntity
  8
AM_6
100
AcDbText
 10
8.043478260869566
 20
-4.190789473684211
 30
0.0
 40
0.5
  1
16.75000
100
AcDbAttributeDefinition
  3

  2
B1
 70
     8
280
     0
  0
ATTDEF
  5
9D
330
8C
100
AcDbEntity
  8
AM_6
100
AcDbText
 10
8.043478260869566
 20
-4.690789473684211
 30
0.0
 40
0.5
  1
5-1/2
100
AcDbAttributeDefinition
  3

  2
C
 70
     8
280
     0
  0
ATTDEF
  5
9E
330
8C
100
AcDbEntity
  8
AM_6
100
AcDbText
 10
8.043478260869566
 20
-5.190789473684211
 30
0.0
 40
0.5
  1
5.50000
100
AcDbAttributeDefinition
  3

  2
C1
 70
     8
280
     0
  0
ATTDEF
  5
9F
330
8C
100
AcDbEntity
  8
AM_6
100
AcDbText
 10
8.043478260869566
 20
-5.690789473684211
 30
0.0
 40
0.5
  1
13-1/4
100
AcDbAttributeDefinition
  3

  2
DMIN
 70
     8
280
     0
  0
ATTDEF
  5
A0
330
8C
100
AcDbEntity
  8
AM_6
100
AcDbText
 10
8.043478260869566
 20
-6.190789473684211
 30
0.0
 40
0.5
  1
13.25000
100
AcDbAttributeDefinition
  3

  2
DMIN1
 70
     8
280
     0
  0
ATTDEF
  5
A1
330
8C
100
AcDbEntity
  8
AM_6
100
AcDbText
 10
8.043478260869566
 20
-6.690789473684211
 30
0.0
 40
0.5
  1
14-1/4
100
AcDbAttributeDefinition
  3

  2
DMAX
 70
     8
280
     0
  0
ATTDEF
  5
A2
330
8C
100
AcDbEntity
  8
AM_6
100
AcDbText
 10
8.043478260869566
 20
-7.190789473684211
 30
0.0
 40
0.5
  1
14.25000
100
AcDbAttributeDefinition
  3

  2
DMAX1
 70
     8
280
     0
  0
ATTDEF
  5
A3
330
8C
100
AcDbEntity
  8
AM_6
100
AcDbText
 10
8.043478260869566
 20
-7.690789473684211
 30
0.0
 40
0.5
  1
7/8
100
AcDbAttributeDefinition
  3

  2
F
 70
     8
280
     0
  0
ATTDEF
  5
A4
330
8C
100
AcDbEntity
  8
AM_6
100
AcDbText
 10
8.043478260869566
 20
-8.19078947368421
 30
0.0
 40
0.5
  1
0.87500
100
AcDbAttributeDefinition
  3

  2
F1
 70
     8
280
     0
  0
ATTDEF
  5
A5
330
8C
100
AcDbEntity
  8
AM_6
100
AcDbText
 10
8.043478260869566
 20
-8.69078947368421
 30
0.0
 40
0.5
  1
1-1/2
100
AcDbAttributeDefinition
  3

  2
G
 70
     8
280
     0
  0
ATTDEF
  5
A6
330
8C
100
AcDbEntity
  8
AM_6
100
AcDbText
 10
8.043478260869566
 20
-9.19078947368421
 30
0.0
 40
0.5
  1
1.50000
100
AcDbAttributeDefinition
  3

  2
G1
 70
     8
280
     0
  0
ATTDEF
  5
A7
330
8C
100
AcDbEntity
  8
AM_6
100
AcDbText
 10
8.043478260869566
 20
-9.69078947368421
 30
0.0
 40
0.5
  1
4
100
AcDbAttributeDefinition
  3

  2
H
 70
     8
280
     0
  0
ATTDEF
  5
A8
330
8C
100
AcDbEntity
  8
AM_6
100
AcDbText
 10
8.043478260869566
 20
-10.19078947368421
 30
0.0
 40
0.5
  1
4.00000
100
AcDbAttributeDefinition
  3

  2
H1
 70
     8
280
     0
  0
ATTDEF
  5
A9
330
8C
100
AcDbEntity
  8
AM_6
100
AcDbText
 10
8.043478260869566
 20
-10.69078947368421
 30
0.0
 40
0.5
  1
11-3/8
100
AcDbAttributeDefinition
  3

  2
J
 70
     8
280
     0
  0
ATTDEF
  5
AA
330
8C
100
AcDbEntity
  8
AM_6
100
AcDbText
 10
8.043478260869566
 20
-11.19078947368421
 30
0.0
 40
0.5
  1
11.37500
100
AcDbAttributeDefinition
  3

  2
J1
 70
     8
280
     0
  0
ATTDEF
  5
AB
330
8C
100
AcDbEntity
  8
AM_6
100
AcDbText
 10
8.043478260869566
 20
-11.69078947368421
 30
0.0
 40
0.5
  1
5-15/16
100
AcDbAttributeDefinition
  3

  2
L
 70
     8
280
     0
  0
ATTDEF
  5
AC
330
8C
100
AcDbEntity
  8
AM_6
100
AcDbText
 10
8.043478260869566
 20
-12.19078947368421
 30
0.0
 40
0.5
  1
5.93750
100
AcDbAttributeDefinition
  3

  2
L1
 70
     8
280
     0
  0
ATTDEF
  5
AD
330
8C
100
AcDbEntity
  8
AM_6
100
AcDbText
 10
8.043478260869566
 20
-12.69078947368421
 30
0.0
 40
0.5
  1
5-1/2
100
AcDbAttributeDefinition
  3

  2
M
 70
     8
280
     0
  0
ATTDEF
  5
AE
330
8C
100
AcDbEntity
  8
AM_6
100
AcDbText
 10
8.043478260869566
 20
-13.19078947368421
 30
0.0
 40
0.5
  1
5.50000
100
AcDbAttributeDefinition
  3

  2
M1
 70
     8
280
     0
  0
ATTDEF
  5
AF
330
8C
100
AcDbEntity
  8
AM_6
100
AcDbText
 10
8.043478260869566
 20
-13.69078947368421
 30
0.0
 40
0.5
  1
11-5/8
100
AcDbAttributeDefinition
  3

  2
P
 70
     8
280
     0
  0
ATTDEF
  5
B0
330
8C
100
AcDbEntity
  8
AM_6
100
AcDbText
 10
8.043478260869566
 20
-14.19078947368421
 30
0.0
 40
0.5
  1
11.62500
100
AcDbAttributeDefinition
  3

  2
P1
 70
     8
280
     0
  0
ATTDEF
  5
B1
330
8C
100
AcDbEntity
  8
AM_6
100
AcDbText
 10
8.043478260869566
 20
-14.69078947368421
 30
0.0
 40
0.5
  1
3/4
100
AcDbAttributeDefinition
  3

  2
EXP
 70
     8
280
     0
  0
ATTDEF
  5
B2
330
8C
100
AcDbEntity
  8
AM_6
100
AcDbText
 10
8.043478260869566
 20
-15.19078947368421
 30
0.0
 40
0.5
  1
baldor
100
AcDbAttributeDefinition
  3

  2
COMPANY
 70
     8
280
     0
  0
LINE
  5
B5
330
8C
100
AcDbEntity
  8
AM_9
100
AcDbLine
 10
2.343478260869565
 20
1.710134657527003
 30
0.0
 11
2.343478260869565
 21
1.801027960056938
 31
0.0
  0
LINE
  5
B6
330
8C
100
AcDbEntity
  8
AM_9
100
AcDbLine
 10
2.171603260869565
 20
1.80921052631579
 30
0.0
 11
2.171603260869565
 21
1.71875
 31
0.0
  0
LINE
  5
B7
330
8C
100
AcDbEntity
  8
AM_9
100
AcDbLine
 10
2.343478260869565
 20
-1.801027960056938
 30
0.0
 11
2.343478260869565
 21
-1.710134657527003
 31
0.0
  0
LINE
  5
B8
330
8C
100
AcDbEntity
  8
AM_9
100
AcDbLine
 10
2.171603260869565
 20
-1.71875
 30
0.0
 11
2.171603260869565
 21
-1.80921052631579
 31
0.0
  0
LINE
  5
B9
330
8C
100
AcDbEntity
  8
AM_9
100
AcDbLine
 10
-2.343478260869565
 20
-1.801027960056938
 30
0.0
 11
-2.343478260869565
 21
-1.710134657527003
 31
0.0
  0
LINE
  5
BA
330
8C
100
AcDbEntity
  8
AM_9
100
AcDbLine
 10
-2.171603260869565
 20
-1.80921052631579
 30
0.0
 11
-2.171603260869565
 21
-1.71875
 31
0.0
  0
LINE
  5
BB
330
8C
100
AcDbEntity
  8
AM_9
100
AcDbLine
 10
-2.343478260869565
 20
1.710134657527003
 30
0.0
 11
-2.343478260869565
 21
1.801027960056938
 31
0.0
  0
LINE
  5
BC
330
8C
100
AcDbEntity
  8
AM_9
100
AcDbLine
 10
-2.171603260869565
 20
1.71875
 30
0.0
 11
-2.171603260869565
 21
1.80921052631579
 31
0.0
  0
LINE
  5
BD
330
8C
100
AcDbEntity
  8
AM_9
100
AcDbLine
 10
2.343478260869565
 20
1.710134657527003
 30
0.0
 11
3.043478260869565
 21
1.710134657527003
 31
0.0
  0
LINE
  5
BE
330
8C
100
AcDbEntity
  8
AM_9
100
AcDbLine
 10
3.043478260869565
 20
-1.710134657527003
 30
0.0
 11
2.343478260869565
 21
-1.710134657527003
 31
0.0
  0
LWPOLYLINE
  5
BF
330
8C
100
AcDbEntity
  8
AM_9
100
AcDbPolyline
 90
        6
 70
     0
 43
0.0
 10
2.343478260869565
 20
-1.710134657527003
 10
2.286748021382778
 20
-1.711075353965227
 10
2.236415796431117
 20
-1.71348268685932
 10
2.197975358434979
 20
-1.716313386736784
 10
2.175872786609746
 20
-1.718328298631219
 10
2.171603260873631
 20
-1.718749999999594
  0
LINE
  5
C0
330
8C
100
AcDbEntity
  8
AM_9
100
AcDbLine
 10
-3.043478260869565
 20
1.710134657527003
 30
0.0
 11
-2.343478260869565
 21
1.710134657527003
 31
0.0
  0
LWPOLYLINE
  5
C1
330
8C
100
AcDbEntity
  8
AM_9
100
AcDbPolyline
 90
        6
 70
     0
 43
0.0
 10
-2.343478260869565
 20
1.710134657527003
 10
-2.286748021382778
 20
1.711075353965227
 10
-2.236415796431117
 20
1.71348268685932
 10
-2.197975358434979
 20
1.716313386736784
 10
-2.175872786609746
 20
1.718328298631219
 10
-2.171603260873631
 20
1.718749999999594
  0
LINE
  5
C2
330
8C
100
AcDbEntity
  8
AM_9
100
AcDbLine
 10
-2.343478260869565
 20
-1.710134657527003
 30
0.0
 11
-3.043478260869565
 21
-1.710134657527003
 31
0.0
  0
LINE
  5
C3
330
8C
100
AcDbEntity
  8
AM_9
100
AcDbLine
 10
2.173781908126468
 20
1.71875
 30
0.0
 11
-2.173781908126467
 21
1.71875
 31
0.0
  0
LINE
  5
C4
330
8C
100
AcDbEntity
  8
AM_9
100
AcDbLine
 10
-2.173781908126467
 20
-1.71875
 30
0.0
 11
2.173781908126467
 21
-1.71875
 31
0.0
  0
LWPOLYLINE
  5
C5
330
8C
100
AcDbEntity
  8
AM_9
100
AcDbPolyline
 90
        7
 70
     0
 43
0.0
 10
2.171603260873631
 20
1.718749999999594
 10
2.172711700077121
 20
1.718639509949623
 10
2.188661915649218
 20
1.717128023072941
 10
2.22193654574059
 20
1.714448288923143
 10
2.269035556106777
 20
1.711754147991878
 10
2.324587125614189
 20
1.710238995540166
 10
2.343478260869565
 20
1.710134657527003
  0
LWPOLYLINE
  5
C6
330
8C
100
AcDbEntity
  8
AM_9
100
AcDbPolyline
 90
        7
 70
     0
 43
0.0
 10
-2.171603260873631
 20
-1.718749999999594
 10
-2.172711700077121
 20
-1.718639509949623
 10
-2.188661915649218
 20
-1.717128023072941
 10
-2.22193654574059
 20
-1.714448288923143
 10
-2.269035556106778
 20
-1.711754147991878
 10
-2.324587125614189
 20
-1.710238995540166
 10
-2.343478260869565
 20
-1.710134657527003
  0
LWPOLYLINE
  5
C7
330
8C
100
AcDbEntity
  8
AM_9
100
AcDbPolyline
 90
        6
 70
     0
 43
0.0
 10
2.312056540755214
 20
-1.801302039470838
 10
2.286732269505491
 20
-1.801921702084402
 10
2.236385850103606
 20
-1.804209105771978
 10
2.197951997532491
 20
-1.806897785218551
 10
2.175865213012321
 20
-1.808810616598336
 10
2.171603260872858
 20
-1.809210526315477
  0
LINE
  5
C8
330
8C
100
AcDbEntity
  8
AM_9
100
AcDbLine
 10
3.043478260869565
 20
-1.801027960056938
 30
0.0
 11
2.312056540755214
 21
-1.801302039470838
 31
0.0
  0
LINE
  5
C9
330
8C
100
AcDbEntity
  8
AM_9
100
AcDbLine
 10
3.043478260869565
 20
-0.1718749999999998
 30
0.0
 11
3.043478260869565
 21
-1.801027960056938
 31
0.0
  0
LINE
  5
CA
330
8C
100
AcDbEntity
  8
AM_9
100
AcDbLine
 10
2.343478260869565
 20
-0.1718749999999999
 30
0.0
 11
3.043478260869565
 21
-0.1718749999999998
 31
0.0
  0
LWPOLYLINE
  5
CB
330
8C
100
AcDbEntity
  8
AM_9
100
AcDbPolyline
 90
        3
 70
     0
 43
0.0
 10
2.312193767136781
 20
-0.1690038345034909
 10
2.32466794624588
 20
-0.1708425816029421
 10
2.343478260869565
 20
-0.1718749999999999
  0
LWPOLYLINE
  5
CC
330
8C
100
AcDbEntity
  8
AM_9
100
AcDbPolyline
 90
        5
 70
     0
 43
0.0
 10
2.174231381130439
 20
-0.0299417655386197
 10
2.188691718062151
 20
-0.0747137322767935
 10
2.222000998471481
 20
-0.1215906671799563
 10
2.26911586694583
 20
-0.1549556387968221
 10
2.312193767136781
 20
-0.1690038345034909
  0
LWPOLYLINE
  5
CD
330
8C
100
AcDbEntity
  8
AM_9
100
AcDbPolyline
 90
        3
 70
     0
 43
0.0
 10
2.17422374929551
 20
0.0298985942283986
 10
2.172716286563275
 20
-0.0195285369656244
 10
2.174231381130439
 20
-0.0299417655386197
  0
LWPOLYLINE
  5
CE
330
8C
100
AcDbEntity
  8
AM_9
100
AcDbPolyline
 90
        6
 70
     0
 43
0.0
 10
2.312056540755214
 20
0.1689783747408389
 10
2.286732269505491
 20
0.1622371969959676
 10
2.236385850103606
 20
0.1344329988556947
 10
2.197951997532491
 20
0.0914501082784952
 10
2.175865213012321
 20
0.0380378996923473
 10
2.17422374929551
 20
0.0298985942283986
  0
LINE
  5
CF
330
8C
100
AcDbEntity
  8
AM_9
100
AcDbLine
 10
2.343478260869565
 20
0.1718750000000001
 30
0.0
 11
2.312056540755214
 21
0.1689783747408389
 31
0.0
  0
LINE
  5
D0
330
8C
100
AcDbEntity
  8
AM_9
100
AcDbLine
 10
3.043478260869565
 20
0.1718750000000002
 30
0.0
 11
2.343478260869565
 21
0.1718750000000001
 31
0.0
  0
LINE
  5
D1
330
8C
100
AcDbEntity
  8
AM_9
100
AcDbLine
 10
3.043478260869565
 20
1.801027960056938
 30
0.0
 11
3.043478260869565
 21
0.1718750000000002
 31
0.0
  0
LINE
  5
D2
330
8C
100
AcDbEntity
  8
AM_9
100
AcDbLine
 10
2.312193767136781
 20
1.801299650934006
 30
0.0
 11
3.043478260869565
 21
1.801027960056938
 31
0.0
  0
LINE
  5
D3
330
8C
100
AcDbEntity
  8
AM_9
100
AcDbLine
 10
-3.043478260869565
 20
-0.1718750000000002
 30
0.0
 11
-2.343478260869565
 21
-0.1718750000000001
 31
0.0
  0
LINE
  5
D4
330
8C
100
AcDbEntity
  8
AM_9
100
AcDbLine
 10
-3.043478260869565
 20
-0.1718750000000002
 30
0.0
 11
-3.043478260869565
 21
-1.801027960056938
 31
0.0
  0
LINE
  5
D5
330
8C
100
AcDbEntity
  8
AM_9
100
AcDbLine
 10
-2.31219376713678
 20
-1.801299650934006
 30
0.0
 11
-3.043478260869565
 21
-1.801027960056938
 31
0.0
  0
LWPOLYLINE
  5
D6
330
8C
100
AcDbEntity
  8
AM_9
100
AcDbPolyline
 90
        6
 70
     0
 43
0.0
 10
-2.312056540755213
 20
1.801302039470838
 10
-2.286732269505491
 20
1.801921702084402
 10
-2.236385850103606
 20
1.804209105771978
 10
-2.197951997532491
 20
1.806897785218551
 10
-2.175865213012321
 20
1.808810616598336
 10
-2.171603260872858
 20
1.809210526315477
  0
LINE
  5
D7
330
8C
100
AcDbEntity
  8
AM_9
100
AcDbLine
 10
-3.043478260869565
 20
1.801027960056938
 30
0.0
 11
-2.312056540755213
 21
1.801302039470838
 31
0.0
  0
LINE
  5
D8
330
8C
100
AcDbEntity
  8
AM_9
100
AcDbLine
 10
-3.043478260869565
 20
1.801027960056938
 30
0.0
 11
-3.043478260869565
 21
0.1718749999999998
 31
0.0
  0
LINE
  5
D9
330
8C
100
AcDbEntity
  8
AM_9
100
AcDbLine
 10
-2.343478260869565
 20
0.1718749999999999
 30
0.0
 11
-3.043478260869565
 21
0.1718749999999998
 31
0.0
  0
LWPOLYLINE
  5
DA
330
8C
100
AcDbEntity
  8
AM_9
100
AcDbPolyline
 90
        3
 70
     0
 43
0.0
 10
-2.31219376713678
 20
0.1690038345034909
 10
-2.32466794624588
 20
0.1708425816029421
 10
-2.343478260869565
 20
0.1718749999999999
  0
LWPOLYLINE
  5
DB
330
8C
100
AcDbEntity
  8
AM_9
100
AcDbPolyline
 90
        5
 70
     0
 43
0.0
 10
-2.174231381130439
 20
0.02994176553862
 10
-2.188691718062151
 20
0.0747137322767935
 10
-2.222000998471481
 20
0.1215906671799563
 10
-2.26911586694583
 20
0.1549556387968221
 10
-2.31219376713678
 20
0.1690038345034909
  0
LWPOLYLINE
  5
DC
330
8C
100
AcDbEntity
  8
AM_9
100
AcDbPolyline
 90
        3
 70
     0
 43
0.0
 10
-2.17422374929551
 20
-0.0298985942283986
 10
-2.172716286563275
 20
0.0195285369656244
 10
-2.174231381130439
 20
0.02994176553862
  0
LWPOLYLINE
  5
DD
330
8C
100
AcDbEntity
  8
AM_9
100
AcDbPolyline
 90
        6
 70
     0
 43
0.0
 10
-2.312056540755213
 20
-0.1689783747408389
 10
-2.286732269505491
 20
-0.1622371969959676
 10
-2.236385850103606
 20
-0.1344329988556947
 10
-2.197951997532491
 20
-0.0914501082784952
 10
-2.175865213012321
 20
-0.0380378996923473
 10
-2.17422374929551
 20
-0.0298985942283986
  0
LINE
  5
DE
330
8C
100
AcDbEntity
  8
AM_9
100
AcDbLine
 10
-2.343478260869565
 20
-0.1718750000000001
 30
0.0
 11
-2.312056540755213
 21
-0.1689783747408389
 31
0.0
  0
LINE
  5
DF
330
8C
100
AcDbEntity
  8
AM_9
100
AcDbLine
 10
2.173784454452892
 20
1.80921052631579
 30
0.0
 11
-2.173784454452892
 21
1.80921052631579
 31
0.0
  0
LINE
  5
E0
330
8C
100
AcDbEntity
  8
AM_9
100
AcDbLine
 10
-2.173784454452892
 20
-1.80921052631579
 30
0.0
 11
2.173784454452892
 21
-1.80921052631579
 31
0.0
  0
LWPOLYLINE
  5
E1
330
8C
100
AcDbEntity
  8
AM_9
100
AcDbPolyline
 90
        6
 70
     0
 43
0.0
 10
2.171603260872858
 20
1.809210526315477
 10
2.172716286563274
 20
1.80910512817134
 10
2.188691718062151
 20
1.80766716702526
 10
2.222000998471481
 20
1.805120061986623
 10
2.26911586694583
 20
1.802562475626552
 10
2.312193767136781
 20
1.801299650934006
  0
LWPOLYLINE
  5
E2
330
8C
100
AcDbEntity
  8
AM_9
100
AcDbPolyline
 90
        6
 70
     0
 43
0.0
 10
-2.171603260872858
 20
-1.809210526315477
 10
-2.172716286563275
 20
-1.80910512817134
 10
-2.188691718062151
 20
-1.80766716702526
 10
-2.222000998471481
 20
-1.805120061986623
 10
-2.26911586694583
 20
-1.802562475626552
 10
-2.31219376713678
 20
-1.801299650934006
  0
ENDBLK
  5
8F
330
8C
100
AcDbEntity
  8
0
100
AcDbBlockEnd
  0
BLOCK
  5
E5
330
E3
100
AcDbEntity
  8
0
100
AcDbBlockBegin
  2
3_065297ii_0_in_087193_2
 70
     2
 10
0.0
 20
0.0
 30
0.0
  3
3_065297ii_0_in_087193_2
  1

  0
ATTDEF
  5
E7
330
E3
100
AcDbEntity
  8
AM_6
100
AcDbText
 10
8.850000000000017
 20
2.9984375
 30
0.0
 40
0.5
  1
Type C Pillow Block - Inch - Body - Insert
100
AcDbAttributeDefinition
  3

  2
NN
 70
     8
280
     0
  0
ATTDEF
  5
E8
330
E3
100
AcDbEntity
  8
AM_6
100
AcDbText
 10
8.850000000000017
 20
2.4984375
 30
0.0
 40
0.5
  1
Type C Bearings
100
AcDbAttributeDefinition
  3

  2
NT
 70
     8
280
     0
  0
ATTDEF
  5
E9
330
E3
100
AcDbEntity
  8
AM_6
100
AcDbText
 10
8.850000000000017
 20
1.9984375
 30
0.0
 40
0.5
  1
065297ii
100
AcDbAttributeDefinition
  3

  2
NB
 70
     8
280
     0
  0
ATTDEF
  5
EA
330
E3
100
AcDbEntity
  8
AM_6
100
AcDbText
 10
8.850000000000017
 20
1.4984375
 30
0.0
 40
0.5
  1
$PN1.
100
AcDbAttributeDefinition
  3

  2
NBSYN
 70
     8
280
     0
  0
ATTDEF
  5
EB
330
E3
100
AcDbEntity
  8
AM_6
100
AcDbText
 10
8.850000000000017
 20
0.9984374999999996
 30
0.0
 40
0.5
  1
065297ii
100
AcDbAttributeDefinition
  3

  2
LINA
 70
     8
280
     0
  0
ATTDEF
  5
EC
330
E3
100
AcDbEntity
  8
AM_6
100
AcDbText
 10
8.850000000000017
 20
0.4984374999999996
 30
0.0
 40
0.5
  1
3.43750
100
AcDbAttributeDefinition
  3

  2
SS1
 70
     8
280
     0
  0
ATTDEF
  5
ED
330
E3
100
AcDbEntity
  8
AM_6
100
AcDbText
 10
8.850000000000017
 20
-0.0015625000000004
 30
0.0
 40
0.5
  1
065297ii
100
AcDbAttributeDefinition
  3

  2
PN1
 70
     8
280
     0
  0
ATTDEF
  5
EE
330
E3
100
AcDbEntity
  8
AM_6
100
AcDbText
 10
8.850000000000017
 20
-0.5015625000000004
 30
0.0
 40
0.5
  1
P2B-C-307
100
AcDbAttributeDefinition
  3

  2
DESCRIPTION1
 70
     8
280
     0
  0
ATTDEF
  5
EF
330
E3
100
AcDbEntity
  8
AM_6
100
AcDbText
 10
8.850000000000017
 20
-1.0015625
 30
0.0
 40
0.5
  1
132
100
AcDbAttributeDefinition
  3

  2
WEIGHT1
 70
     8
280
     0
  0
ATTDEF
  5
F0
330
E3
100
AcDbEntity
  8
AM_6
100
AcDbText
 10
8.850000000000017
 20
-1.5015625
 30
0.0
 40
0.5
  1
7
100
AcDbAttributeDefinition
  3

  2
A
 70
     8
280
     0
  0
ATTDEF
  5
F1
330
E3
100
AcDbEntity
  8
AM_6
100
AcDbText
 10
8.850000000000017
 20
-2.0015625
 30
0.0
 40
0.5
  1
7.00000
100
AcDbAttributeDefinition
  3

  2
A1
 70
     8
280
     0
  0
ATTDEF
  5
F2
330
E3
100
AcDbEntity
  8
AM_6
100
AcDbText
 10
8.850000000000017
 20
-2.5015625
 30
0.0
 40
0.5
  1
16-3/4
100
AcDbAttributeDefinition
  3

  2
B
 70
     8
280
     0
  0
ATTDEF
  5
F3
330
E3
100
AcDbEntity
  8
AM_6
100
AcDbText
 10
8.850000000000017
 20
-3.0015625
 30
0.0
 40
0.5
  1
16.75000
100
AcDbAttributeDefinition
  3

  2
B1
 70
     8
280
     0
  0
ATTDEF
  5
F4
330
E3
100
AcDbEntity
  8
AM_6
100
AcDbText
 10
8.850000000000017
 20
-3.5015625
 30
0.0
 40
0.5
  1
5-1/2
100
AcDbAttributeDefinition
  3

  2
C
 70
     8
280
     0
  0
ATTDEF
  5
F5
330
E3
100
AcDbEntity
  8
AM_6
100
AcDbText
 10
8.850000000000017
 20
-4.0015625
 30
0.0
 40
0.5
  1
5.50000
100
AcDbAttributeDefinition
  3

  2
C1
 70
     8
280
     0
  0
ATTDEF
  5
F6
330
E3
100
AcDbEntity
  8
AM_6
100
AcDbText
 10
8.850000000000017
 20
-4.5015625
 30
0.0
 40
0.5
  1
13-1/4
100
AcDbAttributeDefinition
  3

  2
DMIN
 70
     8
280
     0
  0
ATTDEF
  5
F7
330
E3
100
AcDbEntity
  8
AM_6
100
AcDbText
 10
8.850000000000017
 20
-5.0015625
 30
0.0
 40
0.5
  1
13.25000
100
AcDbAttributeDefinition
  3

  2
DMIN1
 70
     8
280
     0
  0
ATTDEF
  5
F8
330
E3
100
AcDbEntity
  8
AM_6
100
AcDbText
 10
8.850000000000017
 20
-5.5015625
 30
0.0
 40
0.5
  1
14-1/4
100
AcDbAttributeDefinition
  3

  2
DMAX
 70
     8
280
     0
  0
ATTDEF
  5
F9
330
E3
100
AcDbEntity
  8
AM_6
100
AcDbText
 10
8.850000000000017
 20
-6.0015625
 30
0.0
 40
0.5
  1
14.25000
100
AcDbAttributeDefinition
  3

  2
DMAX1
 70
     8
280
     0
  0
ATTDEF
  5
FA
330
E3
100
AcDbEntity
  8
AM_6
100
AcDbText
 10
8.850000000000017
 20
-6.5015625
 30
0.0
 40
0.5
  1
7/8
100
AcDbAttributeDefinition
  3

  2
F
 70
     8
280
     0
  0
ATTDEF
  5
FB
330
E3
100
AcDbEntity
  8
AM_6
100
AcDbText
 10
8.850000000000017
 20
-7.0015625
 30
0.0
 40
0.5
  1
0.87500
100
AcDbAttributeDefinition
  3

  2
F1
 70
     8
280
     0
  0
ATTDEF
  5
FC
330
E3
100
AcDbEntity
  8
AM_6
100
AcDbText
 10
8.850000000000017
 20
-7.5015625
 30
0.0
 40
0.5
  1
1-1/2
100
AcDbAttributeDefinition
  3

  2
G
 70
     8
280
     0
  0
ATTDEF
  5
FD
330
E3
100
AcDbEntity
  8
AM_6
100
AcDbText
 10
8.850000000000017
 20
-8.0015625
 30
0.0
 40
0.5
  1
1.50000
100
AcDbAttributeDefinition
  3

  2
G1
 70
     8
280
     0
  0
ATTDEF
  5
FE
330
E3
100
AcDbEntity
  8
AM_6
100
AcDbText
 10
8.850000000000017
 20
-8.5015625
 30
0.0
 40
0.5
  1
4
100
AcDbAttributeDefinition
  3

  2
H
 70
     8
280
     0
  0
ATTDEF
  5
FF
330
E3
100
AcDbEntity
  8
AM_6
100
AcDbText
 10
8.850000000000017
 20
-9.0015625
 30
0.0
 40
0.5
  1
4.00000
100
AcDbAttributeDefinition
  3

  2
H1
 70
     8
280
     0
  0
ATTDEF
  5
100
330
E3
100
AcDbEntity
  8
AM_6
100
AcDbText
 10
8.850000000000017
 20
-9.5015625
 30
0.0
 40
0.5
  1
11-3/8
100
AcDbAttributeDefinition
  3

  2
J
 70
     8
280
     0
  0
ATTDEF
  5
101
330
E3
100
AcDbEntity
  8
AM_6
100
AcDbText
 10
8.850000000000017
 20
-10.0015625
 30
0.0
 40
0.5
  1
11.37500
100
AcDbAttributeDefinition
  3

  2
J1
 70
     8
280
     0
  0
ATTDEF
  5
102
330
E3
100
AcDbEntity
  8
AM_6
100
AcDbText
 10
8.850000000000017
 20
-10.5015625
 30
0.0
 40
0.5
  1
5-15/16
100
AcDbAttributeDefinition
  3

  2
L
 70
     8
280
     0
  0
ATTDEF
  5
103
330
E3
100
AcDbEntity
  8
AM_6
100
AcDbText
 10
8.850000000000017
 20
-11.0015625
 30
0.0
 40
0.5
  1
5.93750
100
AcDbAttributeDefinition
  3

  2
L1
 70
     8
280
     0
  0
ATTDEF
  5
104
330
E3
100
AcDbEntity
  8
AM_6
100
AcDbText
 10
8.850000000000017
 20
-11.5015625
 30
0.0
 40
0.5
  1
5-1/2
100
AcDbAttributeDefinition
  3

  2
M
 70
     8
280
     0
  0
ATTDEF
  5
105
330
E3
100
AcDbEntity
  8
AM_6
100
AcDbText
 10
8.850000000000017
 20
-12.0015625
 30
0.0
 40
0.5
  1
5.50000
100
AcDbAttributeDefinition
  3

  2
M1
 70
     8
280
     0
  0
ATTDEF
  5
106
330
E3
100
AcDbEntity
  8
AM_6
100
AcDbText
 10
8.850000000000017
 20
-12.5015625
 30
0.0
 40
0.5
  1
11-5/8
100
AcDbAttributeDefinition
  3

  2
P
 70
     8
280
     0
  0
ATTDEF
  5
107
330
E3
100
AcDbEntity
  8
AM_6
100
AcDbText
 10
8.850000000000017
 20
-13.0015625
 30
0.0
 40
0.5
  1
11.62500
100
AcDbAttributeDefinition
  3

  2
P1
 70
     8
280
     0
  0
ATTDEF
  5
108
330
E3
100
AcDbEntity
  8
AM_6
100
AcDbText
 10
8.850000000000017
 20
-13.5015625
 30
0.0
 40
0.5
  1
3/4
100
AcDbAttributeDefinition
  3

  2
EXP
 70
     8
280
     0
  0
ATTDEF
  5
109
330
E3
100
AcDbEntity
  8
AM_6
100
AcDbText
 10
8.850000000000017
 20
-14.0015625
 30
0.0
 40
0.5
  1
baldor
100
AcDbAttributeDefinition
  3

  2
COMPANY
 70
     8
280
     0
  0
LINE
  5
10A
330
E3
100
AcDbEntity
  8
AM_9
100
AcDbLine
 10
3.381250000000001
 20
1.838898026315789
 30
0.0
 11
-3.381250000000001
 21
1.838898026315789
 31
0.0
  0
LINE
  5
10B
330
E3
100
AcDbEntity
  8
AM_9
100
AcDbLine
 10
-3.381250000000001
 20
-1.838898026315789
 30
0.0
 11
3.381250000000001
 21
-1.838898026315789
 31
0.0
  0
LINE
  5
10C
330
E3
100
AcDbEntity
  8
AM_9
100
AcDbLine
 10
3.381249999999998
 20
0.0296875
 30
0.0
 11
3.381250000000001
 21
1.838898026315789
 31
0.0
  0
ARC
  5
10D
330
E3
100
AcDbEntity
  8
AM_9
100
AcDbCircle
 10
3.381249999999999
 20
1.95764802631579
 30
0.0
 40
0.1187500000000004
100
AcDbArc
 50
270.0
 51
0.0
  0
ARC
  5
10E
330
E3
100
AcDbEntity
  8
AM_9
100
AcDbCircle
 10
3.381249999999999
 20
-1.95764802631579
 30
0.0
 40
0.1187500000000004
100
AcDbArc
 50
0.0
 51
90.0
  0
LINE
  5
10F
330
E3
100
AcDbEntity
  8
AM_9
100
AcDbLine
 10
3.381250000000001
 20
-1.838898026315789
 30
0.0
 11
3.381249999999998
 21
-0.0296875
 31
0.0
  0
ARC
  5
110
330
E3
100
AcDbEntity
  8
AM_9
100
AcDbCircle
 10
-3.38125
 20
-1.957648026315789
 30
0.0
 40
0.1187499999999995
100
AcDbArc
 50
90.0
 51
180.0
  0
LINE
  5
111
330
E3
100
AcDbEntity
  8
AM_9
100
AcDbLine
 10
-3.381250000000001
 20
-1.838898026315789
 30
0.0
 11
-3.381249999999999
 21
-0.0296875
 31
0.0
  0
LINE
  5
112
330
E3
100
AcDbEntity
  8
AM_9
100
AcDbLine
 10
-3.381249999999999
 20
0.0296875
 30
0.0
 11
-3.381250000000001
 21
1.838898026315789
 31
0.0
  0
ARC
  5
113
330
E3
100
AcDbEntity
  8
AM_9
100
AcDbCircle
 10
-3.381250000000001
 20
1.957648026315788
 30
0.0
 40
0.1187499999999986
100
AcDbArc
 50
180.0
 51
270.0
  0
LINE
  5
114
330
E3
100
AcDbEntity
  8
AM_9
100
AcDbLine
 10
-2.914267240777113
 20
1.575086805555556
 30
0.0
 11
-2.914267240777113
 21
1.649305555555556
 31
0.0
  0
LINE
  5
115
330
E3
100
AcDbEntity
  8
AM_9
100
AcDbLine
 10
-2.685732759222887
 20
1.575086805555556
 30
0.0
 11
-2.685732759222887
 21
1.649305555555556
 31
0.0
  0
LINE
  5
116
330
E3
100
AcDbEntity
  8
AM_9
100
AcDbLine
 10
-2.857133620388556
 20
1.575086805555556
 30
0.0
 11
-2.857133620388556
 21
1.649305555555556
 31
0.0
  0
LINE
  5
117
330
E3
100
AcDbEntity
  8
AM_9
100
AcDbLine
 10
-2.742866379611443
 20
1.575086805555556
 30
0.0
 11
-2.742866379611443
 21
1.649305555555556
 31
0.0
  0
LINE
  5
118
330
E3
100
AcDbEntity
  8
AM_9
100
AcDbLine
 10
-2.914267240777113
 20
1.575086805555556
 30
0.0
 11
-2.685732759222887
 21
1.575086805555556
 31
0.0
  0
LINE
  5
119
330
E3
100
AcDbEntity
  8
AM_9
100
AcDbLine
 10
-2.602083333333333
 20
-0.0296875
 30
0.0
 11
-2.602083333333333
 21
0.0296875
 31
0.0
  0
LINE
  5
11A
330
E3
100
AcDbEntity
  8
AM_9
100
AcDbLine
 10
-2.972972972972972
 20
1.649305555555556
 30
0.0
 11
-2.602083333333333
 21
1.649305555555556
 31
0.0
  0
LINE
  5
11B
330
E3
100
AcDbEntity
  8
AM_9
100
AcDbLine
 10
-2.602083333333333
 20
1.484375
 30
0.0
 11
-2.602083333333333
 21
1.649305555555556
 31
0.0
  0
LINE
  5
11C
330
E3
100
AcDbEntity
  8
AM_9
100
AcDbLine
 10
-2.972972972972972
 20
-0.0296875
 30
0.0
 11
2.972972972972972
 21
-0.0296875
 31
0.0
  0
LINE
  5
11D
330
E3
100
AcDbEntity
  8
AM_9
100
AcDbLine
 10
-2.97297297297297
 20
-2.9984375
 30
0.0
 11
2.97297297297297
 21
-2.9984375
 31
0.0
  0
LINE
  5
11E
330
E3
100
AcDbEntity
  8
AM_9
100
AcDbLine
 10
-2.972972972972972
 20
0.0296875
 30
0.0
 11
2.972972972972972
 21
0.0296875
 31
0.0
  0
LWPOLYLINE
  5
11F
330
E3
100
AcDbEntity
  8
AM_9
100
AcDbPolyline
 90
       11
 70
     0
 43
0.0
 10
-2.749959272841119
 20
2.538963375942366
 10
-2.698195369650435
 20
2.532504723159526
 10
-2.645764438027613
 20
2.520969083413123
 10
-2.596147411684114
 20
2.504405586357688
 10
-2.551653631367718
 20
2.483553863456775
 10
-2.509541660135327
 20
2.456291303659252
 10
-2.474679155238481
 20
2.425127082747005
 10
-2.44347858751548
 20
2.384972917191924
 10
-2.421678233153187
 20
2.341331997715563
 10
-2.408443707639012
 20
2.292983307920779
 10
-2.404166666666667
 20
2.242463102734167
  0
LWPOLYLINE
  5
120
330
E3
100
AcDbEntity
  8
AM_9
100
AcDbPolyline
 90
        6
 70
     0
 43
0.0
 10
-2.973747757163769
 20
2.515187549657387
 10
-2.937124774448406
 20
2.525307816455055
 10
-2.872730404451696
 20
2.536706890083031
 10
-2.813259358379863
 20
2.540804785886637
 10
-2.753372330868953
 20
2.539228815589842
 10
-2.749959272841119
 20
2.538963375942366
  0
LINE
  5
121
330
E3
100
AcDbEntity
  8
AM_9
100
AcDbLine
 10
-2.404166666666667
 20
2.242463102734167
 30
0.0
 11
-2.404166666666666
 21
1.484375
 31
0.0
  0
LINE
  5
122
330
E3
100
AcDbEntity
  8
AM_9
100
AcDbLine
 10
-2.404166666666666
 20
1.484375
 30
0.0
 11
-2.97297297297297
 21
1.484375
 31
0.0
  0
LINE
  5
123
330
E3
100
AcDbEntity
  8
AM_9
100
AcDbLine
 10
2.97297297297297
 20
2.9984375
 30
0.0
 11
-2.97297297297297
 21
2.9984375
 31
0.0
  0
LINE
  5
126
330
E3
100
AcDbEntity
  8
AM_7
100
AcDbLine
 10
3.850000000000017
 20
0.0296875
 30
0.0
 11
-3.849999999999982
 21
0.0296875
 31
0.0
  0
LINE
  5
127
330
E3
100
AcDbEntity
  8
AM_7
100
AcDbLine
 10
-2.8
 20
1.814236111111111
 30
0.0
 11
-2.8
 21
-1.814236111111111
 31
0.0
  0
LINE
  5
128
330
E3
100
AcDbEntity
  8
AM_7
100
AcDbLine
 10
3.850000000000017
 20
-0.0296875
 30
0.0
 11
-3.849999999999982
 21
-0.0296875
 31
0.0
  0
LINE
  5
12A
330
E3
100
AcDbEntity
  8
AM_4
100
AcDbLine
 10
-2.997916666666666
 20
0.0296875
 30
0.0
 11
-2.997916666666666
 21
-0.0296875
 31
0.0
  0
LINE
  5
12B
330
E3
100
AcDbEntity
  8
AM_4
100
AcDbLine
 10
-2.997916666666666
 20
1.649305555555556
 30
0.0
 11
-2.972972972972972
 21
1.649305555555556
 31
0.0
  0
LINE
  5
12C
330
E3
100
AcDbEntity
  8
AM_4
100
AcDbLine
 10
-2.997916666666666
 20
1.649305555555556
 30
0.0
 11
-2.997916666666666
 21
1.484375
 31
0.0
  0
LINE
  5
12D
330
E3
100
AcDbEntity
  8
AM_4
100
AcDbLine
 10
2.972972972972972
 20
-0.0296875
 30
0.0
 11
3.5
 21
-0.0296875
 31
0.0
  0
LINE
  5
12E
330
E3
100
AcDbEntity
  8
AM_4
100
AcDbLine
 10
3.499999999999999
 20
-2.850000000000001
 30
0.0
 11
3.5
 21
-0.0296875
 31
0.0
  0
ARC
  5
12F
330
E3
100
AcDbEntity
  8
AM_4
100
AcDbCircle
 10
3.351562500000003
 20
-2.850000000000003
 30
0.0
 40
0.1484374999999964
100
AcDbArc
 50
270.0
 51
0.0
  0
LINE
  5
130
330
E3
100
AcDbEntity
  8
AM_4
100
AcDbLine
 10
-3.5
 20
-0.0296875
 30
0.0
 11
-2.972972972972972
 21
-0.0296875
 31
0.0
  0
LINE
  5
131
330
E3
100
AcDbEntity
  8
AM_4
100
AcDbLine
 10
2.97297297297297
 20
-2.9984375
 30
0.0
 11
3.351562500000002
 21
-2.9984375
 31
0.0
  0
LINE
  5
132
330
E3
100
AcDbEntity
  8
AM_4
100
AcDbLine
 10
-3.351562500000002
 20
-2.9984375
 30
0.0
 11
-2.97297297297297
 21
-2.9984375
 31
0.0
  0
LINE
  5
133
330
E3
100
AcDbEntity
  8
AM_4
100
AcDbLine
 10
3.351562500000002
 20
-2.9984375
 30
0.0
 11
3.3515625
 21
-0.0296875
 31
0.0
  0
LINE
  5
134
330
E3
100
AcDbEntity
  8
AM_4
100
AcDbLine
 10
2.972972972972972
 20
0.0296875
 30
0.0
 11
3.5
 21
0.0296875
 31
0.0
  0
LINE
  5
135
330
E3
100
AcDbEntity
  8
AM_4
100
AcDbLine
 10
3.5
 20
0.0296875
 30
0.0
 11
3.499999999999999
 21
2.850000000000001
 31
0.0
  0
ARC
  5
136
330
E3
100
AcDbEntity
  8
AM_4
100
AcDbCircle
 10
3.351562500000003
 20
2.850000000000003
 30
0.0
 40
0.148437499999996
100
AcDbArc
 50
0.0
 51
90.0
  0
LINE
  5
137
330
E3
100
AcDbEntity
  8
AM_4
100
AcDbLine
 10
-3.5
 20
0.0296875
 30
0.0
 11
-2.972972972972972
 21
0.0296875
 31
0.0
  0
LINE
  5
138
330
E3
100
AcDbEntity
  8
AM_4
100
AcDbLine
 10
3.3515625
 20
0.0296875
 30
0.0
 11
3.351562500000002
 21
2.9984375
 31
0.0
  0
LWPOLYLINE
  5
139
330
E3
100
AcDbEntity
  8
AM_4
100
AcDbPolyline
 90
        8
 70
     0
 43
0.0
 10
-3.195833333333329
 20
2.242463102734166
 10
-3.188471514013913
 20
2.308021269980158
 10
-3.165518690024764
 20
2.369484792564013
 10
-3.134865555239328
 20
2.414435935174492
 10
-3.092804906347677
 20
2.454513395386165
 10
-3.048449575132679
 20
2.483461692475072
 10
-2.996412983402148
 20
2.507309845584575
 10
-2.973747757163769
 20
2.515187549657387
  0
LINE
  5
13A
330
E3
100
AcDbEntity
  8
AM_4
100
AcDbLine
 10
-2.97297297297297
 20
1.484375
 30
0.0
 11
-3.195833333333337
 21
1.484375
 31
0.0
  0
LINE
  5
13B
330
E3
100
AcDbEntity
  8
AM_4
100
AcDbLine
 10
-3.195833333333337
 20
1.484375
 30
0.0
 11
-3.195833333333329
 21
2.242463102734166
 31
0.0
  0
LINE
  5
13C
330
E3
100
AcDbEntity
  8
AM_4
100
AcDbLine
 10
-2.97297297297297
 20
2.9984375
 30
0.0
 11
-3.351562500000002
 21
2.9984375
 31
0.0
  0
LINE
  5
13D
330
E3
100
AcDbEntity
  8
AM_4
100
AcDbLine
 10
3.351562500000002
 20
2.9984375
 30
0.0
 11
2.97297297297297
 21
2.9984375
 31
0.0
  0
LINE
  5
13E
330
E3
100
AcDbEntity
  8
AM_4
100
AcDbLine
 10
-3.499999999999999
 20
-2.85
 30
0.0
 11
-3.5
 21
-0.0296875
 31
0.0
  0
ARC
  5
13F
330
E3
100
AcDbEntity
  8
AM_4
100
AcDbCircle
 10
-3.351562500000002
 20
-2.850000000000003
 30
0.0
 40
0.1484374999999969
100
AcDbArc
 50
180.0
 51
270.0
  0
LINE
  5
140
330
E3
100
AcDbEntity
  8
AM_4
100
AcDbLine
 10
-3.351562500000002
 20
-2.9984375
 30
0.0
 11
-3.351562500000001
 21
-0.0296875
 31
0.0
  0
LINE
  5
141
330
E3
100
AcDbEntity
  8
AM_4
100
AcDbLine
 10
-3.351562500000001
 20
0.0296875
 30
0.0
 11
-3.351562500000002
 21
2.9984375
 31
0.0
  0
LINE
  5
142
330
E3
100
AcDbEntity
  8
AM_4
100
AcDbLine
 10
-3.5
 20
0.0296875
 30
0.0
 11
-3.499999999999999
 21
2.85
 31
0.0
  0
ARC
  5
143
330
E3
100
AcDbEntity
  8
AM_4
100
AcDbCircle
 10
-3.351562500000002
 20
2.850000000000003
 30
0.0
 40
0.1484374999999969
100
AcDbArc
 50
90.0
 51
180.0
  0
ENDBLK
  5
E6
330
E3
100
AcDbEntity
  8
0
100
AcDbBlockEnd
  0
BLOCK
  5
146
330
144
100
AcDbEntity
  8
0
100
AcDbBlockBegin
  2
4_087193p_0_in_087193_2
 70
     2
 10
0.0
 20
0.0
 30
0.0
  3
4_087193p_0_in_087193_2
  1

  0
ATTDEF
  5
148
330
144
100
AcDbEntity
  8
AM_6
100
AcDbText
 10
8.36111111111111
 20
5.98875
 30
0.0
 40
0.5
  1
Type C Pillow Block - Inch - Body - 4 Bolt
100
AcDbAttributeDefinition
  3

  2
NN
 70
     8
280
     0
  0
ATTDEF
  5
149
330
144
100
AcDbEntity
  8
AM_6
100
AcDbText
 10
8.36111111111111
 20
5.48875
 30
0.0
 40
0.5
  1
Type C Bearings
100
AcDbAttributeDefinition
  3

  2
NT
 70
     8
280
     0
  0
ATTDEF
  5
14A
330
144
100
AcDbEntity
  8
AM_6
100
AcDbText
 10
8.36111111111111
 20
4.98875
 30
0.0
 40
0.5
  1
087193p
100
AcDbAttributeDefinition
  3

  2
NB
 70
     8
280
     0
  0
ATTDEF
  5
14B
330
144
100
AcDbEntity
  8
AM_6
100
AcDbText
 10
8.36111111111111
 20
4.48875
 30
0.0
 40
0.5
  1
$PN.
100
AcDbAttributeDefinition
  3

  2
NBSYN
 70
     8
280
     0
  0
ATTDEF
  5
14C
330
144
100
AcDbEntity
  8
AM_6
100
AcDbText
 10
8.36111111111111
 20
3.98875
 30
0.0
 40
0.5
  1
087193p
100
AcDbAttributeDefinition
  3

  2
LINA
 70
     8
280
     0
  0
ATTDEF
  5
14D
330
144
100
AcDbEntity
  8
AM_6
100
AcDbText
 10
8.36111111111111
 20
3.48875
 30
0.0
 40
0.5
  1
3-7/16
100
AcDbAttributeDefinition
  3

  2
SS
 70
     8
280
     0
  0
ATTDEF
  5
14E
330
144
100
AcDbEntity
  8
AM_6
100
AcDbText
 10
8.36111111111111
 20
2.98875
 30
0.0
 40
0.5
  1
3.43750
100
AcDbAttributeDefinition
  3

  2
SS1
 70
     8
280
     0
  0
ATTDEF
  5
14F
330
144
100
AcDbEntity
  8
AM_6
100
AcDbText
 10
8.36111111111111
 20
2.48875
 30
0.0
 40
0.5
  1
065303p
100
AcDbAttributeDefinition
  3

  2
PN1
 70
     8
280
     0
  0
ATTDEF
  5
150
330
144
100
AcDbEntity
  8
AM_6
100
AcDbText
 10
8.36111111111111
 20
1.98875
 30
0.0
 40
0.5
  1
087193p
100
AcDbAttributeDefinition
  3

  2
PN2
 70
     8
280
     0
  0
ATTDEF
  5
151
330
144
100
AcDbEntity
  8
AM_6
100
AcDbText
 10
8.36111111111111
 20
1.48875
 30
0.0
 40
0.5
  1
P4B-C-307
100
AcDbAttributeDefinition
  3

  2
DESCRIPTION1
 70
     8
280
     0
  0
ATTDEF
  5
152
330
144
100
AcDbEntity
  8
AM_6
100
AcDbText
 10
8.36111111111111
 20
0.9887499999999996
 30
0.0
 40
0.5
  1
P4B-C-307E
100
AcDbAttributeDefinition
  3

  2
DESCRIPTION2
 70
     8
280
     0
  0
ATTDEF
  5
153
330
144
100
AcDbEntity
  8
AM_6
100
AcDbText
 10
8.36111111111111
 20
0.4887499999999996
 30
0.0
 40
0.5
  1
130
100
AcDbAttributeDefinition
  3

  2
WEIGHT1
 70
     8
280
     0
  0
ATTDEF
  5
154
330
144
100
AcDbEntity
  8
AM_6
100
AcDbText
 10
8.36111111111111
 20
-0.0112500000000004
 30
0.0
 40
0.5
  1
135
100
AcDbAttributeDefinition
  3

  2
WEIGHT2
 70
     8
280
     0
  0
ATTDEF
  5
155
330
144
100
AcDbEntity
  8
AM_6
100
AcDbText
 10
8.36111111111111
 20
-0.5112500000000004
 30
0.0
 40
0.5
  1
7
100
AcDbAttributeDefinition
  3

  2
A
 70
     8
280
     0
  0
ATTDEF
  5
156
330
144
100
AcDbEntity
  8
AM_6
100
AcDbText
 10
8.36111111111111
 20
-1.01125
 30
0.0
 40
0.5
  1
7.00000
100
AcDbAttributeDefinition
  3

  2
A1
 70
     8
280
     0
  0
ATTDEF
  5
157
330
144
100
AcDbEntity
  8
AM_6
100
AcDbText
 10
8.36111111111111
 20
-1.51125
 30
0.0
 40
0.5
  1
16-3/4
100
AcDbAttributeDefinition
  3

  2
B
 70
     8
280
     0
  0
ATTDEF
  5
158
330
144
100
AcDbEntity
  8
AM_6
100
AcDbText
 10
8.36111111111111
 20
-2.01125
 30
0.0
 40
0.5
  1
16.75000
100
AcDbAttributeDefinition
  3

  2
B1
 70
     8
280
     0
  0
ATTDEF
  5
159
330
144
100
AcDbEntity
  8
AM_6
100
AcDbText
 10
8.36111111111111
 20
-2.51125
 30
0.0
 40
0.5
  1
5-1/2
100
AcDbAttributeDefinition
  3

  2
C
 70
     8
280
     0
  0
ATTDEF
  5
15A
330
144
100
AcDbEntity
  8
AM_6
100
AcDbText
 10
8.36111111111111
 20
-3.01125
 30
0.0
 40
0.5
  1
5.50000
100
AcDbAttributeDefinition
  3

  2
C1
 70
     8
280
     0
  0
ATTDEF
  5
15B
330
144
100
AcDbEntity
  8
AM_6
100
AcDbText
 10
8.36111111111111
 20
-3.51125
 30
0.0
 40
0.5
  1
12-7/8
100
AcDbAttributeDefinition
  3

  2
DMIN
 70
     8
280
     0
  0
ATTDEF
  5
15C
330
144
100
AcDbEntity
  8
AM_6
100
AcDbText
 10
8.36111111111111
 20
-4.01125
 30
0.0
 40
0.5
  1
12.87500
100
AcDbAttributeDefinition
  3

  2
DMIN1
 70
     8
280
     0
  0
ATTDEF
  5
15D
330
144
100
AcDbEntity
  8
AM_6
100
AcDbText
 10
8.36111111111111
 20
-4.51125
 30
0.0
 40
0.5
  1
14-5/8
100
AcDbAttributeDefinition
  3

  2
DMAX
 70
     8
280
     0
  0
ATTDEF
  5
15E
330
144
100
AcDbEntity
  8
AM_6
100
AcDbText
 10
8.36111111111111
 20
-5.01125
 30
0.0
 40
0.5
  1
14.62500
100
AcDbAttributeDefinition
  3

  2
DMAX1
 70
     8
280
     0
  0
ATTDEF
  5
15F
330
144
100
AcDbEntity
  8
AM_6
100
AcDbText
 10
8.36111111111111
 20
-5.51125
 30
0.0
 40
0.5
  1
3-1/4
100
AcDbAttributeDefinition
  3

  2
E
 70
     8
280
     0
  0
ATTDEF
  5
160
330
144
100
AcDbEntity
  8
AM_6
100
AcDbText
 10
8.36111111111111
 20
-6.01125
 30
0.0
 40
0.5
  1
3.25000
100
AcDbAttributeDefinition
  3

  2
E1
 70
     8
280
     0
  0
ATTDEF
  5
161
330
144
100
AcDbEntity
  8
AM_6
100
AcDbText
 10
8.36111111111111
 20
-6.51125
 30
0.0
 40
0.5
  1
3/4
100
AcDbAttributeDefinition
  3

  2
F
 70
     8
280
     0
  0
ATTDEF
  5
162
330
144
100
AcDbEntity
  8
AM_6
100
AcDbText
 10
8.36111111111111
 20
-7.01125
 30
0.0
 40
0.5
  1
0.75000
100
AcDbAttributeDefinition
  3

  2
F1
 70
     8
280
     0
  0
ATTDEF
  5
163
330
144
100
AcDbEntity
  8
AM_6
100
AcDbText
 10
8.36111111111111
 20
-7.51125
 30
0.0
 40
0.5
  1
1-1/2
100
AcDbAttributeDefinition
  3

  2
G
 70
     8
280
     0
  0
ATTDEF
  5
164
330
144
100
AcDbEntity
  8
AM_6
100
AcDbText
 10
8.36111111111111
 20
-8.01125
 30
0.0
 40
0.5
  1
1.50000
100
AcDbAttributeDefinition
  3

  2
G1
 70
     8
280
     0
  0
ATTDEF
  5
165
330
144
100
AcDbEntity
  8
AM_6
100
AcDbText
 10
8.36111111111111
 20
-8.51125
 30
0.0
 40
0.5
  1
4
100
AcDbAttributeDefinition
  3

  2
H
 70
     8
280
     0
  0
ATTDEF
  5
166
330
144
100
AcDbEntity
  8
AM_6
100
AcDbText
 10
8.36111111111111
 20
-9.01125
 30
0.0
 40
0.5
  1
4.00000
100
AcDbAttributeDefinition
  3

  2
H1
 70
     8
280
     0
  0
ATTDEF
  5
167
330
144
100
AcDbEntity
  8
AM_6
100
AcDbText
 10
8.36111111111111
 20
-9.51125
 30
0.0
 40
0.5
  1
11-3/8
100
AcDbAttributeDefinition
  3

  2
J
 70
     8
280
     0
  0
ATTDEF
  5
168
330
144
100
AcDbEntity
  8
AM_6
100
AcDbText
 10
8.36111111111111
 20
-10.01125
 30
0.0
 40
0.5
  1
11.37500
100
AcDbAttributeDefinition
  3

  2
J1
 70
     8
280
     0
  0
ATTDEF
  5
169
330
144
100
AcDbEntity
  8
AM_6
100
AcDbText
 10
8.36111111111111
 20
-10.51125
 30
0.0
 40
0.5
  1
5-15/16
100
AcDbAttributeDefinition
  3

  2
L
 70
     8
280
     0
  0
ATTDEF
  5
16A
330
144
100
AcDbEntity
  8
AM_6
100
AcDbText
 10
8.36111111111111
 20
-11.01125
 30
0.0
 40
0.5
  1
5.93750
100
AcDbAttributeDefinition
  3

  2
L1
 70
     8
280
     0
  0
ATTDEF
  5
16B
330
144
100
AcDbEntity
  8
AM_6
100
AcDbText
 10
8.36111111111111
 20
-11.51125
 30
0.0
 40
0.5
  1
5-1/2
100
AcDbAttributeDefinition
  3

  2
M
 70
     8
280
     0
  0
ATTDEF
  5
16C
330
144
100
AcDbEntity
  8
AM_6
100
AcDbText
 10
8.36111111111111
 20
-12.01125
 30
0.0
 40
0.5
  1
5.50000
100
AcDbAttributeDefinition
  3

  2
M1
 70
     8
280
     0
  0
ATTDEF
  5
16D
330
144
100
AcDbEntity
  8
AM_6
100
AcDbText
 10
8.36111111111111
 20
-12.51125
 30
0.0
 40
0.5
  1
11-5/8
100
AcDbAttributeDefinition
  3

  2
P
 70
     8
280
     0
  0
ATTDEF
  5
16E
330
144
100
AcDbEntity
  8
AM_6
100
AcDbText
 10
8.36111111111111
 20
-13.01125
 30
0.0
 40
0.5
  1
11.62500
100
AcDbAttributeDefinition
  3

  2
P1
 70
     8
280
     0
  0
ATTDEF
  5
16F
330
144
100
AcDbEntity
  8
AM_6
100
AcDbText
 10
8.36111111111111
 20
-13.51125
 30
0.0
 40
0.5
  1
3/4
100
AcDbAttributeDefinition
  3

  2
EXP
 70
     8
280
     0
  0
ATTDEF
  5
170
330
144
100
AcDbEntity
  8
AM_6
100
AcDbText
 10
8.36111111111111
 20
-14.01125
 30
0.0
 40
0.5
  1
Gray Iron Expansion
100
AcDbAttributeDefinition
  3

  2
TYPE
 70
     8
280
     0
  0
ATTDEF
  5
171
330
144
100
AcDbEntity
  8
AM_6
100
AcDbText
 10
8.36111111111111
 20
-14.51125
 30
0.0
 40
0.5
  1
baldor
100
AcDbAttributeDefinition
  3

  2
COMPANY
 70
     8
280
     0
  0
LINE
  5
172
330
144
100
AcDbEntity
  8
AM_9
100
AcDbLine
 10
-2.972972972972972
 20
-2.96875
 30
0.0
 11
2.972972972972973
 21
-2.96875
 31
0.0
  0
LINE
  5
173
330
144
100
AcDbEntity
  8
AM_9
100
AcDbLine
 10
2.972972972972973
 20
2.96875
 30
0.0
 11
-2.972972972972972
 21
2.96875
 31
0.0
  0
LINE
  5
174
330
144
100
AcDbEntity
  8
AM_9
100
AcDbLine
 10
1.937500000000001
 20
-1.5
 30
0.0
 11
1.937500000000001
 21
-5.5
 31
0.0
  0
LINE
  5
175
330
144
100
AcDbEntity
  8
AM_9
100
AcDbLine
 10
1.3125
 20
-1.5
 30
0.0
 11
1.3125
 21
-5.5
 31
0.0
  0
LINE
  5
176
330
144
100
AcDbEntity
  8
AM_9
100
AcDbLine
 10
-1.3125
 20
-1.5
 30
0.0
 11
-1.3125
 21
-5.5
 31
0.0
  0
LINE
  5
177
330
144
100
AcDbEntity
  8
AM_9
100
AcDbLine
 10
-1.9375
 20
-1.5
 30
0.0
 11
-1.9375
 21
-5.5
 31
0.0
  0
LINE
  5
178
330
144
100
AcDbEntity
  8
AM_7
100
AcDbLine
 10
-1.625
 20
3.756909722222223
 30
0.0
 11
-1.625
 21
3.131284722222222
 31
0.0
  0
LINE
  5
179
330
144
100
AcDbEntity
  8
AM_7
100
AcDbLine
 10
1.625
 20
3.756909722222223
 30
0.0
 11
1.625
 21
3.131284722222222
 31
0.0
  0
LINE
  5
17A
330
144
100
AcDbEntity
  8
AM_7
100
AcDbLine
 10
0.0
 20
5.98875
 30
0.0
 11
0.0
 21
3.48625
 31
0.0
  0
LINE
  5
17B
330
144
100
AcDbEntity
  8
AM_7
100
AcDbLine
 10
3.361111111111111
 20
0.0
 30
0.0
 11
-3.361111111111111
 21
0.0
 31
0.0
  0
LINE
  5
17C
330
144
100
AcDbEntity
  8
AM_4
100
AcDbLine
 10
1.1625
 20
5.875
 30
0.0
 11
-1.1625
 21
5.875
 31
0.0
  0
LINE
  5
17D
330
144
100
AcDbEntity
  8
AM_4
100
AcDbLine
 10
-1.1625
 20
5.875
 30
0.0
 11
-1.1625
 21
5.57375
 31
0.0
  0
LINE
  5
17E
330
144
100
AcDbEntity
  8
AM_4
100
AcDbLine
 10
1.1625
 20
5.57375
 30
0.0
 11
1.1625
 21
5.875
 31
0.0
  0
LINE
  5
17F
330
144
100
AcDbEntity
  8
AM_4
100
AcDbLine
 10
-1.1625
 20
5.34625
 30
0.0
 11
-1.1625
 21
5.118750000000002
 31
0.0
  0
LINE
  5
180
330
144
100
AcDbEntity
  8
AM_4
100
AcDbLine
 10
1.1625
 20
5.118750000000002
 30
0.0
 11
1.1625
 21
5.34625
 31
0.0
  0
LINE
  5
181
330
144
100
AcDbEntity
  8
AM_4
100
AcDbLine
 10
1.291666666666667
 20
5.57375
 30
0.0
 11
-1.291666666666667
 21
5.57375
 31
0.0
  0
LINE
  5
182
330
144
100
AcDbEntity
  8
AM_4
100
AcDbLine
 10
1.291666666666667
 20
5.34625
 30
0.0
 11
-1.291666666666667
 21
5.34625
 31
0.0
  0
LINE
  5
183
330
144
100
AcDbEntity
  8
AM_4
100
AcDbLine
 10
-1.291666666666667
 20
5.57375
 30
0.0
 11
-1.291666666666667
 21
5.34625
 31
0.0
  0
LINE
  5
184
330
144
100
AcDbEntity
  8
AM_4
100
AcDbLine
 10
1.291666666666667
 20
5.34625
 30
0.0
 11
1.291666666666667
 21
5.57375
 31
0.0
  0
LINE
  5
185
330
144
100
AcDbEntity
  8
AM_4
100
AcDbLine
 10
-2.972972972972972
 20
-3.209459459459459
 30
0.0
 11
-2.972972972972972
 21
3.209459459459459
 31
0.0
  0
LINE
  5
186
330
144
100
AcDbEntity
  8
AM_4
100
AcDbLine
 10
-2.972972972972972
 20
-3.209459459459459
 30
0.0
 11
-2.75
 21
-3.209459459459459
 31
0.0
  0
LINE
  5
187
330
144
100
AcDbEntity
  8
AM_4
100
AcDbLine
 10
-2.75
 20
3.209459459459459
 30
0.0
 11
-2.972972972972972
 21
3.209459459459459
 31
0.0
  0
LINE
  5
188
330
144
100
AcDbEntity
  8
AM_4
100
AcDbLine
 10
2.972972972972972
 20
-3.209459459459459
 30
0.0
 11
2.972972972972972
 21
3.209459459459459
 31
0.0
  0
LINE
  5
189
330
144
100
AcDbEntity
  8
AM_4
100
AcDbLine
 10
2.75
 20
-3.209459459459459
 30
0.0
 11
2.972972972972972
 21
-3.209459459459459
 31
0.0
  0
LINE
  5
18A
330
144
100
AcDbEntity
  8
AM_4
100
AcDbLine
 10
2.972972972972972
 20
3.209459459459459
 30
0.0
 11
2.75
 21
3.209459459459459
 31
0.0
  0
LINE
  5
18B
330
144
100
AcDbEntity
  8
AM_4
100
AcDbLine
 10
2.75
 20
5.118750000000002
 30
0.0
 11
1.162499999999999
 21
5.118750000000002
 31
0.0
  0
LINE
  5
18C
330
144
100
AcDbEntity
  8
AM_4
100
AcDbLine
 10
-1.1625
 20
5.118750000000002
 30
0.0
 11
-2.75
 21
5.118750000000002
 31
0.0
  0
LWPOLYLINE
  5
18D
330
144
100
AcDbEntity
  8
AM_4
100
AcDbPolyline
 90
       38
 70
     0
 43
0.0
 10
-1.162499999999943
 20
5.118749999999991
 10
-1.16183504174657
 20
5.118599024804569
 10
-1.154358241451966
 20
5.116905576386907
 10
-1.138662086220402
 20
5.113388960278285
 10
-1.115949570204112
 20
5.108378236394872
 10
-1.085950736304668
 20
5.101909869272554
 10
-1.04771523547614
 20
5.093907688596685
 10
-1.002296136814909
 20
5.08476084574035
 10
-0.9506898629865956
 20
5.074840449078385
 10
-0.8927471683641626
 20
5.064305758850098
 10
-0.8269639751650207
 20
5.053124871628285
 10
-0.7553356873668033
 20
5.041897193825943
 10
-0.6789866020740285
 20
5.031026936530366
 10
-0.5978603746654695
 20
5.020720300922485
 10
-0.5099078950418223
 20
5.011010521488195
 10
-0.4180843186150858
 20
5.002498356818507
 10
-0.3263968643656779
 20
4.995674079437411
 10
-0.2323567337454981
 20
4.990409298265714
 10
-0.1336830263841265
 20
4.986793070055412
 10
-0.0339731343081096
 20
4.985112785720574
 10
0.0608036072696885
 20
4.98537103912575
 10
0.1551557490695687
 20
4.987411013639178
 10
0.2511354983790376
 20
4.991322141631801
 10
0.345273978798864
 20
4.99694000693781
 10
0.4340278172257011
 20
5.003858313470155
 10
0.5198468928676818
 20
5.012029140430471
 10
0.6044084553439981
 20
5.021505970856294
 10
0.6847331978437456
 20
5.031804334901085
 10
0.7598465683963843
 20
5.042575863514934
 10
0.8297762667905529
 20
5.053585258549507
 10
0.8957849344862586
 20
5.064842376051471
 10
0.9553829159186066
 20
5.075721803697399
 10
1.00740408211471
 20
5.085769730465041
 10
1.052422094893101
 20
5.094878563647932
 10
1.091090653504755
 20
5.103005247073114
 10
1.121666759923428
 20
5.109631261922641
 10
1.152046919297032
 20
5.116386167673606
 10
1.1625
 20
5.118750000000002
  0
LINE
  5
18E
330
144
100
AcDbEntity
  8
AM_4
100
AcDbLine
 10
-1.187176045864534
 20
3.450856421512177
 30
0.0
 11
-1.245833333333334
 21
3.484722222222222
 31
0.0
  0
LINE
  5
18F
330
144
100
AcDbEntity
  8
AM_4
100
AcDbLine
 10
-1.245833333333334
 20
3.484722222222222
 30
0.0
 11
-2.004166666666666
 21
3.484722222222222
 31
0.0
  0
LINE
  5
190
330
144
100
AcDbEntity
  8
AM_4
100
AcDbLine
 10
-2.004166666666666
 20
3.484722222222222
 30
0.0
 11
-2.062823954135466
 21
3.450856421512177
 31
0.0
  0
LINE
  5
191
330
144
100
AcDbEntity
  8
AM_4
100
AcDbLine
 10
-1.245833333333334
 20
3.159722222222222
 30
0.0
 11
-1.187176045864534
 21
3.193588022932268
 31
0.0
  0
LINE
  5
192
330
144
100
AcDbEntity
  8
AM_4
100
AcDbLine
 10
2.004166666666666
 20
3.159722222222222
 30
0.0
 11
2.062823954135466
 21
3.193588022932267
 31
0.0
  0
LINE
  5
193
330
144
100
AcDbEntity
  8
AM_4
100
AcDbLine
 10
2.004166666666666
 20
3.484722222222222
 30
0.0
 11
1.245833333333334
 21
3.484722222222222
 31
0.0
  0
LINE
  5
194
330
144
100
AcDbEntity
  8
AM_4
100
AcDbLine
 10
1.245833333333334
 20
3.484722222222222
 30
0.0
 11
1.187176045864534
 21
3.450856421512177
 31
0.0
  0
LINE
  5
195
330
144
100
AcDbEntity
  8
AM_4
100
AcDbLine
 10
2.062823954135466
 20
3.450856421512177
 30
0.0
 11
2.004166666666666
 21
3.484722222222222
 31
0.0
  0
LINE
  5
196
330
144
100
AcDbEntity
  8
AM_4
100
AcDbLine
 10
-2.062823954135466
 20
3.193588022932267
 30
0.0
 11
-2.004166666666666
 21
3.159722222222222
 31
0.0
  0
LINE
  5
197
330
144
100
AcDbEntity
  8
AM_4
100
AcDbLine
 10
1.187176045864534
 20
3.193588022932268
 30
0.0
 11
1.245833333333334
 21
3.159722222222222
 31
0.0
  0
LINE
  5
198
330
144
100
AcDbEntity
  8
AM_4
100
AcDbLine
 10
1.405000000000001
 20
3.688787182852144
 30
0.0
 11
1.405000000000001
 21
3.484722222222222
 31
0.0
  0
LINE
  5
199
330
144
100
AcDbEntity
  8
AM_4
100
AcDbLine
 10
1.845
 20
3.484722222222222
 30
0.0
 11
1.845
 21
3.688787182852144
 31
0.0
  0
LINE
  5
19A
330
144
100
AcDbEntity
  8
AM_4
100
AcDbLine
 10
-1.444685039370079
 20
3.728472222222222
 30
0.0
 11
-1.805314960629921
 21
3.728472222222222
 31
0.0
  0
LINE
  5
19B
330
144
100
AcDbEntity
  8
AM_4
100
AcDbLine
 10
-1.805314960629921
 20
3.728472222222222
 30
0.0
 11
-1.844999999999999
 21
3.688787182852144
 31
0.0
  0
LINE
  5
19C
330
144
100
AcDbEntity
  8
AM_4
100
AcDbLine
 10
-1.405
 20
3.688787182852144
 30
0.0
 11
-1.444685039370079
 21
3.728472222222222
 31
0.0
  0
LINE
  5
19D
330
144
100
AcDbEntity
  8
AM_4
100
AcDbLine
 10
1.845
 20
3.688787182852144
 30
0.0
 11
1.405000000000001
 21
3.688787182852144
 31
0.0
  0
LINE
  5
19E
330
144
100
AcDbEntity
  8
AM_4
100
AcDbLine
 10
1.805314960629921
 20
3.728472222222222
 30
0.0
 11
1.444685039370079
 21
3.728472222222222
 31
0.0
  0
LINE
  5
19F
330
144
100
AcDbEntity
  8
AM_4
100
AcDbLine
 10
1.444685039370079
 20
3.728472222222222
 30
0.0
 11
1.405000000000001
 21
3.688787182852144
 31
0.0
  0
LINE
  5
1A0
330
144
100
AcDbEntity
  8
AM_4
100
AcDbLine
 10
1.845
 20
3.688787182852144
 30
0.0
 11
1.805314960629921
 21
3.728472222222222
 31
0.0
  0
LINE
  5
1A1
330
144
100
AcDbEntity
  8
AM_4
100
AcDbLine
 10
-1.405
 20
3.688787182852144
 30
0.0
 11
-1.844999999999999
 21
3.688787182852144
 31
0.0
  0
LINE
  5
1A2
330
144
100
AcDbEntity
  8
AM_4
100
AcDbLine
 10
-1.844999999999999
 20
3.688787182852144
 30
0.0
 11
-1.844999999999999
 21
3.484722222222222
 31
0.0
  0
LINE
  5
1A3
330
144
100
AcDbEntity
  8
AM_4
100
AcDbLine
 10
-1.405
 20
3.484722222222222
 30
0.0
 11
-1.405
 21
3.688787182852144
 31
0.0
  0
LWPOLYLINE
  5
1A4
330
144
100
AcDbEntity
  8
AM_4
100
AcDbPolyline
 90
        3
 70
     0
 43
0.0
 10
2.062823954135466
 20
3.193588022932267
 10
2.00919837209415
 20
3.169017386634626
 10
1.953367965601599
 20
3.159722222222222
  0
LINE
  5
1A5
330
144
100
AcDbEntity
  8
AM_4
100
AcDbLine
 10
2.062823954135466
 20
3.450856421512177
 30
0.0
 11
2.062823954135466
 21
3.193588022932267
 31
0.0
  0
LWPOLYLINE
  5
1A6
330
144
100
AcDbEntity
  8
AM_4
100
AcDbPolyline
 90
        4
 70
     0
 43
0.0
 10
1.953367965601599
 20
3.484722222222222
 10
1.961151856118621
 20
3.484537784503044
 10
2.012068099706556
 20
3.474468913897606
 10
2.062823954135466
 20
3.450856421512177
  0
LWPOLYLINE
  5
1A7
330
144
100
AcDbEntity
  8
AM_4
100
AcDbPolyline
 90
        4
 70
     0
 43
0.0
 10
-1.406088022932267
 20
3.193588022932267
 10
-1.45129654844772
 20
3.18160078358453
 10
-1.536919446575624
 20
3.165551240526685
 10
-1.625
 20
3.159722222222222
  0
LWPOLYLINE
  5
1A8
330
144
100
AcDbEntity
  8
AM_4
100
AcDbPolyline
 90
        4
 70
     0
 43
0.0
 10
-1.625
 20
3.484722222222222
 10
-1.53814827422386
 20
3.479052674833613
 10
-1.45129654844772
 20
3.462843660859915
 10
-1.406088022932267
 20
3.450856421512178
  0
LINE
  5
1A9
330
144
100
AcDbEntity
  8
AM_4
100
AcDbLine
 10
-2.062823954135466
 20
3.450856421512177
 30
0.0
 11
-2.062823954135466
 21
3.193588022932267
 31
0.0
  0
LWPOLYLINE
  5
1AA
330
144
100
AcDbEntity
  8
AM_4
100
AcDbPolyline
 90
        4
 70
     0
 43
0.0
 10
-1.953367965601599
 20
3.159722222222222
 10
-1.96115185611862
 20
3.159906659941401
 10
-2.012068099706556
 20
3.169975530546839
 10
-2.062823954135466
 20
3.193588022932267
  0
LINE
  5
1AB
330
144
100
AcDbEntity
  8
AM_4
100
AcDbLine
 10
-1.843911977067733
 20
3.450856421512178
 30
0.0
 11
-1.843911977067733
 21
3.193588022932267
 31
0.0
  0
LWPOLYLINE
  5
1AC
330
144
100
AcDbEntity
  8
AM_4
100
AcDbPolyline
 90
        3
 70
     0
 43
0.0
 10
-2.062823954135466
 20
3.450856421512177
 10
-2.00919837209415
 20
3.475427057809819
 10
-1.953367965601599
 20
3.484722222222222
  0
LWPOLYLINE
  5
1AD
330
144
100
AcDbEntity
  8
AM_4
100
AcDbPolyline
 90
        4
 70
     0
 43
0.0
 10
-1.953367965601599
 20
3.484722222222222
 10
-1.945584075084578
 20
3.484537784503044
 10
-1.894667831496643
 20
3.474468913897606
 10
-1.843911977067733
 20
3.450856421512178
  0
LWPOLYLINE
  5
1AE
330
144
100
AcDbEntity
  8
AM_4
100
AcDbPolyline
 90
        4
 70
     0
 43
0.0
 10
-1.843911977067733
 20
3.450856421512178
 10
-1.761365469562368
 20
3.470995063573945
 10
-1.676390335395156
 20
3.482720696093842
 10
-1.625
 20
3.484722222222222
  0
LINE
  5
1AF
330
144
100
AcDbEntity
  8
AM_4
100
AcDbLine
 10
-1.406088022932267
 20
3.450856421512178
 30
0.0
 11
-1.406088022932267
 21
3.193588022932267
 31
0.0
  0
LWPOLYLINE
  5
1B0
330
144
100
AcDbEntity
  8
AM_4
100
AcDbPolyline
 90
        4
 70
     0
 43
0.0
 10
-1.296632034398401
 20
3.159722222222222
 10
-1.304415924915421
 20
3.159906659941401
 10
-1.355332168503357
 20
3.169975530546839
 10
-1.406088022932267
 20
3.193588022932267
  0
LWPOLYLINE
  5
1B1
330
144
100
AcDbEntity
  8
AM_4
100
AcDbPolyline
 90
        3
 70
     0
 43
0.0
 10
-1.187176045864534
 20
3.193588022932267
 10
-1.24080162790585
 20
3.169017386634626
 10
-1.296632034398401
 20
3.159722222222222
  0
LINE
  5
1B2
330
144
100
AcDbEntity
  8
AM_4
100
AcDbLine
 10
-1.187176045864534
 20
3.450856421512177
 30
0.0
 11
-1.187176045864534
 21
3.193588022932267
 31
0.0
  0
LWPOLYLINE
  5
1B3
330
144
100
AcDbEntity
  8
AM_4
100
AcDbPolyline
 90
        4
 70
     0
 43
0.0
 10
-1.296632034398401
 20
3.484722222222222
 10
-1.288848143881379
 20
3.484537784503044
 10
-1.237931900293444
 20
3.474468913897606
 10
-1.187176045864534
 20
3.450856421512177
  0
LWPOLYLINE
  5
1B4
330
144
100
AcDbEntity
  8
AM_4
100
AcDbPolyline
 90
        3
 70
     0
 43
0.0
 10
-1.406088022932267
 20
3.450856421512178
 10
-1.352462440890951
 20
3.475427057809819
 10
-1.296632034398401
 20
3.484722222222222
  0
LINE
  5
1B5
330
144
100
AcDbEntity
  8
AM_4
100
AcDbLine
 10
1.843911977067733
 20
3.450856421512178
 30
0.0
 11
1.843911977067733
 21
3.193588022932267
 31
0.0
  0
LWPOLYLINE
  5
1B6
330
144
100
AcDbEntity
  8
AM_4
100
AcDbPolyline
 90
        4
 70
     0
 43
0.0
 10
1.406088022932267
 20
3.450856421512178
 10
1.488634530437632
 20
3.470995063573945
 10
1.573609664604844
 20
3.482720696093842
 10
1.625
 20
3.484722222222222
  0
LWPOLYLINE
  5
1B7
330
144
100
AcDbEntity
  8
AM_4
100
AcDbPolyline
 90
        4
 70
     0
 43
0.0
 10
-1.625
 20
3.159722222222222
 10
-1.676390335395155
 20
3.161723748350603
 10
-1.760490555774085
 20
3.173278918180256
 10
-1.843911977067733
 20
3.193588022932267
  0
LWPOLYLINE
  5
1B8
330
144
100
AcDbEntity
  8
AM_4
100
AcDbPolyline
 90
        3
 70
     0
 43
0.0
 10
-1.843911977067733
 20
3.193588022932267
 10
-1.897537559109048
 20
3.169017386634626
 10
-1.953367965601599
 20
3.159722222222222
  0
LWPOLYLINE
  5
1B9
330
144
100
AcDbEntity
  8
AM_4
100
AcDbPolyline
 90
        4
 70
     0
 43
0.0
 10
1.625
 20
3.159722222222222
 10
1.573609664604845
 20
3.161723748350603
 10
1.489509444225915
 20
3.173278918180256
 10
1.406088022932267
 20
3.193588022932267
  0
LWPOLYLINE
  5
1BA
330
144
100
AcDbEntity
  8
AM_4
100
AcDbPolyline
 90
        4
 70
     0
 43
0.0
 10
1.625
 20
3.484722222222222
 10
1.71185172577614
 20
3.479052674833613
 10
1.79870345155228
 20
3.462843660859915
 10
1.843911977067733
 20
3.450856421512178
  0
LWPOLYLINE
  5
1BB
330
144
100
AcDbEntity
  8
AM_4
100
AcDbPolyline
 90
        3
 70
     0
 43
0.0
 10
1.843911977067733
 20
3.450856421512178
 10
1.897537559109049
 20
3.475427057809819
 10
1.953367965601599
 20
3.484722222222222
  0
LWPOLYLINE
  5
1BC
330
144
100
AcDbEntity
  8
AM_4
100
AcDbPolyline
 90
        4
 70
     0
 43
0.0
 10
1.953367965601599
 20
3.159722222222222
 10
1.945584075084579
 20
3.159906659941401
 10
1.894667831496643
 20
3.169975530546839
 10
1.843911977067733
 20
3.193588022932267
  0
LWPOLYLINE
  5
1BD
330
144
100
AcDbEntity
  8
AM_4
100
AcDbPolyline
 90
        4
 70
     0
 43
0.0
 10
1.843911977067733
 20
3.193588022932267
 10
1.79870345155228
 20
3.18160078358453
 10
1.713080553424376
 20
3.165551240526685
 10
1.625
 20
3.159722222222222
  0
LINE
  5
1BE
330
144
100
AcDbEntity
  8
AM_4
100
AcDbLine
 10
1.187176045864534
 20
3.450856421512177
 30
0.0
 11
1.187176045864534
 21
3.193588022932267
 31
0.0
  0
LWPOLYLINE
  5
1BF
330
144
100
AcDbEntity
  8
AM_4
100
AcDbPolyline
 90
        4
 70
     0
 43
0.0
 10
1.296632034398401
 20
3.159722222222222
 10
1.28884814388138
 20
3.159906659941401
 10
1.237931900293444
 20
3.169975530546839
 10
1.187176045864534
 20
3.193588022932267
  0
LWPOLYLINE
  5
1C0
330
144
100
AcDbEntity
  8
AM_4
100
AcDbPolyline
 90
        3
 70
     0
 43
0.0
 10
1.406088022932267
 20
3.193588022932267
 10
1.352462440890952
 20
3.169017386634626
 10
1.296632034398401
 20
3.159722222222222
  0
LINE
  5
1C1
330
144
100
AcDbEntity
  8
AM_4
100
AcDbLine
 10
1.406088022932267
 20
3.450856421512178
 30
0.0
 11
1.406088022932267
 21
3.193588022932267
 31
0.0
  0
LWPOLYLINE
  5
1C2
330
144
100
AcDbEntity
  8
AM_4
100
AcDbPolyline
 90
        4
 70
     0
 43
0.0
 10
1.296632034398401
 20
3.484722222222222
 10
1.304415924915422
 20
3.484537784503044
 10
1.355332168503358
 20
3.474468913897606
 10
1.406088022932267
 20
3.450856421512178
  0
LWPOLYLINE
  5
1C3
330
144
100
AcDbEntity
  8
AM_4
100
AcDbPolyline
 90
        3
 70
     0
 43
0.0
 10
1.187176045864534
 20
3.450856421512177
 10
1.24080162790585
 20
3.475427057809819
 10
1.296632034398401
 20
3.484722222222222
  0
LINE
  5
1C4
330
144
100
AcDbEntity
  8
AM_4
100
AcDbLine
 10
-2.3125
 20
3.159722222222222
 30
0.0
 11
-0.9375000000000003
 21
3.159722222222222
 31
0.0
  0
LINE
  5
1C5
330
144
100
AcDbEntity
  8
AM_4
100
AcDbLine
 10
0.9375000000000003
 20
3.159722222222222
 30
0.0
 11
2.3125
 21
3.159722222222222
 31
0.0
  0
LWPOLYLINE
  5
1C6
330
144
100
AcDbEntity
  8
AM_4
100
AcDbPolyline
 90
       11
 70
     0
 43
0.0
 10
-1.624954894996371
 20
-1.498165110352023
 10
-1.673013156238587
 20
-1.498071709856505
 10
-1.792271447558199
 20
-1.496855092451886
 10
-1.90411306351263
 20
-1.493479594506589
 10
-2.011101046054484
 20
-1.48591274244652
 10
-2.102543267780979
 20
-1.472486494515924
 10
-2.144663483254026
 20
-1.4623748730329
 10
-2.182896958433311
 20
-1.449691637867498
 10
-2.242065200750214
 20
-1.41885389924248
 10
-2.287431029123669
 20
-1.375964346569692
 10
-2.3125
 20
-1.333203989273296
  0
LWPOLYLINE
  5
1C7
330
144
100
AcDbEntity
  8
AM_4
100
AcDbPolyline
 90
       10
 70
     0
 43
0.0
 10
-0.9374999999999998
 20
-1.333203989273293
 10
-0.9686172957951797
 20
-1.383440334150743
 10
-1.015782862192074
 20
-1.424084153075855
 10
-1.076456936076848
 20
-1.453184610423047
 10
-1.153074229718051
 20
-1.473602032860681
 10
-1.237993198985468
 20
-1.485819461270945
 10
-1.33460896259029
 20
-1.492939033452506
 10
-1.441293517972679
 20
-1.496535598061616
 10
-1.555727099960368
 20
-1.497967816415418
 10
-1.624954894996371
 20
-1.498165110352023
  0
LWPOLYLINE
  5
1C8
330
144
100
AcDbEntity
  8
AM_4
100
AcDbPolyline
 90
       11
 70
     0
 43
0.0
 10
1.624938878969343
 20
-1.498165110284027
 10
1.575306754955553
 20
-1.49810341261303
 10
1.457728552441802
 20
-1.496855092451886
 10
1.344291066142441
 20
-1.493421498350709
 10
1.238898953945518
 20
-1.48591274244652
 10
1.175732574200677
 20
-1.477614538300845
 10
1.118074976805545
 20
-1.465751237221339
 10
1.06710304156669
 20
-1.449691637867499
 10
1.007225984441683
 20
-1.418226401941848
 10
0.9625689708763315
 20
-1.375964346569694
 10
0.9375000000000003
 20
-1.333203989273296
  0
LWPOLYLINE
  5
1C9
330
144
100
AcDbEntity
  8
AM_4
100
AcDbPolyline
 90
       10
 70
     0
 43
0.0
 10
2.3125
 20
-1.333203989273293
 10
2.280754436469453
 20
-1.384015432983476
 10
2.234217137807927
 20
-1.424084153075855
 10
2.172454775541818
 20
-1.453498132213597
 10
2.096925770281949
 20
-1.473602032860681
 10
2.010805719720292
 20
-1.485935292711115
 10
1.915391037409711
 20
-1.492939033452506
 10
1.807213691195296
 20
-1.496592184308609
 10
1.694272900039634
 20
-1.497967816415418
 10
1.624938878969343
 20
-1.498165110284027
  0
LINE
  5
1CA
330
144
100
AcDbEntity
  8
AM_4
100
AcDbLine
 10
-0.9374999999999998
 20
-0.8480769230769248
 30
0.0
 11
0.9375000000000003
 21
-0.8480769230769248
 31
0.0
  0
LINE
  5
1CB
330
144
100
AcDbEntity
  8
AM_4
100
AcDbLine
 10
2.3125
 20
-0.8480769230769248
 30
0.0
 11
2.75
 21
-0.8480769230769248
 31
0.0
  0
LINE
  5
1CC
330
144
100
AcDbEntity
  8
AM_4
100
AcDbLine
 10
-2.75
 20
-0.8480769230769248
 30
0.0
 11
-2.3125
 21
-0.8480769230769248
 31
0.0
  0
LINE
  5
1CD
330
144
100
AcDbEntity
  8
AM_4
100
AcDbLine
 10
-2.3125
 20
-1.5
 30
0.0
 11
-0.9374999999999994
 21
-1.5
 31
0.0
  0
LINE
  5
1CE
330
144
100
AcDbEntity
  8
AM_4
100
AcDbLine
 10
0.9375000000000006
 20
-1.5
 30
0.0
 11
2.3125
 21
-1.5
 31
0.0
  0
LINE
  5
1CF
330
144
100
AcDbEntity
  8
AM_4
100
AcDbLine
 10
2.3125
 20
-3.5
 30
0.0
 11
2.3125
 21
3.159722222222222
 31
0.0
  0
LINE
  5
1D0
330
144
100
AcDbEntity
  8
AM_4
100
AcDbLine
 10
-0.9374999999999994
 20
-3.5
 30
0.0
 11
-0.9375000000000003
 21
3.159722222222222
 31
0.0
  0
LINE
  5
1D1
330
144
100
AcDbEntity
  8
AM_4
100
AcDbLine
 10
-2.3125
 20
-3.5
 30
0.0
 11
-2.3125
 21
3.159722222222222
 31
0.0
  0
LINE
  5
1D2
330
144
100
AcDbEntity
  8
AM_4
100
AcDbLine
 10
-2.75
 20
-5.5
 30
0.0
 11
2.75
 21
-5.5
 31
0.0
  0
LINE
  5
1D3
330
144
100
AcDbEntity
  8
AM_4
100
AcDbLine
 10
2.75
 20
-5.5
 30
0.0
 11
2.75
 21
5.118750000000002
 31
0.0
  0
LINE
  5
1D4
330
144
100
AcDbEntity
  8
AM_4
100
AcDbLine
 10
2.3125
 20
-3.5
 30
0.0
 11
2.75
 21
-3.5
 31
0.0
  0
LINE
  5
1D5
330
144
100
AcDbEntity
  8
AM_4
100
AcDbLine
 10
0.9375000000000006
 20
-1.9
 30
0.0
 11
2.3125
 21
-1.9
 31
0.0
  0
LINE
  5
1D6
330
144
100
AcDbEntity
  8
AM_4
100
AcDbLine
 10
0.9375000000000006
 20
-3.5
 30
0.0
 11
0.9375000000000003
 21
3.159722222222222
 31
0.0
  0
LINE
  5
1D7
330
144
100
AcDbEntity
  8
AM_4
100
AcDbLine
 10
-0.9374999999999994
 20
-3.5
 30
0.0
 11
0.9375000000000006
 21
-3.5
 31
0.0
  0
LINE
  5
1D8
330
144
100
AcDbEntity
  8
AM_4
100
AcDbLine
 10
-2.3125
 20
-1.9
 30
0.0
 11
-0.9374999999999994
 21
-1.9
 31
0.0
  0
LINE
  5
1D9
330
144
100
AcDbEntity
  8
AM_4
100
AcDbLine
 10
-2.75
 20
-3.5
 30
0.0
 11
-2.3125
 21
-3.5
 31
0.0
  0
LINE
  5
1DA
330
144
100
AcDbEntity
  8
AM_4
100
AcDbLine
 10
-2.75
 20
-5.5
 30
0.0
 11
-2.75
 21
5.118750000000002
 31
0.0
  0
LINE
  5
1DC
330
144
100
AcDbEntity
  8
AM_5
100
AcDbLine
 10
-1.444685039370079
 20
3.728472222222223
 30
0.0
 11
-1.444685039370079
 21
3.159722222222222
 31
0.0
  0
LINE
  5
1DD
330
144
100
AcDbEntity
  8
AM_5
100
AcDbLine
 10
-1.805314960629922
 20
3.728472222222223
 30
0.0
 11
-1.805314960629922
 21
3.159722222222222
 31
0.0
  0
LINE
  5
1DE
330
144
100
AcDbEntity
  8
AM_5
100
AcDbLine
 10
1.805314960629921
 20
3.728472222222223
 30
0.0
 11
1.805314960629921
 21
3.159722222222222
 31
0.0
  0
LINE
  5
1DF
330
144
100
AcDbEntity
  8
AM_5
100
AcDbLine
 10
1.444685039370078
 20
3.728472222222223
 30
0.0
 11
1.444685039370078
 21
3.159722222222222
 31
0.0
  0
ENDBLK
  5
147
330
144
100
AcDbEntity
  8
0
100
AcDbBlockEnd
  0
ENDSEC
  0
SECTION
  2
ENTITIES
  0
INSERT
  5
6F
330
1F
100
AcDbEntity
  8
0
100
AcDbBlockReference
  2
1_087193_2
 10
0.0
 20
0.0
 30
0.0
  0
POINT
  5
1E1
330
1F
100
AcDbEntity
  8
ConnectionPoints
100
AcDbPoint
 10
3.5
 20
0.0
 30
-0.0000000000000002
  0
POINT
  5
1E2
330
1F
100
AcDbEntity
  8
ConnectionPoints
100
AcDbPoint
 10
0.0
 20
0.0
 30
0.0
  0
POINT
  5
1E3
330
1F
100
AcDbEntity
  8
ConnectionPoints
100
AcDbPoint
 10
0.0
 20
0.0
 30
0.0
  0
ENDSEC
  0
SECTION
  2
OBJECTS
  0
DICTIONARY
  5
C
330
0
100
AcDbDictionary
281
     1
  3
ACAD_DETAILVIEWSTYLE
350
1EB
  3
ACAD_GROUP
350
D
  3
ACAD_LAYOUT
350
1A
  3
ACAD_MATERIAL
350
43
  3
ACAD_MLEADERSTYLE
350
6B
  3
ACAD_MLINESTYLE
350
17
  3
ACAD_PLOTSETTINGS
350
19
  3
ACAD_PLOTSTYLENAME
350
E
  3
ACAD_SCALELIST
350
47
  3
ACAD_SECTIONVIEWSTYLE
350
1EC
  3
ACAD_TABLESTYLE
350
69
  3
ACAD_VISUALSTYLE
350
2A
  3
ACDB_RECOMPOSE_DATA
350
1E8
  3
AcDbVariableDictionary
350
1E4
  0
SUN
  5
6D
330
29
100
AcDbSun
 90
        1
290
     0
 63
     7
421
 16777215
 40
1.0
291
     1
 91
  2455826
 92
 54000000
292
     0
 70
     2
 71
   256
280
     1
  0
DICTIONARY
  5
1EB
102
{ACAD_REACTORS
330
C
102
}
330
C
100
AcDbDictionary
281
     1
  0
DICTIONARY
  5
D
102
{ACAD_REACTORS
330
C
102
}
330
C
100
AcDbDictionary
281
     1
  0
DICTIONARY
  5
1A
102
{ACAD_REACTORS
330
C
102
}
330
C
100
AcDbDictionary
281
     1
  3
Layout1
350
1E
  3
Layout2
350
26
  3
Model
350
22
  0
DICTIONARY
  5
43
102
{ACAD_REACTORS
330
C
102
}
330
C
100
AcDbDictionary
281
     1
  3
ByBlock
350
45
  3
ByLayer
350
44
  3
Global
350
46
  0
DICTIONARY
  5
6B
102
{ACAD_REACTORS
330
C
102
}
330
C
100
AcDbDictionary
281
     1
  3
Standard
350
6C
  0
DICTIONARY
  5
17
102
{ACAD_REACTORS
330
C
102
}
330
C
100
AcDbDictionary
281
     1
  3
Standard
350
18
  0
DICTIONARY
  5
19
102
{ACAD_REACTORS
330
C
102
}
330
C
100
AcDbDictionary
281
     1
  0
ACDBDICTIONARYWDFLT
  5
E
102
{ACAD_REACTORS
330
C
102
}
330
C
100
AcDbDictionary
281
     1
  3
Normal
350
F
100
AcDbDictionaryWithDefault
340
F
  0
DICTIONARY
  5
47
102
{ACAD_REACTORS
330
C
102
}
330
C
100
AcDbDictionary
281
     1
  3
A0
350
48
  3
A1
350
49
  3
A2
350
4A
  3
A3
350
4B
  3
A4
350
4C
  3
A5
350
4D
  3
A6
350
4E
  3
A7
350
4F
  3
A8
350
50
  3
A9
350
51
  3
B0
350
52
  3
B1
350
53
  3
B2
350
54
  3
B3
350
55
  3
B4
350
56
  3
B5
350
57
  3
B6
350
58
  3
B7
350
59
  3
B8
350
5A
  3
B9
350
5B
  3
C0
350
5C
  3
C1
350
5D
  3
C2
350
5E
  3
C3
350
5F
  3
C4
350
60
  3
C5
350
61
  3
C6
350
62
  3
C7
350
63
  3
C8
350
64
  3
C9
350
65
  3
D0
350
66
  3
D1
350
67
  3
D2
350
68
  0
DICTIONARY
  5
1EC
102
{ACAD_REACTORS
330
C
102
}
330
C
100
AcDbDictionary
281
     1
  0
DICTIONARY
  5
69
102
{ACAD_REACTORS
330
C
102
}
330
C
100
AcDbDictionary
281
     1
  3
Standard
350
6A
  0
DICTIONARY
  5
2A
102
{ACAD_REACTORS
330
C
102
}
330
C
100
AcDbDictionary
281
     1
  3
2dWireframe
350
2F
  3
Basic
350
32
  3
Brighten
350
36
  3
ColorChange
350
3A
  3
Conceptual
350
34
  3
Dim
350
35
  3
EdgeColorOff
350
3D
  3
Facepattern
350
39
  3
Flat
350
2B
  3
FlatWithEdges
350
2C
  3
Gouraud
350
2D
  3
GouraudWithEdges
350
2E
  3
Hidden
350
31
  3
JitterOff
350
3B
  3
Linepattern
350
38
  3
OverhangOff
350
3C
  3
Realistic
350
33
  3
Shaded
350
42
  3
Shaded with edges
350
41
  3
Shades of Gray
350
3E
  3
Sketchy
350
3F
  3
Thicken
350
37
  3
Wireframe
350
30
  3
X-Ray
350
40
  0
XRECORD
  5
1E8
102
{ACAD_REACTORS
330
C
102
}
330
C
100
AcDbXrecord
280
     1
 90
        1
330
6A
  0
DICTIONARY
  5
1E4
102
{ACAD_REACTORS
330
C
102
}
330
C
100
AcDbDictionary
281
     1
  3
CANNOSCALE
350
1E5
  3
CMLEADERSTYLE
350
1EA
  3
CTABLESTYLE
350
1E9
  0
LAYOUT
  5
1E
102
{ACAD_REACTORS
330
1A
102
}
330
1A
100
AcDbPlotSettings
  1

  2
none_device
  4

  6

 40
0.0
 41
0.0
 42
0.0
 43
0.0
 44
0.0
 45
0.0
 46
0.0
 47
0.0
 48
0.0
 49
0.0
140
0.0
141
0.0
142
1.0
143
1.0
 70
   688
 72
     0
 73
     0
 74
     5
  7

 75
    16
 76
     0
 77
     2
 78
   300
147
1.0
148
0.0
149
0.0
100
AcDbLayout
  1
Layout1
 70
     1
 71
     1
 10
0.0
 20
0.0
 11
12.0
 21
9.0
 12
0.0
 22
0.0
 32
0.0
 14
1.000000000000000E+20
 24
1.000000000000000E+20
 34
1.000000000000000E+20
 15
-1.000000000000000E+20
 25
-1.000000000000000E+20
 35
-1.000000000000000E+20
146
0.0
 13
0.0
 23
0.0
 33
0.0
 16
1.0
 26
0.0
 36
0.0
 17
0.0
 27
1.0
 37
0.0
 76
     0
330
1B
  0
LAYOUT
  5
26
102
{ACAD_REACTORS
330
1A
102
}
330
1A
100
AcDbPlotSettings
  1

  2
none_device
  4

  6

 40
0.0
 41
0.0
 42
0.0
 43
0.0
 44
0.0
 45
0.0
 46
0.0
 47
0.0
 48
0.0
 49
0.0
140
0.0
141
0.0
142
1.0
143
1.0
 70
   688
 72
     0
 73
     0
 74
     5
  7

 75
    16
 76
     0
 77
     2
 78
   300
147
1.0
148
0.0
149
0.0
100
AcDbLayout
  1
Layout2
 70
     1
 71
     2
 10
0.0
 20
0.0
 11
0.0
 21
0.0
 12
0.0
 22
0.0
 32
0.0
 14
0.0
 24
0.0
 34
0.0
 15
0.0
 25
0.0
 35
0.0
146
0.0
 13
0.0
 23
0.0
 33
0.0
 16
1.0
 26
0.0
 36
0.0
 17
0.0
 27
1.0
 37
0.0
 76
     0
330
23
  0
LAYOUT
  5
22
102
{ACAD_REACTORS
330
1A
102
}
330
1A
100
AcDbPlotSettings
  1

  2
none_device
  4
Letter_(8.50_x_11.00_Inches)
  6

 40
6.35
 41
6.35
 42
6.35000508
 43
6.35000508
 44
215.9
 45
279.4
 46
0.0
 47
0.0
 48
0.0
 49
0.0
140
0.0
141
0.0
142
1.0
143
1.0
 70
  1712
 72
     0
 73
     0
 74
     0
  7

 75
     0
 76
     0
 77
     2
 78
   300
147
1.0
148
0.0
149
0.0
100
AcDbLayout
  1
Model
 70
     1
 71
     0
 10
0.0
 20
0.0
 11
12.0
 21
9.0
 12
0.0
 22
0.0
 32
0.0
 14
1.000000000000000E+20
 24
1.000000000000000E+20
 34
1.000000000000000E+20
 15
-1.000000000000000E+20
 25
-1.000000000000000E+20
 35
-1.000000000000000E+20
146
0.0
 13
0.0
 23
0.0
 33
0.0
 16
1.0
 26
0.0
 36
0.0
 17
0.0
 27
1.0
 37
0.0
 76
     0
330
1F
331
29
  0
MATERIAL
  5
45
102
{ACAD_REACTORS
330
43
102
}
330
43
100
AcDbMaterial
  1
ByBlock
 72
     1
 94
      127
  0
MATERIAL
  5
44
102
{ACAD_REACTORS
330
43
102
}
330
43
100
AcDbMaterial
  1
ByLayer
 72
     1
 94
      127
  0
MATERIAL
  5
46
102
{ACAD_REACTORS
330
43
102
}
330
43
100
AcDbMaterial
  1
Global
 72
     1
 94
      127
  0
MLEADERSTYLE
  5
6C
102
{ACAD_REACTORS
330
6B
102
}
330
6B
100
AcDbMLeaderStyle
179
     2
170
     2
171
     1
172
     0
 90
        2
 40
0.0
 41
0.0
173
     1
 91
-1056964608
340
14
 92
       -2
290
     1
 42
0.09
291
     1
 43
0.36
  3
Standard
341
0
 44
0.18
300

342
11
174
     1
178
     6
175
     1
176
     0
 93
-1056964608
 45
0.18
292
     0
297
     0
 46
0.18
343
0
 94
-1056964608
 47
1.0
 49
1.0
140
1.0
293
     1
141
0.0
294
     1
177
     0
142
1.0
295
     0
296
     0
143
0.125
271
     0
272
     9
273
     9
298
     0
  0
MLINESTYLE
  5
18
102
{ACAD_REACTORS
330
17
102
}
330
17
100
AcDbMlineStyle
  2
Standard
 70
     0
  3

 62
   256
 51
90.0
 52
90.0
 71
     2
 49
0.5
 62
   256
  6
BYLAYER
 49
-0.5
 62
   256
  6
BYLAYER
  0
ACDBPLACEHOLDER
  5
F
102
{ACAD_REACTORS
330
E
102
}
330
E
  0
SCALE
  5
48
102
{ACAD_REACTORS
330
47
102
}
330
47
100
AcDbScale
 70
     0
300
1:1
140
1.0
141
1.0
290
     1
  0
SCALE
  5
49
102
{ACAD_REACTORS
330
47
102
}
330
47
100
AcDbScale
 70
     0
300
1:2
140
1.0
141
2.0
290
     0
  0
SCALE
  5
4A
102
{ACAD_REACTORS
330
47
102
}
330
47
100
AcDbScale
 70
     0
300
1:4
140
1.0
141
4.0
290
     0
  0
SCALE
  5
4B
102
{ACAD_REACTORS
330
47
102
}
330
47
100
AcDbScale
 70
     0
300
1:5
140
1.0
141
5.0
290
     0
  0
SCALE
  5
4C
102
{ACAD_REACTORS
330
47
102
}
330
47
100
AcDbScale
 70
     0
300
1:8
140
1.0
141
8.0
290
     0
  0
SCALE
  5
4D
102
{ACAD_REACTORS
330
47
102
}
330
47
100
AcDbScale
 70
     0
300
1:10
140
1.0
141
10.0
290
     0
  0
SCALE
  5
4E
102
{ACAD_REACTORS
330
47
102
}
330
47
100
AcDbScale
 70
     0
300
1:16
140
1.0
141
16.0
290
     0
  0
SCALE
  5
4F
102
{ACAD_REACTORS
330
47
102
}
330
47
100
AcDbScale
 70
     0
300
1:20
140
1.0
141
20.0
290
     0
  0
SCALE
  5
50
102
{ACAD_REACTORS
330
47
102
}
330
47
100
AcDbScale
 70
     0
300
1:30
140
1.0
141
30.0
290
     0
  0
SCALE
  5
51
102
{ACAD_REACTORS
330
47
102
}
330
47
100
AcDbScale
 70
     0
300
1:40
140
1.0
141
40.0
290
     0
  0
SCALE
  5
52
102
{ACAD_REACTORS
330
47
102
}
330
47
100
AcDbScale
 70
     0
300
1:50
140
1.0
141
50.0
290
     0
  0
SCALE
  5
53
102
{ACAD_REACTORS
330
47
102
}
330
47
100
AcDbScale
 70
     0
300
1:100
140
1.0
141
100.0
290
     0
  0
SCALE
  5
54
102
{ACAD_REACTORS
330
47
102
}
330
47
100
AcDbScale
 70
     0
300
2:1
140
2.0
141
1.0
290
     0
  0
SCALE
  5
55
102
{ACAD_REACTORS
330
47
102
}
330
47
100
AcDbScale
 70
     0
300
4:1
140
4.0
141
1.0
290
     0
  0
SCALE
  5
56
102
{ACAD_REACTORS
330
47
102
}
330
47
100
AcDbScale
 70
     0
300
8:1
140
8.0
141
1.0
290
     0
  0
SCALE
  5
57
102
{ACAD_REACTORS
330
47
102
}
330
47
100
AcDbScale
 70
     0
300
10:1
140
10.0
141
1.0
290
     0
  0
SCALE
  5
58
102
{ACAD_REACTORS
330
47
102
}
330
47
100
AcDbScale
 70
     0
300
100:1
140
100.0
141
1.0
290
     0
  0
SCALE
  5
59
102
{ACAD_REACTORS
330
47
102
}
330
47
100
AcDbScale
 70
     0
300
1/128" = 1'-0"
140
0.0078125
141
12.0
290
     0
  0
SCALE
  5
5A
102
{ACAD_REACTORS
330
47
102
}
330
47
100
AcDbScale
 70
     0
300
1/64" = 1'-0"
140
0.015625
141
12.0
290
     0
  0
SCALE
  5
5B
102
{ACAD_REACTORS
330
47
102
}
330
47
100
AcDbScale
 70
     0
300
1/32" = 1'-0"
140
0.03125
141
12.0
290
     0
  0
SCALE
  5
5C
102
{ACAD_REACTORS
330
47
102
}
330
47
100
AcDbScale
 70
     0
300
1/16" = 1'-0"
140
0.0625
141
12.0
290
     0
  0
SCALE
  5
5D
102
{ACAD_REACTORS
330
47
102
}
330
47
100
AcDbScale
 70
     0
300
3/32" = 1'-0"
140
0.09375
141
12.0
290
     0
  0
SCALE
  5
5E
102
{ACAD_REACTORS
330
47
102
}
330
47
100
AcDbScale
 70
     0
300
1/8" = 1'-0"
140
0.125
141
12.0
290
     0
  0
SCALE
  5
5F
102
{ACAD_REACTORS
330
47
102
}
330
47
100
AcDbScale
 70
     0
300
3/16" = 1'-0"
140
0.1875
141
12.0
290
     0
  0
SCALE
  5
60
102
{ACAD_REACTORS
330
47
102
}
330
47
100
AcDbScale
 70
     0
300
1/4" = 1'-0"
140
0.25
141
12.0
290
     0
  0
SCALE
  5
61
102
{ACAD_REACTORS
330
47
102
}
330
47
100
AcDbScale
 70
     0
300
3/8" = 1'-0"
140
0.375
141
12.0
290
     0
  0
SCALE
  5
62
102
{ACAD_REACTORS
330
47
102
}
330
47
100
AcDbScale
 70
     0
300
1/2" = 1'-0"
140
0.5
141
12.0
290
     0
  0
SCALE
  5
63
102
{ACAD_REACTORS
330
47
102
}
330
47
100
AcDbScale
 70
     0
300
3/4" = 1'-0"
140
0.75
141
12.0
290
     0
  0
SCALE
  5
64
102
{ACAD_REACTORS
330
47
102
}
330
47
100
AcDbScale
 70
     0
300
1" = 1'-0"
140
1.0
141
12.0
290
     0
  0
SCALE
  5
65
102
{ACAD_REACTORS
330
47
102
}
330
47
100
AcDbScale
 70
     0
300
1-1/2" = 1'-0"
140
1.5
141
12.0
290
     0
  0
SCALE
  5
66
102
{ACAD_REACTORS
330
47
102
}
330
47
100
AcDbScale
 70
     0
300
3" = 1'-0"
140
3.0
141
12.0
290
     0
  0
SCALE
  5
67
102
{ACAD_REACTORS
330
47
102
}
330
47
100
AcDbScale
 70
     0
300
6" = 1'-0"
140
6.0
141
12.0
290
     0
  0
SCALE
  5
68
102
{ACAD_REACTORS
330
47
102
}
330
47
100
AcDbScale
 70
     0
300
1'-0" = 1'-0"
140
12.0
141
12.0
290
     0
  0
TABLESTYLE
  5
6A
102
{ACAD_REACTORS
330
69
102
}
102
{ACAD_XDICTIONARY
360
1E6
102
}
330
69
100
AcDbTableStyle
  3
Standard
 70
     0
 71
     0
 40
0.06
 41
0.06
280
     0
281
     0
  7
Standard
140
0.18
170
     2
 62
     0
 63
   257
283
     0
 90
        4
 91
        0
  1

274
    -2
284
     1
 64
     0
275
    -2
285
     1
 65
     0
276
    -2
286
     1
 66
     0
277
    -2
287
     1
 67
     0
278
    -2
288
     1
 68
     0
279
    -2
289
     1
 69
     0
  7
Standard
140
0.25
170
     5
 62
     0
 63
   257
283
     0
 90
        4
 91
        0
  1

274
    -2
284
     1
 64
     0
275
    -2
285
     1
 65
     0
276
    -2
286
     1
 66
     0
277
    -2
287
     1
 67
     0
278
    -2
288
     1
 68
     0
279
    -2
289
     1
 69
     0
  7
Standard
140
0.18
170
     5
 62
     0
 63
   257
283
     0
 90
        4
 91
        0
  1

274
    -2
284
     1
 64
     0
275
    -2
285
     1
 65
     0
276
    -2
286
     1
 66
     0
277
    -2
287
     1
 67
     0
278
    -2
288
     1
 68
     0
279
    -2
289
     1
 69
     0
  0
VISUALSTYLE
  5
2F
102
{ACAD_REACTORS
330
2A
102
}
330
2A
100
AcDbVisualStyle
  2
2dWireframe
 70
     4
177
     3
291
     0
 70
    58
 90
        0
176
     1
 90
        2
176
     1
 90
        0
176
     1
 90
        0
176
     1
 40
0.6
176
     1
 40
30.0
176
     1
 62
     7
420
 16777215
176
     1
 90
        1
176
     1
 90
        4
176
     1
 62
     7
176
     1
 62
   257
176
     1
 90
        1
176
     1
 90
        1
176
     1
 40
1.0
176
     1
 90
        0
176
     1
 62
   257
176
     1
 40
1.0
176
     1
 90
        1
176
     1
 90
        6
176
     1
 90
        2
176
     1
 62
     7
176
     1
 90
        5
176
     1
 90
        0
176
     1
 90
        0
176
     1
290
     0
176
     1
 90
        1
176
     1
 40
0.0
176
     1
 90
        0
176
     1
290
     1
176
     1
290
     1
176
     1
290
     0
176
     1
290
     0
176
     1
290
     0
176
     1
290
     0
176
     1
290
     0
176
     1
290
     0
176
     1
290
     0
176
     1
 90
       50
176
     1
 40
0.0
176
     1
 40
1.0
176
     1
 90
        0
176
     1
 62
    18
420
        0
176
     1
 90
       50
176
     1
 90
        3
176
     1
 62
     5
420
      255
176
     1
290
     0
176
     1
 90
       50
176
     1
 90
       50
176
     1
 90
       50
176
     1
290
     0
176
     1
 90
       50
176
     1
 62
   256
176
     0
 40
1.0
176
     0
 90
        2
176
     1
  1
strokes_ogs.tif
176
     1
290
     0
176
     1
 40
1.0
176
     1
 40
1.0
176
     1
  0
VISUALSTYLE
  5
32
102
{ACAD_REACTORS
330
2A
102
}
330
2A
100
AcDbVisualStyle
  2
Basic
 70
     7
177
     3
291
     1
 70
    58
 90
        1
176
     1
 90
        0
176
     1
 90
        1
176
     1
 90
        0
176
     1
 40
0.6
176
     1
 40
30.0
176
     1
 62
     7
420
 16777215
176
     1
 90
        0
176
     1
 90
        4
176
     1
 62
     7
176
     1
 62
   257
176
     1
 90
        1
176
     1
 90
        1
176
     1
 40
1.0
176
     1
 90
        8
176
     1
 62
     7
176
     1
 40
1.0
176
     1
 90
        1
176
     1
 90
        6
176
     1
 90
        2
176
     1
 62
     7
176
     1
 90
        5
176
     1
 90
        0
176
     1
 90
        0
176
     1
290
     0
176
     1
 90
        1
176
     1
 40
0.0
176
     1
 90
        0
176
     1
290
     0
176
     1
290
     1
176
     1
290
     1
176
     1
290
     0
176
     1
290
     0
176
     1
290
     0
176
     1
290
     0
176
     1
290
     0
176
     1
290
     0
176
     1
 90
       50
176
     1
 40
0.0
176
     1
 40
1.0
176
     1
 90
        0
176
     1
 62
    18
420
        0
176
     1
 90
       50
176
     1
 90
        3
176
     1
 62
     5
420
      255
176
     1
290
     0
176
     1
 90
       50
176
     1
 90
       50
176
     1
 90
       50
176
     1
290
     0
176
     1
 90
       50
176
     1
 62
   256
176
     0
 40
1.0
176
     0
 90
        2
176
     1
  1
strokes_ogs.tif
176
     1
290
     0
176
     1
 40
1.0
176
     1
 40
1.0
176
     1
  0
VISUALSTYLE
  5
36
102
{ACAD_REACTORS
330
2A
102
}
330
2A
100
AcDbVisualStyle
  2
Brighten
 70
    12
177
     3
291
     1
 70
    58
 90
        2
176
     1
 90
        2
176
     1
 90
        0
176
     1
 90
        0
176
     1
 40
0.6
176
     1
 40
30.0
176
     1
 62
     7
420
 16777215
176
     1
 90
        1
176
     1
 90
        4
176
     1
 62
     7
176
     1
 62
   257
176
     1
 90
        1
176
     1
 90
        1
176
     1
 40
1.0
176
     1
 90
        8
176
     1
 62
     7
176
     1
 40
1.0
176
     1
 90
        1
176
     1
 90
        6
176
     1
 90
        2
176
     1
 62
     7
176
     1
 90
        5
176
     1
 90
        0
176
     1
 90
        0
176
     1
290
     0
176
     1
 90
        1
176
     1
 40
50.0
176
     1
 90
        0
176
     1
290
     0
176
     1
290
     1
176
     1
290
     1
176
     1
290
     0
176
     1
290
     0
176
     1
290
     0
176
     1
290
     0
176
     1
290
     0
176
     1
290
     0
176
     1
 90
       50
176
     1
 40
0.0
176
     1
 40
1.0
176
     1
 90
        0
176
     1
 62
    18
420
        0
176
     1
 90
       50
176
     1
 90
        3
176
     1
 62
     5
420
      255
176
     1
290
     0
176
     1
 90
       50
176
     1
 90
       50
176
     1
 90
       50
176
     1
290
     0
176
     1
 90
       50
176
     1
 62
   256
176
     0
 40
1.0
176
     0
 90
        2
176
     1
  1
strokes_ogs.tif
176
     1
290
     0
176
     1
 40
1.0
176
     1
 40
1.0
176
     1
  0
VISUALSTYLE
  5
3A
102
{ACAD_REACTORS
330
2A
102
}
330
2A
100
AcDbVisualStyle
  2
ColorChange
 70
    16
177
     3
291
     1
 70
    58
 90
        2
176
     1
 90
        2
176
     1
 90
        3
176
     1
 90
        0
176
     1
 40
0.6
176
     1
 40
30.0
176
     1
 62
     8
420
  8421504
176
     1
 90
        1
176
     1
 90
        4
176
     1
 62
     7
176
     1
 62
   257
176
     1
 90
        1
176
     1
 90
        1
176
     1
 40
1.0
176
     1
 90
        8
176
     1
 62
     8
420
  8421504
176
     1
 40
1.0
176
     1
 90
        1
176
     1
 90
        6
176
     1
 90
        2
176
     1
 62
     7
176
     1
 90
        5
176
     1
 90
        0
176
     1
 90
        0
176
     1
290
     0
176
     1
 90
        1
176
     1
 40
0.0
176
     1
 90
        0
176
     1
290
     0
176
     1
290
     1
176
     1
290
     1
176
     1
290
     0
176
     1
290
     0
176
     1
290
     0
176
     1
290
     0
176
     1
290
     0
176
     1
290
     0
176
     1
 90
       50
176
     1
 40
0.0
176
     1
 40
1.0
176
     1
 90
        0
176
     1
 62
    18
420
        0
176
     1
 90
       50
176
     1
 90
        3
176
     1
 62
     5
420
      255
176
     1
290
     0
176
     1
 90
       50
176
     1
 90
       50
176
     1
 90
       50
176
     1
290
     0
176
     1
 90
       50
176
     1
 62
   256
176
     0
 40
1.0
176
     0
 90
        2
176
     1
  1
strokes_ogs.tif
176
     1
290
     0
176
     1
 40
1.0
176
     1
 40
1.0
176
     1
  0
VISUALSTYLE
  5
34
102
{ACAD_REACTORS
330
2A
102
}
330
2A
100
AcDbVisualStyle
  2
Conceptual
 70
     9
177
     3
291
     0
 70
    58
 90
        3
176
     1
 90
        2
176
     1
 90
        0
176
     1
 90
        0
176
     1
 40
0.6
176
     1
 40
30.0
176
     1
 62
     7
420
 16777215
176
     1
 90
        2
176
     1
 90
        2
176
     1
 62
     7
176
     1
 62
   257
176
     1
 90
        1
176
     1
 90
        1
176
     1
 40
179.0
176
     1
 90
        8
176
     1
 62
     7
176
     1
 40
1.0
176
     1
 90
        1
176
     1
 90
        6
176
     1
 90
        2
176
     1
 62
     7
176
     1
 90
        3
176
     1
 90
        0
176
     1
 90
        0
176
     1
290
     0
176
     1
 90
        1
176
     1
 40
0.0
176
     1
 90
        0
176
     1
290
     0
176
     1
290
     1
176
     1
290
     1
176
     1
290
     0
176
     1
290
     0
176
     1
290
     0
176
     1
290
     0
176
     1
290
     0
176
     1
290
     0
176
     1
 90
       50
176
     1
 40
0.0
176
     1
 40
1.0
176
     1
 90
        0
176
     1
 62
    18
420
        0
176
     1
 90
       50
176
     1
 90
        3
176
     1
 62
     5
420
      255
176
     1
290
     0
176
     1
 90
       50
176
     1
 90
       50
176
     1
 90
       50
176
     1
290
     0
176
     1
 90
       50
176
     1
 62
   256
176
     0
 40
1.0
176
     0
 90
        2
176
     1
  1
strokes_ogs.tif
176
     1
290
     0
176
     1
 40
1.0
176
     1
 40
1.0
176
     1
  0
VISUALSTYLE
  5
35
102
{ACAD_REACTORS
330
2A
102
}
330
2A
100
AcDbVisualStyle
  2
Dim
 70
    11
177
     3
291
     1
 70
    58
 90
        2
176
     1
 90
        2
176
     1
 90
        0
176
     1
 90
        0
176
     1
 40
0.6
176
     1
 40
30.0
176
     1
 62
     7
420
 16777215
176
     1
 90
        1
176
     1
 90
        4
176
     1
 62
     7
176
     1
 62
   257
176
     1
 90
        1
176
     1
 90
        1
176
     1
 40
1.0
176
     1
 90
        8
176
     1
 62
     7
176
     1
 40
1.0
176
     1
 90
        1
176
     1
 90
        6
176
     1
 90
        2
176
     1
 62
     7
176
     1
 90
        5
176
     1
 90
        0
176
     1
 90
        0
176
     1
290
     0
176
     1
 90
        1
176
     1
 40
-50.0
176
     1
 90
        0
176
     1
290
     0
176
     1
290
     1
176
     1
290
     1
176
     1
290
     0
176
     1
290
     0
176
     1
290
     0
176
     1
290
     0
176
     1
290
     0
176
     1
290
     0
176
     1
 90
       50
176
     1
 40
0.0
176
     1
 40
1.0
176
     1
 90
        0
176
     1
 62
    18
420
        0
176
     1
 90
       50
176
     1
 90
        3
176
     1
 62
     5
420
      255
176
     1
290
     0
176
     1
 90
       50
176
     1
 90
       50
176
     1
 90
       50
176
     1
290
     0
176
     1
 90
       50
176
     1
 62
   256
176
     0
 40
1.0
176
     0
 90
        2
176
     1
  1
strokes_ogs.tif
176
     1
290
     0
176
     1
 40
1.0
176
     1
 40
1.0
176
     1
  0
VISUALSTYLE
  5
3D
102
{ACAD_REACTORS
330
2A
102
}
330
2A
100
AcDbVisualStyle
  2
EdgeColorOff
 70
    22
177
     3
291
     1
 70
    58
 90
        2
176
     0
 90
        2
176
     0
 90
        0
176
     0
 90
        0
176
     0
 40
0.6
176
     0
 40
30.0
176
     0
 62
     7
420
 16777215
176
     0
 90
        1
176
     0
 90
        4
176
     0
 62
     7
176
     0
 62
   257
176
     0
 90
        1
176
     0
 90
        1
176
     0
 40
1.0
176
     0
 90
        8
176
     2
 62
     7
176
     0
 40
1.0
176
     0
 90
        1
176
     0
 90
        6
176
     0
 90
        2
176
     0
 62
     7
176
     0
 90
        5
176
     0
 90
        0
176
     0
 90
        0
176
     0
290
     0
176
     0
 90
        1
176
     0
 40
0.0
176
     0
 90
        0
176
     0
290
     0
176
     0
290
     1
176
     0
290
     1
176
     0
290
     0
176
     0
290
     0
176
     0
290
     0
176
     0
290
     0
176
     0
290
     0
176
     0
290
     0
176
     0
 90
       50
176
     0
 40
0.0
176
     0
 40
1.0
176
     0
 90
        0
176
     0
 62
    18
420
        0
176
     0
 90
       50
176
     0
 90
        3
176
     0
 62
     5
420
      255
176
     0
290
     0
176
     0
 90
       50
176
     0
 90
       50
176
     0
 90
       50
176
     0
290
     0
176
     0
 90
       50
176
     0
 62
   256
176
     0
 40
1.0
176
     0
 90
        2
176
     0
  1
strokes_ogs.tif
176
     0
290
     0
176
     0
 40
1.0
176
     0
 40
1.0
176
     0
  0
VISUALSTYLE
  5
39
102
{ACAD_REACTORS
330
2A
102
}
330
2A
100
AcDbVisualStyle
  2
Facepattern
 70
    15
177
     3
291
     1
 70
    58
 90
        2
176
     1
 90
        2
176
     1
 90
        0
176
     1
 90
        0
176
     1
 40
0.6
176
     1
 40
30.0
176
     1
 62
     7
420
 16777215
176
     1
 90
        1
176
     1
 90
        4
176
     1
 62
     7
176
     1
 62
   257
176
     1
 90
        1
176
     1
 90
        1
176
     1
 40
1.0
176
     1
 90
        8
176
     1
 62
     7
176
     1
 40
1.0
176
     1
 90
        1
176
     1
 90
        6
176
     1
 90
        2
176
     1
 62
     7
176
     1
 90
        5
176
     1
 90
        0
176
     1
 90
        0
176
     1
290
     0
176
     1
 90
        1
176
     1
 40
0.0
176
     1
 90
        0
176
     1
290
     0
176
     1
290
     1
176
     1
290
     1
176
     1
290
     0
176
     1
290
     0
176
     1
290
     0
176
     1
290
     0
176
     1
290
     0
176
     1
290
     0
176
     1
 90
       50
176
     1
 40
0.0
176
     1
 40
1.0
176
     1
 90
        0
176
     1
 62
    18
420
        0
176
     1
 90
       50
176
     1
 90
        3
176
     1
 62
     5
420
      255
176
     1
290
     0
176
     1
 90
       50
176
     1
 90
       50
176
     1
 90
       50
176
     1
290
     0
176
     1
 90
       50
176
     1
 62
   256
176
     0
 40
1.0
176
     0
 90
        2
176
     1
  1
strokes_ogs.tif
176
     1
290
     0
176
     1
 40
1.0
176
     1
 40
1.0
176
     1
  0
VISUALSTYLE
  5
2B
102
{ACAD_REACTORS
330
2A
102
}
330
2A
100
AcDbVisualStyle
  2
Flat
 70
     0
177
     3
291
     1
 70
    58
 90
        2
176
     1
 90
        1
176
     1
 90
        1
176
     1
 90
        2
176
     1
 40
0.6
176
     1
 40
30.0
176
     1
 62
     7
420
 16777215
176
     1
 90
        0
176
     1
 90
        0
176
     1
 62
     7
176
     1
 62
   257
176
     1
 90
        1
176
     1
 90
        1
176
     1
 40
1.0
176
     1
 90
        8
176
     1
 62
     7
176
     1
 40
1.0
176
     1
 90
        1
176
     1
 90
        6
176
     1
 90
        2
176
     1
 62
     7
176
     1
 90
        5
176
     1
 90
        0
176
     1
 90
        0
176
     1
290
     0
176
     1
 90
       13
176
     1
 40
0.0
176
     1
 90
        0
176
     1
290
     0
176
     1
290
     1
176
     1
290
     1
176
     1
290
     0
176
     1
290
     0
176
     1
290
     0
176
     1
290
     0
176
     1
290
     0
176
     1
290
     0
176
     1
 90
       50
176
     1
 40
0.0
176
     1
 40
1.0
176
     1
 90
        0
176
     1
 62
    18
420
        0
176
     1
 90
       50
176
     1
 90
        3
176
     1
 62
     5
420
      255
176
     1
290
     0
176
     1
 90
       50
176
     1
 90
       50
176
     1
 90
       50
176
     1
290
     0
176
     1
 90
       50
176
     1
 62
   256
176
     0
 40
1.0
176
     0
 90
        2
176
     1
  1
strokes_ogs.tif
176
     1
290
     0
176
     1
 40
1.0
176
     1
 40
1.0
176
     1
  0
VISUALSTYLE
  5
2C
102
{ACAD_REACTORS
330
2A
102
}
330
2A
100
AcDbVisualStyle
  2
FlatWithEdges
 70
     1
177
     3
291
     1
 70
    58
 90
        2
176
     1
 90
        1
176
     1
 90
        1
176
     1
 90
        2
176
     1
 40
0.6
176
     1
 40
30.0
176
     1
 62
     7
420
 16777215
176
     1
 90
        1
176
     1
 90
        0
176
     1
 62
     7
176
     1
 62
   257
176
     1
 90
        1
176
     1
 90
        1
176
     1
 40
1.0
176
     1
 90
        0
176
     1
 62
   257
176
     1
 40
1.0
176
     1
 90
        1
176
     1
 90
        6
176
     1
 90
        2
176
     1
 62
     7
176
     1
 90
        5
176
     1
 90
        0
176
     1
 90
        0
176
     1
290
     0
176
     1
 90
       13
176
     1
 40
0.0
176
     1
 90
        0
176
     1
290
     0
176
     1
290
     1
176
     1
290
     1
176
     1
290
     0
176
     1
290
     0
176
     1
290
     0
176
     1
290
     0
176
     1
290
     0
176
     1
290
     0
176
     1
 90
       50
176
     1
 40
0.0
176
     1
 40
1.0
176
     1
 90
        0
176
     1
 62
    18
420
        0
176
     1
 90
       50
176
     1
 90
        3
176
     1
 62
     5
420
      255
176
     1
290
     0
176
     1
 90
       50
176
     1
 90
       50
176
     1
 90
       50
176
     1
290
     0
176
     1
 90
       50
176
     1
 62
   256
176
     0
 40
1.0
176
     0
 90
        2
176
     1
  1
strokes_ogs.tif
176
     1
290
     0
176
     1
 40
1.0
176
     1
 40
1.0
176
     1
  0
VISUALSTYLE
  5
2D
102
{ACAD_REACTORS
330
2A
102
}
330
2A
100
AcDbVisualStyle
  2
Gouraud
 70
     2
177
     3
291
     1
 70
    58
 90
        2
176
     1
 90
        2
176
     1
 90
        1
176
     1
 90
        2
176
     1
 40
0.6
176
     1
 40
30.0
176
     1
 62
     7
420
 16777215
176
     1
 90
        0
176
     1
 90
        0
176
     1
 62
     7
176
     1
 62
   257
176
     1
 90
        1
176
     1
 90
        1
176
     1
 40
1.0
176
     1
 90
        0
176
     1
 62
     7
176
     1
 40
1.0
176
     1
 90
        1
176
     1
 90
        6
176
     1
 90
        2
176
     1
 62
     7
176
     1
 90
        5
176
     1
 90
        0
176
     1
 90
        0
176
     1
290
     0
176
     1
 90
       13
176
     1
 40
0.0
176
     1
 90
        0
176
     1
290
     0
176
     1
290
     1
176
     1
290
     1
176
     1
290
     0
176
     1
290
     0
176
     1
290
     0
176
     1
290
     0
176
     1
290
     0
176
     1
290
     0
176
     1
 90
       50
176
     1
 40
0.0
176
     1
 40
1.0
176
     1
 90
        0
176
     1
 62
    18
420
        0
176
     1
 90
       50
176
     1
 90
        3
176
     1
 62
     5
420
      255
176
     1
290
     0
176
     1
 90
       50
176
     1
 90
       50
176
     1
 90
       50
176
     1
290
     0
176
     1
 90
       50
176
     1
 62
   256
176
     0
 40
1.0
176
     0
 90
        2
176
     1
  1
strokes_ogs.tif
176
     1
290
     0
176
     1
 40
1.0
176
     1
 40
1.0
176
     1
  0
VISUALSTYLE
  5
2E
102
{ACAD_REACTORS
330
2A
102
}
330
2A
100
AcDbVisualStyle
  2
GouraudWithEdges
 70
     3
177
     3
291
     1
 70
    58
 90
        2
176
     1
 90
        2
176
     1
 90
        1
176
     1
 90
        2
176
     1
 40
0.6
176
     1
 40
30.0
176
     1
 62
     7
420
 16777215
176
     1
 90
        1
176
     1
 90
        0
176
     1
 62
     7
176
     1
 62
   257
176
     1
 90
        1
176
     1
 90
        1
176
     1
 40
1.0
176
     1
 90
        0
176
     1
 62
   257
176
     1
 40
1.0
176
     1
 90
        1
176
     1
 90
        6
176
     1
 90
        2
176
     1
 62
     7
176
     1
 90
        5
176
     1
 90
        0
176
     1
 90
        0
176
     1
290
     0
176
     1
 90
       13
176
     1
 40
0.0
176
     1
 90
        0
176
     1
290
     0
176
     1
290
     1
176
     1
290
     1
176
     1
290
     0
176
     1
290
     0
176
     1
290
     0
176
     1
290
     0
176
     1
290
     0
176
     1
290
     0
176
     1
 90
       50
176
     1
 40
0.0
176
     1
 40
1.0
176
     1
 90
        0
176
     1
 62
    18
420
        0
176
     1
 90
       50
176
     1
 90
        3
176
     1
 62
     5
420
      255
176
     1
290
     0
176
     1
 90
       50
176
     1
 90
       50
176
     1
 90
       50
176
     1
290
     0
176
     1
 90
       50
176
     1
 62
   256
176
     0
 40
1.0
176
     0
 90
        2
176
     1
  1
strokes_ogs.tif
176
     1
290
     0
176
     1
 40
1.0
176
     1
 40
1.0
176
     1
  0
VISUALSTYLE
  5
31
102
{ACAD_REACTORS
330
2A
102
}
330
2A
100
AcDbVisualStyle
  2
Hidden
 70
     6
177
     3
291
     0
 70
    58
 90
        1
176
     1
 90
        2
176
     1
 90
        2
176
     1
 90
        0
176
     1
 40
0.6
176
     1
 40
30.0
176
     1
 62
     7
420
 16777215
176
     1
 90
        2
176
     1
 90
        2
176
     1
 62
     7
176
     1
 62
   257
176
     1
 90
        2
176
     1
 90
        1
176
     1
 40
40.0
176
     1
 90
        0
176
     1
 62
   257
176
     1
 40
1.0
176
     1
 90
        1
176
     1
 90
        6
176
     1
 90
        2
176
     1
 62
     7
176
     1
 90
        3
176
     1
 90
        0
176
     1
 90
        0
176
     1
290
     0
176
     1
 90
        1
176
     1
 40
0.0
176
     1
 90
        0
176
     1
290
     0
176
     1
290
     1
176
     1
290
     1
176
     1
290
     0
176
     1
290
     0
176
     1
290
     0
176
     1
290
     0
176
     1
290
     0
176
     1
290
     0
176
     1
 90
       50
176
     1
 40
0.0
176
     1
 40
1.0
176
     1
 90
        0
176
     1
 62
    18
420
        0
176
     1
 90
       50
176
     1
 90
        3
176
     1
 62
     5
420
      255
176
     1
290
     0
176
     1
 90
       50
176
     1
 90
       50
176
     1
 90
       50
176
     1
290
     0
176
     1
 90
       50
176
     1
 62
   256
176
     0
 40
1.0
176
     0
 90
        2
176
     1
  1
strokes_ogs.tif
176
     1
290
     0
176
     1
 40
1.0
176
     1
 40
1.0
176
     1
  0
VISUALSTYLE
  5
3B
102
{ACAD_REACTORS
330
2A
102
}
330
2A
100
AcDbVisualStyle
  2
JitterOff
 70
    20
177
     3
291
     1
 70
    58
 90
        2
176
     0
 90
        2
176
     0
 90
        0
176
     0
 90
        0
176
     0
 40
0.6
176
     0
 40
30.0
176
     0
 62
     7
420
 16777215
176
     0
 90
        1
176
     0
 90
        4
176
     0
 62
     7
176
     0
 62
   257
176
     0
 90
        1
176
     0
 90
        1
176
     0
 40
1.0
176
     0
 90
       10
176
     2
 62
     7
176
     0
 40
1.0
176
     0
 90
        1
176
     0
 90
        6
176
     0
 90
        2
176
     0
 62
     7
176
     0
 90
        5
176
     0
 90
        0
176
     0
 90
        0
176
     0
290
     0
176
     0
 90
        1
176
     0
 40
0.0
176
     0
 90
        0
176
     0
290
     0
176
     0
290
     1
176
     0
290
     1
176
     0
290
     0
176
     0
290
     0
176
     0
290
     0
176
     0
290
     0
176
     0
290
     0
176
     0
290
     0
176
     0
 90
       50
176
     0
 40
0.0
176
     0
 40
1.0
176
     0
 90
        0
176
     0
 62
    18
420
        0
176
     0
 90
       50
176
     0
 90
        3
176
     0
 62
     5
420
      255
176
     0
290
     0
176
     0
 90
       50
176
     0
 90
       50
176
     0
 90
       50
176
     0
290
     0
176
     0
 90
       50
176
     0
 62
   256
176
     0
 40
1.0
176
     0
 90
        2
176
     0
  1
strokes_ogs.tif
176
     0
290
     0
176
     0
 40
1.0
176
     0
 40
1.0
176
     0
  0
VISUALSTYLE
  5
38
102
{ACAD_REACTORS
330
2A
102
}
330
2A
100
AcDbVisualStyle
  2
Linepattern
 70
    14
177
     3
291
     1
 70
    58
 90
        2
176
     1
 90
        2
176
     1
 90
        0
176
     1
 90
        0
176
     1
 40
0.6
176
     1
 40
30.0
176
     1
 62
     7
420
 16777215
176
     1
 90
        1
176
     1
 90
        4
176
     1
 62
     7
176
     1
 62
   257
176
     1
 90
        7
176
     1
 90
        7
176
     1
 40
1.0
176
     1
 90
        8
176
     1
 62
     7
176
     1
 40
1.0
176
     1
 90
        1
176
     1
 90
        6
176
     1
 90
        2
176
     1
 62
     7
176
     1
 90
        5
176
     1
 90
        0
176
     1
 90
        0
176
     1
290
     0
176
     1
 90
        1
176
     1
 40
0.0
176
     1
 90
        0
176
     1
290
     0
176
     1
290
     1
176
     1
290
     1
176
     1
290
     0
176
     1
290
     0
176
     1
290
     0
176
     1
290
     0
176
     1
290
     0
176
     1
290
     0
176
     1
 90
       50
176
     1
 40
0.0
176
     1
 40
1.0
176
     1
 90
        0
176
     1
 62
    18
420
        0
176
     1
 90
       50
176
     1
 90
        3
176
     1
 62
     5
420
      255
176
     1
290
     0
176
     1
 90
       50
176
     1
 90
       50
176
     1
 90
       50
176
     1
290
     0
176
     1
 90
       50
176
     1
 62
   256
176
     0
 40
1.0
176
     0
 90
        2
176
     1
  1
strokes_ogs.tif
176
     1
290
     0
176
     1
 40
1.0
176
     1
 40
1.0
176
     1
  0
VISUALSTYLE
  5
3C
102
{ACAD_REACTORS
330
2A
102
}
330
2A
100
AcDbVisualStyle
  2
OverhangOff
 70
    21
177
     3
291
     1
 70
    58
 90
        2
176
     0
 90
        2
176
     0
 90
        0
176
     0
 90
        0
176
     0
 40
0.6
176
     0
 40
30.0
176
     0
 62
     7
420
 16777215
176
     0
 90
        1
176
     0
 90
        4
176
     0
 62
     7
176
     0
 62
   257
176
     0
 90
        1
176
     0
 90
        1
176
     0
 40
1.0
176
     0
 90
        9
176
     2
 62
     7
176
     0
 40
1.0
176
     0
 90
        1
176
     0
 90
        6
176
     0
 90
        2
176
     0
 62
     7
176
     0
 90
        5
176
     0
 90
        0
176
     0
 90
        0
176
     0
290
     0
176
     0
 90
        1
176
     0
 40
0.0
176
     0
 90
        0
176
     0
290
     0
176
     0
290
     1
176
     0
290
     1
176
     0
290
     0
176
     0
290
     0
176
     0
290
     0
176
     0
290
     0
176
     0
290
     0
176
     0
290
     0
176
     0
 90
       50
176
     0
 40
0.0
176
     0
 40
1.0
176
     0
 90
        0
176
     0
 62
    18
420
        0
176
     0
 90
       50
176
     0
 90
        3
176
     0
 62
     5
420
      255
176
     0
290
     0
176
     0
 90
       50
176
     0
 90
       50
176
     0
 90
       50
176
     0
290
     0
176
     0
 90
       50
176
     0
 62
   256
176
     0
 40
1.0
176
     0
 90
        2
176
     0
  1
strokes_ogs.tif
176
     0
290
     0
176
     0
 40
1.0
176
     0
 40
1.0
176
     0
  0
VISUALSTYLE
  5
33
102
{ACAD_REACTORS
330
2A
102
}
330
2A
100
AcDbVisualStyle
  2
Realistic
 70
     8
177
     3
291
     0
 70
    58
 90
        2
176
     1
 90
        3
176
     1
 90
        0
176
     1
 90
        2
176
     1
 40
0.6
176
     1
 40
30.0
176
     1
 62
     7
420
 16777215
176
     1
 90
        0
176
     1
 90
        0
176
     1
 62
     7
176
     1
 62
   257
176
     1
 90
        1
176
     1
 90
        1
176
     1
 40
1.0
176
     1
 90
        8
176
     1
 62
   257
176
     1
 40
1.0
176
     1
 90
        1
176
     1
 90
        6
176
     1
 90
        2
176
     1
 62
     7
176
     1
 90
        3
176
     1
 90
        0
176
     1
 90
        0
176
     1
290
     0
176
     1
 90
       13
176
     1
 40
0.0
176
     1
 90
        0
176
     1
290
     0
176
     1
290
     1
176
     1
290
     1
176
     1
290
     0
176
     1
290
     0
176
     1
290
     0
176
     1
290
     0
176
     1
290
     0
176
     1
290
     0
176
     1
 90
       50
176
     1
 40
0.0
176
     1
 40
1.0
176
     1
 90
        0
176
     1
 62
    18
420
        0
176
     1
 90
       50
176
     1
 90
        3
176
     1
 62
     5
420
      255
176
     1
290
     0
176
     1
 90
       50
176
     1
 90
       50
176
     1
 90
       50
176
     1
290
     0
176
     1
 90
       50
176
     1
 62
   256
176
     0
 40
1.0
176
     0
 90
        2
176
     1
  1
strokes_ogs.tif
176
     1
290
     0
176
     1
 40
1.0
176
     1
 40
1.0
176
     1
  0
VISUALSTYLE
  5
42
102
{ACAD_REACTORS
330
2A
102
}
330
2A
100
AcDbVisualStyle
  2
Shaded
 70
    27
177
     3
291
     0
 70
    58
 90
        2
176
     1
 90
        2
176
     1
 90
        1
176
     1
 90
        2
176
     1
 40
0.6
176
     1
 40
30.0
176
     1
 62
     7
420
 16777215
176
     1
 90
        0
176
     1
 90
        4
176
     1
 62
     7
176
     1
 62
   257
176
     1
 90
        1
176
     1
 90
        1
176
     1
 40
1.0
176
     1
 90
        8
176
     1
 62
   257
176
     1
 40
1.0
176
     1
 90
        1
176
     1
 90
        6
176
     1
 90
        2
176
     1
 62
     8
420
  7895160
176
     1
 90
        3
176
     1
 90
        0
176
     1
 90
        0
176
     1
290
     0
176
     1
 90
        5
176
     1
 40
0.0
176
     1
 90
        0
176
     1
290
     0
176
     1
290
     1
176
     1
290
     1
176
     1
290
     0
176
     1
290
     0
176
     1
290
     0
176
     1
290
     0
176
     1
290
     0
176
     1
290
     0
176
     1
 90
       50
176
     1
 40
0.0
176
     1
 40
1.0
176
     1
 90
        0
176
     1
 62
    18
420
        0
176
     1
 90
       50
176
     1
 90
        3
176
     1
 62
     5
420
      255
176
     1
290
     0
176
     1
 90
       50
176
     1
 90
       50
176
     1
 90
       50
176
     1
290
     0
176
     1
 90
       50
176
     1
 62
   256
176
     0
 40
1.0
176
     0
 90
        2
176
     1
  1
strokes_ogs.tif
176
     1
290
     0
176
     1
 40
1.0
176
     1
 40
1.0
176
     1
  0
VISUALSTYLE
  5
41
102
{ACAD_REACTORS
330
2A
102
}
330
2A
100
AcDbVisualStyle
  2
Shaded with edges
 70
    26
177
     3
291
     0
 70
    58
 90
        2
176
     1
 90
        2
176
     1
 90
        1
176
     1
 90
        2
176
     1
 40
0.6
176
     1
 40
30.0
176
     1
 62
     7
420
 16777215
176
     1
 90
        1
176
     1
 90
       10
176
     1
 62
     7
176
     1
 62
   257
176
     1
 90
        2
176
     1
 90
        1
176
     1
 40
1.0
176
     1
 90
        8
176
     1
 62
   257
176
     1
 40
1.0
176
     1
 90
        1
176
     1
 90
        6
176
     1
 90
        2
176
     1
 62
     7
176
     1
 90
        3
176
     1
 90
        0
176
     1
 90
        0
176
     1
290
     0
176
     1
 90
        5
176
     1
 40
0.0
176
     1
 90
        0
176
     1
290
     0
176
     1
290
     1
176
     1
290
     1
176
     1
290
     0
176
     1
290
     0
176
     1
290
     0
176
     1
290
     0
176
     1
290
     0
176
     1
290
     0
176
     1
 90
       50
176
     1
 40
0.0
176
     1
 40
1.0
176
     1
 90
        0
176
     1
 62
    18
420
        0
176
     1
 90
       50
176
     1
 90
        3
176
     1
 62
     5
420
      255
176
     1
290
     0
176
     1
 90
       50
176
     1
 90
       50
176
     1
 90
       50
176
     1
290
     0
176
     1
 90
       50
176
     1
 62
   256
176
     0
 40
1.0
176
     0
 90
        2
176
     1
  1
strokes_ogs.tif
176
     1
290
     0
176
     1
 40
1.0
176
     1
 40
1.0
176
     1
  0
VISUALSTYLE
  5
3E
102
{ACAD_REACTORS
330
2A
102
}
330
2A
100
AcDbVisualStyle
  2
Shades of Gray
 70
    23
177
     3
291
     0
 70
    58
 90
        2
176
     1
 90
        2
176
     1
 90
        3
176
     1
 90
        0
176
     1
 40
0.6
176
     1
 40
30.0
176
     1
 62
     7
420
 16777215
176
     1
 90
        2
176
     1
 90
        2
176
     1
 62
     7
176
     1
 62
     7
176
     1
 90
        1
176
     1
 90
        1
176
     1
 40
40.0
176
     1
 90
        8
176
     1
 62
     7
176
     1
 40
1.0
176
     1
 90
        1
176
     1
 90
        6
176
     1
 90
        2
176
     1
 62
     7
176
     1
 90
        3
176
     1
 90
        0
176
     1
 90
        0
176
     1
290
     0
176
     1
 90
        1
176
     1
 40
0.0
176
     1
 90
        0
176
     1
290
     0
176
     1
290
     1
176
     1
290
     1
176
     1
290
     0
176
     1
290
     0
176
     1
290
     0
176
     1
290
     0
176
     1
290
     0
176
     1
290
     0
176
     1
 90
       50
176
     1
 40
0.0
176
     1
 40
1.0
176
     1
 90
        0
176
     1
 62
    18
420
        0
176
     1
 90
       50
176
     1
 90
        3
176
     1
 62
     5
420
      255
176
     1
290
     0
176
     1
 90
       50
176
     1
 90
       50
176
     1
 90
       50
176
     1
290
     0
176
     1
 90
       50
176
     1
 62
   256
176
     0
 40
1.0
176
     0
 90
        2
176
     1
  1
strokes_ogs.tif
176
     1
290
     0
176
     1
 40
1.0
176
     1
 40
1.0
176
     1
  0
VISUALSTYLE
  5
3F
102
{ACAD_REACTORS
330
2A
102
}
330
2A
100
AcDbVisualStyle
  2
Sketchy
 70
    24
177
     3
291
     0
 70
    58
 90
        1
176
     1
 90
        2
176
     1
 90
        2
176
     1
 90
        0
176
     1
 40
0.6
176
     1
 40
30.0
176
     1
 62
     7
420
 16777215
176
     1
 90
        2
176
     1
 90
        2
176
     1
 62
     7
176
     1
 62
     7
176
     1
 90
        1
176
     1
 90
        1
176
     1
 40
40.0
176
     1
 90
       11
176
     1
 62
     7
176
     1
 40
1.0
176
     1
 90
        1
176
     1
 90
        6
176
     1
 90
        2
176
     1
 62
     7
176
     1
 90
        6
176
     1
 90
        0
176
     1
 90
        0
176
     1
290
     0
176
     1
 90
        1
176
     1
 40
0.0
176
     1
 90
        0
176
     1
290
     0
176
     1
290
     1
176
     1
290
     1
176
     1
290
     0
176
     1
290
     0
176
     1
290
     0
176
     1
290
     0
176
     1
290
     0
176
     1
290
     0
176
     1
 90
       50
176
     1
 40
0.0
176
     1
 40
1.0
176
     1
 90
        0
176
     1
 62
    18
420
        0
176
     1
 90
       50
176
     1
 90
        3
176
     1
 62
     5
420
      255
176
     1
290
     0
176
     1
 90
       50
176
     1
 90
       50
176
     1
 90
       50
176
     1
290
     0
176
     1
 90
       50
176
     1
 62
   256
176
     0
 40
1.0
176
     0
 90
        2
176
     1
  1
strokes_ogs.tif
176
     1
290
     0
176
     1
 40
1.0
176
     1
 40
1.0
176
     1
  0
VISUALSTYLE
  5
37
102
{ACAD_REACTORS
330
2A
102
}
330
2A
100
AcDbVisualStyle
  2
Thicken
 70
    13
177
     3
291
     1
 70
    58
 90
        2
176
     1
 90
        2
176
     1
 90
        0
176
     1
 90
        0
176
     1
 40
0.6
176
     1
 40
30.0
176
     1
 62
     7
420
 16777215
176
     1
 90
        1
176
     1
 90
        4
176
     1
 62
     7
176
     1
 62
   257
176
     1
 90
        1
176
     1
 90
        1
176
     1
 40
1.0
176
     1
 90
       12
176
     1
 62
     7
176
     1
 40
1.0
176
     1
 90
        1
176
     1
 90
        6
176
     1
 90
        2
176
     1
 62
     7
176
     1
 90
        5
176
     1
 90
        0
176
     1
 90
        0
176
     1
290
     0
176
     1
 90
        1
176
     1
 40
0.0
176
     1
 90
        0
176
     1
290
     0
176
     1
290
     1
176
     1
290
     1
176
     1
290
     0
176
     1
290
     0
176
     1
290
     0
176
     1
290
     0
176
     1
290
     0
176
     1
290
     0
176
     1
 90
       50
176
     1
 40
0.0
176
     1
 40
1.0
176
     1
 90
        0
176
     1
 62
    18
420
        0
176
     1
 90
       50
176
     1
 90
        3
176
     1
 62
     5
420
      255
176
     1
290
     0
176
     1
 90
       50
176
     1
 90
       50
176
     1
 90
       50
176
     1
290
     0
176
     1
 90
       50
176
     1
 62
   256
176
     0
 40
1.0
176
     0
 90
        2
176
     1
  1
strokes_ogs.tif
176
     1
290
     0
176
     1
 40
1.0
176
     1
 40
1.0
176
     1
  0
VISUALSTYLE
  5
30
102
{ACAD_REACTORS
330
2A
102
}
330
2A
100
AcDbVisualStyle
  2
Wireframe
 70
     5
177
     3
291
     0
 70
    58
 90
        0
176
     1
 90
        2
176
     1
 90
        0
176
     1
 90
        0
176
     1
 40
0.6
176
     1
 40
30.0
176
     1
 62
     7
420
 16777215
176
     1
 90
        1
176
     1
 90
        4
176
     1
 62
     7
176
     1
 62
   257
176
     1
 90
        1
176
     1
 90
        1
176
     1
 40
1.0
176
     1
 90
        0
176
     1
 62
   257
176
     1
 40
1.0
176
     1
 90
        1
176
     1
 90
        6
176
     1
 90
        2
176
     1
 62
     7
176
     1
 90
        3
176
     1
 90
        0
176
     1
 90
        0
176
     1
290
     0
176
     1
 90
        1
176
     1
 40
0.0
176
     1
 90
        0
176
     1
290
     0
176
     1
290
     1
176
     1
290
     1
176
     1
290
     0
176
     1
290
     0
176
     1
290
     0
176
     1
290
     0
176
     1
290
     0
176
     1
290
     0
176
     1
 90
       50
176
     1
 40
0.0
176
     1
 40
1.0
176
     1
 90
        0
176
     1
 62
    18
420
        0
176
     1
 90
       50
176
     1
 90
        3
176
     1
 62
     5
420
      255
176
     1
290
     0
176
     1
 90
       50
176
     1
 90
       50
176
     1
 90
       50
176
     1
290
     0
176
     1
 90
       50
176
     1
 62
   256
176
     0
 40
1.0
176
     0
 90
        2
176
     1
  1
strokes_ogs.tif
176
     1
290
     0
176
     1
 40
1.0
176
     1
 40
1.0
176
     1
  0
VISUALSTYLE
  5
40
102
{ACAD_REACTORS
330
2A
102
}
330
2A
100
AcDbVisualStyle
  2
X-Ray
 70
    25
177
     3
291
     0
 70
    58
 90
        2
176
     1
 90
        2
176
     1
 90
        1
176
     1
 90
        1
176
     1
 40
0.5
176
     1
 40
30.0
176
     1
 62
     7
420
 16777215
176
     1
 90
        1
176
     1
 90
        0
176
     1
 62
     7
176
     1
 62
   257
176
     1
 90
        1
176
     1
 90
        1
176
     1
 40
1.0
176
     1
 90
        8
176
     1
 62
     7
176
     1
 40
1.0
176
     1
 90
        1
176
     1
 90
        6
176
     1
 90
        2
176
     1
 62
     7
176
     1
 90
        3
176
     1
 90
        0
176
     1
 90
        0
176
     1
290
     0
176
     1
 90
       13
176
     1
 40
0.0
176
     1
 90
        0
176
     1
290
     0
176
     1
290
     1
176
     1
290
     1
176
     1
290
     0
176
     1
290
     0
176
     1
290
     0
176
     1
290
     0
176
     1
290
     0
176
     1
290
     0
176
     1
 90
       50
176
     1
 40
0.0
176
     1
 40
1.0
176
     1
 90
        0
176
     1
 62
    18
420
        0
176
     1
 90
       50
176
     1
 90
        3
176
     1
 62
     5
420
      255
176
     1
290
     0
176
     1
 90
       50
176
     1
 90
       50
176
     1
 90
       50
176
     1
290
     0
176
     1
 90
       50
176
     1
 62
   256
176
     0
 40
1.0
176
     0
 90
        2
176
     1
  1
strokes_ogs.tif
176
     1
290
     0
176
     1
 40
1.0
176
     1
 40
1.0
176
     1
  0
DICTIONARYVAR
  5
1E5
102
{ACAD_REACTORS
330
1E4
102
}
330
1E4
100
DictionaryVariables
280
     0
  1
1:1
  0
DICTIONARYVAR
  5
1EA
102
{ACAD_REACTORS
330
1E4
102
}
330
1E4
100
DictionaryVariables
280
     0
  1
Standard
  0
DICTIONARYVAR
  5
1E9
102
{ACAD_REACTORS
330
1E4
102
}
330
1E4
100
DictionaryVariables
280
     0
  1
Standard
  0
DICTIONARY
  5
1E6
330
6A
100
AcDbDictionary
280
     1
281
     1
  3
ACAD_ROUNDTRIP_2008_TABLESTYLE_CELLSTYLEMAP
360
1E7
  0
CELLSTYLEMAP
  5
1E7
102
{ACAD_REACTORS
330
1E6
102
}
330
1E6
100
AcDbCellStyleMap
 90
        3
300
CELLSTYLE
  1
TABLEFORMAT_BEGIN
 90
        5
170
     1
 91
        0
 92
    32768
 62
   257
 93
        1
300
CONTENTFORMAT
  1
CONTENTFORMAT_BEGIN
 90
        0
 91
        0
 92
        4
 93
        0
300

 40
0.0
140
1.0
 94
        5
 62
     0
340
11
144
0.25
309
CONTENTFORMAT_END
171
     1
301
MARGIN
  1
CELLMARGIN_BEGIN
 40
0.06
 40
0.06
 40
0.06
 40
0.06
 40
0.06
 40
0.06
309
CELLMARGIN_END
 94
        6
 95
        1
302
GRIDFORMAT
  1
GRIDFORMAT_BEGIN
 90
        0
 91
        1
 62
     0
 92
       -2
340
14
 93
        0
 40
0.045
309
GRIDFORMAT_END
 95
        2
302
GRIDFORMAT
  1
GRIDFORMAT_BEGIN
 90
        0
 91
        1
 62
     0
 92
       -2
340
14
 93
        0
 40
0.045
309
GRIDFORMAT_END
 95
        4
302
GRIDFORMAT
  1
GRIDFORMAT_BEGIN
 90
        0
 91
        1
 62
     0
 92
       -2
340
14
 93
        0
 40
0.045
309
GRIDFORMAT_END
 95
        8
302
GRIDFORMAT
  1
GRIDFORMAT_BEGIN
 90
        0
 91
        1
 62
     0
 92
       -2
340
14
 93
        0
 40
0.045
309
GRIDFORMAT_END
 95
       16
302
GRIDFORMAT
  1
GRIDFORMAT_BEGIN
 90
        0
 91
        1
 62
     0
 92
       -2
340
14
 93
        0
 40
0.045
309
GRIDFORMAT_END
 95
       32
302
GRIDFORMAT
  1
GRIDFORMAT_BEGIN
 90
        0
 91
        1
 62
     0
 92
       -2
340
14
 93
        0
 40
0.045
309
GRIDFORMAT_END
309
TABLEFORMAT_END
  1
CELLSTYLE_BEGIN
 90
        1
 91
        1
300
_TITLE
309
CELLSTYLE_END
300
CELLSTYLE
  1
TABLEFORMAT_BEGIN
 90
        5
170
     1
 91
        0
 92
        0
 62
   257
 93
        1
300
CONTENTFORMAT
  1
CONTENTFORMAT_BEGIN
 90
        0
 91
        0
 92
        4
 93
        0
300

 40
0.0
140
1.0
 94
        5
 62
     0
340
11
144
0.18
309
CONTENTFORMAT_END
171
     1
301
MARGIN
  1
CELLMARGIN_BEGIN
 40
0.06
 40
0.06
 40
0.06
 40
0.06
 40
0.06
 40
0.06
309
CELLMARGIN_END
 94
        6
 95
        1
302
GRIDFORMAT
  1
GRIDFORMAT_BEGIN
 90
        0
 91
        1
 62
     0
 92
       -2
340
14
 93
        0
 40
0.045
309
GRIDFORMAT_END
 95
        2
302
GRIDFORMAT
  1
GRIDFORMAT_BEGIN
 90
        0
 91
        1
 62
     0
 92
       -2
340
14
 93
        0
 40
0.045
309
GRIDFORMAT_END
 95
        4
302
GRIDFORMAT
  1
GRIDFORMAT_BEGIN
 90
        0
 91
        1
 62
     0
 92
       -2
340
14
 93
        0
 40
0.045
309
GRIDFORMAT_END
 95
        8
302
GRIDFORMAT
  1
GRIDFORMAT_BEGIN
 90
        0
 91
        1
 62
     0
 92
       -2
340
14
 93
        0
 40
0.045
309
GRIDFORMAT_END
 95
       16
302
GRIDFORMAT
  1
GRIDFORMAT_BEGIN
 90
        0
 91
        1
 62
     0
 92
       -2
340
14
 93
        0
 40
0.045
309
GRIDFORMAT_END
 95
       32
302
GRIDFORMAT
  1
GRIDFORMAT_BEGIN
 90
        0
 91
        1
 62
     0
 92
       -2
340
14
 93
        0
 40
0.045
309
GRIDFORMAT_END
309
TABLEFORMAT_END
  1
CELLSTYLE_BEGIN
 90
        2
 91
        1
300
_HEADER
309
CELLSTYLE_END
300
CELLSTYLE
  1
TABLEFORMAT_BEGIN
 90
        5
170
     1
 91
        0
 92
        0
 62
   257
 93
        1
300
CONTENTFORMAT
  1
CONTENTFORMAT_BEGIN
 90
        0
 91
        0
 92
        4
 93
        0
300

 40
0.0
140
1.0
 94
        2
 62
     0
340
11
144
0.18
309
CONTENTFORMAT_END
171
     1
301
MARGIN
  1
CELLMARGIN_BEGIN
 40
0.06
 40
0.06
 40
0.06
 40
0.06
 40
0.06
 40
0.06
309
CELLMARGIN_END
 94
        6
 95
        1
302
GRIDFORMAT
  1
GRIDFORMAT_BEGIN
 90
        0
 91
        1
 62
     0
 92
       -2
340
14
 93
        0
 40
0.045
309
GRIDFORMAT_END
 95
        2
302
GRIDFORMAT
  1
GRIDFORMAT_BEGIN
 90
        0
 91
        1
 62
     0
 92
       -2
340
14
 93
        0
 40
0.045
309
GRIDFORMAT_END
 95
        4
302
GRIDFORMAT
  1
GRIDFORMAT_BEGIN
 90
        0
 91
        1
 62
     0
 92
       -2
340
14
 93
        0
 40
0.045
309
GRIDFORMAT_END
 95
        8
302
GRIDFORMAT
  1
GRIDFORMAT_BEGIN
 90
        0
 91
        1
 62
     0
 92
       -2
340
14
 93
        0
 40
0.045
309
GRIDFORMAT_END
 95
       16
302
GRIDFORMAT
  1
GRIDFORMAT_BEGIN
 90
        0
 91
        1
 62
     0
 92
       -2
340
14
 93
        0
 40
0.045
309
GRIDFORMAT_END
 95
       32
302
GRIDFORMAT
  1
GRIDFORMAT_BEGIN
 90
        0
 91
        1
 62
     0
 92
       -2
340
14
 93
        0
 40
0.045
309
GRIDFORMAT_END
309
TABLEFORMAT_END
  1
CELLSTYLE_BEGIN
 90
        3
 91
        2
300
_DATA
309
CELLSTYLE_END
  0
ENDSEC
  0
EOF