0
SECTION
  2
HEADER
  9
$ACADVER
  1
AC1027
  9
$ACADMAINTVER
 70
     8
  9
$DWGCODEPAGE
  3
ANSI_1252
  9
$REQUIREDVERSIONS
160
                 0
  9
$COMMENTS
  1
File was created by Cadenas
  9
$CUSTOMPROPERTYTAG
  1
NN
  9
$CUSTOMPROPERTY
  1
Type C Pillow Block 4-Bolt Inch Bore
  9
$CUSTOMPROPERTYTAG
  1
NT
  9
$CUSTOMPROPERTY
  1
Type C Bearings
  9
$CUSTOMPROPERTYTAG
  1
NB
  9
$CUSTOMPROPERTY
  1
087192
  9
$CUSTOMPROPERTYTAG
  1
NBSYN
  9
$CUSTOMPROPERTY
  1
$PN.
  9
$CUSTOMPROPERTYTAG
  1
LINA
  9
$CUSTOMPROPERTY
  1
087192
  9
$CUSTOMPROPERTYTAG
  1
SS
  9
$CUSTOMPROPERTY
  1
2-15/16
  9
$CUSTOMPROPERTYTAG
  1
TYPE
  9
$CUSTOMPROPERTY
  1
Gray Iron Expansion
  9
$CUSTOMPROPERTYTAG
  1
PN
  9
$CUSTOMPROPERTY
  1
087192
  9
$CUSTOMPROPERTYTAG
  1
DESCRIPTION
  9
$CUSTOMPROPERTY
  1
P4B-C-215E
  9
$CUSTOMPROPERTYTAG
  1
WEIGHT
  9
$CUSTOMPROPERTY
  1
85
  9
$CUSTOMPROPERTYTAG
  1
A
  9
$CUSTOMPROPERTY
  1
6-1/2
  9
$CUSTOMPROPERTYTAG
  1
B
  9
$CUSTOMPROPERTY
  1
14-1/4
  9
$CUSTOMPROPERTYTAG
  1
C
  9
$CUSTOMPROPERTY
  1
4-3/4
  9
$CUSTOMPROPERTYTAG
  1
DMIN
  9
$CUSTOMPROPERTY
  1
11
  9
$CUSTOMPROPERTYTAG
  1
DMAX
  9
$CUSTOMPROPERTY
  1
12-1/2
  9
$CUSTOMPROPERTYTAG
  1
E
  9
$CUSTOMPROPERTY
  1
2-3/4
  9
$CUSTOMPROPERTYTAG
  1
F
  9
$CUSTOMPROPERTY
  1
5/8
  9
$CUSTOMPROPERTYTAG
  1
G
  9
$CUSTOMPROPERTY
  1
1-1/3
  9
$CUSTOMPROPERTYTAG
  1
H
  9
$CUSTOMPROPERTY
  1
3-3/4
  9
$CUSTOMPROPERTYTAG
  1
J
  9
$CUSTOMPROPERTY
  1
9-7/8
  9
$CUSTOMPROPERTYTAG
  1
L
  9
$CUSTOMPROPERTY
  1
5-7/16
  9
$CUSTOMPROPERTYTAG
  1
M
  9
$CUSTOMPROPERTY
  1
4-3/4
  9
$CUSTOMPROPERTYTAG
  1
P
  9
$CUSTOMPROPERTY
  1
9-7/8
  9
$CUSTOMPROPERTYTAG
  1
EXP
  9
$CUSTOMPROPERTY
  1
5/8
  9
$CUSTOMPROPERTYTAG
  1
COMPANY
  9
$CUSTOMPROPERTY
  1
baldor
  9
$INSBASE
 10
0.0
 20
0.0
 30
0.0
  9
$EXTMIN
 10
1.000000000000000E+20
 20
1.000000000000000E+20
 30
1.000000000000000E+20
  9
$EXTMAX
 10
-1.000000000000000E+20
 20
-1.000000000000000E+20
 30
-1.000000000000000E+20
  9
$LIMMIN
 10
0.0
 20
0.0
  9
$LIMMAX
 10
12.0
 20
9.0
  9
$ORTHOMODE
 70
     0
  9
$REGENMODE
 70
     1
  9
$FILLMODE
 70
     1
  9
$QTEXTMODE
 70
     0
  9
$MIRRTEXT
 70
     1
  9
$LTSCALE
 40
1.0
  9
$ATTMODE
 70
     1
  9
$TEXTSIZE
 40
0.2
  9
$TRACEWID
 40
0.05
  9
$TEXTSTYLE
  7
Standard
  9
$CLAYER
  8
0
  9
$CELTYPE
  6
ByLayer
  9
$CECOLOR
 62
   256
  9
$CELTSCALE
 40
1.0
  9
$DISPSILH
 70
     0
  9
$DIMSCALE
 40
1.0
  9
$DIMASZ
 40
0.18
  9
$DIMEXO
 40
0.0625
  9
$DIMDLI
 40
0.38
  9
$DIMRND
 40
0.0
  9
$DIMDLE
 40
0.0
  9
$DIMEXE
 40
0.18
  9
$DIMTP
 40
0.0
  9
$DIMTM
 40
0.0
  9
$DIMTXT
 40
0.18
  9
$DIMCEN
 40
0.09
  9
$DIMTSZ
 40
0.0
  9
$DIMTOL
 70
     0
  9
$DIMLIM
 70
     0
  9
$DIMTIH
 70
     1
  9
$DIMTOH
 70
     1
  9
$DIMSE1
 70
     0
  9
$DIMSE2
 70
     0
  9
$DIMTAD
 70
     0
  9
$DIMZIN
 70
     0
  9
$DIMBLK
  1

  9
$DIMASO
 70
     1
  9
$DIMSHO
 70
     1
  9
$DIMPOST
  1

  9
$DIMAPOST
  1

  9
$DIMALT
 70
     0
  9
$DIMALTD
 70
     2
  9
$DIMALTF
 40
25.4
  9
$DIMLFAC
 40
1.0
  9
$DIMTOFL
 70
     0
  9
$DIMTVP
 40
0.0
  9
$DIMTIX
 70
     0
  9
$DIMSOXD
 70
     0
  9
$DIMSAH
 70
     0
  9
$DIMBLK1
  1

  9
$DIMBLK2
  1

  9
$DIMSTYLE
  2
Standard
  9
$DIMCLRD
 70
     0
  9
$DIMCLRE
 70
     0
  9
$DIMCLRT
 70
     0
  9
$DIMTFAC
 40
1.0
  9
$DIMGAP
 40
0.09
  9
$DIMJUST
 70
     0
  9
$DIMSD1
 70
     0
  9
$DIMSD2
 70
     0
  9
$DIMTOLJ
 70
     1
  9
$DIMTZIN
 70
     0
  9
$DIMALTZ
 70
     0
  9
$DIMALTTZ
 70
     0
  9
$DIMUPT
 70
     0
  9
$DIMDEC
 70
     4
  9
$DIMTDEC
 70
     4
  9
$DIMALTU
 70
     2
  9
$DIMALTTD
 70
     2
  9
$DIMTXSTY
  7
Standard
  9
$DIMAUNIT
 70
     0
  9
$DIMADEC
 70
     0
  9
$DIMALTRND
 40
0.0
  9
$DIMAZIN
 70
     0
  9
$DIMDSEP
 70
    46
  9
$DIMATFIT
 70
     3
  9
$DIMFRAC
 70
     0
  9
$DIMLDRBLK
  1

  9
$DIMLUNIT
 70
     2
  9
$DIMLWD
 70
    -2
  9
$DIMLWE
 70
    -2
  9
$DIMTMOVE
 70
     0
  9
$DIMFXL
 40
1.0
  9
$DIMFXLON
 70
     0
  9
$DIMJOGANG
 40
0.7853981633974483
  9
$DIMTFILL
 70
     0
  9
$DIMTFILLCLR
 70
     0
  9
$DIMARCSYM
 70
     0
  9
$DIMLTYPE
  6

  9
$DIMLTEX1
  6

  9
$DIMLTEX2
  6

  9
$DIMTXTDIRECTION
 70
     0
  9
$LUNITS
 70
     2
  9
$LUPREC
 70
     4
  9
$SKETCHINC
 40
0.1
  9
$FILLETRAD
 40
0.5
  9
$AUNITS
 70
     0
  9
$AUPREC
 70
     0
  9
$MENU
  1
.
  9
$ELEVATION
 40
0.0
  9
$PELEVATION
 40
0.0
  9
$THICKNESS
 40
0.0
  9
$LIMCHECK
 70
     0
  9
$CHAMFERA
 40
0.0
  9
$CHAMFERB
 40
0.0
  9
$CHAMFERC
 40
0.0
  9
$CHAMFERD
 40
0.0
  9
$SKPOLY
 70
     0
  9
$TDCREATE
 40
2458168.979259583
  9
$TDUCREATE
 40
2458168.937592917
  9
$TDUPDATE
 40
2458168.979259757
  9
$TDUUPDATE
 40
2458168.93759309
  9
$TDINDWG
 40
0.0000000116
  9
$TDUSRTIMER
 40
0.0000000116
  9
$USRTIMER
 70
     1
  9
$ANGBASE
 50
0.0
  9
$ANGDIR
 70
     0
  9
$PDMODE
 70
     0
  9
$PDSIZE
 40
0.0
  9
$PLINEWID
 40
0.0
  9
$SPLFRAME
 70
     0
  9
$SPLINETYPE
 70
     6
  9
$SPLINESEGS
 70
     8
  9
$HANDSEED
  5
1EB
  9
$SURFTAB1
 70
     6
  9
$SURFTAB2
 70
     6
  9
$SURFTYPE
 70
     6
  9
$SURFU
 70
     6
  9
$SURFV
 70
     6
  9
$UCSBASE
  2

  9
$UCSNAME
  2

  9
$UCSORG
 10
0.0
 20
0.0
 30
0.0
  9
$UCSXDIR
 10
1.0
 20
0.0
 30
0.0
  9
$UCSYDIR
 10
0.0
 20
1.0
 30
0.0
  9
$UCSORTHOREF
  2

  9
$UCSORTHOVIEW
 70
     0
  9
$UCSORGTOP
 10
0.0
 20
0.0
 30
0.0
  9
$UCSORGBOTTOM
 10
0.0
 20
0.0
 30
0.0
  9
$UCSORGLEFT
 10
0.0
 20
0.0
 30
0.0
  9
$UCSORGRIGHT
 10
0.0
 20
0.0
 30
0.0
  9
$UCSORGFRONT
 10
0.0
 20
0.0
 30
0.0
  9
$UCSORGBACK
 10
0.0
 20
0.0
 30
0.0
  9
$PUCSBASE
  2

  9
$PUCSNAME
  2

  9
$PUCSORG
 10
0.0
 20
0.0
 30
0.0
  9
$PUCSXDIR
 10
1.0
 20
0.0
 30
0.0
  9
$PUCSYDIR
 10
0.0
 20
1.0
 30
0.0
  9
$PUCSORTHOREF
  2

  9
$PUCSORTHOVIEW
 70
     0
  9
$PUCSORGTOP
 10
0.0
 20
0.0
 30
0.0
  9
$PUCSORGBOTTOM
 10
0.0
 20
0.0
 30
0.0
  9
$PUCSORGLEFT
 10
0.0
 20
0.0
 30
0.0
  9
$PUCSORGRIGHT
 10
0.0
 20
0.0
 30
0.0
  9
$PUCSORGFRONT
 10
0.0
 20
0.0
 30
0.0
  9
$PUCSORGBACK
 10
0.0
 20
0.0
 30
0.0
  9
$USERI1
 70
     0
  9
$USERI2
 70
     0
  9
$USERI3
 70
     0
  9
$USERI4
 70
     0
  9
$USERI5
 70
     0
  9
$USERR1
 40
0.0
  9
$USERR2
 40
0.0
  9
$USERR3
 40
0.0
  9
$USERR4
 40
0.0
  9
$USERR5
 40
0.0
  9
$WORLDVIEW
 70
     1
  9
$SHADEDGE
 70
     3
  9
$SHADEDIF
 70
    70
  9
$TILEMODE
 70
     1
  9
$MAXACTVP
 70
    64
  9
$PINSBASE
 10
0.0
 20
0.0
 30
0.0
  9
$PLIMCHECK
 70
     0
  9
$PEXTMIN
 10
1.000000000000000E+20
 20
1.000000000000000E+20
 30
1.000000000000000E+20
  9
$PEXTMAX
 10
-1.000000000000000E+20
 20
-1.000000000000000E+20
 30
-1.000000000000000E+20
  9
$PLIMMIN
 10
0.0
 20
0.0
  9
$PLIMMAX
 10
12.0
 20
9.0
  9
$UNITMODE
 70
     0
  9
$VISRETAIN
 70
     1
  9
$PLINEGEN
 70
     0
  9
$PSLTSCALE
 70
     1
  9
$TREEDEPTH
 70
  3020
  9
$CMLSTYLE
  2
Standard
  9
$CMLJUST
 70
     0
  9
$CMLSCALE
 40
1.0
  9
$PROXYGRAPHICS
 70
     1
  9
$MEASUREMENT
 70
     0
  9
$CELWEIGHT
370
    -1
  9
$ENDCAPS
280
     0
  9
$JOINSTYLE
280
     0
  9
$LWDISPLAY
290
     0
  9
$INSUNITS
 70
     1
  9
$HYPERLINKBASE
  1

  9
$STYLESHEET
  1

  9
$XEDIT
290
     1
  9
$CEPSNTYPE
380
     0
  9
$PSTYLEMODE
290
     1
  9
$FINGERPRINTGUID
  2
{3BAE9293-1536-4170-917A-6B65634FC1F1}
  9
$VERSIONGUID
  2
{FAEB1C32-E019-11D5-929B-00C0DF256EC4}
  9
$EXTNAMES
290
     1
  9
$PSVPSCALE
 40
0.0
  9
$OLESTARTUP
290
     0
  9
$SORTENTS
280
   127
  9
$INDEXCTL
280
     0
  9
$HIDETEXT
280
     1
  9
$XCLIPFRAME
280
     2
  9
$HALOGAP
280
     0
  9
$OBSCOLOR
 70
   257
  9
$OBSLTYPE
280
     0
  9
$INTERSECTIONDISPLAY
280
     0
  9
$INTERSECTIONCOLOR
 70
   257
  9
$DIMASSOC
280
     2
  9
$PROJECTNAME
  1

  9
$CAMERADISPLAY
290
     0
  9
$LENSLENGTH
 40
50.0
  9
$CAMERAHEIGHT
 40
0.0
  9
$STEPSPERSEC
 40
2.0
  9
$STEPSIZE
 40
6.0
  9
$3DDWFPREC
 40
2.0
  9
$PSOLWIDTH
 40
0.25
  9
$PSOLHEIGHT
 40
4.0
  9
$LOFTANG1
 40
1.570796326794897
  9
$LOFTANG2
 40
1.570796326794897
  9
$LOFTMAG1
 40
0.0
  9
$LOFTMAG2
 40
0.0
  9
$LOFTPARAM
 70
     7
  9
$LOFTNORMALS
280
     1
  9
$LATITUDE
 40
37.795
  9
$LONGITUDE
 40
-122.394
  9
$NORTHDIRECTION
 40
0.0
  9
$TIMEZONE
 70
 -8000
  9
$LIGHTGLYPHDISPLAY
280
     1
  9
$TILEMODELIGHTSYNCH
280
     1
  9
$CMATERIAL
347
44
  9
$SOLIDHIST
280
     0
  9
$SHOWHIST
280
     1
  9
$DWFFRAME
280
     2
  9
$DGNFRAME
280
     2
  9
$REALWORLDSCALE
290
     1
  9
$INTERFERECOLOR
 62
   256
  9
$CSHADOW
280
     0
  9
$SHADOWPLANELOCATION
 40
0.0
  0
ENDSEC
  0
SECTION
  2
CLASSES
  0
CLASS
  1
ACDBDICTIONARYWDFLT
  2
AcDbDictionaryWithDefault
  3
ObjectDBX Classes
 90
        0
 91
        4
280
     0
281
     0
  0
CLASS
  1
VISUALSTYLE
  2
AcDbVisualStyle
  3
ObjectDBX Classes
 90
     4095
 91
        4
280
     0
281
     0
  0
CLASS
  1
MATERIAL
  2
AcDbMaterial
  3
ObjectDBX Classes
 90
     1153
 91
        4
280
     0
281
     0
  0
CLASS
  1
SCALE
  2
AcDbScale
  3
ObjectDBX Classes
 90
     1153
 91
        4
280
     0
281
     0
  0
CLASS
  1
TABLESTYLE
  2
AcDbTableStyle
  3
ObjectDBX Classes
 90
     4095
 91
        4
280
     0
281
     0
  0
CLASS
  1
MLEADERSTYLE
  2
AcDbMLeaderStyle
  3
ACDB_MLEADERSTYLE_CLASS
 90
     4095
 91
        4
280
     0
281
     0
  0
CLASS
  1
SUN
  2
AcDbSun
  3
SCENEOE
 90
     1153
 91
        4
280
     0
281
     0
  0
CLASS
  1
DICTIONARYVAR
  2
AcDbDictionaryVar
  3
ObjectDBX Classes
 90
        0
 91
        4
280
     0
281
     0
  0
CLASS
  1
CELLSTYLEMAP
  2
AcDbCellStyleMap
  3
ObjectDBX Classes
 90
     1152
 91
        4
280
     0
281
     0
  0
ENDSEC
  0
SECTION
  2
TABLES
  0
TABLE
  2
VPORT
  5
8
330
0
100
AcDbSymbolTable
 70
     1
  0
VPORT
  5
29
330
8
100
AcDbSymbolTableRecord
100
AcDbViewportTableRecord
  2
*Active
 70
     0
 10
0.0
 20
0.0
 11
1.0
 21
1.0
 12
0.0000000000000178
 22
0.2368749999999995
 13
0.0
 23
0.0
 14
0.5
 24
0.5
 15
0.5
 25
0.5
 16
0.0
 26
0.0
 36
1.0
 17
0.0
 27
0.0
 37
0.0
 40
10.173225
 41
0.7168818147637541
 42
50.0
 43
0.0
 44
0.0
 50
0.0
 51
0.0
 71
     0
 72
   100
 73
     1
 74
     3
 75
     0
 76
     0
 77
     0
 78
     0
281
     0
 65
     1
110
0.0
120
0.0
130
0.0
111
1.0
121
0.0
131
0.0
112
0.0
122
1.0
132
0.0
 79
     0
146
0.0
348
2F
 60
     3
 61
     5
292
     1
282
     1
141
0.0
142
0.0
 63
   250
361
6D
  0
ENDTAB
  0
TABLE
  2
LTYPE
  5
5
330
0
100
AcDbSymbolTable
 70
     3
  0
LTYPE
  5
14
330
5
100
AcDbSymbolTableRecord
100
AcDbLinetypeTableRecord
  2
ByBlock
 70
     0
  3

 72
    65
 73
     0
 40
0.0
  0
LTYPE
  5
15
330
5
100
AcDbSymbolTableRecord
100
AcDbLinetypeTableRecord
  2
ByLayer
 70
     0
  3

 72
    65
 73
     0
 40
0.0
  0
LTYPE
  5
16
330
5
100
AcDbSymbolTableRecord
100
AcDbLinetypeTableRecord
  2
Continuous
 70
     0
  3
Solid line
 72
    65
 73
     0
 40
0.0
  0
LTYPE
  5
B3
330
5
100
AcDbSymbolTableRecord
100
AcDbLinetypeTableRecord
  2
Dashed
 70
     0
  3

 72
    65
 73
     2
 40
2.0
 49
1.0
 74
     0
 49
-1.0
 74
     0
  0
LTYPE
  5
DF
330
5
100
AcDbSymbolTableRecord
100
AcDbLinetypeTableRecord
  2
Center
 70
     0
  3

 72
    65
 73
     4
 40
1.5
 49
0.45
 74
     0
 49
-0.5
 74
     0
 49
0.05
 74
     0
 49
-0.5
 74
     0
  0
ENDTAB
  0
TABLE
  2
LAYER
  5
2
330
0
100
AcDbSymbolTable
 70
     7
  0
LAYER
  5
10
330
2
100
AcDbSymbolTableRecord
100
AcDbLayerTableRecord
  2
0
 70
     0
 62
     7
  6
Continuous
370
    -3
390
F
347
46
348
0
  0
LAYER
  5
72
330
2
100
AcDbSymbolTableRecord
100
AcDbLayerTableRecord
  2
AM_6
 70
     0
 62
    -2
  6
Continuous
370
    35
390
F
347
46
348
0
  0
LAYER
  5
B4
330
2
100
AcDbSymbolTableRecord
100
AcDbLayerTableRecord
  2
AM_9
 70
     0
 62
     6
  6
Dashed
370
    25
390
F
347
46
348
0
  0
LAYER
  5
E0
330
2
100
AcDbSymbolTableRecord
100
AcDbLayerTableRecord
  2
AM_7
 70
     0
 62
     7
  6
Center
370
    25
390
F
347
46
348
0
  0
LAYER
  5
126
330
2
100
AcDbSymbolTableRecord
100
AcDbLayerTableRecord
  2
AM_4
 70
     0
 62
     7
  6
Continuous
370
    50
390
F
347
46
348
0
  0
LAYER
  5
175
330
2
100
AcDbSymbolTableRecord
100
AcDbLayerTableRecord
  2
AM_5
 70
     0
 62
     3
  6
Continuous
370
    25
390
F
347
46
348
0
  0
LAYER
  5
1DE
330
2
100
AcDbSymbolTableRecord
100
AcDbLayerTableRecord
  2
ConnectionPoints
 70
     0
 62
     7
  6
Continuous
370
    50
390
F
347
46
348
0
  0
ENDTAB
  0
TABLE
  2
STYLE
  5
3
330
0
100
AcDbSymbolTable
 70
     1
  0
STYLE
  5
11
330
3
100
AcDbSymbolTableRecord
100
AcDbTextStyleTableRecord
  2
Standard
 70
     0
 40
0.0
 41
1.0
 50
0.0
 71
     0
 42
0.2
  3
txt
  4

  0
ENDTAB
  0
TABLE
  2
VIEW
  5
6
330
0
100
AcDbSymbolTable
 70
     0
  0
ENDTAB
  0
TABLE
  2
UCS
  5
7
330
0
100
AcDbSymbolTable
 70
     0
  0
ENDTAB
  0
TABLE
  2
APPID
  5
9
330
0
100
AcDbSymbolTable
 70
     1
  0
APPID
  5
12
330
9
100
AcDbSymbolTableRecord
100
AcDbRegAppTableRecord
  2
ACAD
 70
     0
  0
ENDTAB
  0
TABLE
  2
DIMSTYLE
  5
A
330
0
100
AcDbSymbolTable
 70
     1
100
AcDbDimStyleTable
  0
DIMSTYLE
105
27
330
A
100
AcDbSymbolTableRecord
100
AcDbDimStyleTableRecord
  2
Standard
 70
     0
178
     0
340
11
  0
ENDTAB
  0
TABLE
  2
BLOCK_RECORD
  5
1
330
0
100
AcDbSymbolTable
 70
     5
  0
BLOCK_RECORD
  5
1F
330
1
100
AcDbSymbolTableRecord
100
AcDbBlockTableRecord
  2
*Model_Space
340
22
 70
     0
280
     1
281
     0
  0
BLOCK_RECORD
  5
1B
330
1
100
AcDbSymbolTableRecord
100
AcDbBlockTableRecord
  2
*Paper_Space
340
1E
 70
     0
280
     1
281
     0
  0
BLOCK_RECORD
  5
23
330
1
100
AcDbSymbolTableRecord
100
AcDbBlockTableRecord
  2
*Paper_Space0
340
26
 70
     0
280
     1
281
     0
  0
BLOCK_RECORD
  5
6E
330
1
100
AcDbSymbolTableRecord
100
AcDbBlockTableRecord
  2
1_087192_2
340
0
102
{BLKREFS
331
6F
102
}
 70
     0
280
     1
281
     0
  0
BLOCK_RECORD
  5
8C
330
1
100
AcDbSymbolTableRecord
100
AcDbBlockTableRecord
  2
2_065296iu_0_in_087192_2
340
0
102
{BLKREFS
331
8D
102
}
 70
     0
280
     1
281
     0
  0
BLOCK_RECORD
  5
E2
330
1
100
AcDbSymbolTableRecord
100
AcDbBlockTableRecord
  2
3_065296i_0_in_087192_2
340
0
102
{BLKREFS
331
E3
102
}
 70
     0
280
     1
281
     0
  0
BLOCK_RECORD
  5
141
330
1
100
AcDbSymbolTableRecord
100
AcDbBlockTableRecord
  2
4_087192p_0_in_087192_2
340
0
102
{BLKREFS
331
142
102
}
 70
     0
280
     1
281
     0
  0
ENDTAB
  0
ENDSEC
  0
SECTION
  2
BLOCKS
  0
BLOCK
  5
20
330
1F
100
AcDbEntity
  8
0
100
AcDbBlockBegin
  2
*Model_Space
 70
     0
 10
0.0
 20
0.0
 30
0.0
  3
*Model_Space
  1

  0
ENDBLK
  5
21
330
1F
100
AcDbEntity
  8
0
100
AcDbBlockEnd
  0
BLOCK
  5
1C
330
1B
100
AcDbEntity
 67
     1
  8
0
100
AcDbBlockBegin
  2
*Paper_Space
 70
     0
 10
0.0
 20
0.0
 30
0.0
  3
*Paper_Space
  1

  0
ENDBLK
  5
1D
330
1B
100
AcDbEntity
 67
     1
  8
0
100
AcDbBlockEnd
  0
BLOCK
  5
24
330
23
100
AcDbEntity
  8
0
100
AcDbBlockBegin
  2
*Paper_Space0
 70
     0
 10
0.0
 20
0.0
 30
0.0
  3
*Paper_Space0
  1

  0
ENDBLK
  5
25
330
23
100
AcDbEntity
  8
0
100
AcDbBlockEnd
  0
BLOCK
  5
70
330
6E
100
AcDbEntity
  8
0
100
AcDbBlockBegin
  2
1_087192_2
 70
     2
 10
0.0
 20
0.0
 30
0.0
  3
1_087192_2
  1

  0
ATTDEF
  5
73
330
6E
100
AcDbEntity
  8
AM_6
100
AcDbText
 10
8.575000000000014
 20
5.22375
 30
0.0
 40
0.5
  1
Type C Pillow Block 4-Bolt Inch Bore
100
AcDbAttributeDefinition
  3

  2
NN
 70
     8
280
     0
  0
ATTDEF
  5
74
330
6E
100
AcDbEntity
  8
AM_6
100
AcDbText
 10
8.575000000000014
 20
4.72375
 30
0.0
 40
0.5
  1
Type C Bearings
100
AcDbAttributeDefinition
  3

  2
NT
 70
     8
280
     0
  0
ATTDEF
  5
75
330
6E
100
AcDbEntity
  8
AM_6
100
AcDbText
 10
8.575000000000014
 20
4.22375
 30
0.0
 40
0.5
  1
087192
100
AcDbAttributeDefinition
  3

  2
NB
 70
     8
280
     0
  0
ATTDEF
  5
76
330
6E
100
AcDbEntity
  8
AM_6
100
AcDbText
 10
8.575000000000014
 20
3.72375
 30
0.0
 40
0.5
  1
$PN.
100
AcDbAttributeDefinition
  3

  2
NBSYN
 70
     8
280
     0
  0
ATTDEF
  5
77
330
6E
100
AcDbEntity
  8
AM_6
100
AcDbText
 10
8.575000000000014
 20
3.22375
 30
0.0
 40
0.5
  1
087192
100
AcDbAttributeDefinition
  3

  2
LINA
 70
     8
280
     0
  0
ATTDEF
  5
78
330
6E
100
AcDbEntity
  8
AM_6
100
AcDbText
 10
8.575000000000014
 20
2.72375
 30
0.0
 40
0.5
  1
2-15/16
100
AcDbAttributeDefinition
  3

  2
SS
 70
     8
280
     0
  0
ATTDEF
  5
79
330
6E
100
AcDbEntity
  8
AM_6
100
AcDbText
 10
8.575000000000014
 20
2.22375
 30
0.0
 40
0.5
  1
Gray Iron Expansion
100
AcDbAttributeDefinition
  3

  2
TYPE
 70
     8
280
     0
  0
ATTDEF
  5
7A
330
6E
100
AcDbEntity
  8
AM_6
100
AcDbText
 10
8.575000000000014
 20
1.72375
 30
0.0
 40
0.5
  1
087192
100
AcDbAttributeDefinition
  3

  2
PN
 70
     8
280
     0
  0
ATTDEF
  5
7B
330
6E
100
AcDbEntity
  8
AM_6
100
AcDbText
 10
8.575000000000014
 20
1.22375
 30
0.0
 40
0.5
  1
P4B-C-215E
100
AcDbAttributeDefinition
  3

  2
DESCRIPTION
 70
     8
280
     0
  0
ATTDEF
  5
7C
330
6E
100
AcDbEntity
  8
AM_6
100
AcDbText
 10
8.575000000000014
 20
0.7237499999999999
 30
0.0
 40
0.5
  1
85
100
AcDbAttributeDefinition
  3

  2
WEIGHT
 70
     8
280
     0
  0
ATTDEF
  5
7D
330
6E
100
AcDbEntity
  8
AM_6
100
AcDbText
 10
8.575000000000014
 20
0.2237499999999999
 30
0.0
 40
0.5
  1
6-1/2
100
AcDbAttributeDefinition
  3

  2
A
 70
     8
280
     0
  0
ATTDEF
  5
7E
330
6E
100
AcDbEntity
  8
AM_6
100
AcDbText
 10
8.575000000000014
 20
-0.2762500000000001
 30
0.0
 40
0.5
  1
14-1/4
100
AcDbAttributeDefinition
  3

  2
B
 70
     8
280
     0
  0
ATTDEF
  5
7F
330
6E
100
AcDbEntity
  8
AM_6
100
AcDbText
 10
8.575000000000014
 20
-0.7762500000000001
 30
0.0
 40
0.5
  1
4-3/4
100
AcDbAttributeDefinition
  3

  2
C
 70
     8
280
     0
  0
ATTDEF
  5
80
330
6E
100
AcDbEntity
  8
AM_6
100
AcDbText
 10
8.575000000000014
 20
-1.27625
 30
0.0
 40
0.5
  1
11
100
AcDbAttributeDefinition
  3

  2
DMIN
 70
     8
280
     0
  0
ATTDEF
  5
81
330
6E
100
AcDbEntity
  8
AM_6
100
AcDbText
 10
8.575000000000014
 20
-1.77625
 30
0.0
 40
0.5
  1
12-1/2
100
AcDbAttributeDefinition
  3

  2
DMAX
 70
     8
280
     0
  0
ATTDEF
  5
82
330
6E
100
AcDbEntity
  8
AM_6
100
AcDbText
 10
8.575000000000014
 20
-2.27625
 30
0.0
 40
0.5
  1
2-3/4
100
AcDbAttributeDefinition
  3

  2
E
 70
     8
280
     0
  0
ATTDEF
  5
83
330
6E
100
AcDbEntity
  8
AM_6
100
AcDbText
 10
8.575000000000014
 20
-2.77625
 30
0.0
 40
0.5
  1
5/8
100
AcDbAttributeDefinition
  3

  2
F
 70
     8
280
     0
  0
ATTDEF
  5
84
330
6E
100
AcDbEntity
  8
AM_6
100
AcDbText
 10
8.575000000000014
 20
-3.27625
 30
0.0
 40
0.5
  1
1-1/3
100
AcDbAttributeDefinition
  3

  2
G
 70
     8
280
     0
  0
ATTDEF
  5
85
330
6E
100
AcDbEntity
  8
AM_6
100
AcDbText
 10
8.575000000000014
 20
-3.77625
 30
0.0
 40
0.5
  1
3-3/4
100
AcDbAttributeDefinition
  3

  2
H
 70
     8
280
     0
  0
ATTDEF
  5
86
330
6E
100
AcDbEntity
  8
AM_6
100
AcDbText
 10
8.575000000000014
 20
-4.27625
 30
0.0
 40
0.5
  1
9-7/8
100
AcDbAttributeDefinition
  3

  2
J
 70
     8
280
     0
  0
ATTDEF
  5
87
330
6E
100
AcDbEntity
  8
AM_6
100
AcDbText
 10
8.575000000000014
 20
-4.77625
 30
0.0
 40
0.5
  1
5-7/16
100
AcDbAttributeDefinition
  3

  2
L
 70
     8
280
     0
  0
ATTDEF
  5
88
330
6E
100
AcDbEntity
  8
AM_6
100
AcDbText
 10
8.575000000000014
 20
-5.27625
 30
0.0
 40
0.5
  1
4-3/4
100
AcDbAttributeDefinition
  3

  2
M
 70
     8
280
     0
  0
ATTDEF
  5
89
330
6E
100
AcDbEntity
  8
AM_6
100
AcDbText
 10
8.575000000000014
 20
-5.77625
 30
0.0
 40
0.5
  1
9-7/8
100
AcDbAttributeDefinition
  3

  2
P
 70
     8
280
     0
  0
ATTDEF
  5
8A
330
6E
100
AcDbEntity
  8
AM_6
100
AcDbText
 10
8.575000000000014
 20
-6.27625
 30
0.0
 40
0.5
  1
5/8
100
AcDbAttributeDefinition
  3

  2
EXP
 70
     8
280
     0
  0
ATTDEF
  5
8B
330
6E
100
AcDbEntity
  8
AM_6
100
AcDbText
 10
8.575000000000014
 20
-6.77625
 30
0.0
 40
0.5
  1
baldor
100
AcDbAttributeDefinition
  3

  2
COMPANY
 70
     8
280
     0
  0
INSERT
  5
8D
330
6E
100
AcDbEntity
  8
0
100
AcDbBlockReference
  2
2_065296iu_0_in_087192_2
 10
0.0
 20
0.0
 30
0.0
  0
INSERT
  5
E3
330
6E
100
AcDbEntity
  8
0
100
AcDbBlockReference
  2
3_065296i_0_in_087192_2
 10
0.0
 20
0.0
 30
0.0
  0
INSERT
  5
142
330
6E
100
AcDbEntity
  8
0
100
AcDbBlockReference
  2
4_087192p_0_in_087192_2
 10
0.0
 20
0.0
 30
0.0
  0
ENDBLK
  5
71
330
6E
100
AcDbEntity
  8
0
100
AcDbBlockEnd
  0
BLOCK
  5
8E
330
8C
100
AcDbEntity
  8
0
100
AcDbBlockBegin
  2
2_065296iu_0_in_087192_2
 70
     2
 10
0.0
 20
0.0
 30
0.0
  3
2_065296iu_0_in_087192_2
  1

  0
ATTDEF
  5
90
330
8C
100
AcDbEntity
  8
AM_6
100
AcDbText
 10
8.108695652173914
 20
1.546052631578947
 30
0.0
 40
0.5
  1
Type C Pillow Block - Inch - Body - Insert ring
100
AcDbAttributeDefinition
  3

  2
NN
 70
     8
280
     0
  0
ATTDEF
  5
91
330
8C
100
AcDbEntity
  8
AM_6
100
AcDbText
 10
8.108695652173914
 20
1.046052631578947
 30
0.0
 40
0.5
  1
Type C Bearings
100
AcDbAttributeDefinition
  3

  2
NT
 70
     8
280
     0
  0
ATTDEF
  5
92
330
8C
100
AcDbEntity
  8
AM_6
100
AcDbText
 10
8.108695652173914
 20
0.5460526315789473
 30
0.0
 40
0.5
  1
065296iu
100
AcDbAttributeDefinition
  3

  2
NB
 70
     8
280
     0
  0
ATTDEF
  5
93
330
8C
100
AcDbEntity
  8
AM_6
100
AcDbText
 10
8.108695652173914
 20
0.0460526315789473
 30
0.0
 40
0.5
  1
$PN1.
100
AcDbAttributeDefinition
  3

  2
NBSYN
 70
     8
280
     0
  0
ATTDEF
  5
94
330
8C
100
AcDbEntity
  8
AM_6
100
AcDbText
 10
8.108695652173914
 20
-0.4539473684210527
 30
0.0
 40
0.5
  1
065296iu
100
AcDbAttributeDefinition
  3

  2
LINA
 70
     8
280
     0
  0
ATTDEF
  5
95
330
8C
100
AcDbEntity
  8
AM_6
100
AcDbText
 10
8.108695652173914
 20
-0.9539473684210527
 30
0.0
 40
0.5
  1
2.93750
100
AcDbAttributeDefinition
  3

  2
SS1
 70
     8
280
     0
  0
ATTDEF
  5
96
330
8C
100
AcDbEntity
  8
AM_6
100
AcDbText
 10
8.108695652173914
 20
-1.453947368421053
 30
0.0
 40
0.5
  1
065296iu
100
AcDbAttributeDefinition
  3

  2
PN1
 70
     8
280
     0
  0
ATTDEF
  5
97
330
8C
100
AcDbEntity
  8
AM_6
100
AcDbText
 10
8.108695652173914
 20
-1.953947368421053
 30
0.0
 40
0.5
  1
P2B-C-215
100
AcDbAttributeDefinition
  3

  2
DESCRIPTION1
 70
     8
280
     0
  0
ATTDEF
  5
98
330
8C
100
AcDbEntity
  8
AM_6
100
AcDbText
 10
8.108695652173914
 20
-2.453947368421053
 30
0.0
 40
0.5
  1
83
100
AcDbAttributeDefinition
  3

  2
WEIGHT1
 70
     8
280
     0
  0
ATTDEF
  5
99
330
8C
100
AcDbEntity
  8
AM_6
100
AcDbText
 10
8.108695652173914
 20
-2.953947368421053
 30
0.0
 40
0.5
  1
6-1/2
100
AcDbAttributeDefinition
  3

  2
A
 70
     8
280
     0
  0
ATTDEF
  5
9A
330
8C
100
AcDbEntity
  8
AM_6
100
AcDbText
 10
8.108695652173914
 20
-3.453947368421053
 30
0.0
 40
0.5
  1
6.50000
100
AcDbAttributeDefinition
  3

  2
A1
 70
     8
280
     0
  0
ATTDEF
  5
9B
330
8C
100
AcDbEntity
  8
AM_6
100
AcDbText
 10
8.108695652173914
 20
-3.953947368421053
 30
0.0
 40
0.5
  1
14-1/4
100
AcDbAttributeDefinition
  3

  2
B
 70
     8
280
     0
  0
ATTDEF
  5
9C
330
8C
100
AcDbEntity
  8
AM_6
100
AcDbText
 10
8.108695652173914
 20
-4.453947368421053
 30
0.0
 40
0.5
  1
14.25000
100
AcDbAttributeDefinition
  3

  2
B1
 70
     8
280
     0
  0
ATTDEF
  5
9D
330
8C
100
AcDbEntity
  8
AM_6
100
AcDbText
 10
8.108695652173914
 20
-4.953947368421053
 30
0.0
 40
0.5
  1
4-3/4
100
AcDbAttributeDefinition
  3

  2
C
 70
     8
280
     0
  0
ATTDEF
  5
9E
330
8C
100
AcDbEntity
  8
AM_6
100
AcDbText
 10
8.108695652173914
 20
-5.453947368421053
 30
0.0
 40
0.5
  1
4.75000
100
AcDbAttributeDefinition
  3

  2
C1
 70
     8
280
     0
  0
ATTDEF
  5
9F
330
8C
100
AcDbEntity
  8
AM_6
100
AcDbText
 10
8.108695652173914
 20
-5.953947368421053
 30
0.0
 40
0.5
  1
11-1/8
100
AcDbAttributeDefinition
  3

  2
DMIN
 70
     8
280
     0
  0
ATTDEF
  5
A0
330
8C
100
AcDbEntity
  8
AM_6
100
AcDbText
 10
8.108695652173914
 20
-6.453947368421053
 30
0.0
 40
0.5
  1
11.12500
100
AcDbAttributeDefinition
  3

  2
DMIN1
 70
     8
280
     0
  0
ATTDEF
  5
A1
330
8C
100
AcDbEntity
  8
AM_6
100
AcDbText
 10
8.108695652173914
 20
-6.953947368421053
 30
0.0
 40
0.5
  1
12-3/8
100
AcDbAttributeDefinition
  3

  2
DMAX
 70
     8
280
     0
  0
ATTDEF
  5
A2
330
8C
100
AcDbEntity
  8
AM_6
100
AcDbText
 10
8.108695652173914
 20
-7.453947368421053
 30
0.0
 40
0.5
  1
12.37500
100
AcDbAttributeDefinition
  3

  2
DMAX1
 70
     8
280
     0
  0
ATTDEF
  5
A3
330
8C
100
AcDbEntity
  8
AM_6
100
AcDbText
 10
8.108695652173914
 20
-7.953947368421053
 30
0.0
 40
0.5
  1
3/4
100
AcDbAttributeDefinition
  3

  2
F
 70
     8
280
     0
  0
ATTDEF
  5
A4
330
8C
100
AcDbEntity
  8
AM_6
100
AcDbText
 10
8.108695652173914
 20
-8.453947368421053
 30
0.0
 40
0.5
  1
0.75000
100
AcDbAttributeDefinition
  3

  2
F1
 70
     8
280
     0
  0
ATTDEF
  5
A5
330
8C
100
AcDbEntity
  8
AM_6
100
AcDbText
 10
8.108695652173914
 20
-8.953947368421053
 30
0.0
 40
0.5
  1
1-1/2
100
AcDbAttributeDefinition
  3

  2
G
 70
     8
280
     0
  0
ATTDEF
  5
A6
330
8C
100
AcDbEntity
  8
AM_6
100
AcDbText
 10
8.108695652173914
 20
-9.453947368421053
 30
0.0
 40
0.5
  1
1.50000
100
AcDbAttributeDefinition
  3

  2
G1
 70
     8
280
     0
  0
ATTDEF
  5
A7
330
8C
100
AcDbEntity
  8
AM_6
100
AcDbText
 10
8.108695652173914
 20
-9.953947368421053
 30
0.0
 40
0.5
  1
3-3/4
100
AcDbAttributeDefinition
  3

  2
H
 70
     8
280
     0
  0
ATTDEF
  5
A8
330
8C
100
AcDbEntity
  8
AM_6
100
AcDbText
 10
8.108695652173914
 20
-10.45394736842105
 30
0.0
 40
0.5
  1
3.75000
100
AcDbAttributeDefinition
  3

  2
H1
 70
     8
280
     0
  0
ATTDEF
  5
A9
330
8C
100
AcDbEntity
  8
AM_6
100
AcDbText
 10
8.108695652173914
 20
-10.95394736842105
 30
0.0
 40
0.5
  1
9-7/8
100
AcDbAttributeDefinition
  3

  2
J
 70
     8
280
     0
  0
ATTDEF
  5
AA
330
8C
100
AcDbEntity
  8
AM_6
100
AcDbText
 10
8.108695652173914
 20
-11.45394736842105
 30
0.0
 40
0.5
  1
9.87500
100
AcDbAttributeDefinition
  3

  2
J1
 70
     8
280
     0
  0
ATTDEF
  5
AB
330
8C
100
AcDbEntity
  8
AM_6
100
AcDbText
 10
8.108695652173914
 20
-11.95394736842105
 30
0.0
 40
0.5
  1
5-7/16
100
AcDbAttributeDefinition
  3

  2
L
 70
     8
280
     0
  0
ATTDEF
  5
AC
330
8C
100
AcDbEntity
  8
AM_6
100
AcDbText
 10
8.108695652173914
 20
-12.45394736842105
 30
0.0
 40
0.5
  1
5.43750
100
AcDbAttributeDefinition
  3

  2
L1
 70
     8
280
     0
  0
ATTDEF
  5
AD
330
8C
100
AcDbEntity
  8
AM_6
100
AcDbText
 10
8.108695652173914
 20
-12.95394736842105
 30
0.0
 40
0.5
  1
4-3/4
100
AcDbAttributeDefinition
  3

  2
M
 70
     8
280
     0
  0
ATTDEF
  5
AE
330
8C
100
AcDbEntity
  8
AM_6
100
AcDbText
 10
8.108695652173914
 20
-13.45394736842105
 30
0.0
 40
0.5
  1
4.75000
100
AcDbAttributeDefinition
  3

  2
M1
 70
     8
280
     0
  0
ATTDEF
  5
AF
330
8C
100
AcDbEntity
  8
AM_6
100
AcDbText
 10
8.108695652173914
 20
-13.95394736842105
 30
0.0
 40
0.5
  1
9-7/8
100
AcDbAttributeDefinition
  3

  2
P
 70
     8
280
     0
  0
ATTDEF
  5
B0
330
8C
100
AcDbEntity
  8
AM_6
100
AcDbText
 10
8.108695652173914
 20
-14.45394736842105
 30
0.0
 40
0.5
  1
9.87500
100
AcDbAttributeDefinition
  3

  2
P1
 70
     8
280
     0
  0
ATTDEF
  5
B1
330
8C
100
AcDbEntity
  8
AM_6
100
AcDbText
 10
8.108695652173914
 20
-14.95394736842105
 30
0.0
 40
0.5
  1
3/4
100
AcDbAttributeDefinition
  3

  2
EXP
 70
     8
280
     0
  0
ATTDEF
  5
B2
330
8C
100
AcDbEntity
  8
AM_6
100
AcDbText
 10
8.108695652173914
 20
-15.45394736842105
 30
0.0
 40
0.5
  1
baldor
100
AcDbAttributeDefinition
  3

  2
COMPANY
 70
     8
280
     0
  0
LINE
  5
B5
330
8C
100
AcDbEntity
  8
AM_9
100
AcDbLine
 10
2.176086956521739
 20
1.461387798250348
 30
0.0
 11
2.176086956521739
 21
1.539060256775928
 31
0.0
  0
LINE
  5
B6
330
8C
100
AcDbEntity
  8
AM_9
100
AcDbLine
 10
2.029211956521739
 20
1.546052631578947
 30
0.0
 11
2.029211956521739
 21
1.46875
 31
0.0
  0
LINE
  5
B7
330
8C
100
AcDbEntity
  8
AM_9
100
AcDbLine
 10
2.176086956521739
 20
-1.539060256775929
 30
0.0
 11
2.176086956521739
 21
-1.461387798250348
 31
0.0
  0
LINE
  5
B8
330
8C
100
AcDbEntity
  8
AM_9
100
AcDbLine
 10
2.029211956521739
 20
-1.46875
 30
0.0
 11
2.029211956521739
 21
-1.546052631578947
 31
0.0
  0
LINE
  5
B9
330
8C
100
AcDbEntity
  8
AM_9
100
AcDbLine
 10
-2.176086956521742
 20
-1.539060256775928
 30
0.0
 11
-2.176086956521742
 21
-1.461387798250348
 31
0.0
  0
LINE
  5
BA
330
8C
100
AcDbEntity
  8
AM_9
100
AcDbLine
 10
-2.029211956521739
 20
-1.546052631578947
 30
0.0
 11
-2.029211956521739
 21
-1.46875
 31
0.0
  0
LINE
  5
BB
330
8C
100
AcDbEntity
  8
AM_9
100
AcDbLine
 10
-2.176086956521742
 20
1.461387798250348
 30
0.0
 11
-2.176086956521742
 21
1.539060256775928
 31
0.0
  0
LINE
  5
BC
330
8C
100
AcDbEntity
  8
AM_9
100
AcDbLine
 10
-2.029211956521739
 20
1.46875
 30
0.0
 11
-2.029211956521739
 21
1.546052631578947
 31
0.0
  0
LINE
  5
BD
330
8C
100
AcDbEntity
  8
AM_9
100
AcDbLine
 10
2.176086956521739
 20
1.461387798250348
 30
0.0
 11
2.826086956521739
 21
1.461387798250348
 31
0.0
  0
LINE
  5
BE
330
8C
100
AcDbEntity
  8
AM_9
100
AcDbLine
 10
2.826086956521739
 20
-1.461387798250348
 30
0.0
 11
2.176086956521739
 21
-1.461387798250348
 31
0.0
  0
LWPOLYLINE
  5
BF
330
8C
100
AcDbEntity
  8
AM_9
100
AcDbPolyline
 90
        6
 70
     0
 43
0.0
 10
2.176086956521739
 20
-1.461387798250348
 10
2.12760838823303
 20
-1.46219166611574
 10
2.084597214183429
 20
-1.464248841497964
 10
2.051748112623093
 20
-1.466667803211434
 10
2.032860460336075
 20
-1.468389637012133
 10
2.029211956525213
 20
-1.468749999999652
  0
LINE
  5
C0
330
8C
100
AcDbEntity
  8
AM_9
100
AcDbLine
 10
-2.826086956521739
 20
1.461387798250348
 30
0.0
 11
-2.176086956521742
 21
1.461387798250348
 31
0.0
  0
LWPOLYLINE
  5
C1
330
8C
100
AcDbEntity
  8
AM_9
100
AcDbPolyline
 90
        6
 70
     0
 43
0.0
 10
-2.176086956521742
 20
1.461387798250348
 10
-2.127608388233032
 20
1.46219166611574
 10
-2.08459721418343
 20
1.464248841497964
 10
-2.051748112623093
 20
1.466667803211433
 10
-2.032860460336075
 20
1.468389637012132
 10
-2.029211956525213
 20
1.468749999999652
  0
LINE
  5
C2
330
8C
100
AcDbEntity
  8
AM_9
100
AcDbLine
 10
-2.176086956521742
 20
-1.461387798250348
 30
0.0
 11
-2.826086956521739
 21
-1.461387798250348
 31
0.0
  0
LINE
  5
C3
330
8C
100
AcDbEntity
  8
AM_9
100
AcDbLine
 10
2.031073709632183
 20
1.46875
 30
0.0
 11
-2.031073709632182
 21
1.46875
 31
0.0
  0
LINE
  5
C4
330
8C
100
AcDbEntity
  8
AM_9
100
AcDbLine
 10
-2.031073709632183
 20
-1.46875
 30
0.0
 11
2.031073709632184
 21
-1.46875
 31
0.0
  0
LWPOLYLINE
  5
C5
330
8C
100
AcDbEntity
  8
AM_9
100
AcDbPolyline
 90
        7
 70
     0
 43
0.0
 10
2.029211956525213
 20
1.468749999999652
 10
2.030159168208197
 20
1.468655581229678
 10
2.043789352424351
 20
1.467363946989604
 10
2.072224036320616
 20
1.465073992352504
 10
2.11247228154263
 20
1.462771726465786
 10
2.159943622758054
 20
1.461476959825233
 10
2.176086956521739
 20
1.461387798250348
  0
LWPOLYLINE
  5
C6
330
8C
100
AcDbEntity
  8
AM_9
100
AcDbPolyline
 90
        7
 70
     0
 43
0.0
 10
-2.029211956525213
 20
-1.468749999999652
 10
-2.030159168208197
 20
-1.468655581229678
 10
-2.043789352424352
 20
-1.467363946989604
 10
-2.072224036320616
 20
-1.465073992352504
 10
-2.112472281542631
 20
-1.462771726465786
 10
-2.159943622758057
 20
-1.461476959825233
 10
-2.176086956521742
 20
-1.461387798250348
  0
LWPOLYLINE
  5
C7
330
8C
100
AcDbEntity
  8
AM_9
100
AcDbPolyline
 90
        6
 70
     0
 43
0.0
 10
2.176086956521739
 20
-1.539060256775929
 10
2.127594927537894
 20
-1.539823999963034
 10
2.084571623685374
 20
-1.541778690386963
 10
2.051728149670057
 20
-1.544076289186763
 10
2.032853988352821
 20
-1.545710890547668
 10
2.029211956524553
 20
-1.54605263157868
  0
LINE
  5
C8
330
8C
100
AcDbEntity
  8
AM_9
100
AcDbLine
 10
2.826086956521739
 20
-1.539060256775929
 30
0.0
 11
2.176086956521739
 21
-1.539060256775929
 31
0.0
  0
LINE
  5
C9
330
8C
100
AcDbEntity
  8
AM_9
100
AcDbLine
 10
2.826086956521739
 20
-0.1468749999999998
 30
0.0
 11
2.826086956521739
 21
-1.539060256775929
 31
0.0
  0
LINE
  5
CA
330
8C
100
AcDbEntity
  8
AM_9
100
AcDbLine
 10
2.176086956521739
 20
-0.1468749999999998
 30
0.0
 11
2.826086956521739
 21
-0.1468749999999998
 31
0.0
  0
LWPOLYLINE
  5
CB
330
8C
100
AcDbEntity
  8
AM_9
100
AcDbPolyline
 90
        6
 70
     0
 43
0.0
 10
2.031801072910656
 20
-0.0274563183178133
 10
2.043814819940858
 20
-0.0638462803092598
 10
2.072279114108831
 20
-0.1039047519537807
 10
2.112540910805093
 20
-0.1324166367900115
 10
2.160012687661499
 20
-0.145992751551605
 10
2.176086956521739
 20
-0.1468749999999998
  0
LWPOLYLINE
  5
CC
330
8C
100
AcDbEntity
  8
AM_9
100
AcDbPolyline
 90
        3
 70
     0
 43
0.0
 10
2.031778498904838
 20
0.0273374227979032
 10
2.030163087569091
 20
-0.0166880224978971
 10
2.031801072910656
 20
-0.0274563183178133
  0
LWPOLYLINE
  5
CD
330
8C
100
AcDbEntity
  8
AM_9
100
AcDbPolyline
 90
        6
 70
     0
 43
0.0
 10
2.176086956521739
 20
0.1468750000000001
 10
2.127594927537894
 20
0.1386390592510996
 10
2.084571623685374
 20
0.1148791081130483
 10
2.051728149670057
 20
0.0781482743470779
 10
2.032853988352821
 20
0.0325051142825515
 10
2.031778498904838
 20
0.0273374227979032
  0
LINE
  5
CE
330
8C
100
AcDbEntity
  8
AM_9
100
AcDbLine
 10
2.826086956521739
 20
0.1468750000000002
 30
0.0
 11
2.176086956521739
 21
0.1468750000000001
 31
0.0
  0
LINE
  5
CF
330
8C
100
AcDbEntity
  8
AM_9
100
AcDbLine
 10
2.826086956521739
 20
1.539060256775929
 30
0.0
 11
2.826086956521739
 21
0.1468750000000002
 31
0.0
  0
LINE
  5
D0
330
8C
100
AcDbEntity
  8
AM_9
100
AcDbLine
 10
2.176086956521739
 20
1.539060256775928
 30
0.0
 11
2.826086956521739
 21
1.539060256775929
 31
0.0
  0
LINE
  5
D1
330
8C
100
AcDbEntity
  8
AM_9
100
AcDbLine
 10
-2.826086956521739
 20
-0.146875000000003
 30
0.0
 11
-2.176086956521742
 21
-0.146875000000003
 31
0.0
  0
LINE
  5
D2
330
8C
100
AcDbEntity
  8
AM_9
100
AcDbLine
 10
-2.826086956521739
 20
-0.146875000000003
 30
0.0
 11
-2.826086956521739
 21
-1.539060256775928
 31
0.0
  0
LINE
  5
D3
330
8C
100
AcDbEntity
  8
AM_9
100
AcDbLine
 10
-2.176086956521742
 20
-1.539060256775928
 30
0.0
 11
-2.826086956521739
 21
-1.539060256775928
 31
0.0
  0
LWPOLYLINE
  5
D4
330
8C
100
AcDbEntity
  8
AM_9
100
AcDbPolyline
 90
        6
 70
     0
 43
0.0
 10
-2.176086956521742
 20
1.539060256775928
 10
-2.127594927537895
 20
1.539823999963034
 10
-2.084571623685375
 20
1.541778690386963
 10
-2.051728149670058
 20
1.544076289186762
 10
-2.032853988352821
 20
1.545710890547668
 10
-2.029211956524553
 20
1.54605263157868
  0
LINE
  5
D5
330
8C
100
AcDbEntity
  8
AM_9
100
AcDbLine
 10
-2.826086956521739
 20
1.539060256775928
 30
0.0
 11
-2.176086956521742
 21
1.539060256775928
 31
0.0
  0
LINE
  5
D6
330
8C
100
AcDbEntity
  8
AM_9
100
AcDbLine
 10
-2.826086956521739
 20
1.539060256775928
 30
0.0
 11
-2.826086956521739
 21
0.1468750000000027
 31
0.0
  0
LINE
  5
D7
330
8C
100
AcDbEntity
  8
AM_9
100
AcDbLine
 10
-2.176086956521742
 20
0.1468750000000027
 30
0.0
 11
-2.826086956521739
 21
0.1468750000000027
 31
0.0
  0
LWPOLYLINE
  5
D8
330
8C
100
AcDbEntity
  8
AM_9
100
AcDbPolyline
 90
        6
 70
     0
 43
0.0
 10
-2.031801072910656
 20
0.0274563183178133
 10
-2.043814819940858
 20
0.0638462803092612
 10
-2.072279114108832
 20
0.103904751953783
 10
-2.112540910805095
 20
0.1324166367900142
 10
-2.160012687661502
 20
0.1459927515516079
 10
-2.176086956521742
 20
0.1468750000000027
  0
LWPOLYLINE
  5
D9
330
8C
100
AcDbEntity
  8
AM_9
100
AcDbPolyline
 90
        3
 70
     0
 43
0.0
 10
-2.031778498904838
 20
-0.0273374227979032
 10
-2.030163087569091
 20
0.0166880224978976
 10
-2.031801072910656
 20
0.0274563183178133
  0
LWPOLYLINE
  5
DA
330
8C
100
AcDbEntity
  8
AM_9
100
AcDbPolyline
 90
        6
 70
     0
 43
0.0
 10
-2.176086956521742
 20
-0.146875000000003
 10
-2.127594927537895
 20
-0.1386390592511022
 10
-2.084571623685375
 20
-0.1148791081130504
 10
-2.051728149670058
 20
-0.0781482743470793
 10
-2.032853988352821
 20
-0.0325051142825519
 10
-2.031778498904838
 20
-0.0273374227979032
  0
LINE
  5
DB
330
8C
100
AcDbEntity
  8
AM_9
100
AcDbLine
 10
2.031075885583855
 20
1.546052631578947
 30
0.0
 11
-2.031075885583854
 21
1.546052631578947
 31
0.0
  0
LINE
  5
DC
330
8C
100
AcDbEntity
  8
AM_9
100
AcDbLine
 10
-2.031075885583855
 20
-1.546052631578947
 30
0.0
 11
2.031075885583855
 21
-1.546052631578947
 31
0.0
  0
LWPOLYLINE
  5
DD
330
8C
100
AcDbEntity
  8
AM_9
100
AcDbPolyline
 90
        7
 70
     0
 43
0.0
 10
2.029211956524553
 20
1.54605263157868
 10
2.030163087569091
 20
1.54596256407369
 10
2.043814819940858
 20
1.544733760912494
 10
2.072279114108831
 20
1.542557143879478
 10
2.112540910805093
 20
1.540371570080872
 10
2.160012687661499
 20
1.539144196008476
 10
2.176086956521739
 20
1.539060256775929
  0
LWPOLYLINE
  5
DE
330
8C
100
AcDbEntity
  8
AM_9
100
AcDbPolyline
 90
        7
 70
     0
 43
0.0
 10
-2.029211956524553
 20
-1.54605263157868
 10
-2.030163087569091
 20
-1.54596256407369
 10
-2.043814819940858
 20
-1.544733760912494
 10
-2.072279114108831
 20
-1.542557143879478
 10
-2.112540910805094
 20
-1.540371570080872
 10
-2.160012687661502
 20
-1.539144196008476
 10
-2.176086956521742
 20
-1.539060256775928
  0
LINE
  5
E1
330
8C
100
AcDbEntity
  8
AM_7
100
AcDbLine
 10
-3.108695652173913
 20
0.0
 30
0.0
 11
3.108695652173913
 21
0.0
 31
0.0
  0
ENDBLK
  5
8F
330
8C
100
AcDbEntity
  8
0
100
AcDbBlockEnd
  0
BLOCK
  5
E4
330
E2
100
AcDbEntity
  8
0
100
AcDbBlockBegin
  2
3_065296i_0_in_087192_2
 70
     2
 10
0.0
 20
0.0
 30
0.0
  3
3_065296i_0_in_087192_2
  1

  0
ATTDEF
  5
E6
330
E2
100
AcDbEntity
  8
AM_6
100
AcDbText
 10
8.575000000000014
 20
2.7459375
 30
0.0
 40
0.5
  1
Type C Pillow Block - Inch - Body - Insert
100
AcDbAttributeDefinition
  3

  2
NN
 70
     8
280
     0
  0
ATTDEF
  5
E7
330
E2
100
AcDbEntity
  8
AM_6
100
AcDbText
 10
8.575000000000014
 20
2.2459375
 30
0.0
 40
0.5
  1
Type C Bearings
100
AcDbAttributeDefinition
  3

  2
NT
 70
     8
280
     0
  0
ATTDEF
  5
E8
330
E2
100
AcDbEntity
  8
AM_6
100
AcDbText
 10
8.575000000000014
 20
1.7459375
 30
0.0
 40
0.5
  1
065296i
100
AcDbAttributeDefinition
  3

  2
NB
 70
     8
280
     0
  0
ATTDEF
  5
E9
330
E2
100
AcDbEntity
  8
AM_6
100
AcDbText
 10
8.575000000000014
 20
1.2459375
 30
0.0
 40
0.5
  1
$PN1.
100
AcDbAttributeDefinition
  3

  2
NBSYN
 70
     8
280
     0
  0
ATTDEF
  5
EA
330
E2
100
AcDbEntity
  8
AM_6
100
AcDbText
 10
8.575000000000014
 20
0.7459375000000001
 30
0.0
 40
0.5
  1
065296i
100
AcDbAttributeDefinition
  3

  2
LINA
 70
     8
280
     0
  0
ATTDEF
  5
EB
330
E2
100
AcDbEntity
  8
AM_6
100
AcDbText
 10
8.575000000000014
 20
0.2459375000000001
 30
0.0
 40
0.5
  1
2.93750
100
AcDbAttributeDefinition
  3

  2
SS1
 70
     8
280
     0
  0
ATTDEF
  5
EC
330
E2
100
AcDbEntity
  8
AM_6
100
AcDbText
 10
8.575000000000014
 20
-0.2540624999999999
 30
0.0
 40
0.5
  1
065296i
100
AcDbAttributeDefinition
  3

  2
PN1
 70
     8
280
     0
  0
ATTDEF
  5
ED
330
E2
100
AcDbEntity
  8
AM_6
100
AcDbText
 10
8.575000000000014
 20
-0.7540624999999999
 30
0.0
 40
0.5
  1
P2B-C-215
100
AcDbAttributeDefinition
  3

  2
DESCRIPTION1
 70
     8
280
     0
  0
ATTDEF
  5
EE
330
E2
100
AcDbEntity
  8
AM_6
100
AcDbText
 10
8.575000000000014
 20
-1.2540625
 30
0.0
 40
0.5
  1
83
100
AcDbAttributeDefinition
  3

  2
WEIGHT1
 70
     8
280
     0
  0
ATTDEF
  5
EF
330
E2
100
AcDbEntity
  8
AM_6
100
AcDbText
 10
8.575000000000014
 20
-1.7540625
 30
0.0
 40
0.5
  1
6-1/2
100
AcDbAttributeDefinition
  3

  2
A
 70
     8
280
     0
  0
ATTDEF
  5
F0
330
E2
100
AcDbEntity
  8
AM_6
100
AcDbText
 10
8.575000000000014
 20
-2.2540625
 30
0.0
 40
0.5
  1
6.50000
100
AcDbAttributeDefinition
  3

  2
A1
 70
     8
280
     0
  0
ATTDEF
  5
F1
330
E2
100
AcDbEntity
  8
AM_6
100
AcDbText
 10
8.575000000000014
 20
-2.7540625
 30
0.0
 40
0.5
  1
14-1/4
100
AcDbAttributeDefinition
  3

  2
B
 70
     8
280
     0
  0
ATTDEF
  5
F2
330
E2
100
AcDbEntity
  8
AM_6
100
AcDbText
 10
8.575000000000014
 20
-3.2540625
 30
0.0
 40
0.5
  1
14.25000
100
AcDbAttributeDefinition
  3

  2
B1
 70
     8
280
     0
  0
ATTDEF
  5
F3
330
E2
100
AcDbEntity
  8
AM_6
100
AcDbText
 10
8.575000000000014
 20
-3.7540625
 30
0.0
 40
0.5
  1
4-3/4
100
AcDbAttributeDefinition
  3

  2
C
 70
     8
280
     0
  0
ATTDEF
  5
F4
330
E2
100
AcDbEntity
  8
AM_6
100
AcDbText
 10
8.575000000000014
 20
-4.2540625
 30
0.0
 40
0.5
  1
4.75000
100
AcDbAttributeDefinition
  3

  2
C1
 70
     8
280
     0
  0
ATTDEF
  5
F5
330
E2
100
AcDbEntity
  8
AM_6
100
AcDbText
 10
8.575000000000014
 20
-4.7540625
 30
0.0
 40
0.5
  1
11-1/8
100
AcDbAttributeDefinition
  3

  2
DMIN
 70
     8
280
     0
  0
ATTDEF
  5
F6
330
E2
100
AcDbEntity
  8
AM_6
100
AcDbText
 10
8.575000000000014
 20
-5.2540625
 30
0.0
 40
0.5
  1
11.12500
100
AcDbAttributeDefinition
  3

  2
DMIN1
 70
     8
280
     0
  0
ATTDEF
  5
F7
330
E2
100
AcDbEntity
  8
AM_6
100
AcDbText
 10
8.575000000000014
 20
-5.7540625
 30
0.0
 40
0.5
  1
12-3/8
100
AcDbAttributeDefinition
  3

  2
DMAX
 70
     8
280
     0
  0
ATTDEF
  5
F8
330
E2
100
AcDbEntity
  8
AM_6
100
AcDbText
 10
8.575000000000014
 20
-6.2540625
 30
0.0
 40
0.5
  1
12.37500
100
AcDbAttributeDefinition
  3

  2
DMAX1
 70
     8
280
     0
  0
ATTDEF
  5
F9
330
E2
100
AcDbEntity
  8
AM_6
100
AcDbText
 10
8.575000000000014
 20
-6.7540625
 30
0.0
 40
0.5
  1
3/4
100
AcDbAttributeDefinition
  3

  2
F
 70
     8
280
     0
  0
ATTDEF
  5
FA
330
E2
100
AcDbEntity
  8
AM_6
100
AcDbText
 10
8.575000000000014
 20
-7.2540625
 30
0.0
 40
0.5
  1
0.75000
100
AcDbAttributeDefinition
  3

  2
F1
 70
     8
280
     0
  0
ATTDEF
  5
FB
330
E2
100
AcDbEntity
  8
AM_6
100
AcDbText
 10
8.575000000000014
 20
-7.7540625
 30
0.0
 40
0.5
  1
1-1/2
100
AcDbAttributeDefinition
  3

  2
G
 70
     8
280
     0
  0
ATTDEF
  5
FC
330
E2
100
AcDbEntity
  8
AM_6
100
AcDbText
 10
8.575000000000014
 20
-8.2540625
 30
0.0
 40
0.5
  1
1.50000
100
AcDbAttributeDefinition
  3

  2
G1
 70
     8
280
     0
  0
ATTDEF
  5
FD
330
E2
100
AcDbEntity
  8
AM_6
100
AcDbText
 10
8.575000000000014
 20
-8.7540625
 30
0.0
 40
0.5
  1
3-3/4
100
AcDbAttributeDefinition
  3

  2
H
 70
     8
280
     0
  0
ATTDEF
  5
FE
330
E2
100
AcDbEntity
  8
AM_6
100
AcDbText
 10
8.575000000000014
 20
-9.2540625
 30
0.0
 40
0.5
  1
3.75000
100
AcDbAttributeDefinition
  3

  2
H1
 70
     8
280
     0
  0
ATTDEF
  5
FF
330
E2
100
AcDbEntity
  8
AM_6
100
AcDbText
 10
8.575000000000014
 20
-9.7540625
 30
0.0
 40
0.5
  1
9-7/8
100
AcDbAttributeDefinition
  3

  2
J
 70
     8
280
     0
  0
ATTDEF
  5
100
330
E2
100
AcDbEntity
  8
AM_6
100
AcDbText
 10
8.575000000000014
 20
-10.2540625
 30
0.0
 40
0.5
  1
9.87500
100
AcDbAttributeDefinition
  3

  2
J1
 70
     8
280
     0
  0
ATTDEF
  5
101
330
E2
100
AcDbEntity
  8
AM_6
100
AcDbText
 10
8.575000000000014
 20
-10.7540625
 30
0.0
 40
0.5
  1
5-7/16
100
AcDbAttributeDefinition
  3

  2
L
 70
     8
280
     0
  0
ATTDEF
  5
102
330
E2
100
AcDbEntity
  8
AM_6
100
AcDbText
 10
8.575000000000014
 20
-11.2540625
 30
0.0
 40
0.5
  1
5.43750
100
AcDbAttributeDefinition
  3

  2
L1
 70
     8
280
     0
  0
ATTDEF
  5
103
330
E2
100
AcDbEntity
  8
AM_6
100
AcDbText
 10
8.575000000000014
 20
-11.7540625
 30
0.0
 40
0.5
  1
4-3/4
100
AcDbAttributeDefinition
  3

  2
M
 70
     8
280
     0
  0
ATTDEF
  5
104
330
E2
100
AcDbEntity
  8
AM_6
100
AcDbText
 10
8.575000000000014
 20
-12.2540625
 30
0.0
 40
0.5
  1
4.75000
100
AcDbAttributeDefinition
  3

  2
M1
 70
     8
280
     0
  0
ATTDEF
  5
105
330
E2
100
AcDbEntity
  8
AM_6
100
AcDbText
 10
8.575000000000014
 20
-12.7540625
 30
0.0
 40
0.5
  1
9-7/8
100
AcDbAttributeDefinition
  3

  2
P
 70
     8
280
     0
  0
ATTDEF
  5
106
330
E2
100
AcDbEntity
  8
AM_6
100
AcDbText
 10
8.575000000000014
 20
-13.2540625
 30
0.0
 40
0.5
  1
9.87500
100
AcDbAttributeDefinition
  3

  2
P1
 70
     8
280
     0
  0
ATTDEF
  5
107
330
E2
100
AcDbEntity
  8
AM_6
100
AcDbText
 10
8.575000000000014
 20
-13.7540625
 30
0.0
 40
0.5
  1
3/4
100
AcDbAttributeDefinition
  3

  2
EXP
 70
     8
280
     0
  0
ATTDEF
  5
108
330
E2
100
AcDbEntity
  8
AM_6
100
AcDbText
 10
8.575000000000014
 20
-14.2540625
 30
0.0
 40
0.5
  1
baldor
100
AcDbAttributeDefinition
  3

  2
COMPANY
 70
     8
280
     0
  0
LINE
  5
109
330
E2
100
AcDbEntity
  8
AM_9
100
AcDbLine
 10
3.141249999999998
 20
1.573240131578947
 30
0.0
 11
-3.141249999999998
 21
1.573240131578947
 31
0.0
  0
LINE
  5
10A
330
E2
100
AcDbEntity
  8
AM_9
100
AcDbLine
 10
-3.141249999999998
 20
-1.573240131578947
 30
0.0
 11
3.141249999999998
 21
-1.573240131578947
 31
0.0
  0
LINE
  5
10B
330
E2
100
AcDbEntity
  8
AM_9
100
AcDbLine
 10
3.141249999999999
 20
0.0271875
 30
0.0
 11
3.141249999999998
 21
1.573240131578947
 31
0.0
  0
ARC
  5
10C
330
E2
100
AcDbEntity
  8
AM_9
100
AcDbCircle
 10
3.14125
 20
1.681990131578945
 30
0.0
 40
0.1087499999999981
100
AcDbArc
 50
270.0
 51
0.0
  0
ARC
  5
10D
330
E2
100
AcDbEntity
  8
AM_9
100
AcDbCircle
 10
-3.141250000000001
 20
-1.681990131578944
 30
0.0
 40
0.108749999999997
100
AcDbArc
 50
90.0
 51
180.0
  0
LINE
  5
10E
330
E2
100
AcDbEntity
  8
AM_9
100
AcDbLine
 10
-3.141249999999998
 20
-1.573240131578947
 30
0.0
 11
-3.14125
 21
-0.0271875
 31
0.0
  0
ARC
  5
10F
330
E2
100
AcDbEntity
  8
AM_9
100
AcDbCircle
 10
3.14125
 20
-1.681990131578945
 30
0.0
 40
0.1087499999999983
100
AcDbArc
 50
0.0
 51
90.0
  0
LINE
  5
110
330
E2
100
AcDbEntity
  8
AM_9
100
AcDbLine
 10
3.141249999999998
 20
-1.573240131578947
 30
0.0
 11
3.141249999999999
 21
-0.0271875
 31
0.0
  0
LINE
  5
111
330
E2
100
AcDbEntity
  8
AM_9
100
AcDbLine
 10
-3.14125
 20
0.0271875
 30
0.0
 11
-3.141249999999998
 21
1.573240131578947
 31
0.0
  0
ARC
  5
112
330
E2
100
AcDbEntity
  8
AM_9
100
AcDbCircle
 10
-3.141250000000001
 20
1.681990131578945
 30
0.0
 40
0.1087499999999975
100
AcDbArc
 50
180.0
 51
270.0
  0
LINE
  5
113
330
E2
100
AcDbEntity
  8
AM_9
100
AcDbLine
 10
-2.70464473629062
 20
1.442447916666666
 30
0.0
 11
-2.70464473629062
 21
1.510416666666667
 31
0.0
  0
LINE
  5
114
330
E2
100
AcDbEntity
  8
AM_9
100
AcDbLine
 10
-2.49535526370938
 20
1.442447916666666
 30
0.0
 11
-2.49535526370938
 21
1.510416666666667
 31
0.0
  0
LINE
  5
115
330
E2
100
AcDbEntity
  8
AM_9
100
AcDbLine
 10
-2.65232236814531
 20
1.442447916666666
 30
0.0
 11
-2.65232236814531
 21
1.510416666666667
 31
0.0
  0
LINE
  5
116
330
E2
100
AcDbEntity
  8
AM_9
100
AcDbLine
 10
-2.54767763185469
 20
1.442447916666666
 30
0.0
 11
-2.54767763185469
 21
1.510416666666667
 31
0.0
  0
LINE
  5
117
330
E2
100
AcDbEntity
  8
AM_9
100
AcDbLine
 10
-2.70464473629062
 20
1.442447916666666
 30
0.0
 11
-2.49535526370938
 21
1.442447916666666
 31
0.0
  0
LINE
  5
118
330
E2
100
AcDbEntity
  8
AM_9
100
AcDbLine
 10
-2.418750000000001
 20
-0.0271874999999999
 30
0.0
 11
-2.418750000000001
 21
0.0271874999999999
 31
0.0
  0
LINE
  5
119
330
E2
100
AcDbEntity
  8
AM_9
100
AcDbLine
 10
-2.567567567567568
 20
1.510416666666667
 30
0.0
 11
-2.418750000000001
 21
1.510416666666667
 31
0.0
  0
LINE
  5
11A
330
E2
100
AcDbEntity
  8
AM_9
100
AcDbLine
 10
-2.418750000000001
 20
1.359375
 30
0.0
 11
-2.418750000000001
 21
1.510416666666667
 31
0.0
  0
LINE
  5
11B
330
E2
100
AcDbEntity
  8
AM_9
100
AcDbLine
 10
-2.567567567567568
 20
-0.0271875
 30
0.0
 11
2.567567567567567
 21
-0.0271875
 31
0.0
  0
LINE
  5
11C
330
E2
100
AcDbEntity
  8
AM_9
100
AcDbLine
 10
-2.567567567567567
 20
-2.7459375
 30
0.0
 11
2.567567567567567
 21
-2.7459375
 31
0.0
  0
LINE
  5
11D
330
E2
100
AcDbEntity
  8
AM_9
100
AcDbLine
 10
-2.567567567567568
 20
0.0271875
 30
0.0
 11
2.567567567567567
 21
0.0271875
 31
0.0
  0
LWPOLYLINE
  5
11E
330
E2
100
AcDbEntity
  8
AM_9
100
AcDbPolyline
 90
        8
 70
     0
 43
0.0
 10
-2.374847434117613
 20
2.275652247893425
 10
-2.37256700615747
 20
2.274412477804282
 10
-2.334001306614601
 20
2.249445711872325
 10
-2.302074592111716
 20
2.220905845772001
 10
-2.273501441164887
 20
2.184133082771984
 10
-2.253536906755964
 20
2.144167187246426
 10
-2.241416869363564
 20
2.099889971160896
 10
-2.2375
 20
2.053624104609185
  0
LWPOLYLINE
  5
11F
330
E2
100
AcDbEntity
  8
AM_9
100
AcDbPolyline
 90
        6
 70
     0
 43
0.0
 10
-2.5674874561001
 20
2.326070408796536
 10
-2.557298866145976
 20
2.325399014915258
 10
-2.506768386217627
 20
2.319241161355949
 10
-2.458752691405203
 20
2.308676943430628
 10
-2.413313941346133
 20
2.293508266656065
 10
-2.374847434117613
 20
2.275652247893425
  0
LINE
  5
120
330
E2
100
AcDbEntity
  8
AM_9
100
AcDbLine
 10
-2.2375
 20
2.053624104609185
 30
0.0
 11
-2.237499999999999
 21
1.359375
 31
0.0
  0
LINE
  5
121
330
E2
100
AcDbEntity
  8
AM_9
100
AcDbLine
 10
-2.237499999999999
 20
1.359375
 30
0.0
 11
-2.567567567567567
 21
1.359375
 31
0.0
  0
LINE
  5
122
330
E2
100
AcDbEntity
  8
AM_9
100
AcDbLine
 10
2.567567567567567
 20
2.7459375
 30
0.0
 11
-2.567567567567567
 21
2.7459375
 31
0.0
  0
LINE
  5
123
330
E2
100
AcDbEntity
  8
AM_7
100
AcDbLine
 10
3.575000000000014
 20
0.0271875
 30
0.0
 11
-3.574999999999978
 21
0.0271875
 31
0.0
  0
LINE
  5
124
330
E2
100
AcDbEntity
  8
AM_7
100
AcDbLine
 10
-2.6
 20
1.661458333333333
 30
0.0
 11
-2.6
 21
-1.661458333333333
 31
0.0
  0
LINE
  5
125
330
E2
100
AcDbEntity
  8
AM_7
100
AcDbLine
 10
3.575000000000014
 20
-0.0271875
 30
0.0
 11
-3.574999999999978
 21
-0.0271875
 31
0.0
  0
LINE
  5
127
330
E2
100
AcDbEntity
  8
AM_4
100
AcDbLine
 10
-2.78125
 20
0.0271874999999999
 30
0.0
 11
-2.78125
 21
-0.0271874999999999
 31
0.0
  0
LINE
  5
128
330
E2
100
AcDbEntity
  8
AM_4
100
AcDbLine
 10
-2.78125
 20
1.510416666666667
 30
0.0
 11
-2.567567567567568
 21
1.510416666666667
 31
0.0
  0
LINE
  5
129
330
E2
100
AcDbEntity
  8
AM_4
100
AcDbLine
 10
-2.78125
 20
1.510416666666667
 30
0.0
 11
-2.78125
 21
1.359375
 31
0.0
  0
LINE
  5
12A
330
E2
100
AcDbEntity
  8
AM_4
100
AcDbLine
 10
2.567567567567567
 20
-0.0271875
 30
0.0
 11
3.25
 21
-0.0271875
 31
0.0
  0
LINE
  5
12B
330
E2
100
AcDbEntity
  8
AM_4
100
AcDbLine
 10
3.249999999999996
 20
-2.61
 30
0.0
 11
3.25
 21
-0.0271875
 31
0.0
  0
ARC
  5
12C
330
E2
100
AcDbEntity
  8
AM_4
100
AcDbCircle
 10
3.114062500000001
 20
-2.610000000000003
 30
0.0
 40
0.1359374999999972
100
AcDbArc
 50
270.0
 51
0.0
  0
LINE
  5
12D
330
E2
100
AcDbEntity
  8
AM_4
100
AcDbLine
 10
-3.25
 20
-0.0271875
 30
0.0
 11
-2.567567567567568
 21
-0.0271875
 31
0.0
  0
LINE
  5
12E
330
E2
100
AcDbEntity
  8
AM_4
100
AcDbLine
 10
2.567567567567567
 20
-2.7459375
 30
0.0
 11
3.114062499999998
 21
-2.7459375
 31
0.0
  0
LINE
  5
12F
330
E2
100
AcDbEntity
  8
AM_4
100
AcDbLine
 10
-3.114062499999998
 20
-2.7459375
 30
0.0
 11
-2.567567567567567
 21
-2.7459375
 31
0.0
  0
LINE
  5
130
330
E2
100
AcDbEntity
  8
AM_4
100
AcDbLine
 10
3.114062499999998
 20
-2.7459375
 30
0.0
 11
3.114062500000001
 21
-0.0271875
 31
0.0
  0
LINE
  5
131
330
E2
100
AcDbEntity
  8
AM_4
100
AcDbLine
 10
2.567567567567567
 20
0.0271875
 30
0.0
 11
3.25
 21
0.0271875
 31
0.0
  0
LINE
  5
132
330
E2
100
AcDbEntity
  8
AM_4
100
AcDbLine
 10
3.25
 20
0.0271875
 30
0.0
 11
3.249999999999996
 21
2.61
 31
0.0
  0
ARC
  5
133
330
E2
100
AcDbEntity
  8
AM_4
100
AcDbCircle
 10
3.114062500000001
 20
2.610000000000003
 30
0.0
 40
0.1359374999999972
100
AcDbArc
 50
0.0
 51
90.0
  0
LINE
  5
134
330
E2
100
AcDbEntity
  8
AM_4
100
AcDbLine
 10
-3.25
 20
0.0271875
 30
0.0
 11
-2.567567567567568
 21
0.0271875
 31
0.0
  0
LINE
  5
135
330
E2
100
AcDbEntity
  8
AM_4
100
AcDbLine
 10
3.114062500000001
 20
0.0271875
 30
0.0
 11
3.114062499999998
 21
2.7459375
 31
0.0
  0
LWPOLYLINE
  5
136
330
E2
100
AcDbEntity
  8
AM_4
100
AcDbPolyline
 90
       11
 70
     0
 43
0.0
 10
-2.962499999999997
 20
2.053624104609185
 10
-2.955758121741655
 20
2.113661584024505
 10
-2.93473816544284
 20
2.169949230790683
 10
-2.906666346240984
 20
2.211115013236803
 10
-2.868147645925747
 20
2.24781752860804
 10
-2.827527499945454
 20
2.274328073707604
 10
-2.779872936647555
 20
2.296167960616203
 10
-2.725577418884914
 20
2.312650312198994
 10
-2.666605732856134
 20
2.323089463166365
 10
-2.612142775121394
 20
2.32684227245259
 10
-2.5674874561001
 20
2.326070408796536
  0
LINE
  5
137
330
E2
100
AcDbEntity
  8
AM_4
100
AcDbLine
 10
-2.567567567567567
 20
1.359375
 30
0.0
 11
-2.962500000000005
 21
1.359375
 31
0.0
  0
LINE
  5
138
330
E2
100
AcDbEntity
  8
AM_4
100
AcDbLine
 10
-2.962500000000005
 20
1.359375
 30
0.0
 11
-2.962499999999997
 21
2.053624104609185
 31
0.0
  0
LINE
  5
139
330
E2
100
AcDbEntity
  8
AM_4
100
AcDbLine
 10
-2.567567567567567
 20
2.7459375
 30
0.0
 11
-3.114062499999998
 21
2.7459375
 31
0.0
  0
LINE
  5
13A
330
E2
100
AcDbEntity
  8
AM_4
100
AcDbLine
 10
3.114062499999998
 20
2.7459375
 30
0.0
 11
2.567567567567567
 21
2.7459375
 31
0.0
  0
LINE
  5
13B
330
E2
100
AcDbEntity
  8
AM_4
100
AcDbLine
 10
-3.249999999999996
 20
-2.61
 30
0.0
 11
-3.25
 21
-0.0271875
 31
0.0
  0
ARC
  5
13C
330
E2
100
AcDbEntity
  8
AM_4
100
AcDbCircle
 10
-3.114062500000002
 20
-2.610000000000004
 30
0.0
 40
0.1359374999999963
100
AcDbArc
 50
180.0
 51
270.0
  0
LINE
  5
13D
330
E2
100
AcDbEntity
  8
AM_4
100
AcDbLine
 10
-3.114062499999998
 20
-2.7459375
 30
0.0
 11
-3.1140625
 21
-0.0271875
 31
0.0
  0
LINE
  5
13E
330
E2
100
AcDbEntity
  8
AM_4
100
AcDbLine
 10
-3.1140625
 20
0.0271875
 30
0.0
 11
-3.114062499999998
 21
2.7459375
 31
0.0
  0
LINE
  5
13F
330
E2
100
AcDbEntity
  8
AM_4
100
AcDbLine
 10
-3.25
 20
0.0271875
 30
0.0
 11
-3.249999999999996
 21
2.61
 31
0.0
  0
ARC
  5
140
330
E2
100
AcDbEntity
  8
AM_4
100
AcDbCircle
 10
-3.114062500000002
 20
2.610000000000003
 30
0.0
 40
0.1359374999999967
100
AcDbArc
 50
90.0
 51
180.0
  0
ENDBLK
  5
E5
330
E2
100
AcDbEntity
  8
0
100
AcDbBlockEnd
  0
BLOCK
  5
143
330
141
100
AcDbEntity
  8
0
100
AcDbBlockBegin
  2
4_087192p_0_in_087192_2
 70
     2
 10
0.0
 20
0.0
 30
0.0
  3
4_087192p_0_in_087192_2
  1

  0
ATTDEF
  5
145
330
141
100
AcDbEntity
  8
AM_6
100
AcDbText
 10
7.567567567567568
 20
5.22375
 30
0.0
 40
0.5
  1
Type C Pillow Block - Inch - Body - 4 Bolt
100
AcDbAttributeDefinition
  3

  2
NN
 70
     8
280
     0
  0
ATTDEF
  5
146
330
141
100
AcDbEntity
  8
AM_6
100
AcDbText
 10
7.567567567567568
 20
4.72375
 30
0.0
 40
0.5
  1
Type C Bearings
100
AcDbAttributeDefinition
  3

  2
NT
 70
     8
280
     0
  0
ATTDEF
  5
147
330
141
100
AcDbEntity
  8
AM_6
100
AcDbText
 10
7.567567567567568
 20
4.22375
 30
0.0
 40
0.5
  1
087192p
100
AcDbAttributeDefinition
  3

  2
NB
 70
     8
280
     0
  0
ATTDEF
  5
148
330
141
100
AcDbEntity
  8
AM_6
100
AcDbText
 10
7.567567567567568
 20
3.72375
 30
0.0
 40
0.5
  1
$PN.
100
AcDbAttributeDefinition
  3

  2
NBSYN
 70
     8
280
     0
  0
ATTDEF
  5
149
330
141
100
AcDbEntity
  8
AM_6
100
AcDbText
 10
7.567567567567568
 20
3.22375
 30
0.0
 40
0.5
  1
087192p
100
AcDbAttributeDefinition
  3

  2
LINA
 70
     8
280
     0
  0
ATTDEF
  5
14A
330
141
100
AcDbEntity
  8
AM_6
100
AcDbText
 10
7.567567567567568
 20
2.72375
 30
0.0
 40
0.5
  1
2-15/16
100
AcDbAttributeDefinition
  3

  2
SS
 70
     8
280
     0
  0
ATTDEF
  5
14B
330
141
100
AcDbEntity
  8
AM_6
100
AcDbText
 10
7.567567567567568
 20
2.22375
 30
0.0
 40
0.5
  1
2.93750
100
AcDbAttributeDefinition
  3

  2
SS1
 70
     8
280
     0
  0
ATTDEF
  5
14C
330
141
100
AcDbEntity
  8
AM_6
100
AcDbText
 10
7.567567567567568
 20
1.72375
 30
0.0
 40
0.5
  1
065302p
100
AcDbAttributeDefinition
  3

  2
PN1
 70
     8
280
     0
  0
ATTDEF
  5
14D
330
141
100
AcDbEntity
  8
AM_6
100
AcDbText
 10
7.567567567567568
 20
1.22375
 30
0.0
 40
0.5
  1
087192p
100
AcDbAttributeDefinition
  3

  2
PN2
 70
     8
280
     0
  0
ATTDEF
  5
14E
330
141
100
AcDbEntity
  8
AM_6
100
AcDbText
 10
7.567567567567568
 20
0.7237499999999999
 30
0.0
 40
0.5
  1
P4B-C-215
100
AcDbAttributeDefinition
  3

  2
DESCRIPTION1
 70
     8
280
     0
  0
ATTDEF
  5
14F
330
141
100
AcDbEntity
  8
AM_6
100
AcDbText
 10
7.567567567567568
 20
0.2237499999999999
 30
0.0
 40
0.5
  1
P4B-C-215E
100
AcDbAttributeDefinition
  3

  2
DESCRIPTION2
 70
     8
280
     0
  0
ATTDEF
  5
150
330
141
100
AcDbEntity
  8
AM_6
100
AcDbText
 10
7.567567567567568
 20
-0.2762500000000001
 30
0.0
 40
0.5
  1
85
100
AcDbAttributeDefinition
  3

  2
WEIGHT1
 70
     8
280
     0
  0
ATTDEF
  5
151
330
141
100
AcDbEntity
  8
AM_6
100
AcDbText
 10
7.567567567567568
 20
-0.7762500000000001
 30
0.0
 40
0.5
  1
85
100
AcDbAttributeDefinition
  3

  2
WEIGHT2
 70
     8
280
     0
  0
ATTDEF
  5
152
330
141
100
AcDbEntity
  8
AM_6
100
AcDbText
 10
7.567567567567568
 20
-1.27625
 30
0.0
 40
0.5
  1
6-1/2
100
AcDbAttributeDefinition
  3

  2
A
 70
     8
280
     0
  0
ATTDEF
  5
153
330
141
100
AcDbEntity
  8
AM_6
100
AcDbText
 10
7.567567567567568
 20
-1.77625
 30
0.0
 40
0.5
  1
6.50000
100
AcDbAttributeDefinition
  3

  2
A1
 70
     8
280
     0
  0
ATTDEF
  5
154
330
141
100
AcDbEntity
  8
AM_6
100
AcDbText
 10
7.567567567567568
 20
-2.27625
 30
0.0
 40
0.5
  1
14-1/4
100
AcDbAttributeDefinition
  3

  2
B
 70
     8
280
     0
  0
ATTDEF
  5
155
330
141
100
AcDbEntity
  8
AM_6
100
AcDbText
 10
7.567567567567568
 20
-2.77625
 30
0.0
 40
0.5
  1
14.25000
100
AcDbAttributeDefinition
  3

  2
B1
 70
     8
280
     0
  0
ATTDEF
  5
156
330
141
100
AcDbEntity
  8
AM_6
100
AcDbText
 10
7.567567567567568
 20
-3.27625
 30
0.0
 40
0.5
  1
4-3/4
100
AcDbAttributeDefinition
  3

  2
C
 70
     8
280
     0
  0
ATTDEF
  5
157
330
141
100
AcDbEntity
  8
AM_6
100
AcDbText
 10
7.567567567567568
 20
-3.77625
 30
0.0
 40
0.5
  1
4.75000
100
AcDbAttributeDefinition
  3

  2
C1
 70
     8
280
     0
  0
ATTDEF
  5
158
330
141
100
AcDbEntity
  8
AM_6
100
AcDbText
 10
7.567567567567568
 20
-4.27625
 30
0.0
 40
0.5
  1
11
100
AcDbAttributeDefinition
  3

  2
DMIN
 70
     8
280
     0
  0
ATTDEF
  5
159
330
141
100
AcDbEntity
  8
AM_6
100
AcDbText
 10
7.567567567567568
 20
-4.77625
 30
0.0
 40
0.5
  1
11.00000
100
AcDbAttributeDefinition
  3

  2
DMIN1
 70
     8
280
     0
  0
ATTDEF
  5
15A
330
141
100
AcDbEntity
  8
AM_6
100
AcDbText
 10
7.567567567567568
 20
-5.27625
 30
0.0
 40
0.5
  1
12-1/2
100
AcDbAttributeDefinition
  3

  2
DMAX
 70
     8
280
     0
  0
ATTDEF
  5
15B
330
141
100
AcDbEntity
  8
AM_6
100
AcDbText
 10
7.567567567567568
 20
-5.77625
 30
0.0
 40
0.5
  1
12.50000
100
AcDbAttributeDefinition
  3

  2
DMAX1
 70
     8
280
     0
  0
ATTDEF
  5
15C
330
141
100
AcDbEntity
  8
AM_6
100
AcDbText
 10
7.567567567567568
 20
-6.27625
 30
0.0
 40
0.5
  1
2-3/4
100
AcDbAttributeDefinition
  3

  2
E
 70
     8
280
     0
  0
ATTDEF
  5
15D
330
141
100
AcDbEntity
  8
AM_6
100
AcDbText
 10
7.567567567567568
 20
-6.77625
 30
0.0
 40
0.5
  1
2.75000
100
AcDbAttributeDefinition
  3

  2
E1
 70
     8
280
     0
  0
ATTDEF
  5
15E
330
141
100
AcDbEntity
  8
AM_6
100
AcDbText
 10
7.567567567567568
 20
-7.27625
 30
0.0
 40
0.5
  1
5/8
100
AcDbAttributeDefinition
  3

  2
F
 70
     8
280
     0
  0
ATTDEF
  5
15F
330
141
100
AcDbEntity
  8
AM_6
100
AcDbText
 10
7.567567567567568
 20
-7.77625
 30
0.0
 40
0.5
  1
0.62500
100
AcDbAttributeDefinition
  3

  2
F1
 70
     8
280
     0
  0
ATTDEF
  5
160
330
141
100
AcDbEntity
  8
AM_6
100
AcDbText
 10
7.567567567567568
 20
-8.276250000000001
 30
0.0
 40
0.5
  1
1-1/3
100
AcDbAttributeDefinition
  3

  2
G
 70
     8
280
     0
  0
ATTDEF
  5
161
330
141
100
AcDbEntity
  8
AM_6
100
AcDbText
 10
7.567567567567568
 20
-8.776250000000001
 30
0.0
 40
0.5
  1
1.33333
100
AcDbAttributeDefinition
  3

  2
G1
 70
     8
280
     0
  0
ATTDEF
  5
162
330
141
100
AcDbEntity
  8
AM_6
100
AcDbText
 10
7.567567567567568
 20
-9.276250000000001
 30
0.0
 40
0.5
  1
3-3/4
100
AcDbAttributeDefinition
  3

  2
H
 70
     8
280
     0
  0
ATTDEF
  5
163
330
141
100
AcDbEntity
  8
AM_6
100
AcDbText
 10
7.567567567567568
 20
-9.776250000000001
 30
0.0
 40
0.5
  1
3.75000
100
AcDbAttributeDefinition
  3

  2
H1
 70
     8
280
     0
  0
ATTDEF
  5
164
330
141
100
AcDbEntity
  8
AM_6
100
AcDbText
 10
7.567567567567568
 20
-10.27625
 30
0.0
 40
0.5
  1
9-7/8
100
AcDbAttributeDefinition
  3

  2
J
 70
     8
280
     0
  0
ATTDEF
  5
165
330
141
100
AcDbEntity
  8
AM_6
100
AcDbText
 10
7.567567567567568
 20
-10.77625
 30
0.0
 40
0.5
  1
9.87500
100
AcDbAttributeDefinition
  3

  2
J1
 70
     8
280
     0
  0
ATTDEF
  5
166
330
141
100
AcDbEntity
  8
AM_6
100
AcDbText
 10
7.567567567567568
 20
-11.27625
 30
0.0
 40
0.5
  1
5-7/16
100
AcDbAttributeDefinition
  3

  2
L
 70
     8
280
     0
  0
ATTDEF
  5
167
330
141
100
AcDbEntity
  8
AM_6
100
AcDbText
 10
7.567567567567568
 20
-11.77625
 30
0.0
 40
0.5
  1
5.43750
100
AcDbAttributeDefinition
  3

  2
L1
 70
     8
280
     0
  0
ATTDEF
  5
168
330
141
100
AcDbEntity
  8
AM_6
100
AcDbText
 10
7.567567567567568
 20
-12.27625
 30
0.0
 40
0.5
  1
4-3/4
100
AcDbAttributeDefinition
  3

  2
M
 70
     8
280
     0
  0
ATTDEF
  5
169
330
141
100
AcDbEntity
  8
AM_6
100
AcDbText
 10
7.567567567567568
 20
-12.77625
 30
0.0
 40
0.5
  1
4.75000
100
AcDbAttributeDefinition
  3

  2
M1
 70
     8
280
     0
  0
ATTDEF
  5
16A
330
141
100
AcDbEntity
  8
AM_6
100
AcDbText
 10
7.567567567567568
 20
-13.27625
 30
0.0
 40
0.5
  1
9-7/8
100
AcDbAttributeDefinition
  3

  2
P
 70
     8
280
     0
  0
ATTDEF
  5
16B
330
141
100
AcDbEntity
  8
AM_6
100
AcDbText
 10
7.567567567567568
 20
-13.77625
 30
0.0
 40
0.5
  1
9.87500
100
AcDbAttributeDefinition
  3

  2
P1
 70
     8
280
     0
  0
ATTDEF
  5
16C
330
141
100
AcDbEntity
  8
AM_6
100
AcDbText
 10
7.567567567567568
 20
-14.27625
 30
0.0
 40
0.5
  1
5/8
100
AcDbAttributeDefinition
  3

  2
EXP
 70
     8
280
     0
  0
ATTDEF
  5
16D
330
141
100
AcDbEntity
  8
AM_6
100
AcDbText
 10
7.567567567567568
 20
-14.77625
 30
0.0
 40
0.5
  1
Gray Iron Expansion
100
AcDbAttributeDefinition
  3

  2
TYPE
 70
     8
280
     0
  0
ATTDEF
  5
16E
330
141
100
AcDbEntity
  8
AM_6
100
AcDbText
 10
7.567567567567568
 20
-15.27625
 30
0.0
 40
0.5
  1
baldor
100
AcDbAttributeDefinition
  3

  2
COMPANY
 70
     8
280
     0
  0
LINE
  5
16F
330
141
100
AcDbEntity
  8
AM_9
100
AcDbLine
 10
-2.567567567567568
 20
-2.71875
 30
0.0
 11
2.567567567567568
 21
-2.71875
 31
0.0
  0
LINE
  5
170
330
141
100
AcDbEntity
  8
AM_9
100
AcDbLine
 10
2.567567567567568
 20
2.71875
 30
0.0
 11
-2.567567567567568
 21
2.71875
 31
0.0
  0
LINE
  5
171
330
141
100
AcDbEntity
  8
AM_9
100
AcDbLine
 10
1.666665000000016
 20
-1.0
 30
0.0
 11
1.666665000000016
 21
-4.75
 31
0.0
  0
LINE
  5
172
330
141
100
AcDbEntity
  8
AM_9
100
AcDbLine
 10
1.083335000000013
 20
-1.0
 30
0.0
 11
1.083335000000013
 21
-4.75
 31
0.0
  0
LINE
  5
173
330
141
100
AcDbEntity
  8
AM_9
100
AcDbLine
 10
-1.083334999999998
 20
-1.0
 30
0.0
 11
-1.083334999999998
 21
-4.75
 31
0.0
  0
LINE
  5
174
330
141
100
AcDbEntity
  8
AM_9
100
AcDbLine
 10
-1.666665000000001
 20
-1.0
 30
0.0
 11
-1.666665000000001
 21
-4.75
 31
0.0
  0
LINE
  5
176
330
141
100
AcDbEntity
  8
AM_5
100
AcDbLine
 10
-1.194685039370079
 20
2.7459375
 30
0.0
 11
-1.194685039370079
 21
2.743055555555555
 31
0.0
  0
LINE
  5
177
330
141
100
AcDbEntity
  8
AM_5
100
AcDbLine
 10
-1.555314960629921
 20
2.7459375
 30
0.0
 11
-1.555314960629921
 21
2.743055555555555
 31
0.0
  0
LINE
  5
178
330
141
100
AcDbEntity
  8
AM_5
100
AcDbLine
 10
1.555314960629921
 20
2.7459375
 30
0.0
 11
1.555314960629921
 21
2.743055555555555
 31
0.0
  0
LINE
  5
179
330
141
100
AcDbEntity
  8
AM_5
100
AcDbLine
 10
1.194685039370079
 20
2.7459375
 30
0.0
 11
1.194685039370079
 21
2.743055555555555
 31
0.0
  0
LINE
  5
17A
330
141
100
AcDbEntity
  8
AM_7
100
AcDbLine
 10
-1.375
 20
3.261493055555556
 30
0.0
 11
-1.375
 21
2.718368055555555
 31
0.0
  0
LINE
  5
17B
330
141
100
AcDbEntity
  8
AM_7
100
AcDbLine
 10
1.375
 20
3.261493055555556
 30
0.0
 11
1.375
 21
2.718368055555555
 31
0.0
  0
LINE
  5
17C
330
141
100
AcDbEntity
  8
AM_7
100
AcDbLine
 10
0.0
 20
5.22375
 30
0.0
 11
0.0
 21
3.05125
 31
0.0
  0
LINE
  5
17D
330
141
100
AcDbEntity
  8
AM_4
100
AcDbLine
 10
0.9875
 20
5.125
 30
0.0
 11
-0.9875
 21
5.125
 31
0.0
  0
LINE
  5
17E
330
141
100
AcDbEntity
  8
AM_4
100
AcDbLine
 10
-0.9875
 20
5.125
 30
0.0
 11
-0.9875
 21
4.83875
 31
0.0
  0
LINE
  5
17F
330
141
100
AcDbEntity
  8
AM_4
100
AcDbLine
 10
0.9875
 20
4.83875
 30
0.0
 11
0.9875
 21
5.125
 31
0.0
  0
LINE
  5
180
330
141
100
AcDbEntity
  8
AM_4
100
AcDbLine
 10
-0.9875
 20
4.64125
 30
0.0
 11
-0.9875
 21
4.443749999999997
 31
0.0
  0
LINE
  5
181
330
141
100
AcDbEntity
  8
AM_4
100
AcDbLine
 10
0.9875
 20
4.443749999999997
 30
0.0
 11
0.9875
 21
4.64125
 31
0.0
  0
LINE
  5
182
330
141
100
AcDbEntity
  8
AM_4
100
AcDbLine
 10
1.097222222222222
 20
4.83875
 30
0.0
 11
-1.097222222222222
 21
4.83875
 31
0.0
  0
LINE
  5
183
330
141
100
AcDbEntity
  8
AM_4
100
AcDbLine
 10
1.097222222222222
 20
4.64125
 30
0.0
 11
-1.097222222222222
 21
4.64125
 31
0.0
  0
LINE
  5
184
330
141
100
AcDbEntity
  8
AM_4
100
AcDbLine
 10
-1.097222222222222
 20
4.83875
 30
0.0
 11
-1.097222222222222
 21
4.64125
 31
0.0
  0
LINE
  5
185
330
141
100
AcDbEntity
  8
AM_4
100
AcDbLine
 10
1.097222222222222
 20
4.64125
 30
0.0
 11
1.097222222222222
 21
4.83875
 31
0.0
  0
LINE
  5
186
330
141
100
AcDbEntity
  8
AM_4
100
AcDbLine
 10
-2.567567567567568
 20
-2.939189189189189
 30
0.0
 11
-2.567567567567568
 21
2.939189189189189
 31
0.0
  0
LINE
  5
187
330
141
100
AcDbEntity
  8
AM_4
100
AcDbLine
 10
-2.567567567567568
 20
-2.939189189189189
 30
0.0
 11
-2.375
 21
-2.939189189189189
 31
0.0
  0
LINE
  5
188
330
141
100
AcDbEntity
  8
AM_4
100
AcDbLine
 10
-2.375
 20
2.939189189189189
 30
0.0
 11
-2.567567567567568
 21
2.939189189189189
 31
0.0
  0
LINE
  5
189
330
141
100
AcDbEntity
  8
AM_4
100
AcDbLine
 10
2.567567567567568
 20
-2.939189189189189
 30
0.0
 11
2.567567567567568
 21
2.939189189189189
 31
0.0
  0
LINE
  5
18A
330
141
100
AcDbEntity
  8
AM_4
100
AcDbLine
 10
2.375
 20
-2.939189189189189
 30
0.0
 11
2.567567567567568
 21
-2.939189189189189
 31
0.0
  0
LINE
  5
18B
330
141
100
AcDbEntity
  8
AM_4
100
AcDbLine
 10
2.567567567567568
 20
2.939189189189189
 30
0.0
 11
2.375
 21
2.939189189189189
 31
0.0
  0
LINE
  5
18C
330
141
100
AcDbEntity
  8
AM_4
100
AcDbLine
 10
2.375
 20
4.443749999999997
 30
0.0
 11
0.9875000000000006
 21
4.443749999999997
 31
0.0
  0
LINE
  5
18D
330
141
100
AcDbEntity
  8
AM_4
100
AcDbLine
 10
-0.9874999999999999
 20
4.443749999999997
 30
0.0
 11
-2.375
 21
4.443749999999997
 31
0.0
  0
LWPOLYLINE
  5
18E
330
141
100
AcDbEntity
  8
AM_4
100
AcDbPolyline
 90
       38
 70
     0
 43
0.0
 10
-0.9874999999999678
 20
4.44374999999999
 10
-0.9868963517223132
 20
4.443615894915174
 10
-0.9804458561657782
 20
4.44218646706218
 10
-0.967008156007546
 20
4.439241217402484
 10
-0.9475967959486233
 20
4.435052407700053
 10
-0.9219844101691702
 20
4.429651573780376
 10
-0.889358884616117
 20
4.422975469863415
 10
-0.8506196764201085
 20
4.415349549742696
 10
-0.8066431460362062
 20
4.407088649470549
 10
-0.7572814052677901
 20
4.398321604801579
 10
-0.7012512968070274
 20
4.389022195119011
 10
-0.6402563219084436
 20
4.379690168293152
 10
-0.5753168436152211
 20
4.370670137495478
 10
-0.5063319936488634
 20
4.362124470976545
 10
-0.4315615957946564
 20
4.354081006753017
 10
-0.3535193311957935
 20
4.34703735088958
 10
-0.2756015724988933
 20
4.341397837181244
 10
-0.1957012167456717
 20
4.337056234214137
 10
-0.1118859408985286
 20
4.334086302479652
 10
-0.0272058268442785
 20
4.332724081858231
 10
0.0533611101291341
 20
4.332969916776293
 10
0.1335557107981949
 20
4.334696637642222
 10
0.2151204978394771
 20
4.33797855966543
 10
0.29510891066571
 20
4.342677409347173
 10
0.3705348679232212
 20
4.348456072619195
 10
0.4434534203838881
 20
4.355273670913246
 10
0.515290844022054
 20
4.363174877631088
 10
0.583510043092616
 20
4.371755000327663
 10
0.6472246872471371
 20
4.380715039722085
 10
0.7065213911683877
 20
4.389866773454348
 10
0.7624704567213346
 20
4.399218187606571
 10
0.8129568780567639
 20
4.408248711005286
 10
0.8569616543181761
 20
4.416575342726195
 10
0.8950110233561404
 20
4.424116018418705
 10
0.9276554197120631
 20
4.430834456429497
 10
0.9534236262299889
 20
4.436301885980429
 10
0.9787808609945668
 20
4.441820548643229
 10
0.9875
 20
4.443749999999997
  0
LINE
  5
18F
330
141
100
AcDbEntity
  8
AM_4
100
AcDbLine
 10
-0.9949110727834962
 20
2.99579843186222
 30
0.0
 11
-1.045833333333333
 21
3.025198412698412
 31
0.0
  0
LINE
  5
190
330
141
100
AcDbEntity
  8
AM_4
100
AcDbLine
 10
-1.045833333333333
 20
3.025198412698412
 30
0.0
 11
-1.704166666666666
 21
3.025198412698412
 31
0.0
  0
LINE
  5
191
330
141
100
AcDbEntity
  8
AM_4
100
AcDbLine
 10
1.704166666666667
 20
2.743055555555555
 30
0.0
 11
1.755088927216504
 21
2.772455536391748
 31
0.0
  0
LINE
  5
192
330
141
100
AcDbEntity
  8
AM_4
100
AcDbLine
 10
-1.704166666666666
 20
3.025198412698412
 30
0.0
 11
-1.755088927216503
 21
2.99579843186222
 31
0.0
  0
LINE
  5
193
330
141
100
AcDbEntity
  8
AM_4
100
AcDbLine
 10
-1.045833333333333
 20
2.743055555555555
 30
0.0
 11
-0.9949110727834962
 21
2.772455536391748
 31
0.0
  0
LINE
  5
194
330
141
100
AcDbEntity
  8
AM_4
100
AcDbLine
 10
0.9949110727834968
 20
2.772455536391748
 30
0.0
 11
1.045833333333334
 21
2.743055555555555
 31
0.0
  0
LINE
  5
195
330
141
100
AcDbEntity
  8
AM_4
100
AcDbLine
 10
1.704166666666667
 20
3.025198412698412
 30
0.0
 11
1.045833333333334
 21
3.025198412698412
 31
0.0
  0
LINE
  5
196
330
141
100
AcDbEntity
  8
AM_4
100
AcDbLine
 10
1.045833333333334
 20
3.025198412698412
 30
0.0
 11
0.9949110727834968
 21
2.99579843186222
 31
0.0
  0
LINE
  5
197
330
141
100
AcDbEntity
  8
AM_4
100
AcDbLine
 10
-1.755088927216503
 20
2.772455536391748
 30
0.0
 11
-1.704166666666666
 21
2.743055555555555
 31
0.0
  0
LINE
  5
198
330
141
100
AcDbEntity
  8
AM_4
100
AcDbLine
 10
1.755088927216504
 20
2.99579843186222
 30
0.0
 11
1.704166666666667
 21
3.025198412698412
 31
0.0
  0
LINE
  5
199
330
141
100
AcDbEntity
  8
AM_4
100
AcDbLine
 10
1.155
 20
3.197120516185477
 30
0.0
 11
1.155
 21
3.025198412698412
 31
0.0
  0
LINE
  5
19A
330
141
100
AcDbEntity
  8
AM_4
100
AcDbLine
 10
1.595
 20
3.025198412698412
 30
0.0
 11
1.595
 21
3.197120516185477
 31
0.0
  0
LINE
  5
19B
330
141
100
AcDbEntity
  8
AM_4
100
AcDbLine
 10
-1.194685039370078
 20
3.236805555555555
 30
0.0
 11
-1.555314960629921
 21
3.236805555555555
 31
0.0
  0
LINE
  5
19C
330
141
100
AcDbEntity
  8
AM_4
100
AcDbLine
 10
-1.555314960629921
 20
3.236805555555555
 30
0.0
 11
-1.595
 21
3.197120516185477
 31
0.0
  0
LINE
  5
19D
330
141
100
AcDbEntity
  8
AM_4
100
AcDbLine
 10
-1.155
 20
3.197120516185477
 30
0.0
 11
-1.194685039370078
 21
3.236805555555555
 31
0.0
  0
LINE
  5
19E
330
141
100
AcDbEntity
  8
AM_4
100
AcDbLine
 10
1.595
 20
3.197120516185477
 30
0.0
 11
1.155
 21
3.197120516185477
 31
0.0
  0
LINE
  5
19F
330
141
100
AcDbEntity
  8
AM_4
100
AcDbLine
 10
1.555314960629921
 20
3.236805555555555
 30
0.0
 11
1.194685039370079
 21
3.236805555555555
 31
0.0
  0
LINE
  5
1A0
330
141
100
AcDbEntity
  8
AM_4
100
AcDbLine
 10
1.194685039370079
 20
3.236805555555555
 30
0.0
 11
1.155
 21
3.197120516185477
 31
0.0
  0
LINE
  5
1A1
330
141
100
AcDbEntity
  8
AM_4
100
AcDbLine
 10
1.595
 20
3.197120516185477
 30
0.0
 11
1.555314960629921
 21
3.236805555555555
 31
0.0
  0
LINE
  5
1A2
330
141
100
AcDbEntity
  8
AM_4
100
AcDbLine
 10
-1.155
 20
3.197120516185477
 30
0.0
 11
-1.595
 21
3.197120516185477
 31
0.0
  0
LINE
  5
1A3
330
141
100
AcDbEntity
  8
AM_4
100
AcDbLine
 10
-1.595
 20
3.197120516185477
 30
0.0
 11
-1.595
 21
3.025198412698412
 31
0.0
  0
LINE
  5
1A4
330
141
100
AcDbEntity
  8
AM_4
100
AcDbLine
 10
-1.155
 20
3.025198412698412
 30
0.0
 11
-1.155
 21
3.197120516185477
 31
0.0
  0
LWPOLYLINE
  5
1A5
330
141
100
AcDbEntity
  8
AM_4
100
AcDbPolyline
 90
        3
 70
     0
 43
0.0
 10
1.755088927216504
 20
2.772455536391748
 10
1.708534850499317
 20
2.751124984001488
 10
1.660066695412378
 20
2.743055555555555
  0
LINE
  5
1A6
330
141
100
AcDbEntity
  8
AM_4
100
AcDbLine
 10
1.755088927216504
 20
2.99579843186222
 30
0.0
 11
1.755088927216504
 21
2.772455536391748
 31
0.0
  0
LWPOLYLINE
  5
1A7
330
141
100
AcDbEntity
  8
AM_4
100
AcDbPolyline
 90
        4
 70
     0
 43
0.0
 10
1.660066695412378
 20
3.025198412698412
 10
1.66682367200284
 20
3.025038318549303
 10
1.711025915107481
 20
3.016297270061993
 10
1.755088927216504
 20
2.99579843186222
  0
LWPOLYLINE
  5
1A8
330
141
100
AcDbEntity
  8
AM_4
100
AcDbPolyline
 90
        4
 70
     0
 43
0.0
 10
-1.184955536391748
 20
2.772455536391748
 10
-1.224202498102966
 20
2.762049031903053
 10
-1.298534464609608
 20
2.748115912105583
 10
-1.375
 20
2.743055555555555
  0
LWPOLYLINE
  5
1A9
330
141
100
AcDbEntity
  8
AM_4
100
AcDbPolyline
 90
        4
 70
     0
 43
0.0
 10
-1.375
 20
3.025198412698412
 10
-1.299601249051483
 20
3.020276497932477
 10
-1.224202498102966
 20
3.006204936350915
 10
-1.184955536391748
 20
2.99579843186222
  0
LINE
  5
1AA
330
141
100
AcDbEntity
  8
AM_4
100
AcDbLine
 10
-1.755088927216503
 20
2.99579843186222
 30
0.0
 11
-1.755088927216503
 21
2.772455536391748
 31
0.0
  0
LWPOLYLINE
  5
1AB
330
141
100
AcDbEntity
  8
AM_4
100
AcDbPolyline
 90
        4
 70
     0
 43
0.0
 10
-1.660066695412378
 20
2.743055555555555
 10
-1.666823672002839
 20
2.743215649704665
 10
-1.71102591510748
 20
2.751956698191975
 10
-1.755088927216503
 20
2.772455536391748
  0
LINE
  5
1AC
330
141
100
AcDbEntity
  8
AM_4
100
AcDbLine
 10
-1.565044463608252
 20
2.99579843186222
 30
0.0
 11
-1.565044463608252
 21
2.772455536391748
 31
0.0
  0
LWPOLYLINE
  5
1AD
330
141
100
AcDbEntity
  8
AM_4
100
AcDbPolyline
 90
        3
 70
     0
 43
0.0
 10
-1.755088927216503
 20
2.99579843186222
 10
-1.708534850499317
 20
3.01712898425248
 10
-1.660066695412378
 20
3.025198412698412
  0
LWPOLYLINE
  5
1AE
330
141
100
AcDbEntity
  8
AM_4
100
AcDbPolyline
 90
        4
 70
     0
 43
0.0
 10
-1.660066695412378
 20
3.025198412698412
 10
-1.653309718821916
 20
3.025038318549303
 10
-1.609107475717275
 20
3.016297270061993
 10
-1.565044463608252
 20
2.99579843186222
  0
LWPOLYLINE
  5
1AF
330
141
100
AcDbEntity
  8
AM_4
100
AcDbPolyline
 90
        4
 70
     0
 43
0.0
 10
-1.565044463608252
 20
2.99579843186222
 10
-1.493383209839859
 20
3.013281428816941
 10
-1.419613587870521
 20
3.023460824081467
 10
-1.375
 20
3.025198412698412
  0
LINE
  5
1B0
330
141
100
AcDbEntity
  8
AM_4
100
AcDbLine
 10
-1.184955536391748
 20
2.99579843186222
 30
0.0
 11
-1.184955536391748
 21
2.772455536391748
 31
0.0
  0
LWPOLYLINE
  5
1B1
330
141
100
AcDbEntity
  8
AM_4
100
AcDbPolyline
 90
        4
 70
     0
 43
0.0
 10
-1.089933304587622
 20
2.743055555555555
 10
-1.096690281178084
 20
2.743215649704665
 10
-1.140892524282725
 20
2.751956698191975
 10
-1.184955536391748
 20
2.772455536391748
  0
LWPOLYLINE
  5
1B2
330
141
100
AcDbEntity
  8
AM_4
100
AcDbPolyline
 90
        3
 70
     0
 43
0.0
 10
-0.9949110727834962
 20
2.772455536391748
 10
-1.041465149500682
 20
2.751124984001488
 10
-1.089933304587622
 20
2.743055555555555
  0
LINE
  5
1B3
330
141
100
AcDbEntity
  8
AM_4
100
AcDbLine
 10
-0.9949110727834962
 20
2.99579843186222
 30
0.0
 11
-0.9949110727834962
 21
2.772455536391748
 31
0.0
  0
LWPOLYLINE
  5
1B4
330
141
100
AcDbEntity
  8
AM_4
100
AcDbPolyline
 90
        4
 70
     0
 43
0.0
 10
-1.089933304587622
 20
3.025198412698412
 10
-1.08317632799716
 20
3.025038318549303
 10
-1.03897408489252
 20
3.016297270061993
 10
-0.9949110727834962
 20
2.99579843186222
  0
LWPOLYLINE
  5
1B5
330
141
100
AcDbEntity
  8
AM_4
100
AcDbPolyline
 90
        3
 70
     0
 43
0.0
 10
-1.184955536391748
 20
2.99579843186222
 10
-1.138401459674562
 20
3.01712898425248
 10
-1.089933304587622
 20
3.025198412698412
  0
LINE
  5
1B6
330
141
100
AcDbEntity
  8
AM_4
100
AcDbLine
 10
1.565044463608252
 20
2.99579843186222
 30
0.0
 11
1.565044463608252
 21
2.772455536391748
 31
0.0
  0
LWPOLYLINE
  5
1B7
330
141
100
AcDbEntity
  8
AM_4
100
AcDbPolyline
 90
        4
 70
     0
 43
0.0
 10
1.184955536391748
 20
2.99579843186222
 10
1.256616790160142
 20
3.013281428816941
 10
1.33038641212948
 20
3.023460824081467
 10
1.375
 20
3.025198412698412
  0
LWPOLYLINE
  5
1B8
330
141
100
AcDbEntity
  8
AM_4
100
AcDbPolyline
 90
        4
 70
     0
 43
0.0
 10
-1.375
 20
2.743055555555555
 10
-1.419613587870521
 20
2.744793144172501
 10
-1.492623669298382
 20
2.754824555343298
 10
-1.565044463608252
 20
2.772455536391748
  0
LWPOLYLINE
  5
1B9
330
141
100
AcDbEntity
  8
AM_4
100
AcDbPolyline
 90
        3
 70
     0
 43
0.0
 10
-1.565044463608252
 20
2.772455536391748
 10
-1.611598540325438
 20
2.751124984001488
 10
-1.660066695412378
 20
2.743055555555555
  0
LWPOLYLINE
  5
1BA
330
141
100
AcDbEntity
  8
AM_4
100
AcDbPolyline
 90
        4
 70
     0
 43
0.0
 10
1.375
 20
2.743055555555555
 10
1.33038641212948
 20
2.744793144172501
 10
1.257376330701618
 20
2.754824555343298
 10
1.184955536391748
 20
2.772455536391748
  0
LWPOLYLINE
  5
1BB
330
141
100
AcDbEntity
  8
AM_4
100
AcDbPolyline
 90
        4
 70
     0
 43
0.0
 10
1.375
 20
3.025198412698412
 10
1.450398750948517
 20
3.020276497932477
 10
1.525797501897035
 20
3.006204936350915
 10
1.565044463608252
 20
2.99579843186222
  0
LWPOLYLINE
  5
1BC
330
141
100
AcDbEntity
  8
AM_4
100
AcDbPolyline
 90
        3
 70
     0
 43
0.0
 10
1.565044463608252
 20
2.99579843186222
 10
1.611598540325438
 20
3.01712898425248
 10
1.660066695412378
 20
3.025198412698412
  0
LWPOLYLINE
  5
1BD
330
141
100
AcDbEntity
  8
AM_4
100
AcDbPolyline
 90
        4
 70
     0
 43
0.0
 10
1.660066695412378
 20
2.743055555555555
 10
1.653309718821916
 20
2.743215649704665
 10
1.609107475717275
 20
2.751956698191975
 10
1.565044463608252
 20
2.772455536391748
  0
LWPOLYLINE
  5
1BE
330
141
100
AcDbEntity
  8
AM_4
100
AcDbPolyline
 90
        4
 70
     0
 43
0.0
 10
1.565044463608252
 20
2.772455536391748
 10
1.525797501897035
 20
2.762049031903053
 10
1.451465535390392
 20
2.748115912105583
 10
1.375
 20
2.743055555555555
  0
LINE
  5
1BF
330
141
100
AcDbEntity
  8
AM_4
100
AcDbLine
 10
0.9949110727834968
 20
2.99579843186222
 30
0.0
 11
0.9949110727834968
 21
2.772455536391748
 31
0.0
  0
LWPOLYLINE
  5
1C0
330
141
100
AcDbEntity
  8
AM_4
100
AcDbPolyline
 90
        4
 70
     0
 43
0.0
 10
1.089933304587622
 20
2.743055555555555
 10
1.083176327997161
 20
2.743215649704665
 10
1.03897408489252
 20
2.751956698191975
 10
0.9949110727834968
 20
2.772455536391748
  0
LWPOLYLINE
  5
1C1
330
141
100
AcDbEntity
  8
AM_4
100
AcDbPolyline
 90
        3
 70
     0
 43
0.0
 10
1.184955536391748
 20
2.772455536391748
 10
1.138401459674562
 20
2.751124984001488
 10
1.089933304587622
 20
2.743055555555555
  0
LINE
  5
1C2
330
141
100
AcDbEntity
  8
AM_4
100
AcDbLine
 10
1.184955536391748
 20
2.99579843186222
 30
0.0
 11
1.184955536391748
 21
2.772455536391748
 31
0.0
  0
LWPOLYLINE
  5
1C3
330
141
100
AcDbEntity
  8
AM_4
100
AcDbPolyline
 90
        4
 70
     0
 43
0.0
 10
1.089933304587622
 20
3.025198412698412
 10
1.096690281178085
 20
3.025038318549303
 10
1.140892524282725
 20
3.016297270061993
 10
1.184955536391748
 20
2.99579843186222
  0
LWPOLYLINE
  5
1C4
330
141
100
AcDbEntity
  8
AM_4
100
AcDbPolyline
 90
        3
 70
     0
 43
0.0
 10
0.9949110727834968
 20
2.99579843186222
 10
1.041465149500683
 20
3.01712898425248
 10
1.089933304587622
 20
3.025198412698412
  0
LINE
  5
1C5
330
141
100
AcDbEntity
  8
AM_4
100
AcDbLine
 10
-1.96875
 20
2.743055555555555
 30
0.0
 11
-0.7812499999999998
 21
2.743055555555555
 31
0.0
  0
LINE
  5
1C6
330
141
100
AcDbEntity
  8
AM_4
100
AcDbLine
 10
0.7812500000000003
 20
2.743055555555555
 30
0.0
 11
1.96875
 21
2.743055555555555
 31
0.0
  0
LWPOLYLINE
  5
1C7
330
141
100
AcDbEntity
  8
AM_4
100
AcDbPolyline
 90
       18
 70
     0
 43
0.0
 10
-0.7812499999999998
 20
-0.7863469263165699
 10
-0.8087741644736818
 20
-0.8415377095560101
 10
-0.8491281511156084
 20
-0.8869780214653703
 10
-0.9033389693816947
 20
-0.9222965041291895
 10
-0.9703350512206156
 20
-0.9481501596925378
 10
-1.044916874537924
 20
-0.9650654840582259
 10
-1.127755105369816
 20
-0.9760253450743764
 10
-1.219885550078152
 20
-0.9826466569304747
 10
-1.31604462073976
 20
-0.9857068337415904
 10
-1.417566045374376
 20
-0.9859642268495599
 10
-1.517904640423436
 20
-0.9832038254079066
 10
-1.615021641660906
 20
-0.9767213176180336
 10
-1.705200625824995
 20
-0.9650613359493431
 10
-1.78403555208209
 20
-0.9467900834660509
 10
-1.851263997750627
 20
-0.9200444293249953
 10
-1.902724790661445
 20
-0.8852579166983656
 10
-1.941642135713875
 20
-0.841072796615497
 10
-1.96875
 20
-0.7863469263165701
  0
LWPOLYLINE
  5
1C8
330
141
100
AcDbEntity
  8
AM_4
100
AcDbPolyline
 90
       18
 70
     0
 43
0.0
 10
1.96875
 20
-0.7863469263165699
 10
1.941225835526318
 20
-0.8415377095560101
 10
1.900871848884391
 20
-0.8869780214653703
 10
1.846661030618305
 20
-0.9222965041291895
 10
1.779664948779384
 20
-0.9481501596925378
 10
1.705083125462076
 20
-0.9650654840582259
 10
1.622244894630184
 20
-0.9760253450743764
 10
1.530114449921848
 20
-0.9826466569304747
 10
1.43395537926024
 20
-0.9857068337415904
 10
1.332433954625624
 20
-0.9859642268495599
 10
1.232095359576564
 20
-0.9832038254079066
 10
1.134978358339093
 20
-0.9767213176180336
 10
1.044799374175005
 20
-0.9650613359493431
 10
0.96596444791791
 20
-0.9467900834660509
 10
0.8987360022493732
 20
-0.9200444293249953
 10
0.8472752093385549
 20
-0.8852579166983656
 10
0.8083578642861249
 20
-0.841072796615497
 10
0.7812500000000003
 20
-0.7863469263165701
  0
LINE
  5
1C9
330
141
100
AcDbEntity
  8
AM_4
100
AcDbLine
 10
-0.7812499999999998
 20
-0.6230769890586159
 30
0.0
 11
0.7812500000000003
 21
-0.6230769890586159
 31
0.0
  0
LINE
  5
1CA
330
141
100
AcDbEntity
  8
AM_4
100
AcDbLine
 10
-2.375
 20
-0.623076989058616
 30
0.0
 11
-1.96875
 21
-0.6230769890586159
 31
0.0
  0
LINE
  5
1CB
330
141
100
AcDbEntity
  8
AM_4
100
AcDbLine
 10
1.96875
 20
-0.6230769890586159
 30
0.0
 11
2.375
 21
-0.623076989058616
 31
0.0
  0
LINE
  5
1CC
330
141
100
AcDbEntity
  8
AM_4
100
AcDbLine
 10
-1.96875
 20
-1.0
 30
0.0
 11
-0.7812499999999997
 21
-1.0
 31
0.0
  0
LINE
  5
1CD
330
141
100
AcDbEntity
  8
AM_4
100
AcDbLine
 10
0.7812500000000003
 20
-1.0
 30
0.0
 11
1.96875
 21
-1.0
 31
0.0
  0
LINE
  5
1CE
330
141
100
AcDbEntity
  8
AM_4
100
AcDbLine
 10
1.968749999999999
 20
-2.875
 30
0.0
 11
1.96875
 21
2.743055555555555
 31
0.0
  0
LINE
  5
1CF
330
141
100
AcDbEntity
  8
AM_4
100
AcDbLine
 10
-0.7812500000000002
 20
-2.875
 30
0.0
 11
-0.7812499999999998
 21
2.743055555555555
 31
0.0
  0
LINE
  5
1D0
330
141
100
AcDbEntity
  8
AM_4
100
AcDbLine
 10
-1.96875
 20
-2.875
 30
0.0
 11
-1.96875
 21
2.743055555555555
 31
0.0
  0
LINE
  5
1D1
330
141
100
AcDbEntity
  8
AM_4
100
AcDbLine
 10
-2.375
 20
-4.75
 30
0.0
 11
2.375
 21
-4.75
 31
0.0
  0
LINE
  5
1D2
330
141
100
AcDbEntity
  8
AM_4
100
AcDbLine
 10
2.375
 20
-4.75
 30
0.0
 11
2.375
 21
4.443749999999997
 31
0.0
  0
LINE
  5
1D3
330
141
100
AcDbEntity
  8
AM_4
100
AcDbLine
 10
1.968749999999999
 20
-2.875
 30
0.0
 11
2.375
 21
-2.875
 31
0.0
  0
LINE
  5
1D4
330
141
100
AcDbEntity
  8
AM_4
100
AcDbLine
 10
0.7812500000000003
 20
-1.375
 30
0.0
 11
1.96875
 21
-1.375
 31
0.0
  0
LINE
  5
1D5
330
141
100
AcDbEntity
  8
AM_4
100
AcDbLine
 10
0.7812499999999993
 20
-2.875
 30
0.0
 11
0.7812500000000003
 21
2.743055555555555
 31
0.0
  0
LINE
  5
1D6
330
141
100
AcDbEntity
  8
AM_4
100
AcDbLine
 10
-0.7812500000000002
 20
-2.875
 30
0.0
 11
0.7812499999999993
 21
-2.875
 31
0.0
  0
LINE
  5
1D7
330
141
100
AcDbEntity
  8
AM_4
100
AcDbLine
 10
-1.96875
 20
-1.375
 30
0.0
 11
-0.7812499999999997
 21
-1.375
 31
0.0
  0
LINE
  5
1D8
330
141
100
AcDbEntity
  8
AM_4
100
AcDbLine
 10
-2.375
 20
-2.875
 30
0.0
 11
-1.96875
 21
-2.875
 31
0.0
  0
LINE
  5
1D9
330
141
100
AcDbEntity
  8
AM_4
100
AcDbLine
 10
-2.375
 20
-4.75
 30
0.0
 11
-2.375
 21
4.443749999999997
 31
0.0
  0
LINE
  5
1DA
330
141
100
AcDbEntity
  8
AM_5
100
AcDbLine
 10
-1.555314960629921
 20
3.236805555555555
 30
0.0
 11
-1.555314960629921
 21
2.743055555555555
 31
0.0
  0
LINE
  5
1DB
330
141
100
AcDbEntity
  8
AM_5
100
AcDbLine
 10
-1.194685039370079
 20
3.236805555555556
 30
0.0
 11
-1.194685039370079
 21
2.743055555555555
 31
0.0
  0
LINE
  5
1DC
330
141
100
AcDbEntity
  8
AM_5
100
AcDbLine
 10
1.194685039370079
 20
3.236805555555555
 30
0.0
 11
1.194685039370079
 21
2.743055555555555
 31
0.0
  0
LINE
  5
1DD
330
141
100
AcDbEntity
  8
AM_5
100
AcDbLine
 10
1.555314960629921
 20
3.236805555555556
 30
0.0
 11
1.555314960629921
 21
2.743055555555555
 31
0.0
  0
ENDBLK
  5
144
330
141
100
AcDbEntity
  8
0
100
AcDbBlockEnd
  0
ENDSEC
  0
SECTION
  2
ENTITIES
  0
INSERT
  5
6F
330
1F
100
AcDbEntity
  8
0
100
AcDbBlockReference
  2
1_087192_2
 10
0.0
 20
0.0
 30
0.0
  0
POINT
  5
1DF
330
1F
100
AcDbEntity
  8
ConnectionPoints
100
AcDbPoint
 10
3.25
 20
0.0
 30
-0.0000000000000002
  0
POINT
  5
1E0
330
1F
100
AcDbEntity
  8
ConnectionPoints
100
AcDbPoint
 10
0.0
 20
0.0
 30
0.0
  0
POINT
  5
1E1
330
1F
100
AcDbEntity
  8
ConnectionPoints
100
AcDbPoint
 10
0.0
 20
0.0
 30
0.0
  0
ENDSEC
  0
SECTION
  2
OBJECTS
  0
DICTIONARY
  5
C
330
0
100
AcDbDictionary
281
     1
  3
ACAD_DETAILVIEWSTYLE
350
1E9
  3
ACAD_GROUP
350
D
  3
ACAD_LAYOUT
350
1A
  3
ACAD_MATERIAL
350
43
  3
ACAD_MLEADERSTYLE
350
6B
  3
ACAD_MLINESTYLE
350
17
  3
ACAD_PLOTSETTINGS
350
19
  3
ACAD_PLOTSTYLENAME
350
E
  3
ACAD_SCALELIST
350
47
  3
ACAD_SECTIONVIEWSTYLE
350
1EA
  3
ACAD_TABLESTYLE
350
69
  3
ACAD_VISUALSTYLE
350
2A
  3
ACDB_RECOMPOSE_DATA
350
1E6
  3
AcDbVariableDictionary
350
1E2
  0
SUN
  5
6D
330
29
100
AcDbSun
 90
        1
290
     0
 63
     7
421
 16777215
 40
1.0
291
     1
 91
  2455826
 92
 54000000
292
     0
 70
     2
 71
   256
280
     1
  0
DICTIONARY
  5
1E9
102
{ACAD_REACTORS
330
C
102
}
330
C
100
AcDbDictionary
281
     1
  0
DICTIONARY
  5
D
102
{ACAD_REACTORS
330
C
102
}
330
C
100
AcDbDictionary
281
     1
  0
DICTIONARY
  5
1A
102
{ACAD_REACTORS
330
C
102
}
330
C
100
AcDbDictionary
281
     1
  3
Layout1
350
1E
  3
Layout2
350
26
  3
Model
350
22
  0
DICTIONARY
  5
43
102
{ACAD_REACTORS
330
C
102
}
330
C
100
AcDbDictionary
281
     1
  3
ByBlock
350
45
  3
ByLayer
350
44
  3
Global
350
46
  0
DICTIONARY
  5
6B
102
{ACAD_REACTORS
330
C
102
}
330
C
100
AcDbDictionary
281
     1
  3
Standard
350
6C
  0
DICTIONARY
  5
17
102
{ACAD_REACTORS
330
C
102
}
330
C
100
AcDbDictionary
281
     1
  3
Standard
350
18
  0
DICTIONARY
  5
19
102
{ACAD_REACTORS
330
C
102
}
330
C
100
AcDbDictionary
281
     1
  0
ACDBDICTIONARYWDFLT
  5
E
102
{ACAD_REACTORS
330
C
102
}
330
C
100
AcDbDictionary
281
     1
  3
Normal
350
F
100
AcDbDictionaryWithDefault
340
F
  0
DICTIONARY
  5
47
102
{ACAD_REACTORS
330
C
102
}
330
C
100
AcDbDictionary
281
     1
  3
A0
350
48
  3
A1
350
49
  3
A2
350
4A
  3
A3
350
4B
  3
A4
350
4C
  3
A5
350
4D
  3
A6
350
4E
  3
A7
350
4F
  3
A8
350
50
  3
A9
350
51
  3
B0
350
52
  3
B1
350
53
  3
B2
350
54
  3
B3
350
55
  3
B4
350
56
  3
B5
350
57
  3
B6
350
58
  3
B7
350
59
  3
B8
350
5A
  3
B9
350
5B
  3
C0
350
5C
  3
C1
350
5D
  3
C2
350
5E
  3
C3
350
5F
  3
C4
350
60
  3
C5
350
61
  3
C6
350
62
  3
C7
350
63
  3
C8
350
64
  3
C9
350
65
  3
D0
350
66
  3
D1
350
67
  3
D2
350
68
  0
DICTIONARY
  5
1EA
102
{ACAD_REACTORS
330
C
102
}
330
C
100
AcDbDictionary
281
     1
  0
DICTIONARY
  5
69
102
{ACAD_REACTORS
330
C
102
}
330
C
100
AcDbDictionary
281
     1
  3
Standard
350
6A
  0
DICTIONARY
  5
2A
102
{ACAD_REACTORS
330
C
102
}
330
C
100
AcDbDictionary
281
     1
  3
2dWireframe
350
2F
  3
Basic
350
32
  3
Brighten
350
36
  3
ColorChange
350
3A
  3
Conceptual
350
34
  3
Dim
350
35
  3
EdgeColorOff
350
3D
  3
Facepattern
350
39
  3
Flat
350
2B
  3
FlatWithEdges
350
2C
  3
Gouraud
350
2D
  3
GouraudWithEdges
350
2E
  3
Hidden
350
31
  3
JitterOff
350
3B
  3
Linepattern
350
38
  3
OverhangOff
350
3C
  3
Realistic
350
33
  3
Shaded
350
42
  3
Shaded with edges
350
41
  3
Shades of Gray
350
3E
  3
Sketchy
350
3F
  3
Thicken
350
37
  3
Wireframe
350
30
  3
X-Ray
350
40
  0
XRECORD
  5
1E6
102
{ACAD_REACTORS
330
C
102
}
330
C
100
AcDbXrecord
280
     1
 90
        1
330
6A
  0
DICTIONARY
  5
1E2
102
{ACAD_REACTORS
330
C
102
}
330
C
100
AcDbDictionary
281
     1
  3
CANNOSCALE
350
1E3
  3
CMLEADERSTYLE
350
1E8
  3
CTABLESTYLE
350
1E7
  0
LAYOUT
  5
1E
102
{ACAD_REACTORS
330
1A
102
}
330
1A
100
AcDbPlotSettings
  1

  2
none_device
  4

  6

 40
0.0
 41
0.0
 42
0.0
 43
0.0
 44
0.0
 45
0.0
 46
0.0
 47
0.0
 48
0.0
 49
0.0
140
0.0
141
0.0
142
1.0
143
1.0
 70
   688
 72
     0
 73
     0
 74
     5
  7

 75
    16
 76
     0
 77
     2
 78
   300
147
1.0
148
0.0
149
0.0
100
AcDbLayout
  1
Layout1
 70
     1
 71
     1
 10
0.0
 20
0.0
 11
12.0
 21
9.0
 12
0.0
 22
0.0
 32
0.0
 14
1.000000000000000E+20
 24
1.000000000000000E+20
 34
1.000000000000000E+20
 15
-1.000000000000000E+20
 25
-1.000000000000000E+20
 35
-1.000000000000000E+20
146
0.0
 13
0.0
 23
0.0
 33
0.0
 16
1.0
 26
0.0
 36
0.0
 17
0.0
 27
1.0
 37
0.0
 76
     0
330
1B
  0
LAYOUT
  5
26
102
{ACAD_REACTORS
330
1A
102
}
330
1A
100
AcDbPlotSettings
  1

  2
none_device
  4

  6

 40
0.0
 41
0.0
 42
0.0
 43
0.0
 44
0.0
 45
0.0
 46
0.0
 47
0.0
 48
0.0
 49
0.0
140
0.0
141
0.0
142
1.0
143
1.0
 70
   688
 72
     0
 73
     0
 74
     5
  7

 75
    16
 76
     0
 77
     2
 78
   300
147
1.0
148
0.0
149
0.0
100
AcDbLayout
  1
Layout2
 70
     1
 71
     2
 10
0.0
 20
0.0
 11
0.0
 21
0.0
 12
0.0
 22
0.0
 32
0.0
 14
0.0
 24
0.0
 34
0.0
 15
0.0
 25
0.0
 35
0.0
146
0.0
 13
0.0
 23
0.0
 33
0.0
 16
1.0
 26
0.0
 36
0.0
 17
0.0
 27
1.0
 37
0.0
 76
     0
330
23
  0
LAYOUT
  5
22
102
{ACAD_REACTORS
330
1A
102
}
330
1A
100
AcDbPlotSettings
  1

  2
none_device
  4
Letter_(8.50_x_11.00_Inches)
  6

 40
6.35
 41
6.35
 42
6.35000508
 43
6.35000508
 44
215.9
 45
279.4
 46
0.0
 47
0.0
 48
0.0
 49
0.0
140
0.0
141
0.0
142
1.0
143
1.0
 70
  1712
 72
     0
 73
     0
 74
     0
  7

 75
     0
 76
     0
 77
     2
 78
   300
147
1.0
148
0.0
149
0.0
100
AcDbLayout
  1
Model
 70
     1
 71
     0
 10
0.0
 20
0.0
 11
12.0
 21
9.0
 12
0.0
 22
0.0
 32
0.0
 14
1.000000000000000E+20
 24
1.000000000000000E+20
 34
1.000000000000000E+20
 15
-1.000000000000000E+20
 25
-1.000000000000000E+20
 35
-1.000000000000000E+20
146
0.0
 13
0.0
 23
0.0
 33
0.0
 16
1.0
 26
0.0
 36
0.0
 17
0.0
 27
1.0
 37
0.0
 76
     0
330
1F
331
29
  0
MATERIAL
  5
45
102
{ACAD_REACTORS
330
43
102
}
330
43
100
AcDbMaterial
  1
ByBlock
 72
     1
 94
      127
  0
MATERIAL
  5
44
102
{ACAD_REACTORS
330
43
102
}
330
43
100
AcDbMaterial
  1
ByLayer
 72
     1
 94
      127
  0
MATERIAL
  5
46
102
{ACAD_REACTORS
330
43
102
}
330
43
100
AcDbMaterial
  1
Global
 72
     1
 94
      127
  0
MLEADERSTYLE
  5
6C
102
{ACAD_REACTORS
330
6B
102
}
330
6B
100
AcDbMLeaderStyle
179
     2
170
     2
171
     1
172
     0
 90
        2
 40
0.0
 41
0.0
173
     1
 91
-1056964608
340
14
 92
       -2
290
     1
 42
0.09
291
     1
 43
0.36
  3
Standard
341
0
 44
0.18
300

342
11
174
     1
178
     6
175
     1
176
     0
 93
-1056964608
 45
0.18
292
     0
297
     0
 46
0.18
343
0
 94
-1056964608
 47
1.0
 49
1.0
140
1.0
293
     1
141
0.0
294
     1
177
     0
142
1.0
295
     0
296
     0
143
0.125
271
     0
272
     9
273
     9
298
     0
  0
MLINESTYLE
  5
18
102
{ACAD_REACTORS
330
17
102
}
330
17
100
AcDbMlineStyle
  2
Standard
 70
     0
  3

 62
   256
 51
90.0
 52
90.0
 71
     2
 49
0.5
 62
   256
  6
BYLAYER
 49
-0.5
 62
   256
  6
BYLAYER
  0
ACDBPLACEHOLDER
  5
F
102
{ACAD_REACTORS
330
E
102
}
330
E
  0
SCALE
  5
48
102
{ACAD_REACTORS
330
47
102
}
330
47
100
AcDbScale
 70
     0
300
1:1
140
1.0
141
1.0
290
     1
  0
SCALE
  5
49
102
{ACAD_REACTORS
330
47
102
}
330
47
100
AcDbScale
 70
     0
300
1:2
140
1.0
141
2.0
290
     0
  0
SCALE
  5
4A
102
{ACAD_REACTORS
330
47
102
}
330
47
100
AcDbScale
 70
     0
300
1:4
140
1.0
141
4.0
290
     0
  0
SCALE
  5
4B
102
{ACAD_REACTORS
330
47
102
}
330
47
100
AcDbScale
 70
     0
300
1:5
140
1.0
141
5.0
290
     0
  0
SCALE
  5
4C
102
{ACAD_REACTORS
330
47
102
}
330
47
100
AcDbScale
 70
     0
300
1:8
140
1.0
141
8.0
290
     0
  0
SCALE
  5
4D
102
{ACAD_REACTORS
330
47
102
}
330
47
100
AcDbScale
 70
     0
300
1:10
140
1.0
141
10.0
290
     0
  0
SCALE
  5
4E
102
{ACAD_REACTORS
330
47
102
}
330
47
100
AcDbScale
 70
     0
300
1:16
140
1.0
141
16.0
290
     0
  0
SCALE
  5
4F
102
{ACAD_REACTORS
330
47
102
}
330
47
100
AcDbScale
 70
     0
300
1:20
140
1.0
141
20.0
290
     0
  0
SCALE
  5
50
102
{ACAD_REACTORS
330
47
102
}
330
47
100
AcDbScale
 70
     0
300
1:30
140
1.0
141
30.0
290
     0
  0
SCALE
  5
51
102
{ACAD_REACTORS
330
47
102
}
330
47
100
AcDbScale
 70
     0
300
1:40
140
1.0
141
40.0
290
     0
  0
SCALE
  5
52
102
{ACAD_REACTORS
330
47
102
}
330
47
100
AcDbScale
 70
     0
300
1:50
140
1.0
141
50.0
290
     0
  0
SCALE
  5
53
102
{ACAD_REACTORS
330
47
102
}
330
47
100
AcDbScale
 70
     0
300
1:100
140
1.0
141
100.0
290
     0
  0
SCALE
  5
54
102
{ACAD_REACTORS
330
47
102
}
330
47
100
AcDbScale
 70
     0
300
2:1
140
2.0
141
1.0
290
     0
  0
SCALE
  5
55
102
{ACAD_REACTORS
330
47
102
}
330
47
100
AcDbScale
 70
     0
300
4:1
140
4.0
141
1.0
290
     0
  0
SCALE
  5
56
102
{ACAD_REACTORS
330
47
102
}
330
47
100
AcDbScale
 70
     0
300
8:1
140
8.0
141
1.0
290
     0
  0
SCALE
  5
57
102
{ACAD_REACTORS
330
47
102
}
330
47
100
AcDbScale
 70
     0
300
10:1
140
10.0
141
1.0
290
     0
  0
SCALE
  5
58
102
{ACAD_REACTORS
330
47
102
}
330
47
100
AcDbScale
 70
     0
300
100:1
140
100.0
141
1.0
290
     0
  0
SCALE
  5
59
102
{ACAD_REACTORS
330
47
102
}
330
47
100
AcDbScale
 70
     0
300
1/128" = 1'-0"
140
0.0078125
141
12.0
290
     0
  0
SCALE
  5
5A
102
{ACAD_REACTORS
330
47
102
}
330
47
100
AcDbScale
 70
     0
300
1/64" = 1'-0"
140
0.015625
141
12.0
290
     0
  0
SCALE
  5
5B
102
{ACAD_REACTORS
330
47
102
}
330
47
100
AcDbScale
 70
     0
300
1/32" = 1'-0"
140
0.03125
141
12.0
290
     0
  0
SCALE
  5
5C
102
{ACAD_REACTORS
330
47
102
}
330
47
100
AcDbScale
 70
     0
300
1/16" = 1'-0"
140
0.0625
141
12.0
290
     0
  0
SCALE
  5
5D
102
{ACAD_REACTORS
330
47
102
}
330
47
100
AcDbScale
 70
     0
300
3/32" = 1'-0"
140
0.09375
141
12.0
290
     0
  0
SCALE
  5
5E
102
{ACAD_REACTORS
330
47
102
}
330
47
100
AcDbScale
 70
     0
300
1/8" = 1'-0"
140
0.125
141
12.0
290
     0
  0
SCALE
  5
5F
102
{ACAD_REACTORS
330
47
102
}
330
47
100
AcDbScale
 70
     0
300
3/16" = 1'-0"
140
0.1875
141
12.0
290
     0
  0
SCALE
  5
60
102
{ACAD_REACTORS
330
47
102
}
330
47
100
AcDbScale
 70
     0
300
1/4" = 1'-0"
140
0.25
141
12.0
290
     0
  0
SCALE
  5
61
102
{ACAD_REACTORS
330
47
102
}
330
47
100
AcDbScale
 70
     0
300
3/8" = 1'-0"
140
0.375
141
12.0
290
     0
  0
SCALE
  5
62
102
{ACAD_REACTORS
330
47
102
}
330
47
100
AcDbScale
 70
     0
300
1/2" = 1'-0"
140
0.5
141
12.0
290
     0
  0
SCALE
  5
63
102
{ACAD_REACTORS
330
47
102
}
330
47
100
AcDbScale
 70
     0
300
3/4" = 1'-0"
140
0.75
141
12.0
290
     0
  0
SCALE
  5
64
102
{ACAD_REACTORS
330
47
102
}
330
47
100
AcDbScale
 70
     0
300
1" = 1'-0"
140
1.0
141
12.0
290
     0
  0
SCALE
  5
65
102
{ACAD_REACTORS
330
47
102
}
330
47
100
AcDbScale
 70
     0
300
1-1/2" = 1'-0"
140
1.5
141
12.0
290
     0
  0
SCALE
  5
66
102
{ACAD_REACTORS
330
47
102
}
330
47
100
AcDbScale
 70
     0
300
3" = 1'-0"
140
3.0
141
12.0
290
     0
  0
SCALE
  5
67
102
{ACAD_REACTORS
330
47
102
}
330
47
100
AcDbScale
 70
     0
300
6" = 1'-0"
140
6.0
141
12.0
290
     0
  0
SCALE
  5
68
102
{ACAD_REACTORS
330
47
102
}
330
47
100
AcDbScale
 70
     0
300
1'-0" = 1'-0"
140
12.0
141
12.0
290
     0
  0
TABLESTYLE
  5
6A
102
{ACAD_REACTORS
330
69
102
}
102
{ACAD_XDICTIONARY
360
1E4
102
}
330
69
100
AcDbTableStyle
  3
Standard
 70
     0
 71
     0
 40
0.06
 41
0.06
280
     0
281
     0
  7
Standard
140
0.18
170
     2
 62
     0
 63
   257
283
     0
 90
        4
 91
        0
  1

274
    -2
284
     1
 64
     0
275
    -2
285
     1
 65
     0
276
    -2
286
     1
 66
     0
277
    -2
287
     1
 67
     0
278
    -2
288
     1
 68
     0
279
    -2
289
     1
 69
     0
  7
Standard
140
0.25
170
     5
 62
     0
 63
   257
283
     0
 90
        4
 91
        0
  1

274
    -2
284
     1
 64
     0
275
    -2
285
     1
 65
     0
276
    -2
286
     1
 66
     0
277
    -2
287
     1
 67
     0
278
    -2
288
     1
 68
     0
279
    -2
289
     1
 69
     0
  7
Standard
140
0.18
170
     5
 62
     0
 63
   257
283
     0
 90
        4
 91
        0
  1

274
    -2
284
     1
 64
     0
275
    -2
285
     1
 65
     0
276
    -2
286
     1
 66
     0
277
    -2
287
     1
 67
     0
278
    -2
288
     1
 68
     0
279
    -2
289
     1
 69
     0
  0
VISUALSTYLE
  5
2F
102
{ACAD_REACTORS
330
2A
102
}
330
2A
100
AcDbVisualStyle
  2
2dWireframe
 70
     4
177
     3
291
     0
 70
    58
 90
        0
176
     1
 90
        2
176
     1
 90
        0
176
     1
 90
        0
176
     1
 40
0.6
176
     1
 40
30.0
176
     1
 62
     7
420
 16777215
176
     1
 90
        1
176
     1
 90
        4
176
     1
 62
     7
176
     1
 62
   257
176
     1
 90
        1
176
     1
 90
        1
176
     1
 40
1.0
176
     1
 90
        0
176
     1
 62
   257
176
     1
 40
1.0
176
     1
 90
        1
176
     1
 90
        6
176
     1
 90
        2
176
     1
 62
     7
176
     1
 90
        5
176
     1
 90
        0
176
     1
 90
        0
176
     1
290
     0
176
     1
 90
        1
176
     1
 40
0.0
176
     1
 90
        0
176
     1
290
     1
176
     1
290
     1
176
     1
290
     0
176
     1
290
     0
176
     1
290
     0
176
     1
290
     0
176
     1
290
     0
176
     1
290
     0
176
     1
290
     0
176
     1
 90
       50
176
     1
 40
0.0
176
     1
 40
1.0
176
     1
 90
        0
176
     1
 62
    18
420
        0
176
     1
 90
       50
176
     1
 90
        3
176
     1
 62
     5
420
      255
176
     1
290
     0
176
     1
 90
       50
176
     1
 90
       50
176
     1
 90
       50
176
     1
290
     0
176
     1
 90
       50
176
     1
 62
   256
176
     0
 40
1.0
176
     0
 90
        2
176
     1
  1
strokes_ogs.tif
176
     1
290
     0
176
     1
 40
1.0
176
     1
 40
1.0
176
     1
  0
VISUALSTYLE
  5
32
102
{ACAD_REACTORS
330
2A
102
}
330
2A
100
AcDbVisualStyle
  2
Basic
 70
     7
177
     3
291
     1
 70
    58
 90
        1
176
     1
 90
        0
176
     1
 90
        1
176
     1
 90
        0
176
     1
 40
0.6
176
     1
 40
30.0
176
     1
 62
     7
420
 16777215
176
     1
 90
        0
176
     1
 90
        4
176
     1
 62
     7
176
     1
 62
   257
176
     1
 90
        1
176
     1
 90
        1
176
     1
 40
1.0
176
     1
 90
        8
176
     1
 62
     7
176
     1
 40
1.0
176
     1
 90
        1
176
     1
 90
        6
176
     1
 90
        2
176
     1
 62
     7
176
     1
 90
        5
176
     1
 90
        0
176
     1
 90
        0
176
     1
290
     0
176
     1
 90
        1
176
     1
 40
0.0
176
     1
 90
        0
176
     1
290
     0
176
     1
290
     1
176
     1
290
     1
176
     1
290
     0
176
     1
290
     0
176
     1
290
     0
176
     1
290
     0
176
     1
290
     0
176
     1
290
     0
176
     1
 90
       50
176
     1
 40
0.0
176
     1
 40
1.0
176
     1
 90
        0
176
     1
 62
    18
420
        0
176
     1
 90
       50
176
     1
 90
        3
176
     1
 62
     5
420
      255
176
     1
290
     0
176
     1
 90
       50
176
     1
 90
       50
176
     1
 90
       50
176
     1
290
     0
176
     1
 90
       50
176
     1
 62
   256
176
     0
 40
1.0
176
     0
 90
        2
176
     1
  1
strokes_ogs.tif
176
     1
290
     0
176
     1
 40
1.0
176
     1
 40
1.0
176
     1
  0
VISUALSTYLE
  5
36
102
{ACAD_REACTORS
330
2A
102
}
330
2A
100
AcDbVisualStyle
  2
Brighten
 70
    12
177
     3
291
     1
 70
    58
 90
        2
176
     1
 90
        2
176
     1
 90
        0
176
     1
 90
        0
176
     1
 40
0.6
176
     1
 40
30.0
176
     1
 62
     7
420
 16777215
176
     1
 90
        1
176
     1
 90
        4
176
     1
 62
     7
176
     1
 62
   257
176
     1
 90
        1
176
     1
 90
        1
176
     1
 40
1.0
176
     1
 90
        8
176
     1
 62
     7
176
     1
 40
1.0
176
     1
 90
        1
176
     1
 90
        6
176
     1
 90
        2
176
     1
 62
     7
176
     1
 90
        5
176
     1
 90
        0
176
     1
 90
        0
176
     1
290
     0
176
     1
 90
        1
176
     1
 40
50.0
176
     1
 90
        0
176
     1
290
     0
176
     1
290
     1
176
     1
290
     1
176
     1
290
     0
176
     1
290
     0
176
     1
290
     0
176
     1
290
     0
176
     1
290
     0
176
     1
290
     0
176
     1
 90
       50
176
     1
 40
0.0
176
     1
 40
1.0
176
     1
 90
        0
176
     1
 62
    18
420
        0
176
     1
 90
       50
176
     1
 90
        3
176
     1
 62
     5
420
      255
176
     1
290
     0
176
     1
 90
       50
176
     1
 90
       50
176
     1
 90
       50
176
     1
290
     0
176
     1
 90
       50
176
     1
 62
   256
176
     0
 40
1.0
176
     0
 90
        2
176
     1
  1
strokes_ogs.tif
176
     1
290
     0
176
     1
 40
1.0
176
     1
 40
1.0
176
     1
  0
VISUALSTYLE
  5
3A
102
{ACAD_REACTORS
330
2A
102
}
330
2A
100
AcDbVisualStyle
  2
ColorChange
 70
    16
177
     3
291
     1
 70
    58
 90
        2
176
     1
 90
        2
176
     1
 90
        3
176
     1
 90
        0
176
     1
 40
0.6
176
     1
 40
30.0
176
     1
 62
     8
420
  8421504
176
     1
 90
        1
176
     1
 90
        4
176
     1
 62
     7
176
     1
 62
   257
176
     1
 90
        1
176
     1
 90
        1
176
     1
 40
1.0
176
     1
 90
        8
176
     1
 62
     8
420
  8421504
176
     1
 40
1.0
176
     1
 90
        1
176
     1
 90
        6
176
     1
 90
        2
176
     1
 62
     7
176
     1
 90
        5
176
     1
 90
        0
176
     1
 90
        0
176
     1
290
     0
176
     1
 90
        1
176
     1
 40
0.0
176
     1
 90
        0
176
     1
290
     0
176
     1
290
     1
176
     1
290
     1
176
     1
290
     0
176
     1
290
     0
176
     1
290
     0
176
     1
290
     0
176
     1
290
     0
176
     1
290
     0
176
     1
 90
       50
176
     1
 40
0.0
176
     1
 40
1.0
176
     1
 90
        0
176
     1
 62
    18
420
        0
176
     1
 90
       50
176
     1
 90
        3
176
     1
 62
     5
420
      255
176
     1
290
     0
176
     1
 90
       50
176
     1
 90
       50
176
     1
 90
       50
176
     1
290
     0
176
     1
 90
       50
176
     1
 62
   256
176
     0
 40
1.0
176
     0
 90
        2
176
     1
  1
strokes_ogs.tif
176
     1
290
     0
176
     1
 40
1.0
176
     1
 40
1.0
176
     1
  0
VISUALSTYLE
  5
34
102
{ACAD_REACTORS
330
2A
102
}
330
2A
100
AcDbVisualStyle
  2
Conceptual
 70
     9
177
     3
291
     0
 70
    58
 90
        3
176
     1
 90
        2
176
     1
 90
        0
176
     1
 90
        0
176
     1
 40
0.6
176
     1
 40
30.0
176
     1
 62
     7
420
 16777215
176
     1
 90
        2
176
     1
 90
        2
176
     1
 62
     7
176
     1
 62
   257
176
     1
 90
        1
176
     1
 90
        1
176
     1
 40
179.0
176
     1
 90
        8
176
     1
 62
     7
176
     1
 40
1.0
176
     1
 90
        1
176
     1
 90
        6
176
     1
 90
        2
176
     1
 62
     7
176
     1
 90
        3
176
     1
 90
        0
176
     1
 90
        0
176
     1
290
     0
176
     1
 90
        1
176
     1
 40
0.0
176
     1
 90
        0
176
     1
290
     0
176
     1
290
     1
176
     1
290
     1
176
     1
290
     0
176
     1
290
     0
176
     1
290
     0
176
     1
290
     0
176
     1
290
     0
176
     1
290
     0
176
     1
 90
       50
176
     1
 40
0.0
176
     1
 40
1.0
176
     1
 90
        0
176
     1
 62
    18
420
        0
176
     1
 90
       50
176
     1
 90
        3
176
     1
 62
     5
420
      255
176
     1
290
     0
176
     1
 90
       50
176
     1
 90
       50
176
     1
 90
       50
176
     1
290
     0
176
     1
 90
       50
176
     1
 62
   256
176
     0
 40
1.0
176
     0
 90
        2
176
     1
  1
strokes_ogs.tif
176
     1
290
     0
176
     1
 40
1.0
176
     1
 40
1.0
176
     1
  0
VISUALSTYLE
  5
35
102
{ACAD_REACTORS
330
2A
102
}
330
2A
100
AcDbVisualStyle
  2
Dim
 70
    11
177
     3
291
     1
 70
    58
 90
        2
176
     1
 90
        2
176
     1
 90
        0
176
     1
 90
        0
176
     1
 40
0.6
176
     1
 40
30.0
176
     1
 62
     7
420
 16777215
176
     1
 90
        1
176
     1
 90
        4
176
     1
 62
     7
176
     1
 62
   257
176
     1
 90
        1
176
     1
 90
        1
176
     1
 40
1.0
176
     1
 90
        8
176
     1
 62
     7
176
     1
 40
1.0
176
     1
 90
        1
176
     1
 90
        6
176
     1
 90
        2
176
     1
 62
     7
176
     1
 90
        5
176
     1
 90
        0
176
     1
 90
        0
176
     1
290
     0
176
     1
 90
        1
176
     1
 40
-50.0
176
     1
 90
        0
176
     1
290
     0
176
     1
290
     1
176
     1
290
     1
176
     1
290
     0
176
     1
290
     0
176
     1
290
     0
176
     1
290
     0
176
     1
290
     0
176
     1
290
     0
176
     1
 90
       50
176
     1
 40
0.0
176
     1
 40
1.0
176
     1
 90
        0
176
     1
 62
    18
420
        0
176
     1
 90
       50
176
     1
 90
        3
176
     1
 62
     5
420
      255
176
     1
290
     0
176
     1
 90
       50
176
     1
 90
       50
176
     1
 90
       50
176
     1
290
     0
176
     1
 90
       50
176
     1
 62
   256
176
     0
 40
1.0
176
     0
 90
        2
176
     1
  1
strokes_ogs.tif
176
     1
290
     0
176
     1
 40
1.0
176
     1
 40
1.0
176
     1
  0
VISUALSTYLE
  5
3D
102
{ACAD_REACTORS
330
2A
102
}
330
2A
100
AcDbVisualStyle
  2
EdgeColorOff
 70
    22
177
     3
291
     1
 70
    58
 90
        2
176
     0
 90
        2
176
     0
 90
        0
176
     0
 90
        0
176
     0
 40
0.6
176
     0
 40
30.0
176
     0
 62
     7
420
 16777215
176
     0
 90
        1
176
     0
 90
        4
176
     0
 62
     7
176
     0
 62
   257
176
     0
 90
        1
176
     0
 90
        1
176
     0
 40
1.0
176
     0
 90
        8
176
     2
 62
     7
176
     0
 40
1.0
176
     0
 90
        1
176
     0
 90
        6
176
     0
 90
        2
176
     0
 62
     7
176
     0
 90
        5
176
     0
 90
        0
176
     0
 90
        0
176
     0
290
     0
176
     0
 90
        1
176
     0
 40
0.0
176
     0
 90
        0
176
     0
290
     0
176
     0
290
     1
176
     0
290
     1
176
     0
290
     0
176
     0
290
     0
176
     0
290
     0
176
     0
290
     0
176
     0
290
     0
176
     0
290
     0
176
     0
 90
       50
176
     0
 40
0.0
176
     0
 40
1.0
176
     0
 90
        0
176
     0
 62
    18
420
        0
176
     0
 90
       50
176
     0
 90
        3
176
     0
 62
     5
420
      255
176
     0
290
     0
176
     0
 90
       50
176
     0
 90
       50
176
     0
 90
       50
176
     0
290
     0
176
     0
 90
       50
176
     0
 62
   256
176
     0
 40
1.0
176
     0
 90
        2
176
     0
  1
strokes_ogs.tif
176
     0
290
     0
176
     0
 40
1.0
176
     0
 40
1.0
176
     0
  0
VISUALSTYLE
  5
39
102
{ACAD_REACTORS
330
2A
102
}
330
2A
100
AcDbVisualStyle
  2
Facepattern
 70
    15
177
     3
291
     1
 70
    58
 90
        2
176
     1
 90
        2
176
     1
 90
        0
176
     1
 90
        0
176
     1
 40
0.6
176
     1
 40
30.0
176
     1
 62
     7
420
 16777215
176
     1
 90
        1
176
     1
 90
        4
176
     1
 62
     7
176
     1
 62
   257
176
     1
 90
        1
176
     1
 90
        1
176
     1
 40
1.0
176
     1
 90
        8
176
     1
 62
     7
176
     1
 40
1.0
176
     1
 90
        1
176
     1
 90
        6
176
     1
 90
        2
176
     1
 62
     7
176
     1
 90
        5
176
     1
 90
        0
176
     1
 90
        0
176
     1
290
     0
176
     1
 90
        1
176
     1
 40
0.0
176
     1
 90
        0
176
     1
290
     0
176
     1
290
     1
176
     1
290
     1
176
     1
290
     0
176
     1
290
     0
176
     1
290
     0
176
     1
290
     0
176
     1
290
     0
176
     1
290
     0
176
     1
 90
       50
176
     1
 40
0.0
176
     1
 40
1.0
176
     1
 90
        0
176
     1
 62
    18
420
        0
176
     1
 90
       50
176
     1
 90
        3
176
     1
 62
     5
420
      255
176
     1
290
     0
176
     1
 90
       50
176
     1
 90
       50
176
     1
 90
       50
176
     1
290
     0
176
     1
 90
       50
176
     1
 62
   256
176
     0
 40
1.0
176
     0
 90
        2
176
     1
  1
strokes_ogs.tif
176
     1
290
     0
176
     1
 40
1.0
176
     1
 40
1.0
176
     1
  0
VISUALSTYLE
  5
2B
102
{ACAD_REACTORS
330
2A
102
}
330
2A
100
AcDbVisualStyle
  2
Flat
 70
     0
177
     3
291
     1
 70
    58
 90
        2
176
     1
 90
        1
176
     1
 90
        1
176
     1
 90
        2
176
     1
 40
0.6
176
     1
 40
30.0
176
     1
 62
     7
420
 16777215
176
     1
 90
        0
176
     1
 90
        0
176
     1
 62
     7
176
     1
 62
   257
176
     1
 90
        1
176
     1
 90
        1
176
     1
 40
1.0
176
     1
 90
        8
176
     1
 62
     7
176
     1
 40
1.0
176
     1
 90
        1
176
     1
 90
        6
176
     1
 90
        2
176
     1
 62
     7
176
     1
 90
        5
176
     1
 90
        0
176
     1
 90
        0
176
     1
290
     0
176
     1
 90
       13
176
     1
 40
0.0
176
     1
 90
        0
176
     1
290
     0
176
     1
290
     1
176
     1
290
     1
176
     1
290
     0
176
     1
290
     0
176
     1
290
     0
176
     1
290
     0
176
     1
290
     0
176
     1
290
     0
176
     1
 90
       50
176
     1
 40
0.0
176
     1
 40
1.0
176
     1
 90
        0
176
     1
 62
    18
420
        0
176
     1
 90
       50
176
     1
 90
        3
176
     1
 62
     5
420
      255
176
     1
290
     0
176
     1
 90
       50
176
     1
 90
       50
176
     1
 90
       50
176
     1
290
     0
176
     1
 90
       50
176
     1
 62
   256
176
     0
 40
1.0
176
     0
 90
        2
176
     1
  1
strokes_ogs.tif
176
     1
290
     0
176
     1
 40
1.0
176
     1
 40
1.0
176
     1
  0
VISUALSTYLE
  5
2C
102
{ACAD_REACTORS
330
2A
102
}
330
2A
100
AcDbVisualStyle
  2
FlatWithEdges
 70
     1
177
     3
291
     1
 70
    58
 90
        2
176
     1
 90
        1
176
     1
 90
        1
176
     1
 90
        2
176
     1
 40
0.6
176
     1
 40
30.0
176
     1
 62
     7
420
 16777215
176
     1
 90
        1
176
     1
 90
        0
176
     1
 62
     7
176
     1
 62
   257
176
     1
 90
        1
176
     1
 90
        1
176
     1
 40
1.0
176
     1
 90
        0
176
     1
 62
   257
176
     1
 40
1.0
176
     1
 90
        1
176
     1
 90
        6
176
     1
 90
        2
176
     1
 62
     7
176
     1
 90
        5
176
     1
 90
        0
176
     1
 90
        0
176
     1
290
     0
176
     1
 90
       13
176
     1
 40
0.0
176
     1
 90
        0
176
     1
290
     0
176
     1
290
     1
176
     1
290
     1
176
     1
290
     0
176
     1
290
     0
176
     1
290
     0
176
     1
290
     0
176
     1
290
     0
176
     1
290
     0
176
     1
 90
       50
176
     1
 40
0.0
176
     1
 40
1.0
176
     1
 90
        0
176
     1
 62
    18
420
        0
176
     1
 90
       50
176
     1
 90
        3
176
     1
 62
     5
420
      255
176
     1
290
     0
176
     1
 90
       50
176
     1
 90
       50
176
     1
 90
       50
176
     1
290
     0
176
     1
 90
       50
176
     1
 62
   256
176
     0
 40
1.0
176
     0
 90
        2
176
     1
  1
strokes_ogs.tif
176
     1
290
     0
176
     1
 40
1.0
176
     1
 40
1.0
176
     1
  0
VISUALSTYLE
  5
2D
102
{ACAD_REACTORS
330
2A
102
}
330
2A
100
AcDbVisualStyle
  2
Gouraud
 70
     2
177
     3
291
     1
 70
    58
 90
        2
176
     1
 90
        2
176
     1
 90
        1
176
     1
 90
        2
176
     1
 40
0.6
176
     1
 40
30.0
176
     1
 62
     7
420
 16777215
176
     1
 90
        0
176
     1
 90
        0
176
     1
 62
     7
176
     1
 62
   257
176
     1
 90
        1
176
     1
 90
        1
176
     1
 40
1.0
176
     1
 90
        0
176
     1
 62
     7
176
     1
 40
1.0
176
     1
 90
        1
176
     1
 90
        6
176
     1
 90
        2
176
     1
 62
     7
176
     1
 90
        5
176
     1
 90
        0
176
     1
 90
        0
176
     1
290
     0
176
     1
 90
       13
176
     1
 40
0.0
176
     1
 90
        0
176
     1
290
     0
176
     1
290
     1
176
     1
290
     1
176
     1
290
     0
176
     1
290
     0
176
     1
290
     0
176
     1
290
     0
176
     1
290
     0
176
     1
290
     0
176
     1
 90
       50
176
     1
 40
0.0
176
     1
 40
1.0
176
     1
 90
        0
176
     1
 62
    18
420
        0
176
     1
 90
       50
176
     1
 90
        3
176
     1
 62
     5
420
      255
176
     1
290
     0
176
     1
 90
       50
176
     1
 90
       50
176
     1
 90
       50
176
     1
290
     0
176
     1
 90
       50
176
     1
 62
   256
176
     0
 40
1.0
176
     0
 90
        2
176
     1
  1
strokes_ogs.tif
176
     1
290
     0
176
     1
 40
1.0
176
     1
 40
1.0
176
     1
  0
VISUALSTYLE
  5
2E
102
{ACAD_REACTORS
330
2A
102
}
330
2A
100
AcDbVisualStyle
  2
GouraudWithEdges
 70
     3
177
     3
291
     1
 70
    58
 90
        2
176
     1
 90
        2
176
     1
 90
        1
176
     1
 90
        2
176
     1
 40
0.6
176
     1
 40
30.0
176
     1
 62
     7
420
 16777215
176
     1
 90
        1
176
     1
 90
        0
176
     1
 62
     7
176
     1
 62
   257
176
     1
 90
        1
176
     1
 90
        1
176
     1
 40
1.0
176
     1
 90
        0
176
     1
 62
   257
176
     1
 40
1.0
176
     1
 90
        1
176
     1
 90
        6
176
     1
 90
        2
176
     1
 62
     7
176
     1
 90
        5
176
     1
 90
        0
176
     1
 90
        0
176
     1
290
     0
176
     1
 90
       13
176
     1
 40
0.0
176
     1
 90
        0
176
     1
290
     0
176
     1
290
     1
176
     1
290
     1
176
     1
290
     0
176
     1
290
     0
176
     1
290
     0
176
     1
290
     0
176
     1
290
     0
176
     1
290
     0
176
     1
 90
       50
176
     1
 40
0.0
176
     1
 40
1.0
176
     1
 90
        0
176
     1
 62
    18
420
        0
176
     1
 90
       50
176
     1
 90
        3
176
     1
 62
     5
420
      255
176
     1
290
     0
176
     1
 90
       50
176
     1
 90
       50
176
     1
 90
       50
176
     1
290
     0
176
     1
 90
       50
176
     1
 62
   256
176
     0
 40
1.0
176
     0
 90
        2
176
     1
  1
strokes_ogs.tif
176
     1
290
     0
176
     1
 40
1.0
176
     1
 40
1.0
176
     1
  0
VISUALSTYLE
  5
31
102
{ACAD_REACTORS
330
2A
102
}
330
2A
100
AcDbVisualStyle
  2
Hidden
 70
     6
177
     3
291
     0
 70
    58
 90
        1
176
     1
 90
        2
176
     1
 90
        2
176
     1
 90
        0
176
     1
 40
0.6
176
     1
 40
30.0
176
     1
 62
     7
420
 16777215
176
     1
 90
        2
176
     1
 90
        2
176
     1
 62
     7
176
     1
 62
   257
176
     1
 90
        2
176
     1
 90
        1
176
     1
 40
40.0
176
     1
 90
        0
176
     1
 62
   257
176
     1
 40
1.0
176
     1
 90
        1
176
     1
 90
        6
176
     1
 90
        2
176
     1
 62
     7
176
     1
 90
        3
176
     1
 90
        0
176
     1
 90
        0
176
     1
290
     0
176
     1
 90
        1
176
     1
 40
0.0
176
     1
 90
        0
176
     1
290
     0
176
     1
290
     1
176
     1
290
     1
176
     1
290
     0
176
     1
290
     0
176
     1
290
     0
176
     1
290
     0
176
     1
290
     0
176
     1
290
     0
176
     1
 90
       50
176
     1
 40
0.0
176
     1
 40
1.0
176
     1
 90
        0
176
     1
 62
    18
420
        0
176
     1
 90
       50
176
     1
 90
        3
176
     1
 62
     5
420
      255
176
     1
290
     0
176
     1
 90
       50
176
     1
 90
       50
176
     1
 90
       50
176
     1
290
     0
176
     1
 90
       50
176
     1
 62
   256
176
     0
 40
1.0
176
     0
 90
        2
176
     1
  1
strokes_ogs.tif
176
     1
290
     0
176
     1
 40
1.0
176
     1
 40
1.0
176
     1
  0
VISUALSTYLE
  5
3B
102
{ACAD_REACTORS
330
2A
102
}
330
2A
100
AcDbVisualStyle
  2
JitterOff
 70
    20
177
     3
291
     1
 70
    58
 90
        2
176
     0
 90
        2
176
     0
 90
        0
176
     0
 90
        0
176
     0
 40
0.6
176
     0
 40
30.0
176
     0
 62
     7
420
 16777215
176
     0
 90
        1
176
     0
 90
        4
176
     0
 62
     7
176
     0
 62
   257
176
     0
 90
        1
176
     0
 90
        1
176
     0
 40
1.0
176
     0
 90
       10
176
     2
 62
     7
176
     0
 40
1.0
176
     0
 90
        1
176
     0
 90
        6
176
     0
 90
        2
176
     0
 62
     7
176
     0
 90
        5
176
     0
 90
        0
176
     0
 90
        0
176
     0
290
     0
176
     0
 90
        1
176
     0
 40
0.0
176
     0
 90
        0
176
     0
290
     0
176
     0
290
     1
176
     0
290
     1
176
     0
290
     0
176
     0
290
     0
176
     0
290
     0
176
     0
290
     0
176
     0
290
     0
176
     0
290
     0
176
     0
 90
       50
176
     0
 40
0.0
176
     0
 40
1.0
176
     0
 90
        0
176
     0
 62
    18
420
        0
176
     0
 90
       50
176
     0
 90
        3
176
     0
 62
     5
420
      255
176
     0
290
     0
176
     0
 90
       50
176
     0
 90
       50
176
     0
 90
       50
176
     0
290
     0
176
     0
 90
       50
176
     0
 62
   256
176
     0
 40
1.0
176
     0
 90
        2
176
     0
  1
strokes_ogs.tif
176
     0
290
     0
176
     0
 40
1.0
176
     0
 40
1.0
176
     0
  0
VISUALSTYLE
  5
38
102
{ACAD_REACTORS
330
2A
102
}
330
2A
100
AcDbVisualStyle
  2
Linepattern
 70
    14
177
     3
291
     1
 70
    58
 90
        2
176
     1
 90
        2
176
     1
 90
        0
176
     1
 90
        0
176
     1
 40
0.6
176
     1
 40
30.0
176
     1
 62
     7
420
 16777215
176
     1
 90
        1
176
     1
 90
        4
176
     1
 62
     7
176
     1
 62
   257
176
     1
 90
        7
176
     1
 90
        7
176
     1
 40
1.0
176
     1
 90
        8
176
     1
 62
     7
176
     1
 40
1.0
176
     1
 90
        1
176
     1
 90
        6
176
     1
 90
        2
176
     1
 62
     7
176
     1
 90
        5
176
     1
 90
        0
176
     1
 90
        0
176
     1
290
     0
176
     1
 90
        1
176
     1
 40
0.0
176
     1
 90
        0
176
     1
290
     0
176
     1
290
     1
176
     1
290
     1
176
     1
290
     0
176
     1
290
     0
176
     1
290
     0
176
     1
290
     0
176
     1
290
     0
176
     1
290
     0
176
     1
 90
       50
176
     1
 40
0.0
176
     1
 40
1.0
176
     1
 90
        0
176
     1
 62
    18
420
        0
176
     1
 90
       50
176
     1
 90
        3
176
     1
 62
     5
420
      255
176
     1
290
     0
176
     1
 90
       50
176
     1
 90
       50
176
     1
 90
       50
176
     1
290
     0
176
     1
 90
       50
176
     1
 62
   256
176
     0
 40
1.0
176
     0
 90
        2
176
     1
  1
strokes_ogs.tif
176
     1
290
     0
176
     1
 40
1.0
176
     1
 40
1.0
176
     1
  0
VISUALSTYLE
  5
3C
102
{ACAD_REACTORS
330
2A
102
}
330
2A
100
AcDbVisualStyle
  2
OverhangOff
 70
    21
177
     3
291
     1
 70
    58
 90
        2
176
     0
 90
        2
176
     0
 90
        0
176
     0
 90
        0
176
     0
 40
0.6
176
     0
 40
30.0
176
     0
 62
     7
420
 16777215
176
     0
 90
        1
176
     0
 90
        4
176
     0
 62
     7
176
     0
 62
   257
176
     0
 90
        1
176
     0
 90
        1
176
     0
 40
1.0
176
     0
 90
        9
176
     2
 62
     7
176
     0
 40
1.0
176
     0
 90
        1
176
     0
 90
        6
176
     0
 90
        2
176
     0
 62
     7
176
     0
 90
        5
176
     0
 90
        0
176
     0
 90
        0
176
     0
290
     0
176
     0
 90
        1
176
     0
 40
0.0
176
     0
 90
        0
176
     0
290
     0
176
     0
290
     1
176
     0
290
     1
176
     0
290
     0
176
     0
290
     0
176
     0
290
     0
176
     0
290
     0
176
     0
290
     0
176
     0
290
     0
176
     0
 90
       50
176
     0
 40
0.0
176
     0
 40
1.0
176
     0
 90
        0
176
     0
 62
    18
420
        0
176
     0
 90
       50
176
     0
 90
        3
176
     0
 62
     5
420
      255
176
     0
290
     0
176
     0
 90
       50
176
     0
 90
       50
176
     0
 90
       50
176
     0
290
     0
176
     0
 90
       50
176
     0
 62
   256
176
     0
 40
1.0
176
     0
 90
        2
176
     0
  1
strokes_ogs.tif
176
     0
290
     0
176
     0
 40
1.0
176
     0
 40
1.0
176
     0
  0
VISUALSTYLE
  5
33
102
{ACAD_REACTORS
330
2A
102
}
330
2A
100
AcDbVisualStyle
  2
Realistic
 70
     8
177
     3
291
     0
 70
    58
 90
        2
176
     1
 90
        3
176
     1
 90
        0
176
     1
 90
        2
176
     1
 40
0.6
176
     1
 40
30.0
176
     1
 62
     7
420
 16777215
176
     1
 90
        0
176
     1
 90
        0
176
     1
 62
     7
176
     1
 62
   257
176
     1
 90
        1
176
     1
 90
        1
176
     1
 40
1.0
176
     1
 90
        8
176
     1
 62
   257
176
     1
 40
1.0
176
     1
 90
        1
176
     1
 90
        6
176
     1
 90
        2
176
     1
 62
     7
176
     1
 90
        3
176
     1
 90
        0
176
     1
 90
        0
176
     1
290
     0
176
     1
 90
       13
176
     1
 40
0.0
176
     1
 90
        0
176
     1
290
     0
176
     1
290
     1
176
     1
290
     1
176
     1
290
     0
176
     1
290
     0
176
     1
290
     0
176
     1
290
     0
176
     1
290
     0
176
     1
290
     0
176
     1
 90
       50
176
     1
 40
0.0
176
     1
 40
1.0
176
     1
 90
        0
176
     1
 62
    18
420
        0
176
     1
 90
       50
176
     1
 90
        3
176
     1
 62
     5
420
      255
176
     1
290
     0
176
     1
 90
       50
176
     1
 90
       50
176
     1
 90
       50
176
     1
290
     0
176
     1
 90
       50
176
     1
 62
   256
176
     0
 40
1.0
176
     0
 90
        2
176
     1
  1
strokes_ogs.tif
176
     1
290
     0
176
     1
 40
1.0
176
     1
 40
1.0
176
     1
  0
VISUALSTYLE
  5
42
102
{ACAD_REACTORS
330
2A
102
}
330
2A
100
AcDbVisualStyle
  2
Shaded
 70
    27
177
     3
291
     0
 70
    58
 90
        2
176
     1
 90
        2
176
     1
 90
        1
176
     1
 90
        2
176
     1
 40
0.6
176
     1
 40
30.0
176
     1
 62
     7
420
 16777215
176
     1
 90
        0
176
     1
 90
        4
176
     1
 62
     7
176
     1
 62
   257
176
     1
 90
        1
176
     1
 90
        1
176
     1
 40
1.0
176
     1
 90
        8
176
     1
 62
   257
176
     1
 40
1.0
176
     1
 90
        1
176
     1
 90
        6
176
     1
 90
        2
176
     1
 62
     8
420
  7895160
176
     1
 90
        3
176
     1
 90
        0
176
     1
 90
        0
176
     1
290
     0
176
     1
 90
        5
176
     1
 40
0.0
176
     1
 90
        0
176
     1
290
     0
176
     1
290
     1
176
     1
290
     1
176
     1
290
     0
176
     1
290
     0
176
     1
290
     0
176
     1
290
     0
176
     1
290
     0
176
     1
290
     0
176
     1
 90
       50
176
     1
 40
0.0
176
     1
 40
1.0
176
     1
 90
        0
176
     1
 62
    18
420
        0
176
     1
 90
       50
176
     1
 90
        3
176
     1
 62
     5
420
      255
176
     1
290
     0
176
     1
 90
       50
176
     1
 90
       50
176
     1
 90
       50
176
     1
290
     0
176
     1
 90
       50
176
     1
 62
   256
176
     0
 40
1.0
176
     0
 90
        2
176
     1
  1
strokes_ogs.tif
176
     1
290
     0
176
     1
 40
1.0
176
     1
 40
1.0
176
     1
  0
VISUALSTYLE
  5
41
102
{ACAD_REACTORS
330
2A
102
}
330
2A
100
AcDbVisualStyle
  2
Shaded with edges
 70
    26
177
     3
291
     0
 70
    58
 90
        2
176
     1
 90
        2
176
     1
 90
        1
176
     1
 90
        2
176
     1
 40
0.6
176
     1
 40
30.0
176
     1
 62
     7
420
 16777215
176
     1
 90
        1
176
     1
 90
       10
176
     1
 62
     7
176
     1
 62
   257
176
     1
 90
        2
176
     1
 90
        1
176
     1
 40
1.0
176
     1
 90
        8
176
     1
 62
   257
176
     1
 40
1.0
176
     1
 90
        1
176
     1
 90
        6
176
     1
 90
        2
176
     1
 62
     7
176
     1
 90
        3
176
     1
 90
        0
176
     1
 90
        0
176
     1
290
     0
176
     1
 90
        5
176
     1
 40
0.0
176
     1
 90
        0
176
     1
290
     0
176
     1
290
     1
176
     1
290
     1
176
     1
290
     0
176
     1
290
     0
176
     1
290
     0
176
     1
290
     0
176
     1
290
     0
176
     1
290
     0
176
     1
 90
       50
176
     1
 40
0.0
176
     1
 40
1.0
176
     1
 90
        0
176
     1
 62
    18
420
        0
176
     1
 90
       50
176
     1
 90
        3
176
     1
 62
     5
420
      255
176
     1
290
     0
176
     1
 90
       50
176
     1
 90
       50
176
     1
 90
       50
176
     1
290
     0
176
     1
 90
       50
176
     1
 62
   256
176
     0
 40
1.0
176
     0
 90
        2
176
     1
  1
strokes_ogs.tif
176
     1
290
     0
176
     1
 40
1.0
176
     1
 40
1.0
176
     1
  0
VISUALSTYLE
  5
3E
102
{ACAD_REACTORS
330
2A
102
}
330
2A
100
AcDbVisualStyle
  2
Shades of Gray
 70
    23
177
     3
291
     0
 70
    58
 90
        2
176
     1
 90
        2
176
     1
 90
        3
176
     1
 90
        0
176
     1
 40
0.6
176
     1
 40
30.0
176
     1
 62
     7
420
 16777215
176
     1
 90
        2
176
     1
 90
        2
176
     1
 62
     7
176
     1
 62
     7
176
     1
 90
        1
176
     1
 90
        1
176
     1
 40
40.0
176
     1
 90
        8
176
     1
 62
     7
176
     1
 40
1.0
176
     1
 90
        1
176
     1
 90
        6
176
     1
 90
        2
176
     1
 62
     7
176
     1
 90
        3
176
     1
 90
        0
176
     1
 90
        0
176
     1
290
     0
176
     1
 90
        1
176
     1
 40
0.0
176
     1
 90
        0
176
     1
290
     0
176
     1
290
     1
176
     1
290
     1
176
     1
290
     0
176
     1
290
     0
176
     1
290
     0
176
     1
290
     0
176
     1
290
     0
176
     1
290
     0
176
     1
 90
       50
176
     1
 40
0.0
176
     1
 40
1.0
176
     1
 90
        0
176
     1
 62
    18
420
        0
176
     1
 90
       50
176
     1
 90
        3
176
     1
 62
     5
420
      255
176
     1
290
     0
176
     1
 90
       50
176
     1
 90
       50
176
     1
 90
       50
176
     1
290
     0
176
     1
 90
       50
176
     1
 62
   256
176
     0
 40
1.0
176
     0
 90
        2
176
     1
  1
strokes_ogs.tif
176
     1
290
     0
176
     1
 40
1.0
176
     1
 40
1.0
176
     1
  0
VISUALSTYLE
  5
3F
102
{ACAD_REACTORS
330
2A
102
}
330
2A
100
AcDbVisualStyle
  2
Sketchy
 70
    24
177
     3
291
     0
 70
    58
 90
        1
176
     1
 90
        2
176
     1
 90
        2
176
     1
 90
        0
176
     1
 40
0.6
176
     1
 40
30.0
176
     1
 62
     7
420
 16777215
176
     1
 90
        2
176
     1
 90
        2
176
     1
 62
     7
176
     1
 62
     7
176
     1
 90
        1
176
     1
 90
        1
176
     1
 40
40.0
176
     1
 90
       11
176
     1
 62
     7
176
     1
 40
1.0
176
     1
 90
        1
176
     1
 90
        6
176
     1
 90
        2
176
     1
 62
     7
176
     1
 90
        6
176
     1
 90
        0
176
     1
 90
        0
176
     1
290
     0
176
     1
 90
        1
176
     1
 40
0.0
176
     1
 90
        0
176
     1
290
     0
176
     1
290
     1
176
     1
290
     1
176
     1
290
     0
176
     1
290
     0
176
     1
290
     0
176
     1
290
     0
176
     1
290
     0
176
     1
290
     0
176
     1
 90
       50
176
     1
 40
0.0
176
     1
 40
1.0
176
     1
 90
        0
176
     1
 62
    18
420
        0
176
     1
 90
       50
176
     1
 90
        3
176
     1
 62
     5
420
      255
176
     1
290
     0
176
     1
 90
       50
176
     1
 90
       50
176
     1
 90
       50
176
     1
290
     0
176
     1
 90
       50
176
     1
 62
   256
176
     0
 40
1.0
176
     0
 90
        2
176
     1
  1
strokes_ogs.tif
176
     1
290
     0
176
     1
 40
1.0
176
     1
 40
1.0
176
     1
  0
VISUALSTYLE
  5
37
102
{ACAD_REACTORS
330
2A
102
}
330
2A
100
AcDbVisualStyle
  2
Thicken
 70
    13
177
     3
291
     1
 70
    58
 90
        2
176
     1
 90
        2
176
     1
 90
        0
176
     1
 90
        0
176
     1
 40
0.6
176
     1
 40
30.0
176
     1
 62
     7
420
 16777215
176
     1
 90
        1
176
     1
 90
        4
176
     1
 62
     7
176
     1
 62
   257
176
     1
 90
        1
176
     1
 90
        1
176
     1
 40
1.0
176
     1
 90
       12
176
     1
 62
     7
176
     1
 40
1.0
176
     1
 90
        1
176
     1
 90
        6
176
     1
 90
        2
176
     1
 62
     7
176
     1
 90
        5
176
     1
 90
        0
176
     1
 90
        0
176
     1
290
     0
176
     1
 90
        1
176
     1
 40
0.0
176
     1
 90
        0
176
     1
290
     0
176
     1
290
     1
176
     1
290
     1
176
     1
290
     0
176
     1
290
     0
176
     1
290
     0
176
     1
290
     0
176
     1
290
     0
176
     1
290
     0
176
     1
 90
       50
176
     1
 40
0.0
176
     1
 40
1.0
176
     1
 90
        0
176
     1
 62
    18
420
        0
176
     1
 90
       50
176
     1
 90
        3
176
     1
 62
     5
420
      255
176
     1
290
     0
176
     1
 90
       50
176
     1
 90
       50
176
     1
 90
       50
176
     1
290
     0
176
     1
 90
       50
176
     1
 62
   256
176
     0
 40
1.0
176
     0
 90
        2
176
     1
  1
strokes_ogs.tif
176
     1
290
     0
176
     1
 40
1.0
176
     1
 40
1.0
176
     1
  0
VISUALSTYLE
  5
30
102
{ACAD_REACTORS
330
2A
102
}
330
2A
100
AcDbVisualStyle
  2
Wireframe
 70
     5
177
     3
291
     0
 70
    58
 90
        0
176
     1
 90
        2
176
     1
 90
        0
176
     1
 90
        0
176
     1
 40
0.6
176
     1
 40
30.0
176
     1
 62
     7
420
 16777215
176
     1
 90
        1
176
     1
 90
        4
176
     1
 62
     7
176
     1
 62
   257
176
     1
 90
        1
176
     1
 90
        1
176
     1
 40
1.0
176
     1
 90
        0
176
     1
 62
   257
176
     1
 40
1.0
176
     1
 90
        1
176
     1
 90
        6
176
     1
 90
        2
176
     1
 62
     7
176
     1
 90
        3
176
     1
 90
        0
176
     1
 90
        0
176
     1
290
     0
176
     1
 90
        1
176
     1
 40
0.0
176
     1
 90
        0
176
     1
290
     0
176
     1
290
     1
176
     1
290
     1
176
     1
290
     0
176
     1
290
     0
176
     1
290
     0
176
     1
290
     0
176
     1
290
     0
176
     1
290
     0
176
     1
 90
       50
176
     1
 40
0.0
176
     1
 40
1.0
176
     1
 90
        0
176
     1
 62
    18
420
        0
176
     1
 90
       50
176
     1
 90
        3
176
     1
 62
     5
420
      255
176
     1
290
     0
176
     1
 90
       50
176
     1
 90
       50
176
     1
 90
       50
176
     1
290
     0
176
     1
 90
       50
176
     1
 62
   256
176
     0
 40
1.0
176
     0
 90
        2
176
     1
  1
strokes_ogs.tif
176
     1
290
     0
176
     1
 40
1.0
176
     1
 40
1.0
176
     1
  0
VISUALSTYLE
  5
40
102
{ACAD_REACTORS
330
2A
102
}
330
2A
100
AcDbVisualStyle
  2
X-Ray
 70
    25
177
     3
291
     0
 70
    58
 90
        2
176
     1
 90
        2
176
     1
 90
        1
176
     1
 90
        1
176
     1
 40
0.5
176
     1
 40
30.0
176
     1
 62
     7
420
 16777215
176
     1
 90
        1
176
     1
 90
        0
176
     1
 62
     7
176
     1
 62
   257
176
     1
 90
        1
176
     1
 90
        1
176
     1
 40
1.0
176
     1
 90
        8
176
     1
 62
     7
176
     1
 40
1.0
176
     1
 90
        1
176
     1
 90
        6
176
     1
 90
        2
176
     1
 62
     7
176
     1
 90
        3
176
     1
 90
        0
176
     1
 90
        0
176
     1
290
     0
176
     1
 90
       13
176
     1
 40
0.0
176
     1
 90
        0
176
     1
290
     0
176
     1
290
     1
176
     1
290
     1
176
     1
290
     0
176
     1
290
     0
176
     1
290
     0
176
     1
290
     0
176
     1
290
     0
176
     1
290
     0
176
     1
 90
       50
176
     1
 40
0.0
176
     1
 40
1.0
176
     1
 90
        0
176
     1
 62
    18
420
        0
176
     1
 90
       50
176
     1
 90
        3
176
     1
 62
     5
420
      255
176
     1
290
     0
176
     1
 90
       50
176
     1
 90
       50
176
     1
 90
       50
176
     1
290
     0
176
     1
 90
       50
176
     1
 62
   256
176
     0
 40
1.0
176
     0
 90
        2
176
     1
  1
strokes_ogs.tif
176
     1
290
     0
176
     1
 40
1.0
176
     1
 40
1.0
176
     1
  0
DICTIONARYVAR
  5
1E3
102
{ACAD_REACTORS
330
1E2
102
}
330
1E2
100
DictionaryVariables
280
     0
  1
1:1
  0
DICTIONARYVAR
  5
1E8
102
{ACAD_REACTORS
330
1E2
102
}
330
1E2
100
DictionaryVariables
280
     0
  1
Standard
  0
DICTIONARYVAR
  5
1E7
102
{ACAD_REACTORS
330
1E2
102
}
330
1E2
100
DictionaryVariables
280
     0
  1
Standard
  0
DICTIONARY
  5
1E4
330
6A
100
AcDbDictionary
280
     1
281
     1
  3
ACAD_ROUNDTRIP_2008_TABLESTYLE_CELLSTYLEMAP
360
1E5
  0
CELLSTYLEMAP
  5
1E5
102
{ACAD_REACTORS
330
1E4
102
}
330
1E4
100
AcDbCellStyleMap
 90
        3
300
CELLSTYLE
  1
TABLEFORMAT_BEGIN
 90
        5
170
     1
 91
        0
 92
    32768
 62
   257
 93
        1
300
CONTENTFORMAT
  1
CONTENTFORMAT_BEGIN
 90
        0
 91
        0
 92
        4
 93
        0
300

 40
0.0
140
1.0
 94
        5
 62
     0
340
11
144
0.25
309
CONTENTFORMAT_END
171
     1
301
MARGIN
  1
CELLMARGIN_BEGIN
 40
0.06
 40
0.06
 40
0.06
 40
0.06
 40
0.06
 40
0.06
309
CELLMARGIN_END
 94
        6
 95
        1
302
GRIDFORMAT
  1
GRIDFORMAT_BEGIN
 90
        0
 91
        1
 62
     0
 92
       -2
340
14
 93
        0
 40
0.045
309
GRIDFORMAT_END
 95
        2
302
GRIDFORMAT
  1
GRIDFORMAT_BEGIN
 90
        0
 91
        1
 62
     0
 92
       -2
340
14
 93
        0
 40
0.045
309
GRIDFORMAT_END
 95
        4
302
GRIDFORMAT
  1
GRIDFORMAT_BEGIN
 90
        0
 91
        1
 62
     0
 92
       -2
340
14
 93
        0
 40
0.045
309
GRIDFORMAT_END
 95
        8
302
GRIDFORMAT
  1
GRIDFORMAT_BEGIN
 90
        0
 91
        1
 62
     0
 92
       -2
340
14
 93
        0
 40
0.045
309
GRIDFORMAT_END
 95
       16
302
GRIDFORMAT
  1
GRIDFORMAT_BEGIN
 90
        0
 91
        1
 62
     0
 92
       -2
340
14
 93
        0
 40
0.045
309
GRIDFORMAT_END
 95
       32
302
GRIDFORMAT
  1
GRIDFORMAT_BEGIN
 90
        0
 91
        1
 62
     0
 92
       -2
340
14
 93
        0
 40
0.045
309
GRIDFORMAT_END
309
TABLEFORMAT_END
  1
CELLSTYLE_BEGIN
 90
        1
 91
        1
300
_TITLE
309
CELLSTYLE_END
300
CELLSTYLE
  1
TABLEFORMAT_BEGIN
 90
        5
170
     1
 91
        0
 92
        0
 62
   257
 93
        1
300
CONTENTFORMAT
  1
CONTENTFORMAT_BEGIN
 90
        0
 91
        0
 92
        4
 93
        0
300

 40
0.0
140
1.0
 94
        5
 62
     0
340
11
144
0.18
309
CONTENTFORMAT_END
171
     1
301
MARGIN
  1
CELLMARGIN_BEGIN
 40
0.06
 40
0.06
 40
0.06
 40
0.06
 40
0.06
 40
0.06
309
CELLMARGIN_END
 94
        6
 95
        1
302
GRIDFORMAT
  1
GRIDFORMAT_BEGIN
 90
        0
 91
        1
 62
     0
 92
       -2
340
14
 93
        0
 40
0.045
309
GRIDFORMAT_END
 95
        2
302
GRIDFORMAT
  1
GRIDFORMAT_BEGIN
 90
        0
 91
        1
 62
     0
 92
       -2
340
14
 93
        0
 40
0.045
309
GRIDFORMAT_END
 95
        4
302
GRIDFORMAT
  1
GRIDFORMAT_BEGIN
 90
        0
 91
        1
 62
     0
 92
       -2
340
14
 93
        0
 40
0.045
309
GRIDFORMAT_END
 95
        8
302
GRIDFORMAT
  1
GRIDFORMAT_BEGIN
 90
        0
 91
        1
 62
     0
 92
       -2
340
14
 93
        0
 40
0.045
309
GRIDFORMAT_END
 95
       16
302
GRIDFORMAT
  1
GRIDFORMAT_BEGIN
 90
        0
 91
        1
 62
     0
 92
       -2
340
14
 93
        0
 40
0.045
309
GRIDFORMAT_END
 95
       32
302
GRIDFORMAT
  1
GRIDFORMAT_BEGIN
 90
        0
 91
        1
 62
     0
 92
       -2
340
14
 93
        0
 40
0.045
309
GRIDFORMAT_END
309
TABLEFORMAT_END
  1
CELLSTYLE_BEGIN
 90
        2
 91
        1
300
_HEADER
309
CELLSTYLE_END
300
CELLSTYLE
  1
TABLEFORMAT_BEGIN
 90
        5
170
     1
 91
        0
 92
        0
 62
   257
 93
        1
300
CONTENTFORMAT
  1
CONTENTFORMAT_BEGIN
 90
        0
 91
        0
 92
        4
 93
        0
300

 40
0.0
140
1.0
 94
        2
 62
     0
340
11
144
0.18
309
CONTENTFORMAT_END
171
     1
301
MARGIN
  1
CELLMARGIN_BEGIN
 40
0.06
 40
0.06
 40
0.06
 40
0.06
 40
0.06
 40
0.06
309
CELLMARGIN_END
 94
        6
 95
        1
302
GRIDFORMAT
  1
GRIDFORMAT_BEGIN
 90
        0
 91
        1
 62
     0
 92
       -2
340
14
 93
        0
 40
0.045
309
GRIDFORMAT_END
 95
        2
302
GRIDFORMAT
  1
GRIDFORMAT_BEGIN
 90
        0
 91
        1
 62
     0
 92
       -2
340
14
 93
        0
 40
0.045
309
GRIDFORMAT_END
 95
        4
302
GRIDFORMAT
  1
GRIDFORMAT_BEGIN
 90
        0
 91
        1
 62
     0
 92
       -2
340
14
 93
        0
 40
0.045
309
GRIDFORMAT_END
 95
        8
302
GRIDFORMAT
  1
GRIDFORMAT_BEGIN
 90
        0
 91
        1
 62
     0
 92
       -2
340
14
 93
        0
 40
0.045
309
GRIDFORMAT_END
 95
       16
302
GRIDFORMAT
  1
GRIDFORMAT_BEGIN
 90
        0
 91
        1
 62
     0
 92
       -2
340
14
 93
        0
 40
0.045
309
GRIDFORMAT_END
 95
       32
302
GRIDFORMAT
  1
GRIDFORMAT_BEGIN
 90
        0
 91
        1
 62
     0
 92
       -2
340
14
 93
        0
 40
0.045
309
GRIDFORMAT_END
309
TABLEFORMAT_END
  1
CELLSTYLE_BEGIN
 90
        3
 91
        2
300
_DATA
309
CELLSTYLE_END
  0
ENDSEC
  0
EOF