0
SECTION
  2
HEADER
  9
$ACADVER
  1
AC1027
  9
$ACADMAINTVER
 70
     8
  9
$DWGCODEPAGE
  3
ANSI_1252
  9
$REQUIREDVERSIONS
160
                 0
  9
$COMMENTS
  1
File was created by Cadenas
  9
$CUSTOMPROPERTYTAG
  1
NN
  9
$CUSTOMPROPERTY
  1
Set Screw Medium Duty Extreme Duty Narrow Slot Take Up Metric Bore
  9
$CUSTOMPROPERTYTAG
  1
NT
  9
$CUSTOMPROPERTY
  1
SCMED Medium Duty Narrow Slot Take-Up Bearings
  9
$CUSTOMPROPERTYTAG
  1
NB
  9
$CUSTOMPROPERTY
  1
076412
  9
$CUSTOMPROPERTYTAG
  1
NBSYN
  9
$CUSTOMPROPERTY
  1
$PN.
  9
$CUSTOMPROPERTYTAG
  1
LINA
  9
$CUSTOMPROPERTY
  1
076412
  9
$CUSTOMPROPERTYTAG
  1
SERIES
  9
$CUSTOMPROPERTY
  1
208
  9
$CUSTOMPROPERTYTAG
  1
SS
  9
$CUSTOMPROPERTY
  1
35
  9
$CUSTOMPROPERTYTAG
  1
PN
  9
$CUSTOMPROPERTY
  1
076412
  9
$CUSTOMPROPERTYTAG
  1
DESCRIPTION
  9
$CUSTOMPROPERTY
  1
NSTU-SCMED-35M
  9
$CUSTOMPROPERTYTAG
  1
W
  9
$CUSTOMPROPERTY
  1
2.2
  9
$CUSTOMPROPERTYTAG
  1
FS
  9
$CUSTOMPROPERTY
  1
NS400
  9
$CUSTOMPROPERTYTAG
  1
A
  9
$CUSTOMPROPERTY
  1
49.3
  9
$CUSTOMPROPERTYTAG
  1
B
  9
$CUSTOMPROPERTY
  1
136.7
  9
$CUSTOMPROPERTYTAG
  1
C
  9
$CUSTOMPROPERTY
  1
7.95
  9
$CUSTOMPROPERTYTAG
  1
D
  9
$CUSTOMPROPERTY
  1
76.2
  9
$CUSTOMPROPERTYTAG
  1
E
  9
$CUSTOMPROPERTY
  1
82.6
  9
$CUSTOMPROPERTYTAG
  1
F
  9
$CUSTOMPROPERTY
  1
22.2
  9
$CUSTOMPROPERTYTAG
  1
G
  9
$CUSTOMPROPERTY
  1
16.8
  9
$CUSTOMPROPERTYTAG
  1
H
  9
$CUSTOMPROPERTY
  1
29.5
  9
$CUSTOMPROPERTYTAG
  1
J
  9
$CUSTOMPROPERTY
  1
41.4
  9
$CUSTOMPROPERTYTAG
  1
L
  9
$CUSTOMPROPERTY
  1
52.1
  9
$CUSTOMPROPERTYTAG
  1
M
  9
$CUSTOMPROPERTY
  1
101.98/101.22
  9
$CUSTOMPROPERTYTAG
  1
N
  9
$CUSTOMPROPERTY
  1
120.7
  9
$CUSTOMPROPERTYTAG
  1
P
  9
$CUSTOMPROPERTY
  1
9.7
  9
$CUSTOMPROPERTYTAG
  1
R
  9
$CUSTOMPROPERTY
  1
19.1
  9
$CUSTOMPROPERTYTAG
  1
S
  9
$CUSTOMPROPERTY
  1
30.2
  9
$CUSTOMPROPERTYTAG
  1
COMPANY
  9
$CUSTOMPROPERTY
  1
baldor
  9
$INSBASE
 10
0.0
 20
0.0
 30
0.0
  9
$EXTMIN
 10
1.000000000000000E+20
 20
1.000000000000000E+20
 30
1.000000000000000E+20
  9
$EXTMAX
 10
-1.000000000000000E+20
 20
-1.000000000000000E+20
 30
-1.000000000000000E+20
  9
$LIMMIN
 10
0.0
 20
0.0
  9
$LIMMAX
 10
420.0
 20
297.0
  9
$ORTHOMODE
 70
     0
  9
$REGENMODE
 70
     1
  9
$FILLMODE
 70
     1
  9
$QTEXTMODE
 70
     0
  9
$MIRRTEXT
 70
     1
  9
$LTSCALE
 40
1.0
  9
$ATTMODE
 70
     1
  9
$TEXTSIZE
 40
2.5
  9
$TRACEWID
 40
1.0
  9
$TEXTSTYLE
  7
Standard
  9
$CLAYER
  8
0
  9
$CELTYPE
  6
ByLayer
  9
$CECOLOR
 62
   256
  9
$CELTSCALE
 40
1.0
  9
$DISPSILH
 70
     0
  9
$DIMSCALE
 40
1.0
  9
$DIMASZ
 40
2.5
  9
$DIMEXO
 40
0.625
  9
$DIMDLI
 40
3.75
  9
$DIMRND
 40
0.0
  9
$DIMDLE
 40
0.0
  9
$DIMEXE
 40
1.25
  9
$DIMTP
 40
0.0
  9
$DIMTM
 40
0.0
  9
$DIMTXT
 40
2.5
  9
$DIMCEN
 40
2.5
  9
$DIMTSZ
 40
0.0
  9
$DIMTOL
 70
     0
  9
$DIMLIM
 70
     0
  9
$DIMTIH
 70
     0
  9
$DIMTOH
 70
     0
  9
$DIMSE1
 70
     0
  9
$DIMSE2
 70
     0
  9
$DIMTAD
 70
     1
  9
$DIMZIN
 70
     8
  9
$DIMBLK
  1

  9
$DIMASO
 70
     1
  9
$DIMSHO
 70
     1
  9
$DIMPOST
  1

  9
$DIMAPOST
  1

  9
$DIMALT
 70
     0
  9
$DIMALTD
 70
     3
  9
$DIMALTF
 40
0.03937007874016
  9
$DIMLFAC
 40
1.0
  9
$DIMTOFL
 70
     1
  9
$DIMTVP
 40
0.0
  9
$DIMTIX
 70
     0
  9
$DIMSOXD
 70
     0
  9
$DIMSAH
 70
     0
  9
$DIMBLK1
  1

  9
$DIMBLK2
  1

  9
$DIMSTYLE
  2
ISO-25
  9
$DIMCLRD
 70
     0
  9
$DIMCLRE
 70
     0
  9
$DIMCLRT
 70
     0
  9
$DIMTFAC
 40
1.0
  9
$DIMGAP
 40
0.625
  9
$DIMJUST
 70
     0
  9
$DIMSD1
 70
     0
  9
$DIMSD2
 70
     0
  9
$DIMTOLJ
 70
     0
  9
$DIMTZIN
 70
     8
  9
$DIMALTZ
 70
     0
  9
$DIMALTTZ
 70
     0
  9
$DIMUPT
 70
     0
  9
$DIMDEC
 70
     2
  9
$DIMTDEC
 70
     2
  9
$DIMALTU
 70
     2
  9
$DIMALTTD
 70
     3
  9
$DIMTXSTY
  7
Standard
  9
$DIMAUNIT
 70
     0
  9
$DIMADEC
 70
     0
  9
$DIMALTRND
 40
0.0
  9
$DIMAZIN
 70
     0
  9
$DIMDSEP
 70
    44
  9
$DIMATFIT
 70
     3
  9
$DIMFRAC
 70
     0
  9
$DIMLDRBLK
  1

  9
$DIMLUNIT
 70
     2
  9
$DIMLWD
 70
    -2
  9
$DIMLWE
 70
    -2
  9
$DIMTMOVE
 70
     0
  9
$DIMFXL
 40
1.0
  9
$DIMFXLON
 70
     0
  9
$DIMJOGANG
 40
0.7853981633974483
  9
$DIMTFILL
 70
     0
  9
$DIMTFILLCLR
 70
     0
  9
$DIMARCSYM
 70
     0
  9
$DIMLTYPE
  6

  9
$DIMLTEX1
  6

  9
$DIMLTEX2
  6

  9
$DIMTXTDIRECTION
 70
     0
  9
$LUNITS
 70
     2
  9
$LUPREC
 70
     4
  9
$SKETCHINC
 40
1.0
  9
$FILLETRAD
 40
10.0
  9
$AUNITS
 70
     0
  9
$AUPREC
 70
     0
  9
$MENU
  1
.
  9
$ELEVATION
 40
0.0
  9
$PELEVATION
 40
0.0
  9
$THICKNESS
 40
0.0
  9
$LIMCHECK
 70
     0
  9
$CHAMFERA
 40
0.0
  9
$CHAMFERB
 40
0.0
  9
$CHAMFERC
 40
0.0
  9
$CHAMFERD
 40
0.0
  9
$SKPOLY
 70
     0
  9
$TDCREATE
 40
2458168.888871991
  9
$TDUCREATE
 40
2458168.847205324
  9
$TDUPDATE
 40
2458168.888872176
  9
$TDUUPDATE
 40
2458168.847205509
  9
$TDINDWG
 40
0.0000000116
  9
$TDUSRTIMER
 40
0.0000000116
  9
$USRTIMER
 70
     1
  9
$ANGBASE
 50
0.0
  9
$ANGDIR
 70
     0
  9
$PDMODE
 70
     0
  9
$PDSIZE
 40
0.0
  9
$PLINEWID
 40
0.0
  9
$SPLFRAME
 70
     0
  9
$SPLINETYPE
 70
     6
  9
$SPLINESEGS
 70
     8
  9
$HANDSEED
  5
19A
  9
$SURFTAB1
 70
     6
  9
$SURFTAB2
 70
     6
  9
$SURFTYPE
 70
     6
  9
$SURFU
 70
     6
  9
$SURFV
 70
     6
  9
$UCSBASE
  2

  9
$UCSNAME
  2

  9
$UCSORG
 10
0.0
 20
0.0
 30
0.0
  9
$UCSXDIR
 10
1.0
 20
0.0
 30
0.0
  9
$UCSYDIR
 10
0.0
 20
1.0
 30
0.0
  9
$UCSORTHOREF
  2

  9
$UCSORTHOVIEW
 70
     0
  9
$UCSORGTOP
 10
0.0
 20
0.0
 30
0.0
  9
$UCSORGBOTTOM
 10
0.0
 20
0.0
 30
0.0
  9
$UCSORGLEFT
 10
0.0
 20
0.0
 30
0.0
  9
$UCSORGRIGHT
 10
0.0
 20
0.0
 30
0.0
  9
$UCSORGFRONT
 10
0.0
 20
0.0
 30
0.0
  9
$UCSORGBACK
 10
0.0
 20
0.0
 30
0.0
  9
$PUCSBASE
  2

  9
$PUCSNAME
  2

  9
$PUCSORG
 10
0.0
 20
0.0
 30
0.0
  9
$PUCSXDIR
 10
1.0
 20
0.0
 30
0.0
  9
$PUCSYDIR
 10
0.0
 20
1.0
 30
0.0
  9
$PUCSORTHOREF
  2

  9
$PUCSORTHOVIEW
 70
     0
  9
$PUCSORGTOP
 10
0.0
 20
0.0
 30
0.0
  9
$PUCSORGBOTTOM
 10
0.0
 20
0.0
 30
0.0
  9
$PUCSORGLEFT
 10
0.0
 20
0.0
 30
0.0
  9
$PUCSORGRIGHT
 10
0.0
 20
0.0
 30
0.0
  9
$PUCSORGFRONT
 10
0.0
 20
0.0
 30
0.0
  9
$PUCSORGBACK
 10
0.0
 20
0.0
 30
0.0
  9
$USERI1
 70
     0
  9
$USERI2
 70
     0
  9
$USERI3
 70
     0
  9
$USERI4
 70
     0
  9
$USERI5
 70
     0
  9
$USERR1
 40
0.0
  9
$USERR2
 40
0.0
  9
$USERR3
 40
0.0
  9
$USERR4
 40
0.0
  9
$USERR5
 40
0.0
  9
$WORLDVIEW
 70
     1
  9
$SHADEDGE
 70
     3
  9
$SHADEDIF
 70
    70
  9
$TILEMODE
 70
     1
  9
$MAXACTVP
 70
    64
  9
$PINSBASE
 10
0.0
 20
0.0
 30
0.0
  9
$PLIMCHECK
 70
     0
  9
$PEXTMIN
 10
1.000000000000000E+20
 20
1.000000000000000E+20
 30
1.000000000000000E+20
  9
$PEXTMAX
 10
-1.000000000000000E+20
 20
-1.000000000000000E+20
 30
-1.000000000000000E+20
  9
$PLIMMIN
 10
0.0
 20
0.0
  9
$PLIMMAX
 10
420.0
 20
297.0
  9
$UNITMODE
 70
     0
  9
$VISRETAIN
 70
     1
  9
$PLINEGEN
 70
     0
  9
$PSLTSCALE
 70
     1
  9
$TREEDEPTH
 70
  3020
  9
$CMLSTYLE
  2
Standard
  9
$CMLJUST
 70
     0
  9
$CMLSCALE
 40
20.0
  9
$PROXYGRAPHICS
 70
     1
  9
$MEASUREMENT
 70
     1
  9
$CELWEIGHT
370
    -1
  9
$ENDCAPS
280
     0
  9
$JOINSTYLE
280
     0
  9
$LWDISPLAY
290
     0
  9
$INSUNITS
 70
     4
  9
$HYPERLINKBASE
  1

  9
$STYLESHEET
  1

  9
$XEDIT
290
     1
  9
$CEPSNTYPE
380
     0
  9
$PSTYLEMODE
290
     1
  9
$FINGERPRINTGUID
  2
{3BAAF26B-15BB-4A3B-9CF5-851C5738C65B}
  9
$VERSIONGUID
  2
{FAEB1C32-E019-11D5-929B-00C0DF256EC4}
  9
$EXTNAMES
290
     1
  9
$PSVPSCALE
 40
0.0
  9
$OLESTARTUP
290
     0
  9
$SORTENTS
280
   127
  9
$INDEXCTL
280
     0
  9
$HIDETEXT
280
     1
  9
$XCLIPFRAME
280
     2
  9
$HALOGAP
280
     0
  9
$OBSCOLOR
 70
   257
  9
$OBSLTYPE
280
     0
  9
$INTERSECTIONDISPLAY
280
     0
  9
$INTERSECTIONCOLOR
 70
   257
  9
$DIMASSOC
280
     2
  9
$PROJECTNAME
  1

  9
$CAMERADISPLAY
290
     0
  9
$LENSLENGTH
 40
50.0
  9
$CAMERAHEIGHT
 40
0.0
  9
$STEPSPERSEC
 40
2.0
  9
$STEPSIZE
 40
6.0
  9
$3DDWFPREC
 40
2.0
  9
$PSOLWIDTH
 40
5.0
  9
$PSOLHEIGHT
 40
80.0
  9
$LOFTANG1
 40
1.570796326794897
  9
$LOFTANG2
 40
1.570796326794897
  9
$LOFTMAG1
 40
0.0
  9
$LOFTMAG2
 40
0.0
  9
$LOFTPARAM
 70
     7
  9
$LOFTNORMALS
280
     1
  9
$LATITUDE
 40
37.795
  9
$LONGITUDE
 40
-122.394
  9
$NORTHDIRECTION
 40
0.0
  9
$TIMEZONE
 70
 -8000
  9
$LIGHTGLYPHDISPLAY
280
     1
  9
$TILEMODELIGHTSYNCH
280
     1
  9
$CMATERIAL
347
44
  9
$SOLIDHIST
280
     0
  9
$SHOWHIST
280
     1
  9
$DWFFRAME
280
     2
  9
$DGNFRAME
280
     2
  9
$REALWORLDSCALE
290
     1
  9
$INTERFERECOLOR
 62
   256
  9
$CSHADOW
280
     0
  9
$SHADOWPLANELOCATION
 40
0.0
  0
ENDSEC
  0
SECTION
  2
CLASSES
  0
CLASS
  1
ACDBDICTIONARYWDFLT
  2
AcDbDictionaryWithDefault
  3
ObjectDBX Classes
 90
        0
 91
        4
280
     0
281
     0
  0
CLASS
  1
VISUALSTYLE
  2
AcDbVisualStyle
  3
ObjectDBX Classes
 90
     4095
 91
        4
280
     0
281
     0
  0
CLASS
  1
MATERIAL
  2
AcDbMaterial
  3
ObjectDBX Classes
 90
     1153
 91
        4
280
     0
281
     0
  0
CLASS
  1
SCALE
  2
AcDbScale
  3
ObjectDBX Classes
 90
     1153
 91
        4
280
     0
281
     0
  0
CLASS
  1
TABLESTYLE
  2
AcDbTableStyle
  3
ObjectDBX Classes
 90
     4095
 91
        4
280
     0
281
     0
  0
CLASS
  1
MLEADERSTYLE
  2
AcDbMLeaderStyle
  3
ACDB_MLEADERSTYLE_CLASS
 90
     4095
 91
        4
280
     0
281
     0
  0
CLASS
  1
SUN
  2
AcDbSun
  3
SCENEOE
 90
     1153
 91
        4
280
     0
281
     0
  0
CLASS
  1
DICTIONARYVAR
  2
AcDbDictionaryVar
  3
ObjectDBX Classes
 90
        0
 91
        4
280
     0
281
     0
  0
CLASS
  1
CELLSTYLEMAP
  2
AcDbCellStyleMap
  3
ObjectDBX Classes
 90
     1152
 91
        4
280
     0
281
     0
  0
ENDSEC
  0
SECTION
  2
TABLES
  0
TABLE
  2
VPORT
  5
8
330
0
100
AcDbSymbolTable
 70
     1
  0
VPORT
  5
29
330
8
100
AcDbSymbolTableRecord
100
AcDbViewportTableRecord
  2
*Active
 70
     0
 10
0.0
 20
0.0
 11
1.0
 21
1.0
 12
11.74332470811481
 22
0.0
 13
0.0
 23
0.0
 14
10.0
 24
10.0
 15
10.0
 25
10.0
 16
0.0
 26
0.0
 36
1.0
 17
0.0
 27
0.0
 37
0.0
 40
123.114
 41
1.207285423229234
 42
50.0
 43
0.0
 44
0.0
 50
0.0
 51
0.0
 71
     0
 72
   100
 73
     1
 74
     3
 75
     0
 76
     0
 77
     0
 78
     0
281
     0
 65
     1
110
0.0
120
0.0
130
0.0
111
1.0
121
0.0
131
0.0
112
0.0
122
1.0
132
0.0
 79
     0
146
0.0
348
2F
 60
     3
 61
     5
292
     1
282
     1
141
0.0
142
0.0
 63
   250
361
6D
  0
ENDTAB
  0
TABLE
  2
LTYPE
  5
5
330
0
100
AcDbSymbolTable
 70
     3
  0
LTYPE
  5
14
330
5
100
AcDbSymbolTableRecord
100
AcDbLinetypeTableRecord
  2
ByBlock
 70
     0
  3

 72
    65
 73
     0
 40
0.0
  0
LTYPE
  5
15
330
5
100
AcDbSymbolTableRecord
100
AcDbLinetypeTableRecord
  2
ByLayer
 70
     0
  3

 72
    65
 73
     0
 40
0.0
  0
LTYPE
  5
16
330
5
100
AcDbSymbolTableRecord
100
AcDbLinetypeTableRecord
  2
Continuous
 70
     0
  3
Solid line
 72
    65
 73
     0
 40
0.0
  0
LTYPE
  5
9F
330
5
100
AcDbSymbolTableRecord
100
AcDbLinetypeTableRecord
  2
Dashed
 70
     0
  3

 72
    65
 73
     2
 40
2.0
 49
1.0
 74
     0
 49
-1.0
 74
     0
  0
LTYPE
  5
C7
330
5
100
AcDbSymbolTableRecord
100
AcDbLinetypeTableRecord
  2
Center
 70
     0
  3

 72
    65
 73
     4
 40
1.5
 49
0.45
 74
     0
 49
-0.5
 74
     0
 49
0.05
 74
     0
 49
-0.5
 74
     0
  0
ENDTAB
  0
TABLE
  2
LAYER
  5
2
330
0
100
AcDbSymbolTable
 70
     7
  0
LAYER
  5
10
330
2
100
AcDbSymbolTableRecord
100
AcDbLayerTableRecord
  2
0
 70
     0
 62
     7
  6
Continuous
370
    -3
390
F
347
46
348
0
  0
LAYER
  5
72
330
2
100
AcDbSymbolTableRecord
100
AcDbLayerTableRecord
  2
AM_6
 70
     0
 62
    -2
  6
Continuous
370
    35
390
F
347
46
348
0
  0
LAYER
  5
A0
330
2
100
AcDbSymbolTableRecord
100
AcDbLayerTableRecord
  2
AM_9
 70
     0
 62
     6
  6
Dashed
370
    25
390
F
347
46
348
0
  0
LAYER
  5
C0
330
2
100
AcDbSymbolTableRecord
100
AcDbLayerTableRecord
  2
AM_5
 70
     0
 62
     3
  6
Continuous
370
    25
390
F
347
46
348
0
  0
LAYER
  5
C8
330
2
100
AcDbSymbolTableRecord
100
AcDbLayerTableRecord
  2
AM_7
 70
     0
 62
     7
  6
Center
370
    25
390
F
347
46
348
0
  0
LAYER
  5
CC
330
2
100
AcDbSymbolTableRecord
100
AcDbLayerTableRecord
  2
AM_4
 70
     0
 62
     7
  6
Continuous
370
    50
390
F
347
46
348
0
  0
LAYER
  5
18D
330
2
100
AcDbSymbolTableRecord
100
AcDbLayerTableRecord
  2
ConnectionPoints
 70
     0
 62
     7
  6
Continuous
370
    50
390
F
347
46
348
0
  0
ENDTAB
  0
TABLE
  2
STYLE
  5
3
330
0
100
AcDbSymbolTable
 70
     1
  0
STYLE
  5
11
330
3
100
AcDbSymbolTableRecord
100
AcDbTextStyleTableRecord
  2
Standard
 70
     0
 40
0.0
 41
1.0
 50
0.0
 71
     0
 42
2.5
  3
txt
  4

  0
ENDTAB
  0
TABLE
  2
VIEW
  5
6
330
0
100
AcDbSymbolTable
 70
     0
  0
ENDTAB
  0
TABLE
  2
UCS
  5
7
330
0
100
AcDbSymbolTable
 70
     0
  0
ENDTAB
  0
TABLE
  2
APPID
  5
9
330
0
100
AcDbSymbolTable
 70
     1
  0
APPID
  5
12
330
9
100
AcDbSymbolTableRecord
100
AcDbRegAppTableRecord
  2
ACAD
 70
     0
  0
ENDTAB
  0
TABLE
  2
DIMSTYLE
  5
A
330
0
100
AcDbSymbolTable
 70
     1
100
AcDbDimStyleTable
  0
DIMSTYLE
105
27
330
A
100
AcDbSymbolTableRecord
100
AcDbDimStyleTableRecord
  2
ISO-25
 70
     0
 41
2.5
 42
0.625
 43
3.75
 44
1.25
 73
     0
 74
     0
 77
     1
 78
     8
140
2.5
141
2.5
143
0.03937007874016
147
0.625
171
     3
172
     1
178
     0
271
     2
272
     2
274
     3
278
    44
283
     0
284
     8
340
11
  0
ENDTAB
  0
TABLE
  2
BLOCK_RECORD
  5
1
330
0
100
AcDbSymbolTable
 70
     5
  0
BLOCK_RECORD
  5
1F
330
1
100
AcDbSymbolTableRecord
100
AcDbBlockTableRecord
  2
*Model_Space
340
22
 70
     0
280
     1
281
     0
  0
BLOCK_RECORD
  5
1B
330
1
100
AcDbSymbolTableRecord
100
AcDbBlockTableRecord
  2
*Paper_Space
340
1E
 70
     0
280
     1
281
     0
  0
BLOCK_RECORD
  5
23
330
1
100
AcDbSymbolTableRecord
100
AcDbBlockTableRecord
  2
*Paper_Space0
340
26
 70
     0
280
     1
281
     0
  0
BLOCK_RECORD
  5
6E
330
1
100
AcDbSymbolTableRecord
100
AcDbBlockTableRecord
  2
1_076412_0
340
0
102
{BLKREFS
331
6F
102
}
 70
     0
280
     1
281
     0
  0
BLOCK_RECORD
  5
8E
330
1
100
AcDbSymbolTableRecord
100
AcDbBlockTableRecord
  2
2_405016_Metric_0_in_076412_0
340
0
102
{BLKREFS
331
8F
102
}
 70
     0
280
     1
281
     0
  0
BLOCK_RECORD
  5
10E
330
1
100
AcDbSymbolTableRecord
100
AcDbBlockTableRecord
  2
3_076346_0_in_076412_0
340
0
102
{BLKREFS
331
10F
102
}
 70
     0
280
     1
281
     0
  0
BLOCK_RECORD
  5
13D
330
1
100
AcDbSymbolTableRecord
100
AcDbBlockTableRecord
  2
4_076412H_0_in_076412_0
340
0
102
{BLKREFS
331
13E
102
}
 70
     0
280
     1
281
     0
  0
ENDTAB
  0
ENDSEC
  0
SECTION
  2
BLOCKS
  0
BLOCK
  5
20
330
1F
100
AcDbEntity
  8
0
100
AcDbBlockBegin
  2
*Model_Space
 70
     0
 10
0.0
 20
0.0
 30
0.0
  3
*Model_Space
  1

  0
ENDBLK
  5
21
330
1F
100
AcDbEntity
  8
0
100
AcDbBlockEnd
  0
BLOCK
  5
1C
330
1B
100
AcDbEntity
 67
     1
  8
0
100
AcDbBlockBegin
  2
*Paper_Space
 70
     0
 10
0.0
 20
0.0
 30
0.0
  3
*Paper_Space
  1

  0
ENDBLK
  5
1D
330
1B
100
AcDbEntity
 67
     1
  8
0
100
AcDbBlockEnd
  0
BLOCK
  5
24
330
23
100
AcDbEntity
  8
0
100
AcDbBlockBegin
  2
*Paper_Space0
 70
     0
 10
0.0
 20
0.0
 30
0.0
  3
*Paper_Space0
  1

  0
ENDBLK
  5
25
330
23
100
AcDbEntity
  8
0
100
AcDbBlockEnd
  0
BLOCK
  5
70
330
6E
100
AcDbEntity
  8
0
100
AcDbBlockBegin
  2
1_076412_0
 70
     2
 10
0.0
 20
0.0
 30
0.0
  3
1_076412_0
  1

  0
ATTDEF
  5
73
330
6E
100
AcDbEntity
  8
AM_6
100
AcDbText
 10
89.60300000000001
 20
60.35
 30
0.0
 40
0.5
  1
Set Screw Medium Duty Extreme Duty Narrow Slot Take Up Metric Bore
100
AcDbAttributeDefinition
  3

  2
NN
 70
     8
280
     0
  0
ATTDEF
  5
74
330
6E
100
AcDbEntity
  8
AM_6
100
AcDbText
 10
89.60300000000001
 20
59.85
 30
0.0
 40
0.5
  1
SCMED Medium Duty Narrow Slot Take-Up Bearings
100
AcDbAttributeDefinition
  3

  2
NT
 70
     8
280
     0
  0
ATTDEF
  5
75
330
6E
100
AcDbEntity
  8
AM_6
100
AcDbText
 10
89.60300000000001
 20
59.35
 30
0.0
 40
0.5
  1
076412
100
AcDbAttributeDefinition
  3

  2
NB
 70
     8
280
     0
  0
ATTDEF
  5
76
330
6E
100
AcDbEntity
  8
AM_6
100
AcDbText
 10
89.60300000000001
 20
58.85
 30
0.0
 40
0.5
  1
$PN.
100
AcDbAttributeDefinition
  3

  2
NBSYN
 70
     8
280
     0
  0
ATTDEF
  5
77
330
6E
100
AcDbEntity
  8
AM_6
100
AcDbText
 10
89.60300000000001
 20
58.35
 30
0.0
 40
0.5
  1
076412
100
AcDbAttributeDefinition
  3

  2
LINA
 70
     8
280
     0
  0
ATTDEF
  5
78
330
6E
100
AcDbEntity
  8
AM_6
100
AcDbText
 10
89.60300000000001
 20
57.85
 30
0.0
 40
0.5
  1
208
100
AcDbAttributeDefinition
  3

  2
SERIES
 70
     8
280
     0
  0
ATTDEF
  5
79
330
6E
100
AcDbEntity
  8
AM_6
100
AcDbText
 10
89.60300000000001
 20
57.35
 30
0.0
 40
0.5
  1
35
100
AcDbAttributeDefinition
  3

  2
SS
 70
     8
280
     0
  0
ATTDEF
  5
7A
330
6E
100
AcDbEntity
  8
AM_6
100
AcDbText
 10
89.60300000000001
 20
56.85
 30
0.0
 40
0.5
  1
076412
100
AcDbAttributeDefinition
  3

  2
PN
 70
     8
280
     0
  0
ATTDEF
  5
7B
330
6E
100
AcDbEntity
  8
AM_6
100
AcDbText
 10
89.60300000000001
 20
56.35
 30
0.0
 40
0.5
  1
NSTU-SCMED-35M
100
AcDbAttributeDefinition
  3

  2
DESCRIPTION
 70
     8
280
     0
  0
ATTDEF
  5
7C
330
6E
100
AcDbEntity
  8
AM_6
100
AcDbText
 10
89.60300000000001
 20
55.85
 30
0.0
 40
0.5
  1
2.2
100
AcDbAttributeDefinition
  3

  2
W
 70
     8
280
     0
  0
ATTDEF
  5
7D
330
6E
100
AcDbEntity
  8
AM_6
100
AcDbText
 10
89.60300000000001
 20
55.35
 30
0.0
 40
0.5
  1
NS400
100
AcDbAttributeDefinition
  3

  2
FS
 70
     8
280
     0
  0
ATTDEF
  5
7E
330
6E
100
AcDbEntity
  8
AM_6
100
AcDbText
 10
89.60300000000001
 20
54.85
 30
0.0
 40
0.5
  1
49.3
100
AcDbAttributeDefinition
  3

  2
A
 70
     8
280
     0
  0
ATTDEF
  5
7F
330
6E
100
AcDbEntity
  8
AM_6
100
AcDbText
 10
89.60300000000001
 20
54.35
 30
0.0
 40
0.5
  1
136.7
100
AcDbAttributeDefinition
  3

  2
B
 70
     8
280
     0
  0
ATTDEF
  5
80
330
6E
100
AcDbEntity
  8
AM_6
100
AcDbText
 10
89.60300000000001
 20
53.85
 30
0.0
 40
0.5
  1
7.95
100
AcDbAttributeDefinition
  3

  2
C
 70
     8
280
     0
  0
ATTDEF
  5
81
330
6E
100
AcDbEntity
  8
AM_6
100
AcDbText
 10
89.60300000000001
 20
53.35
 30
0.0
 40
0.5
  1
76.2
100
AcDbAttributeDefinition
  3

  2
D
 70
     8
280
     0
  0
ATTDEF
  5
82
330
6E
100
AcDbEntity
  8
AM_6
100
AcDbText
 10
89.60300000000001
 20
52.85
 30
0.0
 40
0.5
  1
82.6
100
AcDbAttributeDefinition
  3

  2
E
 70
     8
280
     0
  0
ATTDEF
  5
83
330
6E
100
AcDbEntity
  8
AM_6
100
AcDbText
 10
89.60300000000001
 20
52.35
 30
0.0
 40
0.5
  1
22.2
100
AcDbAttributeDefinition
  3

  2
F
 70
     8
280
     0
  0
ATTDEF
  5
84
330
6E
100
AcDbEntity
  8
AM_6
100
AcDbText
 10
89.60300000000001
 20
51.85
 30
0.0
 40
0.5
  1
16.8
100
AcDbAttributeDefinition
  3

  2
G
 70
     8
280
     0
  0
ATTDEF
  5
85
330
6E
100
AcDbEntity
  8
AM_6
100
AcDbText
 10
89.60300000000001
 20
51.35
 30
0.0
 40
0.5
  1
29.5
100
AcDbAttributeDefinition
  3

  2
H
 70
     8
280
     0
  0
ATTDEF
  5
86
330
6E
100
AcDbEntity
  8
AM_6
100
AcDbText
 10
89.60300000000001
 20
50.85
 30
0.0
 40
0.5
  1
41.4
100
AcDbAttributeDefinition
  3

  2
J
 70
     8
280
     0
  0
ATTDEF
  5
87
330
6E
100
AcDbEntity
  8
AM_6
100
AcDbText
 10
89.60300000000001
 20
50.35
 30
0.0
 40
0.5
  1
52.1
100
AcDbAttributeDefinition
  3

  2
L
 70
     8
280
     0
  0
ATTDEF
  5
88
330
6E
100
AcDbEntity
  8
AM_6
100
AcDbText
 10
89.60300000000001
 20
49.85
 30
0.0
 40
0.5
  1
101.98/101.22
100
AcDbAttributeDefinition
  3

  2
M
 70
     8
280
     0
  0
ATTDEF
  5
89
330
6E
100
AcDbEntity
  8
AM_6
100
AcDbText
 10
89.60300000000001
 20
49.35
 30
0.0
 40
0.5
  1
120.7
100
AcDbAttributeDefinition
  3

  2
N
 70
     8
280
     0
  0
ATTDEF
  5
8A
330
6E
100
AcDbEntity
  8
AM_6
100
AcDbText
 10
89.60300000000001
 20
48.85
 30
0.0
 40
0.5
  1
9.7
100
AcDbAttributeDefinition
  3

  2
P
 70
     8
280
     0
  0
ATTDEF
  5
8B
330
6E
100
AcDbEntity
  8
AM_6
100
AcDbText
 10
89.60300000000001
 20
48.35
 30
0.0
 40
0.5
  1
19.1
100
AcDbAttributeDefinition
  3

  2
R
 70
     8
280
     0
  0
ATTDEF
  5
8C
330
6E
100
AcDbEntity
  8
AM_6
100
AcDbText
 10
89.60300000000001
 20
47.85
 30
0.0
 40
0.5
  1
30.2
100
AcDbAttributeDefinition
  3

  2
S
 70
     8
280
     0
  0
ATTDEF
  5
8D
330
6E
100
AcDbEntity
  8
AM_6
100
AcDbText
 10
89.60300000000001
 20
47.35
 30
0.0
 40
0.5
  1
baldor
100
AcDbAttributeDefinition
  3

  2
COMPANY
 70
     8
280
     0
  0
INSERT
  5
8F
330
6E
100
AcDbEntity
  8
0
100
AcDbBlockReference
  2
2_405016_Metric_0_in_076412_0
 10
0.0
 20
0.0
 30
0.0
  0
INSERT
  5
10F
330
6E
100
AcDbEntity
  8
0
100
AcDbBlockReference
  2
3_076346_0_in_076412_0
 10
0.0
 20
0.0
 30
0.0
  0
INSERT
  5
13E
330
6E
100
AcDbEntity
  8
0
100
AcDbBlockReference
  2
4_076412H_0_in_076412_0
 10
0.0
 20
0.0
 30
0.0
  0
ENDBLK
  5
71
330
6E
100
AcDbEntity
  8
0
100
AcDbBlockEnd
  0
BLOCK
  5
90
330
8E
100
AcDbEntity
  8
0
100
AcDbBlockBegin
  2
2_405016_Metric_0_in_076412_0
 70
     2
 10
0.0
 20
0.0
 30
0.0
  3
2_405016_Metric_0_in_076412_0
  1

  0
ATTDEF
  5
92
330
8E
100
AcDbEntity
  8
AM_6
100
AcDbText
 10
-34.98694143982011
 20
-20.49490184921513
 30
0.0
 40
0.5
  1
405016 -Metric
100
AcDbAttributeDefinition
  3

  2
NN
 70
     8
280
     0
  0
ATTDEF
  5
93
330
8E
100
AcDbEntity
  8
AM_6
100
AcDbText
 10
-34.98694143982011
 20
-20.99490184921513
 30
0.0
 40
0.5
  1
Grease Fitting
100
AcDbAttributeDefinition
  3

  2
NT
 70
     8
280
     0
  0
ATTDEF
  5
94
330
8E
100
AcDbEntity
  8
AM_6
100
AcDbText
 10
-34.98694143982011
 20
-21.49490184921513
 30
0.0
 40
0.5
  1
405016-Metric
100
AcDbAttributeDefinition
  3

  2
NB
 70
     8
280
     0
  0
ATTDEF
  5
95
330
8E
100
AcDbEntity
  8
AM_6
100
AcDbText
 10
-34.98694143982011
 20
-21.99490184921513
 30
0.0
 40
0.5
  1
$MN.-Metric
100
AcDbAttributeDefinition
  3

  2
NBSYN
 70
     8
280
     0
  0
ATTDEF
  5
96
330
8E
100
AcDbEntity
  8
AM_6
100
AcDbText
 10
-34.98694143982011
 20
-22.49490184921513
 30
0.0
 40
0.5
  1
405016
100
AcDbAttributeDefinition
  3

  2
LINA
 70
     8
280
     0
  0
ATTDEF
  5
97
330
8E
100
AcDbEntity
  8
AM_6
100
AcDbText
 10
-34.98694143982011
 20
-22.99490184921513
 30
0.0
 40
0.5
  1
405016
100
AcDbAttributeDefinition
  3

  2
MN
 70
     8
280
     0
  0
ATTDEF
  5
98
330
8E
100
AcDbEntity
  8
AM_6
100
AcDbText
 10
-34.98694143982011
 20
-23.49490184921513
 30
0.0
 40
0.5
  1
7/16 HEX
100
AcDbAttributeDefinition
  3

  2
H
 70
     8
280
     0
  0
ATTDEF
  5
99
330
8E
100
AcDbEntity
  8
AM_6
100
AcDbText
 10
-34.98694143982011
 20
-23.99490184921513
 30
0.0
 40
0.5
  1
9.728
100
AcDbAttributeDefinition
  3

  2
NDR
 70
     8
280
     0
  0
ATTDEF
  5
9A
330
8E
100
AcDbEntity
  8
AM_6
100
AcDbText
 10
-34.98694143982011
 20
-24.49490184921513
 30
0.0
 40
0.5
  1
8.560
100
AcDbAttributeDefinition
  3

  2
KDR
 70
     8
280
     0
  0
ATTDEF
  5
9B
330
8E
100
AcDbEntity
  8
AM_6
100
AcDbText
 10
-34.98694143982011
 20
-24.99490184921513
 30
0.0
 40
0.5
  1
4.0005
100
AcDbAttributeDefinition
  3

  2
BZE
 70
     8
280
     0
  0
ATTDEF
  5
9C
330
8E
100
AcDbEntity
  8
AM_6
100
AcDbText
 10
-34.98694143982011
 20
-25.49490184921513
 30
0.0
 40
0.5
  1
11.1125
100
AcDbAttributeDefinition
  3

  2
HEX
 70
     8
280
     0
  0
ATTDEF
  5
9D
330
8E
100
AcDbEntity
  8
AM_6
100
AcDbText
 10
-34.98694143982011
 20
-25.99490184921513
 30
0.0
 40
0.5
  1
7.143750
100
AcDbAttributeDefinition
  3

  2
HEX2
 70
     8
280
     0
  0
ATTDEF
  5
9E
330
8E
100
AcDbEntity
  8
AM_6
100
AcDbText
 10
-34.98694143982011
 20
-26.49490184921513
 30
0.0
 40
0.5
  1
baldor
100
AcDbAttributeDefinition
  3

  2
COMPANY
 70
     8
280
     0
  0
LINE
  5
A1
330
8E
100
AcDbEntity
  8
AM_9
100
AcDbLine
 10
-39.98694143982011
 20
-27.82808578695018
 30
0.0
 11
-44.09329995010159
 21
-20.71566421304981
 31
0.0
  0
LINE
  5
A2
330
8E
100
AcDbEntity
  8
AM_9
100
AcDbLine
 10
-44.09329995010159
 20
-20.71566421304981
 30
0.0
 11
-44.91719630833163
 21
-20.49490184921513
 31
0.0
  0
LINE
  5
A3
330
8E
100
AcDbEntity
  8
AM_9
100
AcDbLine
 10
-40.20770380365479
 20
-28.65198214518022
 30
0.0
 11
-39.98694143982011
 21
-27.82808578695018
 31
0.0
  0
ARC
  5
A4
330
8E
100
AcDbEntity
  8
AM_9
100
AcDbCircle
 10
-54.00101405297868
 20
-31.17749999999999
 30
0.0
 40
5.08
100
AcDbArc
 50
166.0465456793912
 51
254.1856018758788
  0
LINE
  5
A5
330
8E
100
AcDbEntity
  8
AM_9
100
AcDbLine
 10
-40.20770380365479
 20
-28.65198214518022
 30
0.0
 11
-44.91719630833163
 21
-20.49490184921513
 31
0.0
  0
LINE
  5
A6
330
8E
100
AcDbEntity
  8
AM_9
100
AcDbLine
 10
-44.91719630833163
 20
-20.49490184921513
 30
0.0
 11
-49.09146855280544
 21
-22.73406508587751
 31
0.0
  0
LINE
  5
A7
330
8E
100
AcDbEntity
  8
AM_9
100
AcDbLine
 10
-44.23401217206149
 20
-31.14742633287563
 30
0.0
 11
-40.20770380365479
 21
-28.65198214518022
 31
0.0
  0
LINE
  5
A8
330
8E
100
AcDbEntity
  8
AM_9
100
AcDbLine
 10
-59.75664194197754
 20
-32.11926331106881
 30
0.0
 11
-60.04420990186402
 21
-32.28529075011958
 31
0.0
  0
LINE
  5
A9
330
8E
100
AcDbEntity
  8
AM_9
100
AcDbLine
 10
-57.69441894921585
 20
-35.6911383110688
 30
0.0
 11
-57.98198690910233
 21
-35.85716575011958
 31
0.0
  0
LWPOLYLINE
  5
AA
330
8E
100
AcDbEntity
  8
AM_9
100
AcDbPolyline
 90
        6
 70
     0
 43
0.0
 10
-59.75664194197754
 20
-32.11926331106881
 10
-59.33459955549432
 20
-32.72716981401241
 10
-58.92681239405394
 20
-33.35852718757702
 10
-58.53352727603638
 20
-34.02398433551977
 10
-58.16550883212172
 20
-34.71052124034201
 10
-57.69441894921585
 20
-35.6911383110688
  0
LINE
  5
AB
330
8E
100
AcDbEntity
  8
AM_9
100
AcDbLine
 10
-52.61122657009884
 20
-33.58468253207114
 30
0.0
 11
-55.40342403244514
 21
-28.74845466252245
 31
0.0
  0
ELLIPSE
  5
AC
330
8E
100
AcDbEntity
  8
AM_9
100
AcDbEllipse
 10
-55.79466389455922
 20
-32.21306421886845
 30
0.0
 11
-1.785937499999996
 21
3.093334489142546
 31
0.0
210
0.0
220
0.0
230
1.0
 40
0.9063077870366498
 41
5.859216366485143
 42
9.84874690146382
  0
LWPOLYLINE
  5
AD
330
8E
100
AcDbEntity
  8
AM_9
100
AcDbPolyline
 90
        6
 70
     0
 43
0.0
 10
-57.97902384536141
 20
-28.71170502447113
 10
-58.24087590883757
 20
-29.28501849892114
 10
-58.52900911042651
 20
-29.88100486283386
 10
-58.85194406467741
 20
-30.50973826329615
 10
-59.20490058989558
 20
-31.15892471870115
 10
-59.75664194197754
 20
-32.11926331106881
  0
LWPOLYLINE
  5
AE
330
8E
100
AcDbEntity
  8
AM_9
100
AcDbPolyline
 90
        6
 70
     0
 43
0.0
 10
-57.69441894921585
 20
-35.6911383110688
 10
-56.95262191872796
 20
-35.68971497347934
 10
-56.21922819338901
 20
-35.70086209670618
 10
-55.49053443646579
 20
-35.72781574339292
 10
-54.78470700451233
 20
-35.77142327771371
 10
-53.85457785983802
 20
-35.85545502447113
  0
LWPOLYLINE
  5
AF
330
8E
100
AcDbEntity
  8
AM_9
100
AcDbPolyline
 90
        5
 70
     0
 43
0.0
 10
-52.86895890830609
 20
-33.13827702754266
 10
-53.07133252124138
 20
-33.5323333905603
 10
-53.3445367864696
 20
-33.89169258101902
 10
-53.66567029513966
 20
-34.18628096276115
 10
-53.93007224588899
 20
-34.36277501387098
  0
LWPOLYLINE
  5
B0
330
8E
100
AcDbEntity
  8
AM_9
100
AcDbPolyline
 90
       13
 70
     0
 43
0.0
 10
-52.86895890830609
 20
-33.13827702754266
 10
-52.74311053231557
 20
-32.73201089390837
 10
-52.68957026686029
 20
-32.32416923971287
 10
-52.7017564684946
 20
-31.89829675767451
 10
-52.78343110709162
 20
-31.45511714162145
 10
-52.93629753345829
 20
-31.01132388347286
 10
-53.14841516407984
 20
-30.59958631698212
 10
-53.42460461618927
 20
-30.21171697599753
 10
-53.73952198772442
 20
-29.88331484601791
 10
-54.10587711902063
 20
-29.60259458609682
 10
-54.49990680748539
 20
-29.39256082294767
 10
-54.93407926367444
 20
-29.25226857346145
 10
-55.13306919765127
 20
-29.21672297245734
  0
LINE
  5
B1
330
8E
100
AcDbEntity
  8
AM_9
100
AcDbLine
 10
-56.72382359615595
 20
-29.52328151847385
 30
0.0
 11
-57.19166389455923
 21
-29.79338924069474
 31
0.0
  0
LINE
  5
B2
330
8E
100
AcDbEntity
  8
AM_9
100
AcDbLine
 10
-54.39766389455923
 20
-34.63273919704218
 30
0.0
 11
-53.92982540867059
 21
-34.36263252127711
 31
0.0
  0
LWPOLYLINE
  5
B3
330
8E
100
AcDbEntity
  8
AM_9
100
AcDbPolyline
 90
        3
 70
     0
 43
0.0
 10
-57.08926940110472
 20
-29.78159773492392
 10
-56.84750477035373
 20
-29.59968684955892
 10
-56.72401893238173
 20
-29.52339430749395
  0
LWPOLYLINE
  5
B4
330
8E
100
AcDbEntity
  8
AM_9
100
AcDbPolyline
 90
       19
 70
     0
 43
0.0
 10
-54.32063369534581
 20
-34.54436732544773
 10
-54.4477947139388
 20
-34.5864851037963
 10
-54.88876334741045
 20
-34.67664742480979
 10
-55.32959246651867
 20
-34.68738010504424
 10
-55.7831783407596
 20
-34.61897056608314
 10
-56.21065428286149
 20
-34.47739677942889
 10
-56.62509957793939
 20
-34.25844987254283
 10
-56.99083546977917
 20
-33.98117718386942
 10
-57.31931723256915
 20
-33.63713980143761
 10
-57.58245432782554
 20
-33.25598889147064
 10
-57.78845276816965
 20
-32.82617048344425
 10
-57.91993945441702
 20
-32.38411945689947
 10
-57.9808978400984
 20
-31.916827795191
 10
-57.96622720758737
 20
-31.46318536004807
 10
-57.87550593083563
 20
-31.01043103280826
 10
-57.71605623023699
 20
-30.59573983368014
 10
-57.48345321404387
 20
-30.20795336822162
 10
-57.19653000932878
 20
-29.87881015362551
 10
-57.08926940110472
 20
-29.78159773492392
  0
LWPOLYLINE
  5
B5
330
8E
100
AcDbEntity
  8
AM_9
100
AcDbPolyline
 90
        3
 70
     0
 43
0.0
 10
-53.93007224588899
 20
-34.36277501387098
 10
-54.04388704304403
 20
-34.42450398452263
 10
-54.32063369534581
 20
-34.54436732544773
  0
LWPOLYLINE
  5
B6
330
8E
100
AcDbEntity
  8
AM_9
100
AcDbPolyline
 90
        5
 70
     0
 43
0.0
 10
-56.72401893238173
 20
-29.52339430749395
 10
-56.4649429309709
 20
-29.39363114871167
 10
-56.03838999135154
 20
-29.25524012688494
 10
-55.59644685304005
 20
-29.19581586980424
 10
-55.13306919765083
 20
-29.21672297245753
  0
ELLIPSE
  5
B7
330
8E
100
AcDbEntity
  8
AM_9
100
AcDbEllipse
 10
-55.7946638945592
 20
-32.21306421886846
 30
0.0
 11
-1.785937499999982
 21
3.093334489142524
 31
0.0
210
0.0
220
0.0
230
1.0
 40
0.906307787036648
 41
3.764821264091946
 42
4.571432719802707
  0
ELLIPSE
  5
B8
330
8E
100
AcDbEntity
  8
AM_9
100
AcDbEllipse
 10
-55.79466389455924
 20
-32.21306421886853
 30
0.0
 11
-1.785937500000507
 21
3.093334489142344
 31
0.0
210
0.0
220
0.0
230
1.0
 40
0.9063077870366841
 41
4.853345240966577
 42
5.659956696677288
  0
LWPOLYLINE
  5
B9
330
8E
100
AcDbEntity
  8
AM_9
100
AcDbPolyline
 90
        5
 70
     0
 43
0.0
 10
-57.98198690910233
 20
-35.85716575011958
 10
-58.53729157696742
 20
-35.01722104716566
 10
-59.06805218498925
 20
-34.14453519314443
 10
-59.57395972168394
 20
-33.22541173564804
 10
-60.04420990186402
 20
-32.28529075011958
  0
LWPOLYLINE
  5
BA
330
8E
100
AcDbEntity
  8
AM_9
100
AcDbPolyline
 90
        4
 70
     0
 43
0.0
 10
-55.36363576802212
 20
-36.01106476470512
 10
-56.10663283295789
 20
-35.98578491330026
 10
-57.06215020973195
 20
-35.93179039060552
 10
-57.98198690910233
 20
-35.85716575011958
  0
LWPOLYLINE
  5
BB
330
8E
100
AcDbEntity
  8
AM_9
100
AcDbPolyline
 90
        4
 70
     0
 43
0.0
 10
-60.04420990186402
 20
-32.28529075011958
 10
-59.66633110356989
 20
-31.48708835050992
 10
-59.24902758860596
 20
-30.65674219793952
 10
-58.86781746231858
 20
-29.93986920167635
  0
ELLIPSE
  5
BC
330
8E
100
AcDbEntity
  8
AM_9
100
AcDbEllipse
 10
-56.25948154603797
 20
-32.4814268150738
 30
0.0
 11
-1.785937500000003
 21
3.093334489142546
 31
0.0
210
0.0
220
0.0
230
1.0
 40
0.906307787036649
 41
0.2502546836327806
 42
2.894766330999746
  0
LWPOLYLINE
  5
BD
330
8E
100
AcDbEntity
  8
AM_9
100
AcDbPolyline
 90
       19
 70
     0
 43
0.0
 10
-54.87103765292376
 20
-32.16712477490169
 10
-54.78155296577832
 20
-32.41592889651312
 10
-54.68036474034733
 20
-32.85287405187381
 10
-54.64761203273732
 20
-33.2864507358458
 10
-54.68179211723631
 20
-33.70311977157296
 10
-54.77927260765992
 20
-34.09121293287969
 10
-54.93546287066691
 20
-34.44162295987986
 10
-55.14653014878927
 20
-34.74783611835099
 10
-55.41119381838157
 20
-35.00468868954434
 10
-55.73070480814659
 20
-35.20526579969395
 10
-56.10287652156482
 20
-35.33755428968728
 10
-56.50676139294127
 20
-35.38801262668208
 10
-56.92044905837903
 20
-35.35499544936994
 10
-57.32975440479245
 20
-35.24301336219669
 10
-57.72382618988685
 20
-35.05734582374087
 10
-58.09188777704053
 20
-34.80394650153153
 10
-58.4229372401058
 20
-34.4904483341166
 10
-58.70652765792772
 20
-34.12665346012928
 10
-58.8127748597016
 20
-33.95557139703756
  0
LWPOLYLINE
  5
BE
330
8E
100
AcDbEntity
  8
AM_9
100
AcDbPolyline
 90
       19
 70
     0
 43
0.0
 10
-58.8127748597016
 20
-33.95557139703756
 10
-58.90662246801938
 20
-33.78042155179139
 10
-59.07918163496722
 20
-33.35640259865547
 10
-59.18500212569676
 20
-32.91974897779897
 10
-59.22238065831622
 20
-32.48549963335979
 10
-59.19264730561996
 20
-32.06728825499688
 10
-59.09932027533013
 20
-31.67693654044326
 10
-58.94697421403481
 20
-31.32373681378769
 10
-58.73955460424175
 20
-31.01435793618609
 10
-58.47855332218392
 20
-30.75397886605639
 10
-58.16279385062469
 20
-30.54926653383847
 10
-57.79388290276806
 20
-30.41187499510812
 10
-57.39136938203616
 20
-30.35565486637956
 10
-56.97782956705078
 20
-30.38309788551423
 10
-56.56786936484338
 20
-30.4898595006444
 10
-56.17242107167731
 20
-30.67067605972504
 10
-55.80223471861693
 20
-30.91967449912445
 10
-55.46831705150083
 20
-31.22935935324593
 10
-55.30080000586035
 20
-31.42620844208029
  0
ELLIPSE
  5
BF
330
8E
100
AcDbEntity
  8
AM_9
100
AcDbEllipse
 10
-57.55490447632071
 20
-33.22933959258695
 30
0.0
 11
1.691562466580847
 21
-2.929872136294563
 31
0.0
210
0.0
220
0.0
230
1.0
 40
0.9063077870366513
 41
0.0
 42
6.283185307179586
  0
LINE
  5
C1
330
8E
100
AcDbEntity
  8
AM_5
100
AcDbLine
 10
-43.8021098187818
 20
-30.19266864678881
 30
0.0
 11
-39.98694143982011
 21
-27.82808578695018
 31
0.0
  0
LINE
  5
C2
330
8E
100
AcDbEntity
  8
AM_5
100
AcDbLine
 10
-44.29951322716747
 20
-31.0541966219707
 30
0.0
 11
-43.80210981878182
 21
-30.19266864678882
 31
0.0
  0
LINE
  5
C3
330
8E
100
AcDbEntity
  8
AM_5
100
AcDbLine
 10
-43.50996726120498
 20
-30.69867439956499
 30
0.0
 11
-48.34081552313276
 21
-22.33139976625026
 31
0.0
  0
LINE
  5
C4
330
8E
100
AcDbEntity
  8
AM_5
100
AcDbLine
 10
-48.04867296555595
 20
-22.83740551902643
 30
0.0
 11
-44.0932999501016
 21
-20.71566421304981
 31
0.0
  0
LINE
  5
C5
330
8E
100
AcDbEntity
  8
AM_5
100
AcDbLine
 10
-49.04347978232724
 20
-22.83740551902642
 30
0.0
 11
-48.04867296555594
 21
-22.83740551902643
 31
0.0
  0
ELLIPSE
  5
C6
330
8E
100
AcDbEntity
  8
AM_9
100
AcDbEllipse
 10
-55.79466389455922
 20
-32.21306421886845
 30
0.0
 11
-1.396999999999992
 21
2.419674978173731
 31
0.0
210
0.0
220
0.0
230
1.0
 40
0.9063077870366502
 41
0.0
 42
6.283185307179586
  0
LINE
  5
C9
330
8E
100
AcDbEntity
  8
AM_7
100
AcDbLine
 10
-59.21843822466576
 20
-34.18978125
 30
0.0
 11
-41.22210557449872
 21
-23.79959375
 31
0.0
  0
LINE
  5
CA
330
8E
100
AcDbEntity
  8
AM_7
100
AcDbLine
 10
-59.33501405297864
 20
-31.17750000000003
 30
0.0
 11
-48.66701405297871
 21
-31.17750000000003
 31
0.0
  0
LINE
  5
CB
330
8E
100
AcDbEntity
  8
AM_7
100
AcDbLine
 10
-54.00101405297868
 20
-36.5115
 30
0.0
 11
-54.00101405297868
 21
-25.84350000000007
 31
0.0
  0
LINE
  5
CD
330
8E
100
AcDbEntity
  8
AM_4
100
AcDbLine
 10
-47.99207303098536
 20
-34.12404114977728
 30
0.0
 11
-53.54832303098537
 21
-24.50033385022271
 31
0.0
  0
LINE
  5
CE
330
8E
100
AcDbEntity
  8
AM_4
100
AcDbLine
 10
-53.77864006327936
 20
-23.64077898385299
 30
0.0
 11
-53.54832303098537
 21
-24.50033385022271
 31
0.0
  0
LINE
  5
CF
330
8E
100
AcDbEntity
  8
AM_4
100
AcDbLine
 10
-47.99207303098536
 20
-34.12404114977728
 30
0.0
 11
-47.36283519690965
 21
-34.753278983853
 31
0.0
  0
LINE
  5
D0
330
8E
100
AcDbEntity
  8
AM_4
100
AcDbLine
 10
-45.79236850537288
 20
-32.85404114977729
 30
0.0
 11
-51.34861850537289
 21
-23.23033385022271
 31
0.0
  0
LINE
  5
D1
330
8E
100
AcDbEntity
  8
AM_4
100
AcDbLine
 10
-51.34861850537289
 20
-23.23033385022271
 30
0.0
 11
-51.9778563394486
 21
-22.601096016147
 31
0.0
  0
LINE
  5
D2
330
8E
100
AcDbEntity
  8
AM_4
100
AcDbLine
 10
-45.56205147307888
 20
-33.713596016147
 30
0.0
 11
-45.79236850537288
 21
-32.85404114977729
 31
0.0
  0
ARC
  5
D3
330
8E
100
AcDbEntity
  8
AM_4
100
AcDbCircle
 10
-54.00101405297868
 20
-31.17750000000002
 30
0.0
 40
5.079999999999981
100
AcDbArc
 50
254.1856018758787
 51
300.0000000000001
  0
ARC
  5
D4
330
8E
100
AcDbEntity
  8
AM_4
100
AcDbCircle
 10
-54.00101405297872
 20
-31.17749999999996
 30
0.0
 40
5.079999999999946
100
AcDbArc
 50
119.9999999999998
 51
166.0465456793916
  0
LINE
  5
D5
330
8E
100
AcDbEntity
  8
AM_4
100
AcDbLine
 10
-49.09146855280544
 20
-22.73406508587751
 30
0.0
 11
-49.28411690231496
 21
-22.83740551902642
 31
0.0
  0
LINE
  5
D6
330
8E
100
AcDbEntity
  8
AM_4
100
AcDbLine
 10
-44.41983178716131
 20
-31.26259448097357
 30
0.0
 11
-44.23401217206149
 21
-31.14742633287563
 31
0.0
  0
LINE
  5
D7
330
8E
100
AcDbEntity
  8
AM_4
100
AcDbLine
 10
-55.40342403244514
 20
-28.74845466252245
 30
0.0
 11
-56.54101405297867
 21
-26.77809094877505
 31
0.0
  0
LINE
  5
D8
330
8E
100
AcDbEntity
  8
AM_4
100
AcDbLine
 10
-53.31019803098535
 20
-24.91277844877505
 30
0.0
 11
-56.54101405297867
 21
-26.77809094877505
 31
0.0
  0
LINE
  5
D9
330
8E
100
AcDbEntity
  8
AM_4
100
AcDbLine
 10
-51.46101405297868
 20
-35.57690905122494
 30
0.0
 11
-48.23019803098536
 21
-33.71159655122494
 31
0.0
  0
LINE
  5
DA
330
8E
100
AcDbEntity
  8
AM_4
100
AcDbLine
 10
-51.46101405297868
 20
-35.57690905122494
 30
0.0
 11
-52.61122657009884
 21
-33.58468253207114
 31
0.0
  0
LINE
  5
DB
330
8E
100
AcDbEntity
  8
AM_4
100
AcDbLine
 10
-44.31197434473814
 20
-31.44940905122495
 30
0.0
 11
-49.39197434473814
 21
-22.65059094877505
 31
0.0
  0
LINE
  5
DC
330
8E
100
AcDbEntity
  8
AM_4
100
AcDbLine
 10
-49.39197434473814
 20
-22.65059094877505
 30
0.0
 11
-51.11049350537288
 21
-23.64277844877505
 31
0.0
  0
LINE
  5
DD
330
8E
100
AcDbEntity
  8
AM_4
100
AcDbLine
 10
-46.03049350537289
 20
-32.44159655122495
 30
0.0
 11
-44.31197434473814
 21
-31.44940905122495
 31
0.0
  0
LINE
  5
DE
330
8E
100
AcDbEntity
  8
AM_4
100
AcDbLine
 10
-53.77864006327936
 20
-23.64077898385299
 30
0.0
 11
-51.9778563394486
 21
-22.601096016147
 31
0.0
  0
LWPOLYLINE
  5
DF
330
8E
100
AcDbEntity
  8
AM_4
100
AcDbPolyline
 90
        3
 70
     0
 43
0.0
 10
-53.176124855874
 20
-25.145
 10
-53.52446535457856
 20
-24.42007281403006
 10
-53.77864006327936
 20
-23.64077898385299
  0
LWPOLYLINE
  5
E0
330
8E
100
AcDbEntity
  8
AM_4
100
AcDbPolyline
 90
        3
 70
     0
 43
0.0
 10
-51.9778563394486
 20
-22.601096016147
 10
-51.43232349814098
 20
-23.20801041734187
 10
-50.97642033026153
 20
-23.875
  0
LWPOLYLINE
  5
E1
330
8E
100
AcDbEntity
  8
AM_4
100
AcDbPolyline
 90
        3
 70
     0
 43
0.0
 10
-50.97642033026153
 20
-23.875
 10
-50.62807983155697
 20
-24.59992718596994
 10
-50.37390512285616
 20
-25.379221016147
  0
LWPOLYLINE
  5
E2
330
8E
100
AcDbEntity
  8
AM_4
100
AcDbPolyline
 90
        3
 70
     0
 43
0.0
 10
-52.17468884668694
 20
-26.41890398385299
 10
-52.72022168799455
 20
-25.81198958265812
 10
-53.176124855874
 20
-25.145
  0
LINE
  5
E3
330
8E
100
AcDbEntity
  8
AM_4
100
AcDbLine
 10
-52.17468884668694
 20
-26.41890398385299
 30
0.0
 11
-50.37390512285616
 21
-25.379221016147
 31
0.0
  0
LWPOLYLINE
  5
E4
330
8E
100
AcDbEntity
  8
AM_4
100
AcDbPolyline
 90
        4
 70
     0
 43
0.0
 10
-50.77019803098536
 20
-29.3121875
 10
-51.3536935476471
 20
-28.22953153472263
 10
-51.87895648253744
 20
-27.11325497268394
 10
-52.17468884668694
 20
-26.41890398385299
  0
LWPOLYLINE
  5
E5
330
8E
100
AcDbEntity
  8
AM_4
100
AcDbPolyline
 90
        3
 70
     0
 43
0.0
 10
-48.57049350537288
 20
-28.0421875
 10
-47.82116520252021
 20
-29.46164593596994
 10
-47.1660026896713
 20
-30.935471016147
  0
LWPOLYLINE
  5
E6
330
8E
100
AcDbEntity
  8
AM_4
100
AcDbPolyline
 90
        4
 70
     0
 43
0.0
 10
-50.37390512285616
 20
-25.379221016147
 10
-49.92044570946047
 20
-25.98250825063717
 10
-49.21834651760968
 20
-26.99250524171738
 10
-48.57049350537288
 20
-28.0421875
  0
LWPOLYLINE
  5
E7
330
8E
100
AcDbEntity
  8
AM_4
100
AcDbPolyline
 90
        3
 70
     0
 43
0.0
 10
-48.96678641350208
 20
-31.97515398385299
 10
-49.91150410981528
 20
-30.67683113217642
 10
-50.77019803098536
 20
-29.3121875
  0
LINE
  5
E8
330
8E
100
AcDbEntity
  8
AM_4
100
AcDbLine
 10
-48.96678641350208
 20
-31.97515398385299
 30
0.0
 11
-47.1660026896713
 21
-30.935471016147
 31
0.0
  0
LWPOLYLINE
  5
E9
330
8E
100
AcDbEntity
  8
AM_4
100
AcDbPolyline
 90
        3
 70
     0
 43
0.0
 10
-48.36427120609672
 20
-33.479375
 10
-48.71261170480128
 20
-32.75444781403006
 10
-48.96678641350208
 20
-31.97515398385299
  0
LWPOLYLINE
  5
EA
330
8E
100
AcDbEntity
  8
AM_4
100
AcDbPolyline
 90
        3
 70
     0
 43
0.0
 10
-47.36283519690965
 20
-34.753278983853
 10
-47.90836803821726
 20
-34.14636458265812
 10
-48.36427120609672
 20
-33.479375
  0
LINE
  5
EB
330
8E
100
AcDbEntity
  8
AM_4
100
AcDbLine
 10
-47.36283519690965
 20
-34.753278983853
 30
0.0
 11
-45.56205147307888
 21
-33.713596016147
 31
0.0
  0
LWPOLYLINE
  5
EC
330
8E
100
AcDbEntity
  8
AM_4
100
AcDbPolyline
 90
        3
 70
     0
 43
0.0
 10
-46.16456668048424
 20
-32.209375
 10
-45.81622618177968
 20
-32.93430218596994
 10
-45.56205147307888
 20
-33.713596016147
  0
LWPOLYLINE
  5
ED
330
8E
100
AcDbEntity
  8
AM_4
100
AcDbPolyline
 90
        3
 70
     0
 43
0.0
 10
-47.1660026896713
 20
-30.935471016147
 10
-46.6204698483637
 20
-31.54238541734188
 10
-46.16456668048424
 20
-32.209375
  0
LINE
  5
EE
330
8E
100
AcDbEntity
  8
AM_4
100
AcDbLine
 10
-54.15143391381446
 20
-36.026844947145
 30
0.0
 11
-55.36363576802212
 21
-36.01106476470512
 31
0.0
  0
LINE
  5
EF
330
8E
100
AcDbEntity
  8
AM_4
100
AcDbLine
 10
-58.86781746231858
 20
-29.93986920167635
 30
0.0
 11
-58.27587989933785
 21
-28.883094947145
 31
0.0
  0
LWPOLYLINE
  5
F0
330
8E
100
AcDbEntity
  8
AM_4
100
AcDbPolyline
 90
        3
 70
     0
 43
0.0
 10
-53.85457785983802
 20
-35.85545502447113
 10
-53.42344632856654
 20
-35.11041542538193
 10
-53.01353459608831
 20
-34.36665993102581
  0
LINE
  5
F1
330
8E
100
AcDbEntity
  8
AM_4
100
AcDbLine
 10
-53.01353459608831
 20
-34.36665993102581
 30
0.0
 11
-52.70818772947039
 21
-33.78012942772721
 31
0.0
  0
LWPOLYLINE
  5
F2
330
8E
100
AcDbEntity
  8
AM_4
100
AcDbPolyline
 90
        3
 70
     0
 43
0.0
 10
-52.70818772947039
 20
-33.78012942772721
 10
-52.47539707042583
 20
-33.30910892482294
 10
-52.07692081741808
 20
-32.44787425250315
  0
LWPOLYLINE
  5
F3
330
8E
100
AcDbEntity
  8
AM_4
100
AcDbPolyline
 90
        3
 70
     0
 43
0.0
 10
-53.47835224756703
 20
-34.63502252723111
 10
-53.82722576278718
 20
-35.3387295930775
 10
-54.15143391381446
 20
-36.026844947145
  0
LINE
  5
F4
330
8E
100
AcDbEntity
  8
AM_4
100
AcDbLine
 10
-53.85457785983802
 20
-35.85545502447113
 30
0.0
 11
-54.15143391381446
 21
-36.026844947145
 31
0.0
  0
LWPOLYLINE
  5
F5
330
8E
100
AcDbEntity
  8
AM_4
100
AcDbPolyline
 90
        3
 70
     0
 43
0.0
 10
-54.13914381017977
 20
-28.87599925250315
 10
-54.8519262293884
 20
-28.80866661256951
 10
-55.60854409227324
 20
-28.75656484729697
  0
LINE
  5
F6
330
8E
100
AcDbEntity
  8
AM_4
100
AcDbLine
 10
-55.60854409227324
 20
-28.75656484729697
 30
0.0
 11
-56.26916784153325
 21
-28.72773773910476
 31
0.0
  0
LWPOLYLINE
  5
F7
330
8E
100
AcDbEntity
  8
AM_4
100
AcDbPolyline
 90
        3
 70
     0
 43
0.0
 10
-56.26916784153325
 20
-28.72773773910476
 10
-56.85311472271617
 20
-28.71396339412863
 10
-57.97902384536141
 20
-28.71170502447113
  0
LINE
  5
F8
330
8E
100
AcDbEntity
  8
AM_4
100
AcDbLine
 10
-57.97902384536141
 20
-28.71170502447113
 30
0.0
 11
-58.27587989933785
 21
-28.883094947145
 31
0.0
  0
LWPOLYLINE
  5
F9
330
8E
100
AcDbEntity
  8
AM_4
100
AcDbPolyline
 90
        3
 70
     0
 43
0.0
 10
-58.27587989933785
 20
-28.883094947145
 10
-57.52201243999928
 20
-28.9460716846521
 10
-56.73398549301197
 20
-28.99610033531011
  0
LWPOLYLINE
  5
FA
330
8E
100
AcDbEntity
  8
AM_4
100
AcDbPolyline
 90
        3
 70
     0
 43
0.0
 10
-56.07336174375205
 20
-29.02492744350231
 10
-55.26943775205982
 20
-29.04531207475421
 10
-54.44535730267862
 20
-29.05279169482685
  0
LWPOLYLINE
  5
FB
330
8E
100
AcDbEntity
  8
AM_4
100
AcDbPolyline
 90
        3
 70
     0
 43
0.0
 10
-52.38313430991693
 20
-32.62466669482685
 10
-52.78667133781958
 20
-33.33843506077802
 10
-53.17300538094916
 20
-34.04849202393259
  0
LWPOLYLINE
  5
FC
330
8E
100
AcDbEntity
  8
AM_4
100
AcDbPolyline
 90
        3
 70
     0
 43
0.0
 10
-52.07692081741808
 20
-32.44787425250315
 10
-52.40701636879821
 20
-31.74623035747345
 10
-52.76804943169991
 20
-31.04509077583033
  0
LINE
  5
FD
330
8E
100
AcDbEntity
  8
AM_4
100
AcDbLine
 10
-52.76804943169991
 20
-31.04509077583033
 30
0.0
 11
-53.26986199051291
 21
-30.17592592808983
 31
0.0
  0
LWPOLYLINE
  5
FE
330
8E
100
AcDbEntity
  8
AM_4
100
AcDbPolyline
 90
        3
 70
     0
 43
0.0
 10
-53.26986199051291
 20
-30.17592592808983
 10
-53.50477733002584
 20
-29.80364633553604
 10
-54.13914381017977
 20
-28.87599925250315
  0
LINE
  5
FF
330
8E
100
AcDbEntity
  8
AM_4
100
AcDbLine
 10
-54.13914381017977
 20
-28.87599925250315
 30
0.0
 11
-54.44535730267862
 21
-29.05279169482685
 31
0.0
  0
LWPOLYLINE
  5
100
330
8E
100
AcDbEntity
  8
AM_4
100
AcDbPolyline
 90
        3
 70
     0
 43
0.0
 10
-54.44535730267862
 20
-29.05279169482685
 10
-54.10161235896872
 20
-29.74987070916351
 10
-53.7346796419917
 20
-30.44428852429533
  0
LWPOLYLINE
  5
101
330
8E
100
AcDbEntity
  8
AM_4
100
AcDbPolyline
 90
        3
 70
     0
 43
0.0
 10
-53.23286708317868
 20
-31.31345337203564
 10
-52.81676543585664
 20
-31.97564052161345
 10
-52.38313430991693
 20
-32.62466669482685
  0
LINE
  5
102
330
8E
100
AcDbEntity
  8
AM_4
100
AcDbLine
 10
-52.07692081741808
 20
-32.44787425250315
 30
0.0
 11
-52.38313430991693
 21
-32.62466669482685
 31
0.0
  0
LINE
  5
103
330
8E
100
AcDbEntity
  8
AM_4
100
AcDbLine
 10
-56.73398549301197
 20
-28.99610033531011
 30
0.0
 11
-56.07336174375205
 21
-29.02492744350231
 31
0.0
  0
ELLIPSE
  5
104
330
8E
100
AcDbEntity
  8
AM_4
100
AcDbEllipse
 10
-56.25948154603803
 20
-32.48142681507372
 30
0.0
 11
-1.785937500000046
 21
3.093334489142613
 31
0.0
210
0.0
220
0.0
230
1.0
 40
0.90630778703665
 41
2.894766330999754
 42
3.565561594284238
  0
ELLIPSE
  5
105
330
8E
100
AcDbEntity
  8
AM_4
100
AcDbEllipse
 10
-56.25948154603799
 20
-32.48142681507377
 30
0.0
 11
-1.785937500000017
 21
3.093334489142493
 31
0.0
210
0.0
220
0.0
230
1.0
 40
0.9063077870366487
 41
5.859216366485114
 42
6.533439990812357
  0
LINE
  5
106
330
8E
100
AcDbEntity
  8
AM_4
100
AcDbLine
 10
-53.17300538094916
 20
-34.04849202393259
 30
0.0
 11
-53.47835224756703
 21
-34.63502252723111
 31
0.0
  0
ELLIPSE
  5
107
330
8E
100
AcDbEntity
  8
AM_4
100
AcDbEllipse
 10
-56.25948154603796
 20
-32.4814268150738
 30
0.0
 11
-1.785937499999996
 21
3.093334489142517
 31
0.0
210
0.0
220
0.0
230
1.0
 40
0.9063077870366509
 41
3.764821264091928
 42
4.571432719802709
  0
LWPOLYLINE
  5
108
330
8E
100
AcDbEntity
  8
AM_4
100
AcDbPolyline
 90
        3
 70
     0
 43
0.0
 10
-53.7346796419917
 20
-30.44428852429533
 10
-53.49464459027947
 20
-30.88209309386889
 10
-53.23286708317868
 20
-31.31345337203564
  0
ELLIPSE
  5
109
330
8E
100
AcDbEntity
  8
AM_4
100
AcDbEllipse
 10
-56.25948154603796
 20
-32.48142681507377
 30
0.0
 11
-1.785937499999996
 21
3.093334489142507
 31
0.0
210
0.0
220
0.0
230
1.0
 40
0.9063077870366498
 41
4.853345240966663
 42
5.659956696677445
  0
LWPOLYLINE
  5
10A
330
8E
100
AcDbEntity
  8
AM_4
100
AcDbPolyline
 90
        6
 70
     0
 43
0.0
 10
-61.09976720820365
 20
-32.73648293692757
 10
-61.11635058376953
 20
-33.06480709397096
 10
-61.07803205350573
 20
-33.6138675225667
 10
-60.95826543529072
 20
-34.15685382989359
 10
-60.75964974108962
 20
-34.68049438127823
 10
-60.60012762981611
 20
-34.9875
  0
LWPOLYLINE
  5
10B
330
8E
100
AcDbEntity
  8
AM_4
100
AcDbPolyline
 90
       34
 70
     0
 43
0.0
 10
-58.88767831250565
 20
-36.55152303208575
 10
-58.71334150649171
 20
-36.62458620058705
 10
-58.19306935546204
 20
-36.7809541874115
 10
-57.66142089938769
 20
-36.85190021944354
 10
-57.13197610118014
 20
-36.83581762591109
 10
-56.61815209709933
 20
-36.73354914709885
 10
-56.13268505541208
 20
-36.54825070527442
 10
-55.68723428180283
 20
-36.28509281537593
 10
-55.29218102541224
 20
-35.95091846079814
 10
-54.95668651395889
 20
-35.55414071656489
 10
-54.68827742072328
 20
-35.10417286884387
 10
-54.49309117322936
 20
-34.61145817331053
 10
-54.37579010469119
 20
-34.08742814374455
 10
-54.33938908247245
 20
-33.54439690924972
 10
-54.38506766805454
 20
-32.99533641514947
 10
-54.51204243542959
 20
-32.45354670806265
 10
-54.71753689169675
 20
-31.93227974806333
 10
-54.99684057378349
 20
-31.44437519533677
 10
-55.34342384197572
 20
-31.00193789795532
 10
-55.74900518240569
 20
-30.61611301271358
 10
-56.20380166633679
 20
-30.29668011668918
 10
-56.69665580207754
 20
-30.05185263688064
 10
-57.21525235141353
 20
-29.88798298793792
 10
-57.74643292423803
 20
-29.80927211011742
 10
-58.27662950092898
 20
-29.81754619747458
 10
-58.79238819278847
 20
-29.9121796158067
 10
-59.28089309319655
 20
-30.09021355895755
 10
-59.73037682279117
 20
-30.34664368418182
 10
-60.13035014708259
 20
-30.67477436255519
 10
-60.47151474288453
 20
-31.06630537272804
 10
-60.74621274518284
 20
-31.51191348443729
 10
-60.94818023566427
 20
-32.00124634011591
 10
-61.07261640965407
 20
-32.52295830223909
 10
-61.09976720820365
 20
-32.73648293692757
  0
ELLIPSE
  5
10C
330
8E
100
AcDbEntity
  8
AM_4
100
AcDbEllipse
 10
-58.53708803828383
 20
-33.79640353647999
 30
0.0
 11
1.314229537202296
 21
-2.276312331242103
 31
0.0
210
0.0
220
0.0
230
1.0
 40
0.9063077870366493
 41
0.0
 42
6.283185307179586
  0
ELLIPSE
  5
10D
330
8E
100
AcDbEntity
  8
AM_4
100
AcDbEllipse
 10
-57.82604901846774
 20
-33.38588496698486
 30
0.0
 11
-1.767186662107293
 21
3.060857085227911
 31
0.0
210
0.0
220
0.0
230
1.0
 40
0.9063077870366495
 41
0.0
 42
6.283185307179586
  0
ENDBLK
  5
91
330
8E
100
AcDbEntity
  8
0
100
AcDbBlockEnd
  0
BLOCK
  5
110
330
10E
100
AcDbEntity
  8
0
100
AcDbBlockBegin
  2
3_076346_0_in_076412_0
 70
     2
 10
0.0
 20
0.0
 30
0.0
  3
3_076346_0_in_076412_0
  1

  0
ATTDEF
  5
112
330
10E
100
AcDbEntity
  8
AM_6
100
AcDbText
 10
44.77774962863413
 20
39.77774962863413
 30
0.0
 40
0.5
  1
Set Screw Medium Duty Extreme Duty Insert Metric Bore
100
AcDbAttributeDefinition
  3

  2
NN
 70
     8
280
     0
  0
ATTDEF
  5
113
330
10E
100
AcDbEntity
  8
AM_6
100
AcDbText
 10
44.77774962863413
 20
39.27774962863413
 30
0.0
 40
0.5
  1
SC Medium Duty Bearing Inserts
100
AcDbAttributeDefinition
  3

  2
NT
 70
     8
280
     0
  0
ATTDEF
  5
114
330
10E
100
AcDbEntity
  8
AM_6
100
AcDbText
 10
44.77774962863413
 20
38.77774962863413
 30
0.0
 40
0.5
  1
076346
100
AcDbAttributeDefinition
  3

  2
NB
 70
     8
280
     0
  0
ATTDEF
  5
115
330
10E
100
AcDbEntity
  8
AM_6
100
AcDbText
 10
44.77774962863413
 20
38.27774962863413
 30
0.0
 40
0.5
  1
$PN.
100
AcDbAttributeDefinition
  3

  2
NBSYN
 70
     8
280
     0
  0
ATTDEF
  5
116
330
10E
100
AcDbEntity
  8
AM_6
100
AcDbText
 10
44.77774962863413
 20
37.77774962863413
 30
0.0
 40
0.5
  1
076346
100
AcDbAttributeDefinition
  3

  2
LINA
 70
     8
280
     0
  0
ATTDEF
  5
117
330
10E
100
AcDbEntity
  8
AM_6
100
AcDbText
 10
44.77774962863413
 20
37.27774962863413
 30
0.0
 40
0.5
  1
208
100
AcDbAttributeDefinition
  3

  2
SERIES
 70
     8
280
     0
  0
ATTDEF
  5
118
330
10E
100
AcDbEntity
  8
AM_6
100
AcDbText
 10
44.77774962863413
 20
36.77774962863413
 30
0.0
 40
0.5
  1
35
100
AcDbAttributeDefinition
  3

  2
SS
 70
     8
280
     0
  0
ATTDEF
  5
119
330
10E
100
AcDbEntity
  8
AM_6
100
AcDbText
 10
44.77774962863413
 20
36.27774962863413
 30
0.0
 40
0.5
  1
076346
100
AcDbAttributeDefinition
  3

  2
PN
 70
     8
280
     0
  0
ATTDEF
  5
11A
330
10E
100
AcDbEntity
  8
AM_6
100
AcDbText
 10
44.77774962863413
 20
35.77774962863413
 30
0.0
 40
0.5
  1
INS-SCMED-35M
100
AcDbAttributeDefinition
  3

  2
DESCRIPTION
 70
     8
280
     0
  0
ATTDEF
  5
11B
330
10E
100
AcDbEntity
  8
AM_6
100
AcDbText
 10
44.77774962863413
 20
35.27774962863413
 30
0.0
 40
0.5
  1
0.60
100
AcDbAttributeDefinition
  3

  2
WEIGHT
 70
     8
280
     0
  0
ATTDEF
  5
11C
330
10E
100
AcDbEntity
  8
AM_6
100
AcDbText
 10
44.77774962863413
 20
34.77774962863413
 30
0.0
 40
0.5
  1
49.3
100
AcDbAttributeDefinition
  3

  2
A
 70
     8
280
     0
  0
ATTDEF
  5
11D
330
10E
100
AcDbEntity
  8
AM_6
100
AcDbText
 10
44.77774962863413
 20
34.27774962863413
 30
0.0
 40
0.5
  1
22.1
100
AcDbAttributeDefinition
  3

  2
C
 70
     8
280
     0
  0
ATTDEF
  5
11E
330
10E
100
AcDbEntity
  8
AM_6
100
AcDbText
 10
44.77774962863413
 20
33.77774962863413
 30
0.0
 40
0.5
  1
80.0
100
AcDbAttributeDefinition
  3

  2
D
 70
     8
280
     0
  0
ATTDEF
  5
11F
330
10E
100
AcDbEntity
  8
AM_6
100
AcDbText
 10
44.77774962863413
 20
33.27774962863413
 30
0.0
 40
0.5
  1
5.6
100
AcDbAttributeDefinition
  3

  2
J
 70
     8
280
     0
  0
ATTDEF
  5
120
330
10E
100
AcDbEntity
  8
AM_6
100
AcDbText
 10
44.77774962863413
 20
32.77774962863413
 30
0.0
 40
0.5
  1
52.1
100
AcDbAttributeDefinition
  3

  2
L
 70
     8
280
     0
  0
ATTDEF
  5
121
330
10E
100
AcDbEntity
  8
AM_6
100
AcDbText
 10
44.77774962863413
 20
32.27774962863413
 30
0.0
 40
0.5
  1
M8 x 1.25
100
AcDbAttributeDefinition
  3

  2
N
 70
     8
280
     0
  0
ATTDEF
  5
122
330
10E
100
AcDbEntity
  8
AM_6
100
AcDbText
 10
44.77774962863413
 20
31.77774962863413
 30
0.0
 40
0.5
  1
19.1
100
AcDbAttributeDefinition
  3

  2
W
 70
     8
280
     0
  0
ATTDEF
  5
123
330
10E
100
AcDbEntity
  8
AM_6
100
AcDbText
 10
44.77774962863413
 20
31.27774962863413
 30
0.0
 40
0.5
  1
30.2
100
AcDbAttributeDefinition
  3

  2
Y
 70
     8
280
     0
  0
ATTDEF
  5
124
330
10E
100
AcDbEntity
  8
AM_6
100
AcDbText
 10
44.77774962863413
 20
30.77774962863413
 30
0.0
 40
0.5
  1
baldor
100
AcDbAttributeDefinition
  3

  2
COMPANY
 70
     8
280
     0
  0
CIRCLE
  5
125
330
10E
100
AcDbEntity
  8
AM_9
100
AcDbCircle
 10
0.0
 20
0.0
 30
0.0
 40
37.78999999999996
  0
LINE
  5
126
330
10E
100
AcDbEntity
  8
AM_9
100
AcDbLine
 10
3.3235
 20
17.183683537804
 30
0.0
 11
3.3235
 21
25.74106641147565
 31
0.0
  0
LINE
  5
127
330
10E
100
AcDbEntity
  8
AM_9
100
AcDbLine
 10
-3.3235
 20
25.74106641147565
 30
0.0
 11
-3.3235
 21
17.18320095357376
 31
0.0
  0
LINE
  5
128
330
10E
100
AcDbEntity
  8
AM_9
100
AcDbLine
 10
16.97797840563202
 20
4.249884836864562
 30
0.0
 11
24.73390072824315
 21
7.866530811953437
 31
0.0
  0
LINE
  5
129
330
10E
100
AcDbEntity
  8
AM_9
100
AcDbLine
 10
21.92475714245272
 20
13.89075867238605
 30
0.0
 11
14.16716614494102
 21
10.27333458141207
 31
0.0
  0
LINE
  5
12A
330
10E
100
AcDbEntity
  8
AM_9
100
AcDbLine
 10
21.92475714245272
 20
13.89075867238605
 30
0.0
 11
24.73390072824315
 21
7.866530811953435
 31
0.0
  0
LINE
  5
12B
330
10E
100
AcDbEntity
  8
AM_9
100
AcDbLine
 10
24.73390072824315
 20
7.866530811953435
 30
0.0
 11
24.83976826598211
 21
7.827998179441402
 31
0.0
  0
LINE
  5
12C
330
10E
100
AcDbEntity
  8
AM_9
100
AcDbLine
 10
21.96547219425567
 20
14.00262235784658
 30
0.0
 11
21.92475714245272
 21
13.89075867238605
 31
0.0
  0
LINE
  5
12D
330
10E
100
AcDbEntity
  8
AM_9
100
AcDbLine
 10
-3.3235
 20
25.74106641147565
 30
0.0
 11
3.3235
 21
25.74106641147565
 31
0.0
  0
LINE
  5
12E
330
10E
100
AcDbEntity
  8
AM_9
100
AcDbLine
 10
3.3235
 20
25.74106641147565
 30
0.0
 11
3.403448704684523
 21
25.82101511616017
 31
0.0
  0
LINE
  5
12F
330
10E
100
AcDbEntity
  8
AM_9
100
AcDbLine
 10
-3.403357112332855
 20
25.8209235238085
 30
0.0
 11
-3.3235
 21
25.74106641147565
 31
0.0
  0
LINE
  5
130
330
10E
100
AcDbEntity
  8
AM_5
100
AcDbLine
 10
-4.0
 20
17.03672503740082
 30
0.0
 11
-4.0
 21
25.74106641147565
 31
0.0
  0
LINE
  5
131
330
10E
100
AcDbEntity
  8
AM_5
100
AcDbLine
 10
4.0
 20
17.03672503740082
 30
0.0
 11
4.0
 21
25.74106641147565
 31
0.0
  0
LINE
  5
132
330
10E
100
AcDbEntity
  8
AM_5
100
AcDbLine
 10
13.75004352003583
 20
10.82526226920719
 30
0.0
 11
21.63885588838513
 21
14.50387589031634
 31
0.0
  0
LINE
  5
133
330
10E
100
AcDbEntity
  8
AM_5
100
AcDbLine
 10
17.13098961396142
 20
3.574799972913989
 30
0.0
 11
25.01980198231074
 21
7.253413594023145
 31
0.0
  0
LINE
  5
134
330
10E
100
AcDbEntity
  8
AM_7
100
AcDbLine
 10
12.82159081734918
 20
5.97880598785973
 30
0.0
 11
26.40140857851571
 21
12.31117900624095
 31
0.0
  0
CIRCLE
  5
135
330
10E
100
AcDbEntity
  8
AM_4
100
AcDbCircle
 10
0.0
 20
0.0
 30
0.0
 40
39.77774962863413
  0
CIRCLE
  5
136
330
10E
100
AcDbEntity
  8
AM_4
100
AcDbCircle
 10
0.0
 20
0.0
 30
0.0
 40
39.25194755353689
  0
CIRCLE
  5
137
330
10E
100
AcDbEntity
  8
AM_4
100
AcDbCircle
 10
0.0
 20
0.0
 30
0.0
 40
38.01695196947391
  0
CIRCLE
  5
138
330
10E
100
AcDbEntity
  8
AM_4
100
AcDbCircle
 10
0.0
 20
0.0
 30
0.0
 40
37.19396883195165
  0
CIRCLE
  5
139
330
10E
100
AcDbEntity
  8
AM_4
100
AcDbCircle
 10
0.0
 20
0.0
 30
0.0
 40
25.00799999999999
  0
CIRCLE
  5
13A
330
10E
100
AcDbEntity
  8
AM_4
100
AcDbCircle
 10
0.0
 20
0.0
 30
0.0
 40
26.04999999999999
  0
CIRCLE
  5
13B
330
10E
100
AcDbEntity
  8
AM_4
100
AcDbCircle
 10
0.0
 20
0.0
 30
0.0
 40
17.5
  0
CIRCLE
  5
13C
330
10E
100
AcDbEntity
  8
AM_4
100
AcDbCircle
 10
0.0
 20
0.0
 30
0.0
 40
18.542
  0
ENDBLK
  5
111
330
10E
100
AcDbEntity
  8
0
100
AcDbBlockEnd
  0
BLOCK
  5
13F
330
13D
100
AcDbEntity
  8
0
100
AcDbBlockBegin
  2
4_076412H_0_in_076412_0
 70
     2
 10
0.0
 20
0.0
 30
0.0
  3
4_076412H_0_in_076412_0
  1

  0
ATTDEF
  5
141
330
13D
100
AcDbEntity
  8
AM_6
100
AcDbText
 10
89.60300000000001
 20
60.35
 30
0.0
 40
0.5
  1
NSTU-SCMED -Metric - housing
100
AcDbAttributeDefinition
  3

  2
NN
 70
     8
280
     0
  0
ATTDEF
  5
142
330
13D
100
AcDbEntity
  8
AM_6
100
AcDbText
 10
89.60300000000001
 20
59.85
 30
0.0
 40
0.5
  1
SCMED Medium Duty Narrow Slot Take-Up Bearings
100
AcDbAttributeDefinition
  3

  2
NT
 70
     8
280
     0
  0
ATTDEF
  5
143
330
13D
100
AcDbEntity
  8
AM_6
100
AcDbText
 10
89.60300000000001
 20
59.35
 30
0.0
 40
0.5
  1
076412H
100
AcDbAttributeDefinition
  3

  2
NB
 70
     8
280
     0
  0
ATTDEF
  5
144
330
13D
100
AcDbEntity
  8
AM_6
100
AcDbText
 10
89.60300000000001
 20
58.85
 30
0.0
 40
0.5
  1
$PN.H
100
AcDbAttributeDefinition
  3

  2
NBSYN
 70
     8
280
     0
  0
ATTDEF
  5
145
330
13D
100
AcDbEntity
  8
AM_6
100
AcDbText
 10
89.60300000000001
 20
58.35
 30
0.0
 40
0.5
  1
076412
100
AcDbAttributeDefinition
  3

  2
LINA
 70
     8
280
     0
  0
ATTDEF
  5
146
330
13D
100
AcDbEntity
  8
AM_6
100
AcDbText
 10
89.60300000000001
 20
57.85
 30
0.0
 40
0.5
  1
208
100
AcDbAttributeDefinition
  3

  2
SERIES
 70
     8
280
     0
  0
ATTDEF
  5
147
330
13D
100
AcDbEntity
  8
AM_6
100
AcDbText
 10
89.60300000000001
 20
57.35
 30
0.0
 40
0.5
  1
35
100
AcDbAttributeDefinition
  3

  2
SS
 70
     8
280
     0
  0
ATTDEF
  5
148
330
13D
100
AcDbEntity
  8
AM_6
100
AcDbText
 10
89.60300000000001
 20
56.85
 30
0.0
 40
0.5
  1
076412
100
AcDbAttributeDefinition
  3

  2
PN
 70
     8
280
     0
  0
ATTDEF
  5
149
330
13D
100
AcDbEntity
  8
AM_6
100
AcDbText
 10
89.60300000000001
 20
56.35
 30
0.0
 40
0.5
  1
NSTU-SCMED-35M
100
AcDbAttributeDefinition
  3

  2
DESCRIPTION
 70
     8
280
     0
  0
ATTDEF
  5
14A
330
13D
100
AcDbEntity
  8
AM_6
100
AcDbText
 10
89.60300000000001
 20
55.85
 30
0.0
 40
0.5
  1
2.2
100
AcDbAttributeDefinition
  3

  2
W
 70
     8
280
     0
  0
ATTDEF
  5
14B
330
13D
100
AcDbEntity
  8
AM_6
100
AcDbText
 10
89.60300000000001
 20
55.35
 30
0.0
 40
0.5
  1
NS400
100
AcDbAttributeDefinition
  3

  2
FS
 70
     8
280
     0
  0
ATTDEF
  5
14C
330
13D
100
AcDbEntity
  8
AM_6
100
AcDbText
 10
89.60300000000001
 20
54.85
 30
0.0
 40
0.5
  1
49.3
100
AcDbAttributeDefinition
  3

  2
A
 70
     8
280
     0
  0
ATTDEF
  5
14D
330
13D
100
AcDbEntity
  8
AM_6
100
AcDbText
 10
89.60300000000001
 20
54.35
 30
0.0
 40
0.5
  1
136.7
100
AcDbAttributeDefinition
  3

  2
B
 70
     8
280
     0
  0
ATTDEF
  5
14E
330
13D
100
AcDbEntity
  8
AM_6
100
AcDbText
 10
89.60300000000001
 20
53.85
 30
0.0
 40
0.5
  1
7.95
100
AcDbAttributeDefinition
  3

  2
C
 70
     8
280
     0
  0
ATTDEF
  5
14F
330
13D
100
AcDbEntity
  8
AM_6
100
AcDbText
 10
89.60300000000001
 20
53.35
 30
0.0
 40
0.5
  1
76.2
100
AcDbAttributeDefinition
  3

  2
D
 70
     8
280
     0
  0
ATTDEF
  5
150
330
13D
100
AcDbEntity
  8
AM_6
100
AcDbText
 10
89.60300000000001
 20
52.85
 30
0.0
 40
0.5
  1
82.6
100
AcDbAttributeDefinition
  3

  2
E
 70
     8
280
     0
  0
ATTDEF
  5
151
330
13D
100
AcDbEntity
  8
AM_6
100
AcDbText
 10
89.60300000000001
 20
52.35
 30
0.0
 40
0.5
  1
22.2
100
AcDbAttributeDefinition
  3

  2
F
 70
     8
280
     0
  0
ATTDEF
  5
152
330
13D
100
AcDbEntity
  8
AM_6
100
AcDbText
 10
89.60300000000001
 20
51.85
 30
0.0
 40
0.5
  1
16.8
100
AcDbAttributeDefinition
  3

  2
G
 70
     8
280
     0
  0
ATTDEF
  5
153
330
13D
100
AcDbEntity
  8
AM_6
100
AcDbText
 10
89.60300000000001
 20
51.35
 30
0.0
 40
0.5
  1
29.5
100
AcDbAttributeDefinition
  3

  2
H
 70
     8
280
     0
  0
ATTDEF
  5
154
330
13D
100
AcDbEntity
  8
AM_6
100
AcDbText
 10
89.60300000000001
 20
50.85
 30
0.0
 40
0.5
  1
41.4
100
AcDbAttributeDefinition
  3

  2
J
 70
     8
280
     0
  0
ATTDEF
  5
155
330
13D
100
AcDbEntity
  8
AM_6
100
AcDbText
 10
89.60300000000001
 20
50.35
 30
0.0
 40
0.5
  1
52.1
100
AcDbAttributeDefinition
  3

  2
L
 70
     8
280
     0
  0
ATTDEF
  5
156
330
13D
100
AcDbEntity
  8
AM_6
100
AcDbText
 10
89.60300000000001
 20
49.85
 30
0.0
 40
0.5
  1
101.98/101.22
100
AcDbAttributeDefinition
  3

  2
M
 70
     8
280
     0
  0
ATTDEF
  5
157
330
13D
100
AcDbEntity
  8
AM_6
100
AcDbText
 10
89.60300000000001
 20
49.35
 30
0.0
 40
0.5
  1
120.7
100
AcDbAttributeDefinition
  3

  2
N
 70
     8
280
     0
  0
ATTDEF
  5
158
330
13D
100
AcDbEntity
  8
AM_6
100
AcDbText
 10
89.60300000000001
 20
48.85
 30
0.0
 40
0.5
  1
9.7
100
AcDbAttributeDefinition
  3

  2
P
 70
     8
280
     0
  0
ATTDEF
  5
159
330
13D
100
AcDbEntity
  8
AM_6
100
AcDbText
 10
89.60300000000001
 20
48.35
 30
0.0
 40
0.5
  1
19.1
100
AcDbAttributeDefinition
  3

  2
R
 70
     8
280
     0
  0
ATTDEF
  5
15A
330
13D
100
AcDbEntity
  8
AM_6
100
AcDbText
 10
89.60300000000001
 20
47.85
 30
0.0
 40
0.5
  1
30.2
100
AcDbAttributeDefinition
  3

  2
S
 70
     8
280
     0
  0
ATTDEF
  5
15B
330
13D
100
AcDbEntity
  8
AM_6
100
AcDbText
 10
89.60300000000001
 20
47.35
 30
0.0
 40
0.5
  1
4005
100
AcDbAttributeDefinition
  3

  2
CAPS
 70
     8
280
     0
  0
ATTDEF
  5
15C
330
13D
100
AcDbEntity
  8
AM_6
100
AcDbText
 10
89.60300000000001
 20
46.85
 30
0.0
 40
0.5
  1
7332
100
AcDbAttributeDefinition
  3

  2
CAPD
 70
     8
280
     0
  0
ATTDEF
  5
15D
330
13D
100
AcDbEntity
  8
AM_6
100
AcDbText
 10
89.60300000000001
 20
46.35
 30
0.0
 40
0.5
  1
baldor
100
AcDbAttributeDefinition
  3

  2
COMPANY
 70
     8
280
     0
  0
LINE
  5
15E
330
13D
100
AcDbEntity
  8
AM_9
100
AcDbLine
 10
38.10000000000002
 20
50.99
 30
0.0
 11
-38.09999999999998
 21
50.99
 31
0.0
  0
LINE
  5
15F
330
13D
100
AcDbEntity
  8
AM_9
100
AcDbLine
 10
38.10000000000002
 20
-50.99
 30
0.0
 11
-38.09999999999998
 21
-50.99
 31
0.0
  0
LINE
  5
160
330
13D
100
AcDbEntity
  8
AM_9
100
AcDbLine
 10
11.66666655
 20
38.26080097973788
 30
0.0
 11
11.66666655
 21
40.08679822099928
 31
0.0
  0
ARC
  5
161
330
13D
100
AcDbEntity
  8
AM_9
100
AcDbCircle
 10
-0.0000000000000133
 20
-0.0000000000001847
 30
0.0
 40
41.75000000000018
100
AcDbArc
 50
73.77314845530182
 51
106.2268515446982
  0
LINE
  5
162
330
13D
100
AcDbEntity
  8
AM_9
100
AcDbLine
 10
-11.66666655
 20
40.08679822099929
 30
0.0
 11
-11.66666655
 21
38.26080097973788
 31
0.0
  0
ARC
  5
163
330
13D
100
AcDbEntity
  8
AM_9
100
AcDbCircle
 10
-0.0000000000000089
 20
0.0000000000002061
 30
0.0
 40
41.75000000000021
100
AcDbArc
 50
253.7731484553019
 51
286.2268515446981
  0
LINE
  5
164
330
13D
100
AcDbEntity
  8
AM_9
100
AcDbLine
 10
-11.66666655
 20
-38.26080097973788
 30
0.0
 11
-11.66666655
 21
-40.08679822099929
 31
0.0
  0
LINE
  5
165
330
13D
100
AcDbEntity
  8
AM_9
100
AcDbLine
 10
11.66666655000003
 20
-40.08679822099928
 30
0.0
 11
11.66666655
 21
-38.26080097973788
 31
0.0
  0
LINE
  5
166
330
13D
100
AcDbEntity
  8
AM_9
100
AcDbLine
 10
53.09999999999999
 20
-11.1
 30
0.0
 11
82.6
 21
-11.1
 31
0.0
  0
LINE
  5
167
330
13D
100
AcDbEntity
  8
AM_9
100
AcDbLine
 10
82.6
 20
11.1
 30
0.0
 11
53.09999999999999
 21
11.1
 31
0.0
  0
LINE
  5
168
330
13D
100
AcDbEntity
  8
AM_9
100
AcDbLine
 10
53.09999999999999
 20
11.1
 30
0.0
 11
53.09999999999999
 21
-11.1
 31
0.0
  0
LINE
  5
169
330
13D
100
AcDbEntity
  8
AM_7
100
AcDbLine
 10
-55.1355
 20
0.0000000000000036
 30
0.0
 11
84.60300000000001
 21
0.0
 31
0.0
  0
LINE
  5
16A
330
13D
100
AcDbEntity
  8
AM_7
100
AcDbLine
 10
0.0000000000000019
 20
-55.13549999999999
 30
0.0
 11
0.0000000000000019
 21
55.13550000000001
 31
0.0
  0
LWPOLYLINE
  5
16B
330
13D
100
AcDbEntity
  8
AM_4
100
AcDbPolyline
 90
       19
 70
     0
 43
0.0
 10
-36.50999999999998
 20
60.35
 10
-36.64857763096877
 20
60.34394956996588
 10
-36.78610060249041
 20
60.32584432728942
 10
-36.921522281713
 20
60.29582206379962
 10
-37.05381202788781
 20
60.25411126704959
 10
-37.18196303616771
 20
60.20102938138827
 10
-37.30499999999999
 20
60.13698039201725
 10
-37.42198653379815
 20
60.06245175041949
 10
-37.53203229940159
 20
59.97801066455917
 10
-37.6342997820866
 20
59.8842997820866
 10
-37.72801066455916
 20
59.78203229940159
 10
-37.81245175041948
 20
59.67198653379815
 10
-37.88698039201724
 20
59.55499999999999
 10
-37.95102938138827
 20
59.4319630361677
 10
-38.00411126704958
 20
59.30381202788779
 10
-38.0458220637996
 20
59.17152228171299
 10
-38.0758443272894
 20
59.0361006024904
 10
-38.09394956996586
 20
58.89857763096876
 10
-38.09999999999998
 20
58.75999999999999
  0
LWPOLYLINE
  5
16C
330
13D
100
AcDbEntity
  8
AM_4
100
AcDbPolyline
 90
       19
 70
     0
 43
0.0
 10
38.09999999999999
 20
58.75999999999999
 10
38.09394956996587
 20
58.89857763096877
 10
38.07584432728941
 20
59.03610060249041
 10
38.04582206379961
 20
59.171522281713
 10
38.00411126704959
 20
59.30381202788781
 10
37.95102938138827
 20
59.43196303616771
 10
37.88698039201725
 20
59.555
 10
37.81245175041949
 20
59.67198653379816
 10
37.72801066455917
 20
59.78203229940159
 10
37.63429978208661
 20
59.88429978208661
 10
37.53203229940159
 20
59.97801066455917
 10
37.42198653379815
 20
60.06245175041949
 10
37.30499999999999
 20
60.13698039201726
 10
37.18196303616771
 20
60.20102938138827
 10
37.05381202788781
 20
60.25411126704959
 10
36.921522281713
 20
60.29582206379962
 10
36.78610060249041
 20
60.32584432728942
 10
36.64857763096877
 20
60.34394956996587
 10
36.50999999999998
 20
60.35
  0
LINE
  5
16D
330
13D
100
AcDbEntity
  8
AM_4
100
AcDbLine
 10
36.50999999999998
 20
60.35
 30
0.0
 11
-36.51
 21
60.35
 31
0.0
  0
LWPOLYLINE
  5
16E
330
13D
100
AcDbEntity
  8
AM_4
100
AcDbPolyline
 90
       19
 70
     0
 43
0.0
 10
36.50999999999999
 20
-60.35
 10
36.64857763096877
 20
-60.34394956996587
 10
36.78610060249041
 20
-60.32584432728941
 10
36.921522281713
 20
-60.29582206379961
 10
37.05381202788782
 20
-60.25411126704959
 10
37.18196303616772
 20
-60.20102938138827
 10
37.305
 20
-60.13698039201725
 10
37.42198653379816
 20
-60.06245175041948
 10
37.5320322994016
 20
-59.97801066455916
 10
37.63429978208661
 20
-59.8842997820866
 10
37.72801066455918
 20
-59.78203229940159
 10
37.8124517504195
 20
-59.67198653379815
 10
37.88698039201726
 20
-59.55499999999999
 10
37.95102938138828
 20
-59.43196303616769
 10
38.00411126704959
 20
-59.30381202788779
 10
38.04582206379963
 20
-59.17152228171299
 10
38.07584432728942
 20
-59.0361006024904
 10
38.09394956996588
 20
-58.89857763096875
 10
38.1
 20
-58.75999999999998
  0
LWPOLYLINE
  5
16F
330
13D
100
AcDbEntity
  8
AM_4
100
AcDbPolyline
 90
       19
 70
     0
 43
0.0
 10
-38.09999999999999
 20
-58.75999999999998
 10
-38.09394956996586
 20
-58.89857763096876
 10
-38.0758443272894
 20
-59.0361006024904
 10
-38.0458220637996
 20
-59.17152228171299
 10
-38.00411126704958
 20
-59.3038120278878
 10
-37.95102938138826
 20
-59.4319630361677
 10
-37.88698039201724
 20
-59.55499999999999
 10
-37.81245175041948
 20
-59.67198653379815
 10
-37.72801066455916
 20
-59.78203229940159
 10
-37.63429978208659
 20
-59.8842997820866
 10
-37.53203229940158
 20
-59.97801066455916
 10
-37.42198653379814
 20
-60.06245175041948
 10
-37.30499999999999
 20
-60.13698039201725
 10
-37.18196303616769
 20
-60.20102938138827
 10
-37.05381202788779
 20
-60.25411126704959
 10
-36.92152228171298
 20
-60.29582206379961
 10
-36.78610060249039
 20
-60.32584432728941
 10
-36.64857763096875
 20
-60.34394956996587
 10
-36.50999999999998
 20
-60.34999999999999
  0
LINE
  5
170
330
13D
100
AcDbEntity
  8
AM_4
100
AcDbLine
 10
36.51
 20
-60.35
 30
0.0
 11
-36.50999999999998
 21
-60.35
 31
0.0
  0
LINE
  5
171
330
13D
100
AcDbEntity
  8
AM_4
100
AcDbLine
 10
-38.10000000000001
 20
58.76000002369283
 30
0.0
 11
-38.09999999999999
 21
37.66538370953317
 31
0.0
  0
LINE
  5
172
330
13D
100
AcDbEntity
  8
AM_4
100
AcDbLine
 10
38.1
 20
58.76000000000001
 30
0.0
 11
38.09999999999999
 21
37.66538370953317
 31
0.0
  0
LINE
  5
173
330
13D
100
AcDbEntity
  8
AM_4
100
AcDbLine
 10
38.1
 20
58.76000000000001
 30
0.0
 11
-38.10000000000001
 21
58.76000002369283
 31
0.0
  0
LINE
  5
174
330
13D
100
AcDbEntity
  8
AM_4
100
AcDbLine
 10
-38.09999999999999
 20
-37.66538370953317
 30
0.0
 11
-38.1
 21
-58.75999999999998
 31
0.0
  0
LINE
  5
175
330
13D
100
AcDbEntity
  8
AM_4
100
AcDbLine
 10
38.10000000000001
 20
-58.75999997630714
 30
0.0
 11
-38.1
 21
-58.75999999999998
 31
0.0
  0
LINE
  5
176
330
13D
100
AcDbEntity
  8
AM_4
100
AcDbLine
 10
38.09999999999999
 20
-37.66538370953317
 30
0.0
 11
38.10000000000001
 21
-58.75999997630714
 31
0.0
  0
ARC
  5
177
330
13D
100
AcDbEntity
  8
AM_4
100
AcDbCircle
 10
-0.0000000000000568
 20
-0.0000000000000355
 30
0.0
 40
54.10000000000007
100
AcDbArc
 50
19.59444584045017
 51
45.23090362429498
  0
ARC
  5
178
330
13D
100
AcDbEntity
  8
AM_4
100
AcDbCircle
 10
0.0
 20
0.0000000000000142
 30
0.0
 40
53.5750980399137
100
AcDbArc
 50
44.67133531433027
 51
135.3286646856697
  0
ARC
  5
179
330
13D
100
AcDbEntity
  8
AM_4
100
AcDbCircle
 10
0.0
 20
-0.0000000000000036
 30
0.0
 40
54.1
100
AcDbArc
 50
134.769096375705
 51
225.230903624295
  0
ARC
  5
17A
330
13D
100
AcDbEntity
  8
AM_4
100
AcDbCircle
 10
0.0000000000000036
 20
-0.0000000000000071
 30
0.0
 40
53.5750980399137
100
AcDbArc
 50
224.6713353143303
 51
315.3286646856697
  0
ARC
  5
17B
330
13D
100
AcDbEntity
  8
AM_4
100
AcDbCircle
 10
0.0000000000001847
 20
-0.0000000000001208
 30
0.0
 40
54.09999999999979
100
AcDbArc
 50
314.769096375705
 51
340.4055541595499
  0
ARC
  5
17C
330
13D
100
AcDbEntity
  8
AM_4
100
AcDbCircle
 10
0.0000000000000023
 20
0.0000000000000009
 30
0.0
 40
52.51000000000001
100
AcDbArc
 50
14.62060267615525
 51
345.3793973238448
  0
CIRCLE
  5
17D
330
13D
100
AcDbEntity
  8
AM_4
100
AcDbCircle
 10
0.0
 20
0.0
 30
0.0
 40
40.0
  0
LINE
  5
17E
330
13D
100
AcDbEntity
  8
AM_4
100
AcDbLine
 10
82.60000000000001
 20
18.05000002649999
 30
0.0
 11
82.60000000000001
 21
-18.05000002649999
 31
0.0
  0
ARC
  5
17F
330
13D
100
AcDbEntity
  8
AM_4
100
AcDbCircle
 10
79.9500000265
 20
-18.05000002649999
 30
0.0
 40
2.649999973500012
100
AcDbArc
 50
270.0
 51
0.0
  0
ARC
  5
180
330
13D
100
AcDbEntity
  8
AM_4
100
AcDbCircle
 10
79.95000002649998
 20
18.05000002649997
 30
0.0
 40
2.64999997350003
100
AcDbArc
 50
0.0
 51
90.0
  0
LINE
  5
181
330
13D
100
AcDbEntity
  8
AM_4
100
AcDbLine
 10
45.18999997350002
 20
-13.25443322062472
 30
0.0
 11
50.80964573779274
 21
-13.25443322062472
 31
0.0
  0
LWPOLYLINE
  5
182
330
13D
100
AcDbEntity
  8
AM_4
100
AcDbPolyline
 90
        5
 70
     0
 43
0.0
 10
50.80964573779274
 20
-13.25443322062472
 10
50.78085814927135
 20
-14.6544920591907
 10
50.78894929089597
 20
-15.93179162367367
 10
50.84760495777616
 20
-17.11529811788591
 10
50.967067187098
 20
-18.14298934425742
  0
LWPOLYLINE
  5
183
330
13D
100
AcDbEntity
  8
AM_4
100
AcDbPolyline
 90
        5
 70
     0
 43
0.0
 10
50.967067187098
 20
18.14298934425742
 10
50.85087263961304
 20
17.15626303274867
 10
50.79140669318624
 20
16.02465836281236
 10
50.78042847042819
 20
14.70597004352331
 10
50.80964573779274
 20
13.25443322062472
  0
LINE
  5
184
330
13D
100
AcDbEntity
  8
AM_4
100
AcDbLine
 10
50.80964573779274
 20
13.25443322062472
 30
0.0
 11
45.18999997350002
 21
13.25443322062472
 31
0.0
  0
LWPOLYLINE
  5
185
330
13D
100
AcDbEntity
  8
AM_4
100
AcDbPolyline
 90
       38
 70
     0
 43
0.0
 10
60.95
 20
0.0
 10
61.01725894383528
 20
-0.80190976750433
 10
61.21489669825903
 20
-1.580926219772472
 10
61.53814785374413
 20
-2.314055190644969
 10
61.97600786208261
 20
-2.983217077107537
 10
62.52753797524225
 20
-3.578999037435926
 10
63.17041298281946
 20
-4.075263441677802
 10
63.8985105999446
 20
-4.461152451580331
 10
64.68286003954353
 20
-4.719586667151196
 10
65.48668811167995
 20
-4.839338162289644
 10
66.29970262559985
 20
-4.824188769727882
 10
67.08120938521154
 20
-4.677234371538312
 10
67.8271551084785
 20
-4.406034744094688
 10
68.52289659397762
 20
-4.013011183543973
 10
69.14436695446231
 20
-3.512507604817449
 10
69.68663491322798
 20
-2.900362369535168
 10
70.11956891721627
 20
-2.205407982532714
 10
70.42972699350064
 20
-1.44326293231178
 10
70.60782025394472
 20
-0.6382510522975104
 10
70.64659405975739
 20
0.1675028487953722
 10
70.55233023466512
 20
0.96843034890888
 10
70.3299126437204
 20
1.731491651297669
 10
69.98747658350925
 20
2.446945006035424
 10
69.52513473513551
 20
3.105116756167323
 10
68.96146053686546
 20
3.677997726187769
 10
68.29513295502093
 20
4.158383846064051
 10
67.55635294739389
 20
4.520810140249291
 10
66.76957839178898
 20
4.751548743027007
 10
65.95399632551516
 20
4.847554551702109
 10
65.15429989941839
 20
4.80632795137499
 10
64.372922996647
 20
4.635294081986711
 10
63.63547963946656
 20
4.339723428084621
 10
62.95704214842625
 20
3.92938807630084
 10
62.34286839408933
 20
3.400958991021256
 10
61.82451197171757
 20
2.778127955473447
 10
61.41209586829008
 20
2.064919406700636
 10
61.12494080933797
 20
1.290860784053249
 10
60.95
 20
0.0000000000000005
  0
LINE
  5
186
330
13D
100
AcDbEntity
  8
AM_4
100
AcDbLine
 10
49.9884652592616
 20
-20.7
 30
0.0
 11
79.95000002649999
 21
-20.7
 31
0.0
  0
LINE
  5
187
330
13D
100
AcDbEntity
  8
AM_4
100
AcDbLine
 10
79.95000002649999
 20
20.7
 30
0.0
 11
49.98380003260581
 21
20.7
 31
0.0
  0
LINE
  5
188
330
13D
100
AcDbEntity
  8
AM_4
100
AcDbLine
 10
79.95000002649999
 20
20.7
 30
0.0
 11
79.95000002649999
 21
-20.7
 31
0.0
  0
LWPOLYLINE
  5
189
330
13D
100
AcDbEntity
  8
AM_4
100
AcDbPolyline
 90
        8
 70
     0
 43
0.0
 10
42.54
 20
8.543564885728323
 10
42.68163405843522
 20
10.22641843536753
 10
42.86710257146238
 20
10.98458565131959
 10
43.16078665892882
 20
11.72280523363849
 10
43.73385987708223
 20
12.56276207183108
 10
44.32934576762009
 20
13.02894447601093
 10
44.90992212267826
 20
13.23124149021696
 10
45.18999997350002
 20
13.25443322062472
  0
LINE
  5
18A
330
13D
100
AcDbEntity
  8
AM_4
100
AcDbLine
 10
42.54
 20
8.543564885728323
 30
0.0
 11
42.54
 21
-8.543564885728323
 31
0.0
  0
LWPOLYLINE
  5
18B
330
13D
100
AcDbEntity
  8
AM_4
100
AcDbPolyline
 90
        9
 70
     0
 43
0.0
 10
45.18999997350002
 20
-13.25443322062472
 10
44.95443406967604
 20
-13.23804328649755
 10
44.4050220192272
 20
-13.06791474075538
 10
43.79695821956668
 20
-12.62755694477595
 10
43.45695773724813
 20
-12.22225093099195
 10
43.17751210638685
 20
-11.75600100320769
 10
42.85845616856965
 20
-10.95663080435024
 10
42.65885931505492
 20
-10.09641871636377
 10
42.54
 20
-8.543564885728323
  0
LINE
  5
18C
330
13D
100
AcDbEntity
  8
AM_4
100
AcDbLine
 10
45.18999997350002
 20
13.25443322062472
 30
0.0
 11
45.18999997350002
 21
-13.25443322062472
 31
0.0
  0
ENDBLK
  5
140
330
13D
100
AcDbEntity
  8
0
100
AcDbBlockEnd
  0
ENDSEC
  0
SECTION
  2
ENTITIES
  0
INSERT
  5
6F
330
1F
100
AcDbEntity
  8
0
100
AcDbBlockReference
  2
1_076412_0
 10
0.0
 20
0.0
 30
0.0
  0
POINT
  5
18E
330
1F
100
AcDbEntity
  8
ConnectionPoints
100
AcDbPoint
 10
0.0
 20
0.0
 30
30.2
  0
POINT
  5
18F
330
1F
100
AcDbEntity
  8
ConnectionPoints
100
AcDbPoint
 10
-46.85197434473814
 20
-27.05
 30
0.0
  0
POINT
  5
190
330
1F
100
AcDbEntity
  8
ConnectionPoints
100
AcDbPoint
 10
0.0
 20
0.0
 30
30.2
  0
ENDSEC
  0
SECTION
  2
OBJECTS
  0
DICTIONARY
  5
C
330
0
100
AcDbDictionary
281
     1
  3
ACAD_DETAILVIEWSTYLE
350
198
  3
ACAD_GROUP
350
D
  3
ACAD_LAYOUT
350
1A
  3
ACAD_MATERIAL
350
43
  3
ACAD_MLEADERSTYLE
350
6B
  3
ACAD_MLINESTYLE
350
17
  3
ACAD_PLOTSETTINGS
350
19
  3
ACAD_PLOTSTYLENAME
350
E
  3
ACAD_SCALELIST
350
47
  3
ACAD_SECTIONVIEWSTYLE
350
199
  3
ACAD_TABLESTYLE
350
69
  3
ACAD_VISUALSTYLE
350
2A
  3
ACDB_RECOMPOSE_DATA
350
195
  3
AcDbVariableDictionary
350
191
  0
SUN
  5
6D
330
29
100
AcDbSun
 90
        1
290
     0
 63
     7
421
 16777215
 40
1.0
291
     1
 91
  2455826
 92
 54000000
292
     0
 70
     2
 71
   256
280
     1
  0
DICTIONARY
  5
198
102
{ACAD_REACTORS
330
C
102
}
330
C
100
AcDbDictionary
281
     1
  0
DICTIONARY
  5
D
102
{ACAD_REACTORS
330
C
102
}
330
C
100
AcDbDictionary
281
     1
  0
DICTIONARY
  5
1A
102
{ACAD_REACTORS
330
C
102
}
330
C
100
AcDbDictionary
281
     1
  3
Layout1
350
1E
  3
Layout2
350
26
  3
Model
350
22
  0
DICTIONARY
  5
43
102
{ACAD_REACTORS
330
C
102
}
330
C
100
AcDbDictionary
281
     1
  3
ByBlock
350
45
  3
ByLayer
350
44
  3
Global
350
46
  0
DICTIONARY
  5
6B
102
{ACAD_REACTORS
330
C
102
}
330
C
100
AcDbDictionary
281
     1
  3
Standard
350
6C
  0
DICTIONARY
  5
17
102
{ACAD_REACTORS
330
C
102
}
330
C
100
AcDbDictionary
281
     1
  3
Standard
350
18
  0
DICTIONARY
  5
19
102
{ACAD_REACTORS
330
C
102
}
330
C
100
AcDbDictionary
281
     1
  0
ACDBDICTIONARYWDFLT
  5
E
102
{ACAD_REACTORS
330
C
102
}
330
C
100
AcDbDictionary
281
     1
  3
Normal
350
F
100
AcDbDictionaryWithDefault
340
F
  0
DICTIONARY
  5
47
102
{ACAD_REACTORS
330
C
102
}
330
C
100
AcDbDictionary
281
     1
  3
A0
350
48
  3
A1
350
49
  3
A2
350
4A
  3
A3
350
4B
  3
A4
350
4C
  3
A5
350
4D
  3
A6
350
4E
  3
A7
350
4F
  3
A8
350
50
  3
A9
350
51
  3
B0
350
52
  3
B1
350
53
  3
B2
350
54
  3
B3
350
55
  3
B4
350
56
  3
B5
350
57
  3
B6
350
58
  3
B7
350
59
  3
B8
350
5A
  3
B9
350
5B
  3
C0
350
5C
  3
C1
350
5D
  3
C2
350
5E
  3
C3
350
5F
  3
C4
350
60
  3
C5
350
61
  3
C6
350
62
  3
C7
350
63
  3
C8
350
64
  3
C9
350
65
  3
D0
350
66
  3
D1
350
67
  3
D2
350
68
  0
DICTIONARY
  5
199
102
{ACAD_REACTORS
330
C
102
}
330
C
100
AcDbDictionary
281
     1
  0
DICTIONARY
  5
69
102
{ACAD_REACTORS
330
C
102
}
330
C
100
AcDbDictionary
281
     1
  3
Standard
350
6A
  0
DICTIONARY
  5
2A
102
{ACAD_REACTORS
330
C
102
}
330
C
100
AcDbDictionary
281
     1
  3
2dWireframe
350
2F
  3
Basic
350
32
  3
Brighten
350
36
  3
ColorChange
350
3A
  3
Conceptual
350
34
  3
Dim
350
35
  3
EdgeColorOff
350
3D
  3
Facepattern
350
39
  3
Flat
350
2B
  3
FlatWithEdges
350
2C
  3
Gouraud
350
2D
  3
GouraudWithEdges
350
2E
  3
Hidden
350
31
  3
JitterOff
350
3B
  3
Linepattern
350
38
  3
OverhangOff
350
3C
  3
Realistic
350
33
  3
Shaded
350
42
  3
Shaded with edges
350
41
  3
Shades of Gray
350
3E
  3
Sketchy
350
3F
  3
Thicken
350
37
  3
Wireframe
350
30
  3
X-Ray
350
40
  0
XRECORD
  5
195
102
{ACAD_REACTORS
330
C
102
}
330
C
100
AcDbXrecord
280
     1
 90
        1
330
6A
  0
DICTIONARY
  5
191
102
{ACAD_REACTORS
330
C
102
}
330
C
100
AcDbDictionary
281
     1
  3
CANNOSCALE
350
192
  3
CMLEADERSTYLE
350
197
  3
CTABLESTYLE
350
196
  0
LAYOUT
  5
1E
102
{ACAD_REACTORS
330
1A
102
}
330
1A
100
AcDbPlotSettings
  1

  2
none_device
  4

  6

 40
0.0
 41
0.0
 42
0.0
 43
0.0
 44
0.0
 45
0.0
 46
0.0
 47
0.0
 48
0.0
 49
0.0
140
0.0
141
0.0
142
1.0
143
1.0
 70
   688
 72
     1
 73
     0
 74
     5
  7

 75
    16
 76
     0
 77
     2
 78
   300
147
1.0
148
0.0
149
0.0
100
AcDbLayout
  1
Layout1
 70
     1
 71
     1
 10
0.0
 20
0.0
 11
420.0
 21
297.0
 12
0.0
 22
0.0
 32
0.0
 14
1.000000000000000E+20
 24
1.000000000000000E+20
 34
1.000000000000000E+20
 15
-1.000000000000000E+20
 25
-1.000000000000000E+20
 35
-1.000000000000000E+20
146
0.0
 13
0.0
 23
0.0
 33
0.0
 16
1.0
 26
0.0
 36
0.0
 17
0.0
 27
1.0
 37
0.0
 76
     0
330
1B
  0
LAYOUT
  5
26
102
{ACAD_REACTORS
330
1A
102
}
330
1A
100
AcDbPlotSettings
  1

  2
none_device
  4

  6

 40
0.0
 41
0.0
 42
0.0
 43
0.0
 44
0.0
 45
0.0
 46
0.0
 47
0.0
 48
0.0
 49
0.0
140
0.0
141
0.0
142
1.0
143
1.0
 70
   688
 72
     1
 73
     0
 74
     5
  7

 75
    16
 76
     0
 77
     2
 78
   300
147
1.0
148
0.0
149
0.0
100
AcDbLayout
  1
Layout2
 70
     1
 71
     2
 10
0.0
 20
0.0
 11
0.0
 21
0.0
 12
0.0
 22
0.0
 32
0.0
 14
0.0
 24
0.0
 34
0.0
 15
0.0
 25
0.0
 35
0.0
146
0.0
 13
0.0
 23
0.0
 33
0.0
 16
1.0
 26
0.0
 36
0.0
 17
0.0
 27
1.0
 37
0.0
 76
     0
330
23
  0
LAYOUT
  5
22
102
{ACAD_REACTORS
330
1A
102
}
330
1A
100
AcDbPlotSettings
  1

  2
none_device
  4
Letter_(8.50_x_11.00_Inches)
  6

 40
6.35
 41
6.35
 42
6.35000508
 43
6.35000508
 44
215.9
 45
279.4
 46
0.0
 47
0.0
 48
0.0
 49
0.0
140
0.0
141
0.0
142
1.0
143
1.0
 70
  1712
 72
     1
 73
     0
 74
     0
  7

 75
     0
 76
     0
 77
     2
 78
   300
147
1.0
148
0.0
149
0.0
100
AcDbLayout
  1
Model
 70
     1
 71
     0
 10
0.0
 20
0.0
 11
420.0
 21
297.0
 12
0.0
 22
0.0
 32
0.0
 14
1.000000000000000E+20
 24
1.000000000000000E+20
 34
1.000000000000000E+20
 15
-1.000000000000000E+20
 25
-1.000000000000000E+20
 35
-1.000000000000000E+20
146
0.0
 13
0.0
 23
0.0
 33
0.0
 16
1.0
 26
0.0
 36
0.0
 17
0.0
 27
1.0
 37
0.0
 76
     0
330
1F
331
29
  0
MATERIAL
  5
45
102
{ACAD_REACTORS
330
43
102
}
330
43
100
AcDbMaterial
  1
ByBlock
 72
     1
 94
      127
  0
MATERIAL
  5
44
102
{ACAD_REACTORS
330
43
102
}
330
43
100
AcDbMaterial
  1
ByLayer
 72
     1
 94
      127
  0
MATERIAL
  5
46
102
{ACAD_REACTORS
330
43
102
}
330
43
100
AcDbMaterial
  1
Global
 72
     1
 94
      127
  0
MLEADERSTYLE
  5
6C
102
{ACAD_REACTORS
330
6B
102
}
330
6B
100
AcDbMLeaderStyle
179
     2
170
     2
171
     1
172
     0
 90
        2
 40
0.0
 41
0.0
173
     1
 91
-1056964608
340
14
 92
       -2
290
     1
 42
2.0
291
     1
 43
8.0
  3
Standard
341
0
 44
4.0
300

342
11
174
     1
178
     6
175
     1
176
     0
 93
-1056964608
 45
4.0
292
     0
297
     0
 46
4.0
343
0
 94
-1056964608
 47
1.0
 49
1.0
140
1.0
293
     1
141
0.0
294
     1
177
     0
142
1.0
295
     0
296
     0
143
3.75
271
     0
272
     9
273
     9
298
     0
  0
MLINESTYLE
  5
18
102
{ACAD_REACTORS
330
17
102
}
330
17
100
AcDbMlineStyle
  2
Standard
 70
     0
  3

 62
   256
 51
90.0
 52
90.0
 71
     2
 49
0.5
 62
   256
  6
BYLAYER
 49
-0.5
 62
   256
  6
BYLAYER
  0
ACDBPLACEHOLDER
  5
F
102
{ACAD_REACTORS
330
E
102
}
330
E
  0
SCALE
  5
48
102
{ACAD_REACTORS
330
47
102
}
330
47
100
AcDbScale
 70
     0
300
1:1
140
1.0
141
1.0
290
     1
  0
SCALE
  5
49
102
{ACAD_REACTORS
330
47
102
}
330
47
100
AcDbScale
 70
     0
300
1:2
140
1.0
141
2.0
290
     0
  0
SCALE
  5
4A
102
{ACAD_REACTORS
330
47
102
}
330
47
100
AcDbScale
 70
     0
300
1:4
140
1.0
141
4.0
290
     0
  0
SCALE
  5
4B
102
{ACAD_REACTORS
330
47
102
}
330
47
100
AcDbScale
 70
     0
300
1:5
140
1.0
141
5.0
290
     0
  0
SCALE
  5
4C
102
{ACAD_REACTORS
330
47
102
}
330
47
100
AcDbScale
 70
     0
300
1:8
140
1.0
141
8.0
290
     0
  0
SCALE
  5
4D
102
{ACAD_REACTORS
330
47
102
}
330
47
100
AcDbScale
 70
     0
300
1:10
140
1.0
141
10.0
290
     0
  0
SCALE
  5
4E
102
{ACAD_REACTORS
330
47
102
}
330
47
100
AcDbScale
 70
     0
300
1:16
140
1.0
141
16.0
290
     0
  0
SCALE
  5
4F
102
{ACAD_REACTORS
330
47
102
}
330
47
100
AcDbScale
 70
     0
300
1:20
140
1.0
141
20.0
290
     0
  0
SCALE
  5
50
102
{ACAD_REACTORS
330
47
102
}
330
47
100
AcDbScale
 70
     0
300
1:30
140
1.0
141
30.0
290
     0
  0
SCALE
  5
51
102
{ACAD_REACTORS
330
47
102
}
330
47
100
AcDbScale
 70
     0
300
1:40
140
1.0
141
40.0
290
     0
  0
SCALE
  5
52
102
{ACAD_REACTORS
330
47
102
}
330
47
100
AcDbScale
 70
     0
300
1:50
140
1.0
141
50.0
290
     0
  0
SCALE
  5
53
102
{ACAD_REACTORS
330
47
102
}
330
47
100
AcDbScale
 70
     0
300
1:100
140
1.0
141
100.0
290
     0
  0
SCALE
  5
54
102
{ACAD_REACTORS
330
47
102
}
330
47
100
AcDbScale
 70
     0
300
2:1
140
2.0
141
1.0
290
     0
  0
SCALE
  5
55
102
{ACAD_REACTORS
330
47
102
}
330
47
100
AcDbScale
 70
     0
300
4:1
140
4.0
141
1.0
290
     0
  0
SCALE
  5
56
102
{ACAD_REACTORS
330
47
102
}
330
47
100
AcDbScale
 70
     0
300
8:1
140
8.0
141
1.0
290
     0
  0
SCALE
  5
57
102
{ACAD_REACTORS
330
47
102
}
330
47
100
AcDbScale
 70
     0
300
10:1
140
10.0
141
1.0
290
     0
  0
SCALE
  5
58
102
{ACAD_REACTORS
330
47
102
}
330
47
100
AcDbScale
 70
     0
300
100:1
140
100.0
141
1.0
290
     0
  0
SCALE
  5
59
102
{ACAD_REACTORS
330
47
102
}
330
47
100
AcDbScale
 70
     0
300
1/128" = 1'-0"
140
0.0078125
141
12.0
290
     0
  0
SCALE
  5
5A
102
{ACAD_REACTORS
330
47
102
}
330
47
100
AcDbScale
 70
     0
300
1/64" = 1'-0"
140
0.015625
141
12.0
290
     0
  0
SCALE
  5
5B
102
{ACAD_REACTORS
330
47
102
}
330
47
100
AcDbScale
 70
     0
300
1/32" = 1'-0"
140
0.03125
141
12.0
290
     0
  0
SCALE
  5
5C
102
{ACAD_REACTORS
330
47
102
}
330
47
100
AcDbScale
 70
     0
300
1/16" = 1'-0"
140
0.0625
141
12.0
290
     0
  0
SCALE
  5
5D
102
{ACAD_REACTORS
330
47
102
}
330
47
100
AcDbScale
 70
     0
300
3/32" = 1'-0"
140
0.09375
141
12.0
290
     0
  0
SCALE
  5
5E
102
{ACAD_REACTORS
330
47
102
}
330
47
100
AcDbScale
 70
     0
300
1/8" = 1'-0"
140
0.125
141
12.0
290
     0
  0
SCALE
  5
5F
102
{ACAD_REACTORS
330
47
102
}
330
47
100
AcDbScale
 70
     0
300
3/16" = 1'-0"
140
0.1875
141
12.0
290
     0
  0
SCALE
  5
60
102
{ACAD_REACTORS
330
47
102
}
330
47
100
AcDbScale
 70
     0
300
1/4" = 1'-0"
140
0.25
141
12.0
290
     0
  0
SCALE
  5
61
102
{ACAD_REACTORS
330
47
102
}
330
47
100
AcDbScale
 70
     0
300
3/8" = 1'-0"
140
0.375
141
12.0
290
     0
  0
SCALE
  5
62
102
{ACAD_REACTORS
330
47
102
}
330
47
100
AcDbScale
 70
     0
300
1/2" = 1'-0"
140
0.5
141
12.0
290
     0
  0
SCALE
  5
63
102
{ACAD_REACTORS
330
47
102
}
330
47
100
AcDbScale
 70
     0
300
3/4" = 1'-0"
140
0.75
141
12.0
290
     0
  0
SCALE
  5
64
102
{ACAD_REACTORS
330
47
102
}
330
47
100
AcDbScale
 70
     0
300
1" = 1'-0"
140
1.0
141
12.0
290
     0
  0
SCALE
  5
65
102
{ACAD_REACTORS
330
47
102
}
330
47
100
AcDbScale
 70
     0
300
1-1/2" = 1'-0"
140
1.5
141
12.0
290
     0
  0
SCALE
  5
66
102
{ACAD_REACTORS
330
47
102
}
330
47
100
AcDbScale
 70
     0
300
3" = 1'-0"
140
3.0
141
12.0
290
     0
  0
SCALE
  5
67
102
{ACAD_REACTORS
330
47
102
}
330
47
100
AcDbScale
 70
     0
300
6" = 1'-0"
140
6.0
141
12.0
290
     0
  0
SCALE
  5
68
102
{ACAD_REACTORS
330
47
102
}
330
47
100
AcDbScale
 70
     0
300
1'-0" = 1'-0"
140
12.0
141
12.0
290
     0
  0
TABLESTYLE
  5
6A
102
{ACAD_REACTORS
330
69
102
}
102
{ACAD_XDICTIONARY
360
193
102
}
330
69
100
AcDbTableStyle
  3
Standard
 70
     0
 71
     0
 40
0.06
 41
0.06
280
     0
281
     0
  7
Standard
140
4.5
170
     2
 62
     0
 63
   257
283
     0
 90
        4
 91
        0
  1

274
    -2
284
     1
 64
     0
275
    -2
285
     1
 65
     0
276
    -2
286
     1
 66
     0
277
    -2
287
     1
 67
     0
278
    -2
288
     1
 68
     0
279
    -2
289
     1
 69
     0
  7
Standard
140
6.0
170
     5
 62
     0
 63
   257
283
     0
 90
        4
 91
        0
  1

274
    -2
284
     1
 64
     0
275
    -2
285
     1
 65
     0
276
    -2
286
     1
 66
     0
277
    -2
287
     1
 67
     0
278
    -2
288
     1
 68
     0
279
    -2
289
     1
 69
     0
  7
Standard
140
4.5
170
     5
 62
     0
 63
   257
283
     0
 90
        4
 91
        0
  1

274
    -2
284
     1
 64
     0
275
    -2
285
     1
 65
     0
276
    -2
286
     1
 66
     0
277
    -2
287
     1
 67
     0
278
    -2
288
     1
 68
     0
279
    -2
289
     1
 69
     0
  0
VISUALSTYLE
  5
2F
102
{ACAD_REACTORS
330
2A
102
}
330
2A
100
AcDbVisualStyle
  2
2dWireframe
 70
     4
177
     3
291
     0
 70
    58
 90
        0
176
     1
 90
        2
176
     1
 90
        0
176
     1
 90
        0
176
     1
 40
0.6
176
     1
 40
30.0
176
     1
 62
     7
420
 16777215
176
     1
 90
        1
176
     1
 90
        4
176
     1
 62
     7
176
     1
 62
   257
176
     1
 90
        1
176
     1
 90
        1
176
     1
 40
1.0
176
     1
 90
        0
176
     1
 62
   257
176
     1
 40
1.0
176
     1
 90
        1
176
     1
 90
        6
176
     1
 90
        2
176
     1
 62
     7
176
     1
 90
        5
176
     1
 90
        0
176
     1
 90
        0
176
     1
290
     0
176
     1
 90
        1
176
     1
 40
0.0
176
     1
 90
        0
176
     1
290
     1
176
     1
290
     1
176
     1
290
     0
176
     1
290
     0
176
     1
290
     0
176
     1
290
     0
176
     1
290
     0
176
     1
290
     0
176
     1
290
     0
176
     1
 90
       50
176
     1
 40
0.0
176
     1
 40
1.0
176
     1
 90
        0
176
     1
 62
    18
420
        0
176
     1
 90
       50
176
     1
 90
        3
176
     1
 62
     5
420
      255
176
     1
290
     0
176
     1
 90
       50
176
     1
 90
       50
176
     1
 90
       50
176
     1
290
     0
176
     1
 90
       50
176
     1
 62
   256
176
     0
 40
1.0
176
     0
 90
        2
176
     1
  1
strokes_ogs.tif
176
     1
290
     0
176
     1
 40
1.0
176
     1
 40
1.0
176
     1
  0
VISUALSTYLE
  5
32
102
{ACAD_REACTORS
330
2A
102
}
330
2A
100
AcDbVisualStyle
  2
Basic
 70
     7
177
     3
291
     1
 70
    58
 90
        1
176
     1
 90
        0
176
     1
 90
        1
176
     1
 90
        0
176
     1
 40
0.6
176
     1
 40
30.0
176
     1
 62
     7
420
 16777215
176
     1
 90
        0
176
     1
 90
        4
176
     1
 62
     7
176
     1
 62
   257
176
     1
 90
        1
176
     1
 90
        1
176
     1
 40
1.0
176
     1
 90
        8
176
     1
 62
     7
176
     1
 40
1.0
176
     1
 90
        1
176
     1
 90
        6
176
     1
 90
        2
176
     1
 62
     7
176
     1
 90
        5
176
     1
 90
        0
176
     1
 90
        0
176
     1
290
     0
176
     1
 90
        1
176
     1
 40
0.0
176
     1
 90
        0
176
     1
290
     0
176
     1
290
     1
176
     1
290
     1
176
     1
290
     0
176
     1
290
     0
176
     1
290
     0
176
     1
290
     0
176
     1
290
     0
176
     1
290
     0
176
     1
 90
       50
176
     1
 40
0.0
176
     1
 40
1.0
176
     1
 90
        0
176
     1
 62
    18
420
        0
176
     1
 90
       50
176
     1
 90
        3
176
     1
 62
     5
420
      255
176
     1
290
     0
176
     1
 90
       50
176
     1
 90
       50
176
     1
 90
       50
176
     1
290
     0
176
     1
 90
       50
176
     1
 62
   256
176
     0
 40
1.0
176
     0
 90
        2
176
     1
  1
strokes_ogs.tif
176
     1
290
     0
176
     1
 40
1.0
176
     1
 40
1.0
176
     1
  0
VISUALSTYLE
  5
36
102
{ACAD_REACTORS
330
2A
102
}
330
2A
100
AcDbVisualStyle
  2
Brighten
 70
    12
177
     3
291
     1
 70
    58
 90
        2
176
     1
 90
        2
176
     1
 90
        0
176
     1
 90
        0
176
     1
 40
0.6
176
     1
 40
30.0
176
     1
 62
     7
420
 16777215
176
     1
 90
        1
176
     1
 90
        4
176
     1
 62
     7
176
     1
 62
   257
176
     1
 90
        1
176
     1
 90
        1
176
     1
 40
1.0
176
     1
 90
        8
176
     1
 62
     7
176
     1
 40
1.0
176
     1
 90
        1
176
     1
 90
        6
176
     1
 90
        2
176
     1
 62
     7
176
     1
 90
        5
176
     1
 90
        0
176
     1
 90
        0
176
     1
290
     0
176
     1
 90
        1
176
     1
 40
50.0
176
     1
 90
        0
176
     1
290
     0
176
     1
290
     1
176
     1
290
     1
176
     1
290
     0
176
     1
290
     0
176
     1
290
     0
176
     1
290
     0
176
     1
290
     0
176
     1
290
     0
176
     1
 90
       50
176
     1
 40
0.0
176
     1
 40
1.0
176
     1
 90
        0
176
     1
 62
    18
420
        0
176
     1
 90
       50
176
     1
 90
        3
176
     1
 62
     5
420
      255
176
     1
290
     0
176
     1
 90
       50
176
     1
 90
       50
176
     1
 90
       50
176
     1
290
     0
176
     1
 90
       50
176
     1
 62
   256
176
     0
 40
1.0
176
     0
 90
        2
176
     1
  1
strokes_ogs.tif
176
     1
290
     0
176
     1
 40
1.0
176
     1
 40
1.0
176
     1
  0
VISUALSTYLE
  5
3A
102
{ACAD_REACTORS
330
2A
102
}
330
2A
100
AcDbVisualStyle
  2
ColorChange
 70
    16
177
     3
291
     1
 70
    58
 90
        2
176
     1
 90
        2
176
     1
 90
        3
176
     1
 90
        0
176
     1
 40
0.6
176
     1
 40
30.0
176
     1
 62
     8
420
  8421504
176
     1
 90
        1
176
     1
 90
        4
176
     1
 62
     7
176
     1
 62
   257
176
     1
 90
        1
176
     1
 90
        1
176
     1
 40
1.0
176
     1
 90
        8
176
     1
 62
     8
420
  8421504
176
     1
 40
1.0
176
     1
 90
        1
176
     1
 90
        6
176
     1
 90
        2
176
     1
 62
     7
176
     1
 90
        5
176
     1
 90
        0
176
     1
 90
        0
176
     1
290
     0
176
     1
 90
        1
176
     1
 40
0.0
176
     1
 90
        0
176
     1
290
     0
176
     1
290
     1
176
     1
290
     1
176
     1
290
     0
176
     1
290
     0
176
     1
290
     0
176
     1
290
     0
176
     1
290
     0
176
     1
290
     0
176
     1
 90
       50
176
     1
 40
0.0
176
     1
 40
1.0
176
     1
 90
        0
176
     1
 62
    18
420
        0
176
     1
 90
       50
176
     1
 90
        3
176
     1
 62
     5
420
      255
176
     1
290
     0
176
     1
 90
       50
176
     1
 90
       50
176
     1
 90
       50
176
     1
290
     0
176
     1
 90
       50
176
     1
 62
   256
176
     0
 40
1.0
176
     0
 90
        2
176
     1
  1
strokes_ogs.tif
176
     1
290
     0
176
     1
 40
1.0
176
     1
 40
1.0
176
     1
  0
VISUALSTYLE
  5
34
102
{ACAD_REACTORS
330
2A
102
}
330
2A
100
AcDbVisualStyle
  2
Conceptual
 70
     9
177
     3
291
     0
 70
    58
 90
        3
176
     1
 90
        2
176
     1
 90
        0
176
     1
 90
        0
176
     1
 40
0.6
176
     1
 40
30.0
176
     1
 62
     7
420
 16777215
176
     1
 90
        2
176
     1
 90
        2
176
     1
 62
     7
176
     1
 62
   257
176
     1
 90
        1
176
     1
 90
        1
176
     1
 40
179.0
176
     1
 90
        8
176
     1
 62
     7
176
     1
 40
1.0
176
     1
 90
        1
176
     1
 90
        6
176
     1
 90
        2
176
     1
 62
     7
176
     1
 90
        3
176
     1
 90
        0
176
     1
 90
        0
176
     1
290
     0
176
     1
 90
        1
176
     1
 40
0.0
176
     1
 90
        0
176
     1
290
     0
176
     1
290
     1
176
     1
290
     1
176
     1
290
     0
176
     1
290
     0
176
     1
290
     0
176
     1
290
     0
176
     1
290
     0
176
     1
290
     0
176
     1
 90
       50
176
     1
 40
0.0
176
     1
 40
1.0
176
     1
 90
        0
176
     1
 62
    18
420
        0
176
     1
 90
       50
176
     1
 90
        3
176
     1
 62
     5
420
      255
176
     1
290
     0
176
     1
 90
       50
176
     1
 90
       50
176
     1
 90
       50
176
     1
290
     0
176
     1
 90
       50
176
     1
 62
   256
176
     0
 40
1.0
176
     0
 90
        2
176
     1
  1
strokes_ogs.tif
176
     1
290
     0
176
     1
 40
1.0
176
     1
 40
1.0
176
     1
  0
VISUALSTYLE
  5
35
102
{ACAD_REACTORS
330
2A
102
}
330
2A
100
AcDbVisualStyle
  2
Dim
 70
    11
177
     3
291
     1
 70
    58
 90
        2
176
     1
 90
        2
176
     1
 90
        0
176
     1
 90
        0
176
     1
 40
0.6
176
     1
 40
30.0
176
     1
 62
     7
420
 16777215
176
     1
 90
        1
176
     1
 90
        4
176
     1
 62
     7
176
     1
 62
   257
176
     1
 90
        1
176
     1
 90
        1
176
     1
 40
1.0
176
     1
 90
        8
176
     1
 62
     7
176
     1
 40
1.0
176
     1
 90
        1
176
     1
 90
        6
176
     1
 90
        2
176
     1
 62
     7
176
     1
 90
        5
176
     1
 90
        0
176
     1
 90
        0
176
     1
290
     0
176
     1
 90
        1
176
     1
 40
-50.0
176
     1
 90
        0
176
     1
290
     0
176
     1
290
     1
176
     1
290
     1
176
     1
290
     0
176
     1
290
     0
176
     1
290
     0
176
     1
290
     0
176
     1
290
     0
176
     1
290
     0
176
     1
 90
       50
176
     1
 40
0.0
176
     1
 40
1.0
176
     1
 90
        0
176
     1
 62
    18
420
        0
176
     1
 90
       50
176
     1
 90
        3
176
     1
 62
     5
420
      255
176
     1
290
     0
176
     1
 90
       50
176
     1
 90
       50
176
     1
 90
       50
176
     1
290
     0
176
     1
 90
       50
176
     1
 62
   256
176
     0
 40
1.0
176
     0
 90
        2
176
     1
  1
strokes_ogs.tif
176
     1
290
     0
176
     1
 40
1.0
176
     1
 40
1.0
176
     1
  0
VISUALSTYLE
  5
3D
102
{ACAD_REACTORS
330
2A
102
}
330
2A
100
AcDbVisualStyle
  2
EdgeColorOff
 70
    22
177
     3
291
     1
 70
    58
 90
        2
176
     0
 90
        2
176
     0
 90
        0
176
     0
 90
        0
176
     0
 40
0.6
176
     0
 40
30.0
176
     0
 62
     7
420
 16777215
176
     0
 90
        1
176
     0
 90
        4
176
     0
 62
     7
176
     0
 62
   257
176
     0
 90
        1
176
     0
 90
        1
176
     0
 40
1.0
176
     0
 90
        8
176
     2
 62
     7
176
     0
 40
1.0
176
     0
 90
        1
176
     0
 90
        6
176
     0
 90
        2
176
     0
 62
     7
176
     0
 90
        5
176
     0
 90
        0
176
     0
 90
        0
176
     0
290
     0
176
     0
 90
        1
176
     0
 40
0.0
176
     0
 90
        0
176
     0
290
     0
176
     0
290
     1
176
     0
290
     1
176
     0
290
     0
176
     0
290
     0
176
     0
290
     0
176
     0
290
     0
176
     0
290
     0
176
     0
290
     0
176
     0
 90
       50
176
     0
 40
0.0
176
     0
 40
1.0
176
     0
 90
        0
176
     0
 62
    18
420
        0
176
     0
 90
       50
176
     0
 90
        3
176
     0
 62
     5
420
      255
176
     0
290
     0
176
     0
 90
       50
176
     0
 90
       50
176
     0
 90
       50
176
     0
290
     0
176
     0
 90
       50
176
     0
 62
   256
176
     0
 40
1.0
176
     0
 90
        2
176
     0
  1
strokes_ogs.tif
176
     0
290
     0
176
     0
 40
1.0
176
     0
 40
1.0
176
     0
  0
VISUALSTYLE
  5
39
102
{ACAD_REACTORS
330
2A
102
}
330
2A
100
AcDbVisualStyle
  2
Facepattern
 70
    15
177
     3
291
     1
 70
    58
 90
        2
176
     1
 90
        2
176
     1
 90
        0
176
     1
 90
        0
176
     1
 40
0.6
176
     1
 40
30.0
176
     1
 62
     7
420
 16777215
176
     1
 90
        1
176
     1
 90
        4
176
     1
 62
     7
176
     1
 62
   257
176
     1
 90
        1
176
     1
 90
        1
176
     1
 40
1.0
176
     1
 90
        8
176
     1
 62
     7
176
     1
 40
1.0
176
     1
 90
        1
176
     1
 90
        6
176
     1
 90
        2
176
     1
 62
     7
176
     1
 90
        5
176
     1
 90
        0
176
     1
 90
        0
176
     1
290
     0
176
     1
 90
        1
176
     1
 40
0.0
176
     1
 90
        0
176
     1
290
     0
176
     1
290
     1
176
     1
290
     1
176
     1
290
     0
176
     1
290
     0
176
     1
290
     0
176
     1
290
     0
176
     1
290
     0
176
     1
290
     0
176
     1
 90
       50
176
     1
 40
0.0
176
     1
 40
1.0
176
     1
 90
        0
176
     1
 62
    18
420
        0
176
     1
 90
       50
176
     1
 90
        3
176
     1
 62
     5
420
      255
176
     1
290
     0
176
     1
 90
       50
176
     1
 90
       50
176
     1
 90
       50
176
     1
290
     0
176
     1
 90
       50
176
     1
 62
   256
176
     0
 40
1.0
176
     0
 90
        2
176
     1
  1
strokes_ogs.tif
176
     1
290
     0
176
     1
 40
1.0
176
     1
 40
1.0
176
     1
  0
VISUALSTYLE
  5
2B
102
{ACAD_REACTORS
330
2A
102
}
330
2A
100
AcDbVisualStyle
  2
Flat
 70
     0
177
     3
291
     1
 70
    58
 90
        2
176
     1
 90
        1
176
     1
 90
        1
176
     1
 90
        2
176
     1
 40
0.6
176
     1
 40
30.0
176
     1
 62
     7
420
 16777215
176
     1
 90
        0
176
     1
 90
        0
176
     1
 62
     7
176
     1
 62
   257
176
     1
 90
        1
176
     1
 90
        1
176
     1
 40
1.0
176
     1
 90
        8
176
     1
 62
     7
176
     1
 40
1.0
176
     1
 90
        1
176
     1
 90
        6
176
     1
 90
        2
176
     1
 62
     7
176
     1
 90
        5
176
     1
 90
        0
176
     1
 90
        0
176
     1
290
     0
176
     1
 90
       13
176
     1
 40
0.0
176
     1
 90
        0
176
     1
290
     0
176
     1
290
     1
176
     1
290
     1
176
     1
290
     0
176
     1
290
     0
176
     1
290
     0
176
     1
290
     0
176
     1
290
     0
176
     1
290
     0
176
     1
 90
       50
176
     1
 40
0.0
176
     1
 40
1.0
176
     1
 90
        0
176
     1
 62
    18
420
        0
176
     1
 90
       50
176
     1
 90
        3
176
     1
 62
     5
420
      255
176
     1
290
     0
176
     1
 90
       50
176
     1
 90
       50
176
     1
 90
       50
176
     1
290
     0
176
     1
 90
       50
176
     1
 62
   256
176
     0
 40
1.0
176
     0
 90
        2
176
     1
  1
strokes_ogs.tif
176
     1
290
     0
176
     1
 40
1.0
176
     1
 40
1.0
176
     1
  0
VISUALSTYLE
  5
2C
102
{ACAD_REACTORS
330
2A
102
}
330
2A
100
AcDbVisualStyle
  2
FlatWithEdges
 70
     1
177
     3
291
     1
 70
    58
 90
        2
176
     1
 90
        1
176
     1
 90
        1
176
     1
 90
        2
176
     1
 40
0.6
176
     1
 40
30.0
176
     1
 62
     7
420
 16777215
176
     1
 90
        1
176
     1
 90
        0
176
     1
 62
     7
176
     1
 62
   257
176
     1
 90
        1
176
     1
 90
        1
176
     1
 40
1.0
176
     1
 90
        0
176
     1
 62
   257
176
     1
 40
1.0
176
     1
 90
        1
176
     1
 90
        6
176
     1
 90
        2
176
     1
 62
     7
176
     1
 90
        5
176
     1
 90
        0
176
     1
 90
        0
176
     1
290
     0
176
     1
 90
       13
176
     1
 40
0.0
176
     1
 90
        0
176
     1
290
     0
176
     1
290
     1
176
     1
290
     1
176
     1
290
     0
176
     1
290
     0
176
     1
290
     0
176
     1
290
     0
176
     1
290
     0
176
     1
290
     0
176
     1
 90
       50
176
     1
 40
0.0
176
     1
 40
1.0
176
     1
 90
        0
176
     1
 62
    18
420
        0
176
     1
 90
       50
176
     1
 90
        3
176
     1
 62
     5
420
      255
176
     1
290
     0
176
     1
 90
       50
176
     1
 90
       50
176
     1
 90
       50
176
     1
290
     0
176
     1
 90
       50
176
     1
 62
   256
176
     0
 40
1.0
176
     0
 90
        2
176
     1
  1
strokes_ogs.tif
176
     1
290
     0
176
     1
 40
1.0
176
     1
 40
1.0
176
     1
  0
VISUALSTYLE
  5
2D
102
{ACAD_REACTORS
330
2A
102
}
330
2A
100
AcDbVisualStyle
  2
Gouraud
 70
     2
177
     3
291
     1
 70
    58
 90
        2
176
     1
 90
        2
176
     1
 90
        1
176
     1
 90
        2
176
     1
 40
0.6
176
     1
 40
30.0
176
     1
 62
     7
420
 16777215
176
     1
 90
        0
176
     1
 90
        0
176
     1
 62
     7
176
     1
 62
   257
176
     1
 90
        1
176
     1
 90
        1
176
     1
 40
1.0
176
     1
 90
        0
176
     1
 62
     7
176
     1
 40
1.0
176
     1
 90
        1
176
     1
 90
        6
176
     1
 90
        2
176
     1
 62
     7
176
     1
 90
        5
176
     1
 90
        0
176
     1
 90
        0
176
     1
290
     0
176
     1
 90
       13
176
     1
 40
0.0
176
     1
 90
        0
176
     1
290
     0
176
     1
290
     1
176
     1
290
     1
176
     1
290
     0
176
     1
290
     0
176
     1
290
     0
176
     1
290
     0
176
     1
290
     0
176
     1
290
     0
176
     1
 90
       50
176
     1
 40
0.0
176
     1
 40
1.0
176
     1
 90
        0
176
     1
 62
    18
420
        0
176
     1
 90
       50
176
     1
 90
        3
176
     1
 62
     5
420
      255
176
     1
290
     0
176
     1
 90
       50
176
     1
 90
       50
176
     1
 90
       50
176
     1
290
     0
176
     1
 90
       50
176
     1
 62
   256
176
     0
 40
1.0
176
     0
 90
        2
176
     1
  1
strokes_ogs.tif
176
     1
290
     0
176
     1
 40
1.0
176
     1
 40
1.0
176
     1
  0
VISUALSTYLE
  5
2E
102
{ACAD_REACTORS
330
2A
102
}
330
2A
100
AcDbVisualStyle
  2
GouraudWithEdges
 70
     3
177
     3
291
     1
 70
    58
 90
        2
176
     1
 90
        2
176
     1
 90
        1
176
     1
 90
        2
176
     1
 40
0.6
176
     1
 40
30.0
176
     1
 62
     7
420
 16777215
176
     1
 90
        1
176
     1
 90
        0
176
     1
 62
     7
176
     1
 62
   257
176
     1
 90
        1
176
     1
 90
        1
176
     1
 40
1.0
176
     1
 90
        0
176
     1
 62
   257
176
     1
 40
1.0
176
     1
 90
        1
176
     1
 90
        6
176
     1
 90
        2
176
     1
 62
     7
176
     1
 90
        5
176
     1
 90
        0
176
     1
 90
        0
176
     1
290
     0
176
     1
 90
       13
176
     1
 40
0.0
176
     1
 90
        0
176
     1
290
     0
176
     1
290
     1
176
     1
290
     1
176
     1
290
     0
176
     1
290
     0
176
     1
290
     0
176
     1
290
     0
176
     1
290
     0
176
     1
290
     0
176
     1
 90
       50
176
     1
 40
0.0
176
     1
 40
1.0
176
     1
 90
        0
176
     1
 62
    18
420
        0
176
     1
 90
       50
176
     1
 90
        3
176
     1
 62
     5
420
      255
176
     1
290
     0
176
     1
 90
       50
176
     1
 90
       50
176
     1
 90
       50
176
     1
290
     0
176
     1
 90
       50
176
     1
 62
   256
176
     0
 40
1.0
176
     0
 90
        2
176
     1
  1
strokes_ogs.tif
176
     1
290
     0
176
     1
 40
1.0
176
     1
 40
1.0
176
     1
  0
VISUALSTYLE
  5
31
102
{ACAD_REACTORS
330
2A
102
}
330
2A
100
AcDbVisualStyle
  2
Hidden
 70
     6
177
     3
291
     0
 70
    58
 90
        1
176
     1
 90
        2
176
     1
 90
        2
176
     1
 90
        0
176
     1
 40
0.6
176
     1
 40
30.0
176
     1
 62
     7
420
 16777215
176
     1
 90
        2
176
     1
 90
        2
176
     1
 62
     7
176
     1
 62
   257
176
     1
 90
        2
176
     1
 90
        1
176
     1
 40
40.0
176
     1
 90
        0
176
     1
 62
   257
176
     1
 40
1.0
176
     1
 90
        1
176
     1
 90
        6
176
     1
 90
        2
176
     1
 62
     7
176
     1
 90
        3
176
     1
 90
        0
176
     1
 90
        0
176
     1
290
     0
176
     1
 90
        1
176
     1
 40
0.0
176
     1
 90
        0
176
     1
290
     0
176
     1
290
     1
176
     1
290
     1
176
     1
290
     0
176
     1
290
     0
176
     1
290
     0
176
     1
290
     0
176
     1
290
     0
176
     1
290
     0
176
     1
 90
       50
176
     1
 40
0.0
176
     1
 40
1.0
176
     1
 90
        0
176
     1
 62
    18
420
        0
176
     1
 90
       50
176
     1
 90
        3
176
     1
 62
     5
420
      255
176
     1
290
     0
176
     1
 90
       50
176
     1
 90
       50
176
     1
 90
       50
176
     1
290
     0
176
     1
 90
       50
176
     1
 62
   256
176
     0
 40
1.0
176
     0
 90
        2
176
     1
  1
strokes_ogs.tif
176
     1
290
     0
176
     1
 40
1.0
176
     1
 40
1.0
176
     1
  0
VISUALSTYLE
  5
3B
102
{ACAD_REACTORS
330
2A
102
}
330
2A
100
AcDbVisualStyle
  2
JitterOff
 70
    20
177
     3
291
     1
 70
    58
 90
        2
176
     0
 90
        2
176
     0
 90
        0
176
     0
 90
        0
176
     0
 40
0.6
176
     0
 40
30.0
176
     0
 62
     7
420
 16777215
176
     0
 90
        1
176
     0
 90
        4
176
     0
 62
     7
176
     0
 62
   257
176
     0
 90
        1
176
     0
 90
        1
176
     0
 40
1.0
176
     0
 90
       10
176
     2
 62
     7
176
     0
 40
1.0
176
     0
 90
        1
176
     0
 90
        6
176
     0
 90
        2
176
     0
 62
     7
176
     0
 90
        5
176
     0
 90
        0
176
     0
 90
        0
176
     0
290
     0
176
     0
 90
        1
176
     0
 40
0.0
176
     0
 90
        0
176
     0
290
     0
176
     0
290
     1
176
     0
290
     1
176
     0
290
     0
176
     0
290
     0
176
     0
290
     0
176
     0
290
     0
176
     0
290
     0
176
     0
290
     0
176
     0
 90
       50
176
     0
 40
0.0
176
     0
 40
1.0
176
     0
 90
        0
176
     0
 62
    18
420
        0
176
     0
 90
       50
176
     0
 90
        3
176
     0
 62
     5
420
      255
176
     0
290
     0
176
     0
 90
       50
176
     0
 90
       50
176
     0
 90
       50
176
     0
290
     0
176
     0
 90
       50
176
     0
 62
   256
176
     0
 40
1.0
176
     0
 90
        2
176
     0
  1
strokes_ogs.tif
176
     0
290
     0
176
     0
 40
1.0
176
     0
 40
1.0
176
     0
  0
VISUALSTYLE
  5
38
102
{ACAD_REACTORS
330
2A
102
}
330
2A
100
AcDbVisualStyle
  2
Linepattern
 70
    14
177
     3
291
     1
 70
    58
 90
        2
176
     1
 90
        2
176
     1
 90
        0
176
     1
 90
        0
176
     1
 40
0.6
176
     1
 40
30.0
176
     1
 62
     7
420
 16777215
176
     1
 90
        1
176
     1
 90
        4
176
     1
 62
     7
176
     1
 62
   257
176
     1
 90
        7
176
     1
 90
        7
176
     1
 40
1.0
176
     1
 90
        8
176
     1
 62
     7
176
     1
 40
1.0
176
     1
 90
        1
176
     1
 90
        6
176
     1
 90
        2
176
     1
 62
     7
176
     1
 90
        5
176
     1
 90
        0
176
     1
 90
        0
176
     1
290
     0
176
     1
 90
        1
176
     1
 40
0.0
176
     1
 90
        0
176
     1
290
     0
176
     1
290
     1
176
     1
290
     1
176
     1
290
     0
176
     1
290
     0
176
     1
290
     0
176
     1
290
     0
176
     1
290
     0
176
     1
290
     0
176
     1
 90
       50
176
     1
 40
0.0
176
     1
 40
1.0
176
     1
 90
        0
176
     1
 62
    18
420
        0
176
     1
 90
       50
176
     1
 90
        3
176
     1
 62
     5
420
      255
176
     1
290
     0
176
     1
 90
       50
176
     1
 90
       50
176
     1
 90
       50
176
     1
290
     0
176
     1
 90
       50
176
     1
 62
   256
176
     0
 40
1.0
176
     0
 90
        2
176
     1
  1
strokes_ogs.tif
176
     1
290
     0
176
     1
 40
1.0
176
     1
 40
1.0
176
     1
  0
VISUALSTYLE
  5
3C
102
{ACAD_REACTORS
330
2A
102
}
330
2A
100
AcDbVisualStyle
  2
OverhangOff
 70
    21
177
     3
291
     1
 70
    58
 90
        2
176
     0
 90
        2
176
     0
 90
        0
176
     0
 90
        0
176
     0
 40
0.6
176
     0
 40
30.0
176
     0
 62
     7
420
 16777215
176
     0
 90
        1
176
     0
 90
        4
176
     0
 62
     7
176
     0
 62
   257
176
     0
 90
        1
176
     0
 90
        1
176
     0
 40
1.0
176
     0
 90
        9
176
     2
 62
     7
176
     0
 40
1.0
176
     0
 90
        1
176
     0
 90
        6
176
     0
 90
        2
176
     0
 62
     7
176
     0
 90
        5
176
     0
 90
        0
176
     0
 90
        0
176
     0
290
     0
176
     0
 90
        1
176
     0
 40
0.0
176
     0
 90
        0
176
     0
290
     0
176
     0
290
     1
176
     0
290
     1
176
     0
290
     0
176
     0
290
     0
176
     0
290
     0
176
     0
290
     0
176
     0
290
     0
176
     0
290
     0
176
     0
 90
       50
176
     0
 40
0.0
176
     0
 40
1.0
176
     0
 90
        0
176
     0
 62
    18
420
        0
176
     0
 90
       50
176
     0
 90
        3
176
     0
 62
     5
420
      255
176
     0
290
     0
176
     0
 90
       50
176
     0
 90
       50
176
     0
 90
       50
176
     0
290
     0
176
     0
 90
       50
176
     0
 62
   256
176
     0
 40
1.0
176
     0
 90
        2
176
     0
  1
strokes_ogs.tif
176
     0
290
     0
176
     0
 40
1.0
176
     0
 40
1.0
176
     0
  0
VISUALSTYLE
  5
33
102
{ACAD_REACTORS
330
2A
102
}
330
2A
100
AcDbVisualStyle
  2
Realistic
 70
     8
177
     3
291
     0
 70
    58
 90
        2
176
     1
 90
        3
176
     1
 90
        0
176
     1
 90
        2
176
     1
 40
0.6
176
     1
 40
30.0
176
     1
 62
     7
420
 16777215
176
     1
 90
        0
176
     1
 90
        0
176
     1
 62
     7
176
     1
 62
   257
176
     1
 90
        1
176
     1
 90
        1
176
     1
 40
1.0
176
     1
 90
        8
176
     1
 62
   257
176
     1
 40
1.0
176
     1
 90
        1
176
     1
 90
        6
176
     1
 90
        2
176
     1
 62
     7
176
     1
 90
        3
176
     1
 90
        0
176
     1
 90
        0
176
     1
290
     0
176
     1
 90
       13
176
     1
 40
0.0
176
     1
 90
        0
176
     1
290
     0
176
     1
290
     1
176
     1
290
     1
176
     1
290
     0
176
     1
290
     0
176
     1
290
     0
176
     1
290
     0
176
     1
290
     0
176
     1
290
     0
176
     1
 90
       50
176
     1
 40
0.0
176
     1
 40
1.0
176
     1
 90
        0
176
     1
 62
    18
420
        0
176
     1
 90
       50
176
     1
 90
        3
176
     1
 62
     5
420
      255
176
     1
290
     0
176
     1
 90
       50
176
     1
 90
       50
176
     1
 90
       50
176
     1
290
     0
176
     1
 90
       50
176
     1
 62
   256
176
     0
 40
1.0
176
     0
 90
        2
176
     1
  1
strokes_ogs.tif
176
     1
290
     0
176
     1
 40
1.0
176
     1
 40
1.0
176
     1
  0
VISUALSTYLE
  5
42
102
{ACAD_REACTORS
330
2A
102
}
330
2A
100
AcDbVisualStyle
  2
Shaded
 70
    27
177
     3
291
     0
 70
    58
 90
        2
176
     1
 90
        2
176
     1
 90
        1
176
     1
 90
        2
176
     1
 40
0.6
176
     1
 40
30.0
176
     1
 62
     7
420
 16777215
176
     1
 90
        0
176
     1
 90
        4
176
     1
 62
     7
176
     1
 62
   257
176
     1
 90
        1
176
     1
 90
        1
176
     1
 40
1.0
176
     1
 90
        8
176
     1
 62
   257
176
     1
 40
1.0
176
     1
 90
        1
176
     1
 90
        6
176
     1
 90
        2
176
     1
 62
     8
420
  7895160
176
     1
 90
        3
176
     1
 90
        0
176
     1
 90
        0
176
     1
290
     0
176
     1
 90
        5
176
     1
 40
0.0
176
     1
 90
        0
176
     1
290
     0
176
     1
290
     1
176
     1
290
     1
176
     1
290
     0
176
     1
290
     0
176
     1
290
     0
176
     1
290
     0
176
     1
290
     0
176
     1
290
     0
176
     1
 90
       50
176
     1
 40
0.0
176
     1
 40
1.0
176
     1
 90
        0
176
     1
 62
    18
420
        0
176
     1
 90
       50
176
     1
 90
        3
176
     1
 62
     5
420
      255
176
     1
290
     0
176
     1
 90
       50
176
     1
 90
       50
176
     1
 90
       50
176
     1
290
     0
176
     1
 90
       50
176
     1
 62
   256
176
     0
 40
1.0
176
     0
 90
        2
176
     1
  1
strokes_ogs.tif
176
     1
290
     0
176
     1
 40
1.0
176
     1
 40
1.0
176
     1
  0
VISUALSTYLE
  5
41
102
{ACAD_REACTORS
330
2A
102
}
330
2A
100
AcDbVisualStyle
  2
Shaded with edges
 70
    26
177
     3
291
     0
 70
    58
 90
        2
176
     1
 90
        2
176
     1
 90
        1
176
     1
 90
        2
176
     1
 40
0.6
176
     1
 40
30.0
176
     1
 62
     7
420
 16777215
176
     1
 90
        1
176
     1
 90
       10
176
     1
 62
     7
176
     1
 62
   257
176
     1
 90
        2
176
     1
 90
        1
176
     1
 40
1.0
176
     1
 90
        8
176
     1
 62
   257
176
     1
 40
1.0
176
     1
 90
        1
176
     1
 90
        6
176
     1
 90
        2
176
     1
 62
     7
176
     1
 90
        3
176
     1
 90
        0
176
     1
 90
        0
176
     1
290
     0
176
     1
 90
        5
176
     1
 40
0.0
176
     1
 90
        0
176
     1
290
     0
176
     1
290
     1
176
     1
290
     1
176
     1
290
     0
176
     1
290
     0
176
     1
290
     0
176
     1
290
     0
176
     1
290
     0
176
     1
290
     0
176
     1
 90
       50
176
     1
 40
0.0
176
     1
 40
1.0
176
     1
 90
        0
176
     1
 62
    18
420
        0
176
     1
 90
       50
176
     1
 90
        3
176
     1
 62
     5
420
      255
176
     1
290
     0
176
     1
 90
       50
176
     1
 90
       50
176
     1
 90
       50
176
     1
290
     0
176
     1
 90
       50
176
     1
 62
   256
176
     0
 40
1.0
176
     0
 90
        2
176
     1
  1
strokes_ogs.tif
176
     1
290
     0
176
     1
 40
1.0
176
     1
 40
1.0
176
     1
  0
VISUALSTYLE
  5
3E
102
{ACAD_REACTORS
330
2A
102
}
330
2A
100
AcDbVisualStyle
  2
Shades of Gray
 70
    23
177
     3
291
     0
 70
    58
 90
        2
176
     1
 90
        2
176
     1
 90
        3
176
     1
 90
        0
176
     1
 40
0.6
176
     1
 40
30.0
176
     1
 62
     7
420
 16777215
176
     1
 90
        2
176
     1
 90
        2
176
     1
 62
     7
176
     1
 62
     7
176
     1
 90
        1
176
     1
 90
        1
176
     1
 40
40.0
176
     1
 90
        8
176
     1
 62
     7
176
     1
 40
1.0
176
     1
 90
        1
176
     1
 90
        6
176
     1
 90
        2
176
     1
 62
     7
176
     1
 90
        3
176
     1
 90
        0
176
     1
 90
        0
176
     1
290
     0
176
     1
 90
        1
176
     1
 40
0.0
176
     1
 90
        0
176
     1
290
     0
176
     1
290
     1
176
     1
290
     1
176
     1
290
     0
176
     1
290
     0
176
     1
290
     0
176
     1
290
     0
176
     1
290
     0
176
     1
290
     0
176
     1
 90
       50
176
     1
 40
0.0
176
     1
 40
1.0
176
     1
 90
        0
176
     1
 62
    18
420
        0
176
     1
 90
       50
176
     1
 90
        3
176
     1
 62
     5
420
      255
176
     1
290
     0
176
     1
 90
       50
176
     1
 90
       50
176
     1
 90
       50
176
     1
290
     0
176
     1
 90
       50
176
     1
 62
   256
176
     0
 40
1.0
176
     0
 90
        2
176
     1
  1
strokes_ogs.tif
176
     1
290
     0
176
     1
 40
1.0
176
     1
 40
1.0
176
     1
  0
VISUALSTYLE
  5
3F
102
{ACAD_REACTORS
330
2A
102
}
330
2A
100
AcDbVisualStyle
  2
Sketchy
 70
    24
177
     3
291
     0
 70
    58
 90
        1
176
     1
 90
        2
176
     1
 90
        2
176
     1
 90
        0
176
     1
 40
0.6
176
     1
 40
30.0
176
     1
 62
     7
420
 16777215
176
     1
 90
        2
176
     1
 90
        2
176
     1
 62
     7
176
     1
 62
     7
176
     1
 90
        1
176
     1
 90
        1
176
     1
 40
40.0
176
     1
 90
       11
176
     1
 62
     7
176
     1
 40
1.0
176
     1
 90
        1
176
     1
 90
        6
176
     1
 90
        2
176
     1
 62
     7
176
     1
 90
        6
176
     1
 90
        0
176
     1
 90
        0
176
     1
290
     0
176
     1
 90
        1
176
     1
 40
0.0
176
     1
 90
        0
176
     1
290
     0
176
     1
290
     1
176
     1
290
     1
176
     1
290
     0
176
     1
290
     0
176
     1
290
     0
176
     1
290
     0
176
     1
290
     0
176
     1
290
     0
176
     1
 90
       50
176
     1
 40
0.0
176
     1
 40
1.0
176
     1
 90
        0
176
     1
 62
    18
420
        0
176
     1
 90
       50
176
     1
 90
        3
176
     1
 62
     5
420
      255
176
     1
290
     0
176
     1
 90
       50
176
     1
 90
       50
176
     1
 90
       50
176
     1
290
     0
176
     1
 90
       50
176
     1
 62
   256
176
     0
 40
1.0
176
     0
 90
        2
176
     1
  1
strokes_ogs.tif
176
     1
290
     0
176
     1
 40
1.0
176
     1
 40
1.0
176
     1
  0
VISUALSTYLE
  5
37
102
{ACAD_REACTORS
330
2A
102
}
330
2A
100
AcDbVisualStyle
  2
Thicken
 70
    13
177
     3
291
     1
 70
    58
 90
        2
176
     1
 90
        2
176
     1
 90
        0
176
     1
 90
        0
176
     1
 40
0.6
176
     1
 40
30.0
176
     1
 62
     7
420
 16777215
176
     1
 90
        1
176
     1
 90
        4
176
     1
 62
     7
176
     1
 62
   257
176
     1
 90
        1
176
     1
 90
        1
176
     1
 40
1.0
176
     1
 90
       12
176
     1
 62
     7
176
     1
 40
1.0
176
     1
 90
        1
176
     1
 90
        6
176
     1
 90
        2
176
     1
 62
     7
176
     1
 90
        5
176
     1
 90
        0
176
     1
 90
        0
176
     1
290
     0
176
     1
 90
        1
176
     1
 40
0.0
176
     1
 90
        0
176
     1
290
     0
176
     1
290
     1
176
     1
290
     1
176
     1
290
     0
176
     1
290
     0
176
     1
290
     0
176
     1
290
     0
176
     1
290
     0
176
     1
290
     0
176
     1
 90
       50
176
     1
 40
0.0
176
     1
 40
1.0
176
     1
 90
        0
176
     1
 62
    18
420
        0
176
     1
 90
       50
176
     1
 90
        3
176
     1
 62
     5
420
      255
176
     1
290
     0
176
     1
 90
       50
176
     1
 90
       50
176
     1
 90
       50
176
     1
290
     0
176
     1
 90
       50
176
     1
 62
   256
176
     0
 40
1.0
176
     0
 90
        2
176
     1
  1
strokes_ogs.tif
176
     1
290
     0
176
     1
 40
1.0
176
     1
 40
1.0
176
     1
  0
VISUALSTYLE
  5
30
102
{ACAD_REACTORS
330
2A
102
}
330
2A
100
AcDbVisualStyle
  2
Wireframe
 70
     5
177
     3
291
     0
 70
    58
 90
        0
176
     1
 90
        2
176
     1
 90
        0
176
     1
 90
        0
176
     1
 40
0.6
176
     1
 40
30.0
176
     1
 62
     7
420
 16777215
176
     1
 90
        1
176
     1
 90
        4
176
     1
 62
     7
176
     1
 62
   257
176
     1
 90
        1
176
     1
 90
        1
176
     1
 40
1.0
176
     1
 90
        0
176
     1
 62
   257
176
     1
 40
1.0
176
     1
 90
        1
176
     1
 90
        6
176
     1
 90
        2
176
     1
 62
     7
176
     1
 90
        3
176
     1
 90
        0
176
     1
 90
        0
176
     1
290
     0
176
     1
 90
        1
176
     1
 40
0.0
176
     1
 90
        0
176
     1
290
     0
176
     1
290
     1
176
     1
290
     1
176
     1
290
     0
176
     1
290
     0
176
     1
290
     0
176
     1
290
     0
176
     1
290
     0
176
     1
290
     0
176
     1
 90
       50
176
     1
 40
0.0
176
     1
 40
1.0
176
     1
 90
        0
176
     1
 62
    18
420
        0
176
     1
 90
       50
176
     1
 90
        3
176
     1
 62
     5
420
      255
176
     1
290
     0
176
     1
 90
       50
176
     1
 90
       50
176
     1
 90
       50
176
     1
290
     0
176
     1
 90
       50
176
     1
 62
   256
176
     0
 40
1.0
176
     0
 90
        2
176
     1
  1
strokes_ogs.tif
176
     1
290
     0
176
     1
 40
1.0
176
     1
 40
1.0
176
     1
  0
VISUALSTYLE
  5
40
102
{ACAD_REACTORS
330
2A
102
}
330
2A
100
AcDbVisualStyle
  2
X-Ray
 70
    25
177
     3
291
     0
 70
    58
 90
        2
176
     1
 90
        2
176
     1
 90
        1
176
     1
 90
        1
176
     1
 40
0.5
176
     1
 40
30.0
176
     1
 62
     7
420
 16777215
176
     1
 90
        1
176
     1
 90
        0
176
     1
 62
     7
176
     1
 62
   257
176
     1
 90
        1
176
     1
 90
        1
176
     1
 40
1.0
176
     1
 90
        8
176
     1
 62
     7
176
     1
 40
1.0
176
     1
 90
        1
176
     1
 90
        6
176
     1
 90
        2
176
     1
 62
     7
176
     1
 90
        3
176
     1
 90
        0
176
     1
 90
        0
176
     1
290
     0
176
     1
 90
       13
176
     1
 40
0.0
176
     1
 90
        0
176
     1
290
     0
176
     1
290
     1
176
     1
290
     1
176
     1
290
     0
176
     1
290
     0
176
     1
290
     0
176
     1
290
     0
176
     1
290
     0
176
     1
290
     0
176
     1
 90
       50
176
     1
 40
0.0
176
     1
 40
1.0
176
     1
 90
        0
176
     1
 62
    18
420
        0
176
     1
 90
       50
176
     1
 90
        3
176
     1
 62
     5
420
      255
176
     1
290
     0
176
     1
 90
       50
176
     1
 90
       50
176
     1
 90
       50
176
     1
290
     0
176
     1
 90
       50
176
     1
 62
   256
176
     0
 40
1.0
176
     0
 90
        2
176
     1
  1
strokes_ogs.tif
176
     1
290
     0
176
     1
 40
1.0
176
     1
 40
1.0
176
     1
  0
DICTIONARYVAR
  5
192
102
{ACAD_REACTORS
330
191
102
}
330
191
100
DictionaryVariables
280
     0
  1
1:1
  0
DICTIONARYVAR
  5
197
102
{ACAD_REACTORS
330
191
102
}
330
191
100
DictionaryVariables
280
     0
  1
Standard
  0
DICTIONARYVAR
  5
196
102
{ACAD_REACTORS
330
191
102
}
330
191
100
DictionaryVariables
280
     0
  1
Standard
  0
DICTIONARY
  5
193
330
6A
100
AcDbDictionary
280
     1
281
     1
  3
ACAD_ROUNDTRIP_2008_TABLESTYLE_CELLSTYLEMAP
360
194
  0
CELLSTYLEMAP
  5
194
102
{ACAD_REACTORS
330
193
102
}
330
193
100
AcDbCellStyleMap
 90
        3
300
CELLSTYLE
  1
TABLEFORMAT_BEGIN
 90
        5
170
     1
 91
        0
 92
    32768
 62
   257
 93
        1
300
CONTENTFORMAT
  1
CONTENTFORMAT_BEGIN
 90
        0
 91
        0
 92
        4
 93
        0
300

 40
0.0
140
1.0
 94
        5
 62
     0
340
11
144
6.0
309
CONTENTFORMAT_END
171
     1
301
MARGIN
  1
CELLMARGIN_BEGIN
 40
1.5
 40
1.5
 40
1.5
 40
1.5
 40
1.5
 40
1.5
309
CELLMARGIN_END
 94
        6
 95
        1
302
GRIDFORMAT
  1
GRIDFORMAT_BEGIN
 90
        0
 91
        1
 62
     0
 92
       -2
340
14
 93
        0
 40
0.045
309
GRIDFORMAT_END
 95
        2
302
GRIDFORMAT
  1
GRIDFORMAT_BEGIN
 90
        0
 91
        1
 62
     0
 92
       -2
340
14
 93
        0
 40
0.045
309
GRIDFORMAT_END
 95
        4
302
GRIDFORMAT
  1
GRIDFORMAT_BEGIN
 90
        0
 91
        1
 62
     0
 92
       -2
340
14
 93
        0
 40
0.045
309
GRIDFORMAT_END
 95
        8
302
GRIDFORMAT
  1
GRIDFORMAT_BEGIN
 90
        0
 91
        1
 62
     0
 92
       -2
340
14
 93
        0
 40
0.045
309
GRIDFORMAT_END
 95
       16
302
GRIDFORMAT
  1
GRIDFORMAT_BEGIN
 90
        0
 91
        1
 62
     0
 92
       -2
340
14
 93
        0
 40
0.045
309
GRIDFORMAT_END
 95
       32
302
GRIDFORMAT
  1
GRIDFORMAT_BEGIN
 90
        0
 91
        1
 62
     0
 92
       -2
340
14
 93
        0
 40
0.045
309
GRIDFORMAT_END
309
TABLEFORMAT_END
  1
CELLSTYLE_BEGIN
 90
        1
 91
        1
300
_TITLE
309
CELLSTYLE_END
300
CELLSTYLE
  1
TABLEFORMAT_BEGIN
 90
        5
170
     1
 91
        0
 92
        0
 62
   257
 93
        1
300
CONTENTFORMAT
  1
CONTENTFORMAT_BEGIN
 90
        0
 91
        0
 92
        4
 93
        0
300

 40
0.0
140
1.0
 94
        5
 62
     0
340
11
144
4.5
309
CONTENTFORMAT_END
171
     1
301
MARGIN
  1
CELLMARGIN_BEGIN
 40
1.5
 40
1.5
 40
1.5
 40
1.5
 40
1.5
 40
1.5
309
CELLMARGIN_END
 94
        6
 95
        1
302
GRIDFORMAT
  1
GRIDFORMAT_BEGIN
 90
        0
 91
        1
 62
     0
 92
       -2
340
14
 93
        0
 40
0.045
309
GRIDFORMAT_END
 95
        2
302
GRIDFORMAT
  1
GRIDFORMAT_BEGIN
 90
        0
 91
        1
 62
     0
 92
       -2
340
14
 93
        0
 40
0.045
309
GRIDFORMAT_END
 95
        4
302
GRIDFORMAT
  1
GRIDFORMAT_BEGIN
 90
        0
 91
        1
 62
     0
 92
       -2
340
14
 93
        0
 40
0.045
309
GRIDFORMAT_END
 95
        8
302
GRIDFORMAT
  1
GRIDFORMAT_BEGIN
 90
        0
 91
        1
 62
     0
 92
       -2
340
14
 93
        0
 40
0.045
309
GRIDFORMAT_END
 95
       16
302
GRIDFORMAT
  1
GRIDFORMAT_BEGIN
 90
        0
 91
        1
 62
     0
 92
       -2
340
14
 93
        0
 40
0.045
309
GRIDFORMAT_END
 95
       32
302
GRIDFORMAT
  1
GRIDFORMAT_BEGIN
 90
        0
 91
        1
 62
     0
 92
       -2
340
14
 93
        0
 40
0.045
309
GRIDFORMAT_END
309
TABLEFORMAT_END
  1
CELLSTYLE_BEGIN
 90
        2
 91
        1
300
_HEADER
309
CELLSTYLE_END
300
CELLSTYLE
  1
TABLEFORMAT_BEGIN
 90
        5
170
     1
 91
        0
 92
        0
 62
   257
 93
        1
300
CONTENTFORMAT
  1
CONTENTFORMAT_BEGIN
 90
        0
 91
        0
 92
        4
 93
        0
300

 40
0.0
140
1.0
 94
        2
 62
     0
340
11
144
4.5
309
CONTENTFORMAT_END
171
     1
301
MARGIN
  1
CELLMARGIN_BEGIN
 40
1.5
 40
1.5
 40
1.5
 40
1.5
 40
1.5
 40
1.5
309
CELLMARGIN_END
 94
        6
 95
        1
302
GRIDFORMAT
  1
GRIDFORMAT_BEGIN
 90
        0
 91
        1
 62
     0
 92
       -2
340
14
 93
        0
 40
0.045
309
GRIDFORMAT_END
 95
        2
302
GRIDFORMAT
  1
GRIDFORMAT_BEGIN
 90
        0
 91
        1
 62
     0
 92
       -2
340
14
 93
        0
 40
0.045
309
GRIDFORMAT_END
 95
        4
302
GRIDFORMAT
  1
GRIDFORMAT_BEGIN
 90
        0
 91
        1
 62
     0
 92
       -2
340
14
 93
        0
 40
0.045
309
GRIDFORMAT_END
 95
        8
302
GRIDFORMAT
  1
GRIDFORMAT_BEGIN
 90
        0
 91
        1
 62
     0
 92
       -2
340
14
 93
        0
 40
0.045
309
GRIDFORMAT_END
 95
       16
302
GRIDFORMAT
  1
GRIDFORMAT_BEGIN
 90
        0
 91
        1
 62
     0
 92
       -2
340
14
 93
        0
 40
0.045
309
GRIDFORMAT_END
 95
       32
302
GRIDFORMAT
  1
GRIDFORMAT_BEGIN
 90
        0
 91
        1
 62
     0
 92
       -2
340
14
 93
        0
 40
0.045
309
GRIDFORMAT_END
309
TABLEFORMAT_END
  1
CELLSTYLE_BEGIN
 90
        3
 91
        2
300
_DATA
309
CELLSTYLE_END
  0
ENDSEC
  0
EOF