0
SECTION
  2
HEADER
  9
$ACADVER
  1
AC1027
  9
$ACADMAINTVER
 70
     8
  9
$DWGCODEPAGE
  3
ANSI_1252
  9
$REQUIREDVERSIONS
160
                 0
  9
$COMMENTS
  1
File was created by Cadenas
  9
$CUSTOMPROPERTYTAG
  1
NN
  9
$CUSTOMPROPERTY
  1
Set Screw Medium Duty Air-handling Two-Bolt Flange Metric Bore
  9
$CUSTOMPROPERTYTAG
  1
NT
  9
$CUSTOMPROPERTY
  1
SC 2 Bolt Flange Bearings -(Normal Duty)
  9
$CUSTOMPROPERTYTAG
  1
NB
  9
$CUSTOMPROPERTY
  1
076311
  9
$CUSTOMPROPERTYTAG
  1
NBSYN
  9
$CUSTOMPROPERTY
  1
$PN.
  9
$CUSTOMPROPERTYTAG
  1
LINA
  9
$CUSTOMPROPERTY
  1
076311
  9
$CUSTOMPROPERTYTAG
  1
SERIES
  9
$CUSTOMPROPERTY
  1
210
  9
$CUSTOMPROPERTYTAG
  1
SS
  9
$CUSTOMPROPERTY
  1
45
  9
$CUSTOMPROPERTYTAG
  1
PN
  9
$CUSTOMPROPERTY
  1
076311
  9
$CUSTOMPROPERTYTAG
  1
DESCRIPTION
  9
$CUSTOMPROPERTY
  1
F2B-SCMED-45M
  9
$CUSTOMPROPERTYTAG
  1
W
  9
$CUSTOMPROPERTY
  1
2.6
  9
$CUSTOMPROPERTYTAG
  1
A
  9
$CUSTOMPROPERTY
  1
49.3
  9
$CUSTOMPROPERTYTAG
  1
B
  9
$CUSTOMPROPERTY
  1
189.0
  9
$CUSTOMPROPERTYTAG
  1
C
  9
$CUSTOMPROPERTY
  1
51.3
  9
$CUSTOMPROPERTYTAG
  1
D
  9
$CUSTOMPROPERTY
  1
157.2
  9
$CUSTOMPROPERTYTAG
  1
F
  9
$CUSTOMPROPERTY
  1
M16
  9
$CUSTOMPROPERTYTAG
  1
H
  9
$CUSTOMPROPERTY
  1
16.0
  9
$CUSTOMPROPERTYTAG
  1
J
  9
$CUSTOMPROPERTY
  1
14.0
  9
$CUSTOMPROPERTYTAG
  1
L
  9
$CUSTOMPROPERTY
  1
61.7
  9
$CUSTOMPROPERTYTAG
  1
M
  9
$CUSTOMPROPERTY
  1
115.8
  9
$CUSTOMPROPERTYTAG
  1
N
  9
$CUSTOMPROPERTY
  1
51.6
  9
$CUSTOMPROPERTYTAG
  1
COMPANY
  9
$CUSTOMPROPERTY
  1
baldor
  9
$INSBASE
 10
0.0
 20
0.0
 30
0.0
  9
$EXTMIN
 10
1.000000000000000E+20
 20
1.000000000000000E+20
 30
1.000000000000000E+20
  9
$EXTMAX
 10
-1.000000000000000E+20
 20
-1.000000000000000E+20
 30
-1.000000000000000E+20
  9
$LIMMIN
 10
0.0
 20
0.0
  9
$LIMMAX
 10
420.0
 20
297.0
  9
$ORTHOMODE
 70
     0
  9
$REGENMODE
 70
     1
  9
$FILLMODE
 70
     1
  9
$QTEXTMODE
 70
     0
  9
$MIRRTEXT
 70
     1
  9
$LTSCALE
 40
1.0
  9
$ATTMODE
 70
     1
  9
$TEXTSIZE
 40
2.5
  9
$TRACEWID
 40
1.0
  9
$TEXTSTYLE
  7
Standard
  9
$CLAYER
  8
0
  9
$CELTYPE
  6
ByLayer
  9
$CECOLOR
 62
   256
  9
$CELTSCALE
 40
1.0
  9
$DISPSILH
 70
     0
  9
$DIMSCALE
 40
1.0
  9
$DIMASZ
 40
2.5
  9
$DIMEXO
 40
0.625
  9
$DIMDLI
 40
3.75
  9
$DIMRND
 40
0.0
  9
$DIMDLE
 40
0.0
  9
$DIMEXE
 40
1.25
  9
$DIMTP
 40
0.0
  9
$DIMTM
 40
0.0
  9
$DIMTXT
 40
2.5
  9
$DIMCEN
 40
2.5
  9
$DIMTSZ
 40
0.0
  9
$DIMTOL
 70
     0
  9
$DIMLIM
 70
     0
  9
$DIMTIH
 70
     0
  9
$DIMTOH
 70
     0
  9
$DIMSE1
 70
     0
  9
$DIMSE2
 70
     0
  9
$DIMTAD
 70
     1
  9
$DIMZIN
 70
     8
  9
$DIMBLK
  1

  9
$DIMASO
 70
     1
  9
$DIMSHO
 70
     1
  9
$DIMPOST
  1

  9
$DIMAPOST
  1

  9
$DIMALT
 70
     0
  9
$DIMALTD
 70
     3
  9
$DIMALTF
 40
0.03937007874016
  9
$DIMLFAC
 40
1.0
  9
$DIMTOFL
 70
     1
  9
$DIMTVP
 40
0.0
  9
$DIMTIX
 70
     0
  9
$DIMSOXD
 70
     0
  9
$DIMSAH
 70
     0
  9
$DIMBLK1
  1

  9
$DIMBLK2
  1

  9
$DIMSTYLE
  2
ISO-25
  9
$DIMCLRD
 70
     0
  9
$DIMCLRE
 70
     0
  9
$DIMCLRT
 70
     0
  9
$DIMTFAC
 40
1.0
  9
$DIMGAP
 40
0.625
  9
$DIMJUST
 70
     0
  9
$DIMSD1
 70
     0
  9
$DIMSD2
 70
     0
  9
$DIMTOLJ
 70
     0
  9
$DIMTZIN
 70
     8
  9
$DIMALTZ
 70
     0
  9
$DIMALTTZ
 70
     0
  9
$DIMUPT
 70
     0
  9
$DIMDEC
 70
     2
  9
$DIMTDEC
 70
     2
  9
$DIMALTU
 70
     2
  9
$DIMALTTD
 70
     3
  9
$DIMTXSTY
  7
Standard
  9
$DIMAUNIT
 70
     0
  9
$DIMADEC
 70
     0
  9
$DIMALTRND
 40
0.0
  9
$DIMAZIN
 70
     0
  9
$DIMDSEP
 70
    44
  9
$DIMATFIT
 70
     3
  9
$DIMFRAC
 70
     0
  9
$DIMLDRBLK
  1

  9
$DIMLUNIT
 70
     2
  9
$DIMLWD
 70
    -2
  9
$DIMLWE
 70
    -2
  9
$DIMTMOVE
 70
     0
  9
$DIMFXL
 40
1.0
  9
$DIMFXLON
 70
     0
  9
$DIMJOGANG
 40
0.7853981633974483
  9
$DIMTFILL
 70
     0
  9
$DIMTFILLCLR
 70
     0
  9
$DIMARCSYM
 70
     0
  9
$DIMLTYPE
  6

  9
$DIMLTEX1
  6

  9
$DIMLTEX2
  6

  9
$DIMTXTDIRECTION
 70
     0
  9
$LUNITS
 70
     2
  9
$LUPREC
 70
     4
  9
$SKETCHINC
 40
1.0
  9
$FILLETRAD
 40
10.0
  9
$AUNITS
 70
     0
  9
$AUPREC
 70
     0
  9
$MENU
  1
.
  9
$ELEVATION
 40
0.0
  9
$PELEVATION
 40
0.0
  9
$THICKNESS
 40
0.0
  9
$LIMCHECK
 70
     0
  9
$CHAMFERA
 40
0.0
  9
$CHAMFERB
 40
0.0
  9
$CHAMFERC
 40
0.0
  9
$CHAMFERD
 40
0.0
  9
$SKPOLY
 70
     0
  9
$TDCREATE
 40
2458168.891834514
  9
$TDUCREATE
 40
2458168.850167847
  9
$TDUPDATE
 40
2458168.891834687
  9
$TDUUPDATE
 40
2458168.850168021
  9
$TDINDWG
 40
0.0000000116
  9
$TDUSRTIMER
 40
0.0000000116
  9
$USRTIMER
 70
     1
  9
$ANGBASE
 50
0.0
  9
$ANGDIR
 70
     0
  9
$PDMODE
 70
     0
  9
$PDSIZE
 40
0.0
  9
$PLINEWID
 40
0.0
  9
$SPLFRAME
 70
     0
  9
$SPLINETYPE
 70
     6
  9
$SPLINESEGS
 70
     8
  9
$HANDSEED
  5
1AE
  9
$SURFTAB1
 70
     6
  9
$SURFTAB2
 70
     6
  9
$SURFTYPE
 70
     6
  9
$SURFU
 70
     6
  9
$SURFV
 70
     6
  9
$UCSBASE
  2

  9
$UCSNAME
  2

  9
$UCSORG
 10
0.0
 20
0.0
 30
0.0
  9
$UCSXDIR
 10
1.0
 20
0.0
 30
0.0
  9
$UCSYDIR
 10
0.0
 20
1.0
 30
0.0
  9
$UCSORTHOREF
  2

  9
$UCSORTHOVIEW
 70
     0
  9
$UCSORGTOP
 10
0.0
 20
0.0
 30
0.0
  9
$UCSORGBOTTOM
 10
0.0
 20
0.0
 30
0.0
  9
$UCSORGLEFT
 10
0.0
 20
0.0
 30
0.0
  9
$UCSORGRIGHT
 10
0.0
 20
0.0
 30
0.0
  9
$UCSORGFRONT
 10
0.0
 20
0.0
 30
0.0
  9
$UCSORGBACK
 10
0.0
 20
0.0
 30
0.0
  9
$PUCSBASE
  2

  9
$PUCSNAME
  2

  9
$PUCSORG
 10
0.0
 20
0.0
 30
0.0
  9
$PUCSXDIR
 10
1.0
 20
0.0
 30
0.0
  9
$PUCSYDIR
 10
0.0
 20
1.0
 30
0.0
  9
$PUCSORTHOREF
  2

  9
$PUCSORTHOVIEW
 70
     0
  9
$PUCSORGTOP
 10
0.0
 20
0.0
 30
0.0
  9
$PUCSORGBOTTOM
 10
0.0
 20
0.0
 30
0.0
  9
$PUCSORGLEFT
 10
0.0
 20
0.0
 30
0.0
  9
$PUCSORGRIGHT
 10
0.0
 20
0.0
 30
0.0
  9
$PUCSORGFRONT
 10
0.0
 20
0.0
 30
0.0
  9
$PUCSORGBACK
 10
0.0
 20
0.0
 30
0.0
  9
$USERI1
 70
     0
  9
$USERI2
 70
     0
  9
$USERI3
 70
     0
  9
$USERI4
 70
     0
  9
$USERI5
 70
     0
  9
$USERR1
 40
0.0
  9
$USERR2
 40
0.0
  9
$USERR3
 40
0.0
  9
$USERR4
 40
0.0
  9
$USERR5
 40
0.0
  9
$WORLDVIEW
 70
     1
  9
$SHADEDGE
 70
     3
  9
$SHADEDIF
 70
    70
  9
$TILEMODE
 70
     1
  9
$MAXACTVP
 70
    64
  9
$PINSBASE
 10
0.0
 20
0.0
 30
0.0
  9
$PLIMCHECK
 70
     0
  9
$PEXTMIN
 10
1.000000000000000E+20
 20
1.000000000000000E+20
 30
1.000000000000000E+20
  9
$PEXTMAX
 10
-1.000000000000000E+20
 20
-1.000000000000000E+20
 30
-1.000000000000000E+20
  9
$PLIMMIN
 10
0.0
 20
0.0
  9
$PLIMMAX
 10
420.0
 20
297.0
  9
$UNITMODE
 70
     0
  9
$VISRETAIN
 70
     1
  9
$PLINEGEN
 70
     0
  9
$PSLTSCALE
 70
     1
  9
$TREEDEPTH
 70
  3020
  9
$CMLSTYLE
  2
Standard
  9
$CMLJUST
 70
     0
  9
$CMLSCALE
 40
20.0
  9
$PROXYGRAPHICS
 70
     1
  9
$MEASUREMENT
 70
     1
  9
$CELWEIGHT
370
    -1
  9
$ENDCAPS
280
     0
  9
$JOINSTYLE
280
     0
  9
$LWDISPLAY
290
     0
  9
$INSUNITS
 70
     4
  9
$HYPERLINKBASE
  1

  9
$STYLESHEET
  1

  9
$XEDIT
290
     1
  9
$CEPSNTYPE
380
     0
  9
$PSTYLEMODE
290
     1
  9
$FINGERPRINTGUID
  2
{EE5B664A-AFBD-4B3E-90EB-71552A1E04A7}
  9
$VERSIONGUID
  2
{FAEB1C32-E019-11D5-929B-00C0DF256EC4}
  9
$EXTNAMES
290
     1
  9
$PSVPSCALE
 40
0.0
  9
$OLESTARTUP
290
     0
  9
$SORTENTS
280
   127
  9
$INDEXCTL
280
     0
  9
$HIDETEXT
280
     1
  9
$XCLIPFRAME
280
     2
  9
$HALOGAP
280
     0
  9
$OBSCOLOR
 70
   257
  9
$OBSLTYPE
280
     0
  9
$INTERSECTIONDISPLAY
280
     0
  9
$INTERSECTIONCOLOR
 70
   257
  9
$DIMASSOC
280
     2
  9
$PROJECTNAME
  1

  9
$CAMERADISPLAY
290
     0
  9
$LENSLENGTH
 40
50.0
  9
$CAMERAHEIGHT
 40
0.0
  9
$STEPSPERSEC
 40
2.0
  9
$STEPSIZE
 40
6.0
  9
$3DDWFPREC
 40
2.0
  9
$PSOLWIDTH
 40
5.0
  9
$PSOLHEIGHT
 40
80.0
  9
$LOFTANG1
 40
1.570796326794897
  9
$LOFTANG2
 40
1.570796326794897
  9
$LOFTMAG1
 40
0.0
  9
$LOFTMAG2
 40
0.0
  9
$LOFTPARAM
 70
     7
  9
$LOFTNORMALS
280
     1
  9
$LATITUDE
 40
37.795
  9
$LONGITUDE
 40
-122.394
  9
$NORTHDIRECTION
 40
0.0
  9
$TIMEZONE
 70
 -8000
  9
$LIGHTGLYPHDISPLAY
280
     1
  9
$TILEMODELIGHTSYNCH
280
     1
  9
$CMATERIAL
347
44
  9
$SOLIDHIST
280
     0
  9
$SHOWHIST
280
     1
  9
$DWFFRAME
280
     2
  9
$DGNFRAME
280
     2
  9
$REALWORLDSCALE
290
     1
  9
$INTERFERECOLOR
 62
   256
  9
$CSHADOW
280
     0
  9
$SHADOWPLANELOCATION
 40
0.0
  0
ENDSEC
  0
SECTION
  2
CLASSES
  0
CLASS
  1
ACDBDICTIONARYWDFLT
  2
AcDbDictionaryWithDefault
  3
ObjectDBX Classes
 90
        0
 91
        4
280
     0
281
     0
  0
CLASS
  1
VISUALSTYLE
  2
AcDbVisualStyle
  3
ObjectDBX Classes
 90
     4095
 91
        4
280
     0
281
     0
  0
CLASS
  1
MATERIAL
  2
AcDbMaterial
  3
ObjectDBX Classes
 90
     1153
 91
        4
280
     0
281
     0
  0
CLASS
  1
SCALE
  2
AcDbScale
  3
ObjectDBX Classes
 90
     1153
 91
        4
280
     0
281
     0
  0
CLASS
  1
TABLESTYLE
  2
AcDbTableStyle
  3
ObjectDBX Classes
 90
     4095
 91
        4
280
     0
281
     0
  0
CLASS
  1
MLEADERSTYLE
  2
AcDbMLeaderStyle
  3
ACDB_MLEADERSTYLE_CLASS
 90
     4095
 91
        4
280
     0
281
     0
  0
CLASS
  1
SUN
  2
AcDbSun
  3
SCENEOE
 90
     1153
 91
        4
280
     0
281
     0
  0
CLASS
  1
DICTIONARYVAR
  2
AcDbDictionaryVar
  3
ObjectDBX Classes
 90
        0
 91
        4
280
     0
281
     0
  0
CLASS
  1
CELLSTYLEMAP
  2
AcDbCellStyleMap
  3
ObjectDBX Classes
 90
     1152
 91
        4
280
     0
281
     0
  0
ENDSEC
  0
SECTION
  2
TABLES
  0
TABLE
  2
VPORT
  5
8
330
0
100
AcDbSymbolTable
 70
     1
  0
VPORT
  5
29
330
8
100
AcDbSymbolTableRecord
100
AcDbViewportTableRecord
  2
*Active
 70
     0
 10
0.0
 20
0.0
 11
1.0
 21
1.0
 12
-25.94999999999999
 22
0.0
 13
0.0
 23
0.0
 14
10.0
 24
10.0
 15
10.0
 25
10.0
 16
0.0
 26
0.0
 36
1.0
 17
0.0
 27
0.0
 37
0.0
 40
192.78
 41
0.2943386243386237
 42
50.0
 43
0.0
 44
0.0
 50
0.0
 51
0.0
 71
     0
 72
   100
 73
     1
 74
     3
 75
     0
 76
     0
 77
     0
 78
     0
281
     0
 65
     1
110
0.0
120
0.0
130
0.0
111
1.0
121
0.0
131
0.0
112
0.0
122
1.0
132
0.0
 79
     0
146
0.0
348
2F
 60
     3
 61
     5
292
     1
282
     1
141
0.0
142
0.0
 63
   250
361
6D
  0
ENDTAB
  0
TABLE
  2
LTYPE
  5
5
330
0
100
AcDbSymbolTable
 70
     3
  0
LTYPE
  5
14
330
5
100
AcDbSymbolTableRecord
100
AcDbLinetypeTableRecord
  2
ByBlock
 70
     0
  3

 72
    65
 73
     0
 40
0.0
  0
LTYPE
  5
15
330
5
100
AcDbSymbolTableRecord
100
AcDbLinetypeTableRecord
  2
ByLayer
 70
     0
  3

 72
    65
 73
     0
 40
0.0
  0
LTYPE
  5
16
330
5
100
AcDbSymbolTableRecord
100
AcDbLinetypeTableRecord
  2
Continuous
 70
     0
  3
Solid line
 72
    65
 73
     0
 40
0.0
  0
LTYPE
  5
94
330
5
100
AcDbSymbolTableRecord
100
AcDbLinetypeTableRecord
  2
Dashed
 70
     0
  3

 72
    65
 73
     2
 40
2.0
 49
1.0
 74
     0
 49
-1.0
 74
     0
  0
LTYPE
  5
132
330
5
100
AcDbSymbolTableRecord
100
AcDbLinetypeTableRecord
  2
Center
 70
     0
  3

 72
    65
 73
     4
 40
1.5
 49
0.45
 74
     0
 49
-0.5
 74
     0
 49
0.05
 74
     0
 49
-0.5
 74
     0
  0
ENDTAB
  0
TABLE
  2
LAYER
  5
2
330
0
100
AcDbSymbolTable
 70
     7
  0
LAYER
  5
10
330
2
100
AcDbSymbolTableRecord
100
AcDbLayerTableRecord
  2
0
 70
     0
 62
     7
  6
Continuous
370
    -3
390
F
347
46
348
0
  0
LAYER
  5
72
330
2
100
AcDbSymbolTableRecord
100
AcDbLayerTableRecord
  2
AM_6
 70
     0
 62
    -2
  6
Continuous
370
    35
390
F
347
46
348
0
  0
LAYER
  5
95
330
2
100
AcDbSymbolTableRecord
100
AcDbLayerTableRecord
  2
AM_9
 70
     0
 62
     6
  6
Dashed
370
    25
390
F
347
46
348
0
  0
LAYER
  5
C6
330
2
100
AcDbSymbolTableRecord
100
AcDbLayerTableRecord
  2
AM_4
 70
     0
 62
     7
  6
Continuous
370
    50
390
F
347
46
348
0
  0
LAYER
  5
12F
330
2
100
AcDbSymbolTableRecord
100
AcDbLayerTableRecord
  2
AM_5
 70
     0
 62
     3
  6
Continuous
370
    25
390
F
347
46
348
0
  0
LAYER
  5
133
330
2
100
AcDbSymbolTableRecord
100
AcDbLayerTableRecord
  2
AM_7
 70
     0
 62
     7
  6
Center
370
    25
390
F
347
46
348
0
  0
LAYER
  5
1A1
330
2
100
AcDbSymbolTableRecord
100
AcDbLayerTableRecord
  2
ConnectionPoints
 70
     0
 62
     7
  6
Continuous
370
    50
390
F
347
46
348
0
  0
ENDTAB
  0
TABLE
  2
STYLE
  5
3
330
0
100
AcDbSymbolTable
 70
     1
  0
STYLE
  5
11
330
3
100
AcDbSymbolTableRecord
100
AcDbTextStyleTableRecord
  2
Standard
 70
     0
 40
0.0
 41
1.0
 50
0.0
 71
     0
 42
2.5
  3
txt
  4

  0
ENDTAB
  0
TABLE
  2
VIEW
  5
6
330
0
100
AcDbSymbolTable
 70
     0
  0
ENDTAB
  0
TABLE
  2
UCS
  5
7
330
0
100
AcDbSymbolTable
 70
     0
  0
ENDTAB
  0
TABLE
  2
APPID
  5
9
330
0
100
AcDbSymbolTable
 70
     1
  0
APPID
  5
12
330
9
100
AcDbSymbolTableRecord
100
AcDbRegAppTableRecord
  2
ACAD
 70
     0
  0
ENDTAB
  0
TABLE
  2
DIMSTYLE
  5
A
330
0
100
AcDbSymbolTable
 70
     1
100
AcDbDimStyleTable
  0
DIMSTYLE
105
27
330
A
100
AcDbSymbolTableRecord
100
AcDbDimStyleTableRecord
  2
ISO-25
 70
     0
 41
2.5
 42
0.625
 43
3.75
 44
1.25
 73
     0
 74
     0
 77
     1
 78
     8
140
2.5
141
2.5
143
0.03937007874016
147
0.625
171
     3
172
     1
178
     0
271
     2
272
     2
274
     3
278
    44
283
     0
284
     8
340
11
  0
ENDTAB
  0
TABLE
  2
BLOCK_RECORD
  5
1
330
0
100
AcDbSymbolTable
 70
     5
  0
BLOCK_RECORD
  5
1F
330
1
100
AcDbSymbolTableRecord
100
AcDbBlockTableRecord
  2
*Model_Space
340
22
 70
     0
280
     1
281
     0
  0
BLOCK_RECORD
  5
1B
330
1
100
AcDbSymbolTableRecord
100
AcDbBlockTableRecord
  2
*Paper_Space
340
1E
 70
     0
280
     1
281
     0
  0
BLOCK_RECORD
  5
23
330
1
100
AcDbSymbolTableRecord
100
AcDbBlockTableRecord
  2
*Paper_Space0
340
26
 70
     0
280
     1
281
     0
  0
BLOCK_RECORD
  5
6E
330
1
100
AcDbSymbolTableRecord
100
AcDbBlockTableRecord
  2
1_076311_2
340
0
102
{BLKREFS
331
6F
102
}
 70
     0
280
     1
281
     0
  0
BLOCK_RECORD
  5
88
330
1
100
AcDbSymbolTableRecord
100
AcDbBlockTableRecord
  2
2_405015E_Metric_0_in_076311_2
340
0
102
{BLKREFS
331
89
102
}
 70
     0
280
     1
281
     0
  0
BLOCK_RECORD
  5
EC
330
1
100
AcDbSymbolTableRecord
100
AcDbBlockTableRecord
  2
3_076348_0_in_076311_2
340
0
102
{BLKREFS
331
ED
102
}
 70
     0
280
     1
281
     0
  0
BLOCK_RECORD
  5
140
330
1
100
AcDbSymbolTableRecord
100
AcDbBlockTableRecord
  2
4_076311H_0_in_076311_2
340
0
102
{BLKREFS
331
141
102
}
 70
     0
280
     1
281
     0
  0
ENDTAB
  0
ENDSEC
  0
SECTION
  2
BLOCKS
  0
BLOCK
  5
20
330
1F
100
AcDbEntity
  8
0
100
AcDbBlockBegin
  2
*Model_Space
 70
     0
 10
0.0
 20
0.0
 30
0.0
  3
*Model_Space
  1

  0
ENDBLK
  5
21
330
1F
100
AcDbEntity
  8
0
100
AcDbBlockEnd
  0
BLOCK
  5
1C
330
1B
100
AcDbEntity
 67
     1
  8
0
100
AcDbBlockBegin
  2
*Paper_Space
 70
     0
 10
0.0
 20
0.0
 30
0.0
  3
*Paper_Space
  1

  0
ENDBLK
  5
1D
330
1B
100
AcDbEntity
 67
     1
  8
0
100
AcDbBlockEnd
  0
BLOCK
  5
24
330
23
100
AcDbEntity
  8
0
100
AcDbBlockBegin
  2
*Paper_Space0
 70
     0
 10
0.0
 20
0.0
 30
0.0
  3
*Paper_Space0
  1

  0
ENDBLK
  5
25
330
23
100
AcDbEntity
  8
0
100
AcDbBlockEnd
  0
BLOCK
  5
70
330
6E
100
AcDbEntity
  8
0
100
AcDbBlockBegin
  2
1_076311_2
 70
     2
 10
0.0
 20
0.0
 30
0.0
  3
1_076311_2
  1

  0
ATTDEF
  5
73
330
6E
100
AcDbEntity
  8
AM_6
100
AcDbText
 10
6.865
 20
94.5
 30
0.0
 40
0.5
  1
Set Screw Medium Duty Air-handling Two-Bolt Flange Metric Bore
100
AcDbAttributeDefinition
  3

  2
NN
 70
     8
280
     0
  0
ATTDEF
  5
74
330
6E
100
AcDbEntity
  8
AM_6
100
AcDbText
 10
6.865
 20
94.0
 30
0.0
 40
0.5
  1
SC 2 Bolt Flange Bearings -(Normal Duty)
100
AcDbAttributeDefinition
  3

  2
NT
 70
     8
280
     0
  0
ATTDEF
  5
75
330
6E
100
AcDbEntity
  8
AM_6
100
AcDbText
 10
6.865
 20
93.5
 30
0.0
 40
0.5
  1
076311
100
AcDbAttributeDefinition
  3

  2
NB
 70
     8
280
     0
  0
ATTDEF
  5
76
330
6E
100
AcDbEntity
  8
AM_6
100
AcDbText
 10
6.865
 20
93.0
 30
0.0
 40
0.5
  1
$PN.
100
AcDbAttributeDefinition
  3

  2
NBSYN
 70
     8
280
     0
  0
ATTDEF
  5
77
330
6E
100
AcDbEntity
  8
AM_6
100
AcDbText
 10
6.865
 20
92.5
 30
0.0
 40
0.5
  1
076311
100
AcDbAttributeDefinition
  3

  2
LINA
 70
     8
280
     0
  0
ATTDEF
  5
78
330
6E
100
AcDbEntity
  8
AM_6
100
AcDbText
 10
6.865
 20
92.0
 30
0.0
 40
0.5
  1
210
100
AcDbAttributeDefinition
  3

  2
SERIES
 70
     8
280
     0
  0
ATTDEF
  5
79
330
6E
100
AcDbEntity
  8
AM_6
100
AcDbText
 10
6.865
 20
91.5
 30
0.0
 40
0.5
  1
45
100
AcDbAttributeDefinition
  3

  2
SS
 70
     8
280
     0
  0
ATTDEF
  5
7A
330
6E
100
AcDbEntity
  8
AM_6
100
AcDbText
 10
6.865
 20
91.0
 30
0.0
 40
0.5
  1
076311
100
AcDbAttributeDefinition
  3

  2
PN
 70
     8
280
     0
  0
ATTDEF
  5
7B
330
6E
100
AcDbEntity
  8
AM_6
100
AcDbText
 10
6.865
 20
90.5
 30
0.0
 40
0.5
  1
F2B-SCMED-45M
100
AcDbAttributeDefinition
  3

  2
DESCRIPTION
 70
     8
280
     0
  0
ATTDEF
  5
7C
330
6E
100
AcDbEntity
  8
AM_6
100
AcDbText
 10
6.865
 20
90.0
 30
0.0
 40
0.5
  1
2.6
100
AcDbAttributeDefinition
  3

  2
W
 70
     8
280
     0
  0
ATTDEF
  5
7D
330
6E
100
AcDbEntity
  8
AM_6
100
AcDbText
 10
6.865
 20
89.5
 30
0.0
 40
0.5
  1
49.3
100
AcDbAttributeDefinition
  3

  2
A
 70
     8
280
     0
  0
ATTDEF
  5
7E
330
6E
100
AcDbEntity
  8
AM_6
100
AcDbText
 10
6.865
 20
89.0
 30
0.0
 40
0.5
  1
189.0
100
AcDbAttributeDefinition
  3

  2
B
 70
     8
280
     0
  0
ATTDEF
  5
7F
330
6E
100
AcDbEntity
  8
AM_6
100
AcDbText
 10
6.865
 20
88.5
 30
0.0
 40
0.5
  1
51.3
100
AcDbAttributeDefinition
  3

  2
C
 70
     8
280
     0
  0
ATTDEF
  5
80
330
6E
100
AcDbEntity
  8
AM_6
100
AcDbText
 10
6.865
 20
88.0
 30
0.0
 40
0.5
  1
157.2
100
AcDbAttributeDefinition
  3

  2
D
 70
     8
280
     0
  0
ATTDEF
  5
81
330
6E
100
AcDbEntity
  8
AM_6
100
AcDbText
 10
6.865
 20
87.5
 30
0.0
 40
0.5
  1
M16
100
AcDbAttributeDefinition
  3

  2
F
 70
     8
280
     0
  0
ATTDEF
  5
82
330
6E
100
AcDbEntity
  8
AM_6
100
AcDbText
 10
6.865
 20
87.0
 30
0.0
 40
0.5
  1
16.0
100
AcDbAttributeDefinition
  3

  2
H
 70
     8
280
     0
  0
ATTDEF
  5
83
330
6E
100
AcDbEntity
  8
AM_6
100
AcDbText
 10
6.865
 20
86.5
 30
0.0
 40
0.5
  1
14.0
100
AcDbAttributeDefinition
  3

  2
J
 70
     8
280
     0
  0
ATTDEF
  5
84
330
6E
100
AcDbEntity
  8
AM_6
100
AcDbText
 10
6.865
 20
86.0
 30
0.0
 40
0.5
  1
61.7
100
AcDbAttributeDefinition
  3

  2
L
 70
     8
280
     0
  0
ATTDEF
  5
85
330
6E
100
AcDbEntity
  8
AM_6
100
AcDbText
 10
6.865
 20
85.5
 30
0.0
 40
0.5
  1
115.8
100
AcDbAttributeDefinition
  3

  2
M
 70
     8
280
     0
  0
ATTDEF
  5
86
330
6E
100
AcDbEntity
  8
AM_6
100
AcDbText
 10
6.865
 20
85.0
 30
0.0
 40
0.5
  1
51.6
100
AcDbAttributeDefinition
  3

  2
N
 70
     8
280
     0
  0
ATTDEF
  5
87
330
6E
100
AcDbEntity
  8
AM_6
100
AcDbText
 10
6.865
 20
84.5
 30
0.0
 40
0.5
  1
baldor
100
AcDbAttributeDefinition
  3

  2
COMPANY
 70
     8
280
     0
  0
INSERT
  5
89
330
6E
100
AcDbEntity
  8
0
100
AcDbBlockReference
  2
2_405015E_Metric_0_in_076311_2
 10
0.0
 20
0.0
 30
0.0
  0
INSERT
  5
ED
330
6E
100
AcDbEntity
  8
0
100
AcDbBlockReference
  2
3_076348_0_in_076311_2
 10
0.0
 20
0.0
 30
0.0
  0
INSERT
  5
141
330
6E
100
AcDbEntity
  8
0
100
AcDbBlockReference
  2
4_076311H_0_in_076311_2
 10
0.0
 20
0.0
 30
0.0
  0
ENDBLK
  5
71
330
6E
100
AcDbEntity
  8
0
100
AcDbBlockEnd
  0
BLOCK
  5
8A
330
88
100
AcDbEntity
  8
0
100
AcDbBlockBegin
  2
2_405015E_Metric_0_in_076311_2
 70
     2
 10
0.0
 20
0.0
 30
0.0
  3
2_405015E_Metric_0_in_076311_2
  1

  0
ATTDEF
  5
8C
330
88
100
AcDbEntity
  8
AM_6
100
AcDbText
 10
-12.32649730810374
 20
51.83428248935371
 30
0.0
 40
0.5
  1
405015E -Metric
100
AcDbAttributeDefinition
  3

  2
NN
 70
     8
280
     0
  0
ATTDEF
  5
8D
330
88
100
AcDbEntity
  8
AM_6
100
AcDbText
 10
-12.32649730810374
 20
51.33428248935371
 30
0.0
 40
0.5
  1
Grease Fitting
100
AcDbAttributeDefinition
  3

  2
NT
 70
     8
280
     0
  0
ATTDEF
  5
8E
330
88
100
AcDbEntity
  8
AM_6
100
AcDbText
 10
-12.32649730810374
 20
50.83428248935371
 30
0.0
 40
0.5
  1
405015E-Metric
100
AcDbAttributeDefinition
  3

  2
NB
 70
     8
280
     0
  0
ATTDEF
  5
8F
330
88
100
AcDbEntity
  8
AM_6
100
AcDbText
 10
-12.32649730810374
 20
50.33428248935371
 30
0.0
 40
0.5
  1
$MN.-Metric
100
AcDbAttributeDefinition
  3

  2
NBSYN
 70
     8
280
     0
  0
ATTDEF
  5
90
330
88
100
AcDbEntity
  8
AM_6
100
AcDbText
 10
-12.32649730810374
 20
49.83428248935371
 30
0.0
 40
0.5
  1
405015E
100
AcDbAttributeDefinition
  3

  2
LINA
 70
     8
280
     0
  0
ATTDEF
  5
91
330
88
100
AcDbEntity
  8
AM_6
100
AcDbText
 10
-12.32649730810374
 20
49.33428248935371
 30
0.0
 40
0.5
  1
405015E
100
AcDbAttributeDefinition
  3

  2
MN
 70
     8
280
     0
  0
ATTDEF
  5
92
330
88
100
AcDbEntity
  8
AM_6
100
AcDbText
 10
-12.32649730810374
 20
48.83428248935371
 30
0.0
 40
0.5
  1
1/8 x 27PTF
100
AcDbAttributeDefinition
  3

  2
T
 70
     8
280
     0
  0
ATTDEF
  5
93
330
88
100
AcDbEntity
  8
AM_6
100
AcDbText
 10
-12.32649730810374
 20
48.33428248935371
 30
0.0
 40
0.5
  1
baldor
100
AcDbAttributeDefinition
  3

  2
COMPANY
 70
     8
280
     0
  0
ELLIPSE
  5
96
330
88
100
AcDbEntity
  8
AM_9
100
AcDbEllipse
 10
-23.09999999999999
 20
38.66586999224845
 30
0.0
 11
-4.157993753183518
 21
5.092073740710886E-16
 31
0.0
210
0.0
220
0.0
230
1.0
 40
0.7071067811865479
 41
0.0
 42
6.283185307179586
  0
ELLIPSE
  5
97
330
88
100
AcDbEntity
  8
AM_9
100
AcDbEllipse
 10
-23.1
 20
43.42540573641507
 30
0.0
 11
4.999999999999993
 21
0.0
 31
0.0
210
0.0
220
0.0
230
1.0
 40
0.7071067811865528
 41
1.570796326794897
 42
2.617993877991489
  0
LWPOLYLINE
  5
98
330
88
100
AcDbEntity
  8
AM_9
100
AcDbPolyline
 90
        4
 70
     0
 43
0.0
 10
-27.43012701892219
 20
45.19317268938148
 10
-27.06928310067867
 20
45.64493172045085
 10
-26.70843918243516
 20
46.11573904090602
 10
-25.98675134594812
 20
47.10749418485211
  0
LWPOLYLINE
  5
99
330
88
100
AcDbEntity
  8
AM_9
100
AcDbPolyline
 90
        4
 70
     0
 43
0.0
 10
-25.98675134594812
 20
47.10749418485211
 10
-25.33135904478312
 20
47.0509950298575
 10
-24.21901401901461
 20
46.98437489824239
 10
-23.09999999999999
 20
46.96093964234785
  0
LWPOLYLINE
  5
9A
330
88
100
AcDbEntity
  8
AM_9
100
AcDbPolyline
 90
        4
 70
     0
 43
0.0
 10
-20.21324865405187
 20
47.10749418485211
 10
-19.49480572040851
 20
46.12005496032851
 10
-19.13284483306197
 20
45.64765342244541
 10
-18.7698729810778
 20
45.19317268938148
  0
LWPOLYLINE
  5
9B
330
88
100
AcDbEntity
  8
AM_9
100
AcDbPolyline
 90
        4
 70
     0
 43
0.0
 10
-23.09999999999999
 20
46.96093964234785
 10
-22.37831216351297
 20
46.97075693517563
 10
-21.65662432702593
 20
46.99962251738921
 10
-20.21324865405187
 20
47.10749418485211
  0
LINE
  5
9C
330
88
100
AcDbEntity
  8
AM_9
100
AcDbLine
 10
-20.21324865405187
 20
48.93570544340324
 30
0.0
 11
-20.21324865405187
 21
47.10749418485211
 31
0.0
  0
LINE
  5
9D
330
88
100
AcDbEntity
  8
AM_9
100
AcDbLine
 10
-25.98675134594812
 20
48.93570544340324
 30
0.0
 11
-25.98675134594812
 21
47.10749418485211
 31
0.0
  0
LINE
  5
9E
330
88
100
AcDbEntity
  8
AM_9
100
AcDbLine
 10
-25.98675134594812
 20
48.93570544340324
 30
0.0
 11
-26.26787861068112
 21
48.64057954705359
 31
0.0
  0
LWPOLYLINE
  5
9F
330
88
100
AcDbEntity
  8
AM_9
100
AcDbPolyline
 90
        4
 70
     0
 43
0.0
 10
-23.09999999999999
 20
49.08225998590749
 10
-24.21567952239156
 20
49.05896251558611
 10
-25.33135904478312
 20
48.99220459839783
 10
-25.98675134594812
 20
48.93570544340324
  0
LINE
  5
A0
330
88
100
AcDbEntity
  8
AM_9
100
AcDbLine
 10
-19.93640533164738
 20
48.64514089469489
 30
0.0
 11
-20.21324865405187
 21
48.93570544340324
 31
0.0
  0
LWPOLYLINE
  5
A1
330
88
100
AcDbEntity
  8
AM_9
100
AcDbPolyline
 90
        4
 70
     0
 43
0.0
 10
-20.21324865405187
 20
48.93570544340324
 10
-21.65013452133859
 20
49.0432353695596
 10
-22.37405629603167
 20
49.07232716702067
 10
-23.09999999999999
 20
49.08225998590749
  0
LWPOLYLINE
  5
A2
330
88
100
AcDbEntity
  8
AM_9
100
AcDbPolyline
 90
        4
 70
     0
 43
0.0
 10
-28.87350269189625
 20
43.57196027891937
 10
-28.15505975825289
 20
44.34433965113023
 10
-27.79309887090635
 20
44.75855759409119
 10
-27.43012701892219
 20
45.19317268938148
  0
LWPOLYLINE
  5
A3
330
88
100
AcDbEntity
  8
AM_9
100
AcDbPolyline
 90
        4
 70
     0
 43
0.0
 10
-18.7698729810778
 20
45.19317268938148
 10
-18.40902906283429
 20
44.76104824396766
 10
-18.04818514459077
 20
44.34797208793965
 10
-17.32649730810374
 20
43.57196027891937
  0
LINE
  5
A4
330
88
100
AcDbEntity
  8
AM_9
100
AcDbLine
 10
-18.34429459986382
 20
38.98501546234329
 30
0.0
 11
-18.15278597881428
 21
43.31602782948246
 31
0.0
  0
LINE
  5
A5
330
88
100
AcDbEntity
  8
AM_9
100
AcDbLine
 10
-28.04721402118571
 20
43.31602782948246
 30
0.0
 11
-27.85570540013618
 21
38.98501546234329
 31
0.0
  0
ELLIPSE
  5
A6
330
88
100
AcDbEntity
  8
AM_9
100
AcDbEllipse
 10
-23.10000000000001
 20
43.42540573641509
 30
0.0
 11
5.000000000000018
 21
0.0
 31
0.0
210
0.0
220
0.0
230
1.0
 40
0.7071067811865421
 41
2.617993877991485
 42
7.853981633974483
  0
LINE
  5
A7
330
88
100
AcDbEntity
  8
AM_9
100
AcDbLine
 10
-17.32649730810374
 20
44.0398765113519
 30
0.0
 11
-17.32649730810374
 21
43.57196027891937
 31
0.0
  0
LWPOLYLINE
  5
A8
330
88
100
AcDbEntity
  8
AM_9
100
AcDbPolyline
 90
        4
 70
     0
 43
0.0
 10
-18.7698729810778
 20
41.65763878344874
 10
-19.13071689932132
 20
41.22551433803493
 10
-19.49156081756483
 20
40.81243818200691
 10
-20.21324865405186
 20
40.03642637298663
  0
LWPOLYLINE
  5
A9
330
88
100
AcDbEntity
  8
AM_9
100
AcDbPolyline
 90
        4
 70
     0
 43
0.0
 10
-17.32649730810374
 20
43.57196027891937
 10
-18.0449402417471
 20
42.58452105439577
 10
-18.40690112909364
 20
42.11211951651268
 10
-18.7698729810778
 20
41.65763878344874
  0
LINE
  5
AA
330
88
100
AcDbEntity
  8
AM_9
100
AcDbLine
 10
-28.87350269189625
 20
44.0398765113519
 30
0.0
 11
-28.87350269189625
 21
43.57196027891937
 31
0.0
  0
LWPOLYLINE
  5
AB
330
88
100
AcDbEntity
  8
AM_9
100
AcDbPolyline
 90
        4
 70
     0
 43
0.0
 10
-27.43012701892219
 20
41.65763878344874
 10
-27.7909709371657
 20
42.10939781451811
 10
-28.15181485540922
 20
42.58020513497328
 10
-28.87350269189625
 20
43.57196027891937
  0
LWPOLYLINE
  5
AC
330
88
100
AcDbEntity
  8
AM_9
100
AcDbPolyline
 90
        4
 70
     0
 43
0.0
 10
-25.98675134594812
 20
40.03642637298663
 10
-26.70519427959148
 20
40.8088057451975
 10
-27.06715516693803
 20
41.22302368815845
 10
-27.43012701892219
 20
41.65763878344874
  0
ELLIPSE
  5
AD
330
88
100
AcDbEntity
  8
AM_9
100
AcDbEllipse
 10
-23.09999999999997
 20
45.54672607997477
 30
0.0
 11
4.999999999999925
 21
0.0
 31
0.0
210
0.0
220
0.0
230
1.0
 40
0.7071067811865538
 41
0.8982051386273842
 42
2.243387514962321
  0
LINE
  5
AE
330
88
100
AcDbEntity
  8
AM_9
100
AcDbLine
 10
-20.21324865405186
 20
40.50434260541916
 30
0.0
 11
-20.21324865405186
 21
40.03642637298663
 31
0.0
  0
LINE
  5
AF
330
88
100
AcDbEntity
  8
AM_9
100
AcDbLine
 10
-25.98675134594812
 20
40.50434260541916
 30
0.0
 11
-25.98675134594812
 21
40.03642637298663
 31
0.0
  0
LWPOLYLINE
  5
B0
330
88
100
AcDbEntity
  8
AM_9
100
AcDbPolyline
 90
        4
 70
     0
 43
0.0
 10
-23.09999999999999
 20
39.88987183048237
 10
-24.21567952239156
 20
39.91316930080375
 10
-25.33135904478312
 20
39.97992721799203
 10
-25.98675134594812
 20
40.03642637298663
  0
LWPOLYLINE
  5
B1
330
88
100
AcDbEntity
  8
AM_9
100
AcDbPolyline
 90
        4
 70
     0
 43
0.0
 10
-20.21324865405186
 20
40.03642637298663
 10
-21.65013452133859
 20
39.92889644683027
 10
-22.37405629603167
 20
39.89980464936919
 10
-23.09999999999999
 20
39.88987183048237
  0
LINE
  5
B2
330
88
100
AcDbEntity
  8
AM_9
100
AcDbLine
 10
-25.08992883273251
 20
48.3264151103847
 30
0.0
 11
-25.50658641745394
 21
48.06259563849782
 31
0.0
  0
LINE
  5
B3
330
88
100
AcDbEntity
  8
AM_9
100
AcDbLine
 10
-20.69341358254605
 20
48.06259563849782
 30
0.0
 11
-21.11007116726748
 21
48.3264151103847
 31
0.0
  0
ELLIPSE
  5
B4
330
88
100
AcDbEntity
  8
AM_9
100
AcDbEllipse
 10
-23.09999999999999
 20
46.7550395495061
 30
0.0
 11
2.982994982562538
 21
0.0
 31
0.0
210
0.0
220
0.0
230
1.0
 40
0.7071067811865476
 41
0.8404993455406293
 42
2.301093308049164
  0
ELLIPSE
  5
B5
330
88
100
AcDbEntity
  8
AM_9
100
AcDbEllipse
 10
-23.09999999999998
 20
46.75503954950613
 30
0.0
 11
2.982994982562513
 21
0.0
 31
0.0
210
0.0
220
0.0
230
1.0
 40
0.7071067811865487
 41
2.301093308049177
 42
2.754650415401414
  0
ELLIPSE
  5
B6
330
88
100
AcDbEntity
  8
AM_9
100
AcDbEllipse
 10
-23.09999999999999
 20
46.16220049907135
 30
0.0
 11
3.607583894601113
 21
5.375718913377991E-8
 31
0.0
210
0.0
220
0.0
230
1.0
 40
0.7071067811865478
 41
0.840499330314965
 42
2.301093292823514
  0
ELLIPSE
  5
B7
330
88
100
AcDbEntity
  8
AM_9
100
AcDbEllipse
 10
-23.09999999999946
 20
46.16220049907101
 30
0.0
 11
3.607583894601837
 21
5.375718913379071E-8
 31
0.0
210
0.0
220
0.0
230
1.0
 40
0.7071067811865378
 41
-3.944898294954212
 42
-3.804975985856723
  0
ELLIPSE
  5
B8
330
88
100
AcDbEntity
  8
AM_9
100
AcDbEllipse
 10
-23.10000000000418
 20
46.16220049907452
 30
0.0
 11
3.607583894594974
 21
0.0
 31
0.0
210
0.0
220
0.0
230
1.0
 40
0.7071067811865478
 41
-3.982091999130449
 42
-3.944898279337767
  0
LINE
  5
B9
330
88
100
AcDbEntity
  8
AM_9
100
AcDbLine
 10
-25.57722991985558
 20
48.04594830234777
 30
0.0
 11
-25.84897711671493
 21
47.5743866514828
 31
0.0
  0
LINE
  5
BA
330
88
100
AcDbEntity
  8
AM_9
100
AcDbLine
 10
-20.35102288328506
 20
47.5743866514828
 30
0.0
 11
-20.62277008014441
 21
48.04594830234777
 31
0.0
  0
ELLIPSE
  5
BB
330
88
100
AcDbEntity
  8
AM_9
100
AcDbEllipse
 10
-23.09999999999999
 20
47.33217070247078
 30
0.0
 11
2.674999999999997
 21
3.986060619354244E-8
 31
0.0
210
0.0
220
0.0
230
1.0
 40
0.7071067811865492
 41
0.0000017304280906
 42
3.141592638688632
  0
ELLIPSE
  5
BC
330
88
100
AcDbEntity
  8
AM_9
100
AcDbEllipse
 10
-23.10000000000003
 20
46.75503954950612
 30
0.0
 11
2.982994982562527
 21
4.445008907560299E-8
 31
0.0
210
0.0
220
0.0
230
1.0
 40
0.7071067811865477
 41
0.3869422186153786
 42
0.8404993303149595
  0
ELLIPSE
  5
BD
330
88
100
AcDbEntity
  8
AM_9
100
AcDbEllipse
 10
-23.09999999998657
 20
46.16220049908157
 30
0.0
 11
3.607583894581385
 21
0.0
 31
0.0
210
0.0
220
0.0
230
1.0
 40
0.7071067811865485
 41
0.6633833151880619
 42
0.8404993455407204
  0
ELLIPSE
  5
BE
330
88
100
AcDbEntity
  8
AM_9
100
AcDbEllipse
 10
-23.1
 20
45.54672607997475
 30
0.0
 11
4.750000000000004
 21
0.0
 31
0.0
210
0.0
220
0.0
230
1.0
 40
0.7071067811865452
 41
0.873648289948532
 42
2.267944363641283
  0
LINE
  5
BF
330
88
100
AcDbEntity
  8
AM_9
100
AcDbLine
 10
-20.42499999999999
 20
47.44884332136656
 30
0.0
 11
-20.42499999999999
 21
47.82714544930137
 31
0.0
  0
LINE
  5
C0
330
88
100
AcDbEntity
  8
AM_9
100
AcDbLine
 10
-25.775
 20
47.82714544930137
 30
0.0
 11
-25.775
 21
47.44884332136657
 31
0.0
  0
ELLIPSE
  5
C1
330
88
100
AcDbEntity
  8
AM_9
100
AcDbEllipse
 10
-23.09999999999989
 20
47.82714544930156
 30
0.0
 11
2.6750000000001
 21
0.0
 31
0.0
210
0.0
220
0.0
230
1.0
 40
0.7071067811865618
 41
3.141592653589793
 42
3.536383773289627
  0
ELLIPSE
  5
C2
330
88
100
AcDbEntity
  8
AM_9
100
AcDbEllipse
 10
-23.09999999999999
 20
47.82714544930137
 30
0.0
 11
2.674999999999997
 21
3.986060619354244E-8
 31
0.0
210
0.0
220
0.0
230
1.0
 40
0.7071067811865466
 41
5.888394167965084
 42
9.424777945868218
  0
ELLIPSE
  5
C3
330
88
100
AcDbEntity
  8
AM_9
100
AcDbEllipse
 10
-23.1
 20
48.74638426484388
 30
0.0
 11
3.174999999999997
 21
0.0
 31
0.0
210
0.0
220
0.0
230
1.0
 40
0.7071067811865476
 41
0.4159140521025479
 42
2.725678601487245
  0
ELLIPSE
  5
C4
330
88
100
AcDbEntity
  8
AM_9
100
AcDbEllipse
 10
-23.09999999999999
 20
43.42540573641511
 30
0.0
 11
4.949631665534962
 21
0.0
 31
0.0
210
0.0
220
0.0
230
1.0
 40
0.7071067811865477
 41
0.0
 42
6.283185307179586
  0
ELLIPSE
  5
C5
330
88
100
AcDbEntity
  8
AM_9
100
AcDbEllipse
 10
-23.09999999999999
 20
39.09015930702591
 30
0.0
 11
4.758029456511771
 21
0.0
 31
0.0
210
0.0
220
0.0
230
1.0
 40
0.7071067811865478
 41
0.0
 42
6.283185307179586
  0
LWPOLYLINE
  5
C7
330
88
100
AcDbEntity
  8
AM_4
100
AcDbPolyline
 90
        4
 70
     0
 43
0.0
 10
-26.26787861068112
 20
48.64057954705359
 10
-26.70519427959148
 20
48.16332607119237
 10
-27.06715516693803
 20
47.74910812823141
 10
-27.43012701892219
 20
47.31449303294112
  0
LWPOLYLINE
  5
C8
330
88
100
AcDbEntity
  8
AM_4
100
AcDbPolyline
 90
        4
 70
     0
 43
0.0
 10
-18.7698729810778
 20
47.31449303294112
 10
-19.13071689932132
 20
47.74661747835493
 10
-19.49156081756483
 20
48.15969363438295
 10
-19.93640533164738
 20
48.64514089469489
  0
LWPOLYLINE
  5
C9
330
88
100
AcDbEntity
  8
AM_4
100
AcDbPolyline
 90
        4
 70
     0
 43
0.0
 10
-27.43012701892219
 20
47.31449303294112
 10
-27.7909709371657
 20
46.86273400187175
 10
-28.15181485540922
 20
46.39192668141658
 10
-28.87350269189625
 20
45.40017153747049
  0
LWPOLYLINE
  5
CA
330
88
100
AcDbEntity
  8
AM_4
100
AcDbPolyline
 90
        4
 70
     0
 43
0.0
 10
-17.32649730810374
 20
45.40017153747049
 10
-18.0449402417471
 20
46.38761076199409
 10
-18.40690112909364
 20
46.86001229987718
 10
-18.7698729810778
 20
47.31449303294112
  0
LINE
  5
CB
330
88
100
AcDbEntity
  8
AM_4
100
AcDbLine
 10
-17.32649730810374
 20
45.40017153747049
 30
0.0
 11
-17.32649730810374
 21
44.0398765113519
 31
0.0
  0
LWPOLYLINE
  5
CC
330
88
100
AcDbEntity
  8
AM_4
100
AcDbPolyline
 90
        4
 70
     0
 43
0.0
 10
-18.7698729810778
 20
43.77895912700838
 10
-18.40902906283429
 20
44.21108357242219
 10
-18.04818514459077
 20
44.62415972845021
 10
-17.32649730810374
 20
45.40017153747049
  0
LWPOLYLINE
  5
CD
330
88
100
AcDbEntity
  8
AM_4
100
AcDbPolyline
 90
        4
 70
     0
 43
0.0
 10
-20.21324865405186
 20
41.86463763153775
 10
-19.49480572040851
 20
42.85207685606135
 10
-19.13284483306196
 20
43.32447839394445
 10
-18.7698729810778
 20
43.77895912700838
  0
LWPOLYLINE
  5
CE
330
88
100
AcDbEntity
  8
AM_4
100
AcDbPolyline
 90
        4
 70
     0
 43
0.0
 10
-27.43012701892219
 20
43.77895912700838
 10
-27.06928310067867
 20
43.32720009593901
 10
-26.70843918243516
 20
42.85639277548384
 10
-25.98675134594812
 20
41.86463763153775
  0
LWPOLYLINE
  5
CF
330
88
100
AcDbEntity
  8
AM_4
100
AcDbPolyline
 90
        4
 70
     0
 43
0.0
 10
-28.87350269189625
 20
45.40017153747049
 10
-28.15505975825289
 20
44.62779216525963
 10
-27.79309887090635
 20
44.21357422229867
 10
-27.43012701892219
 20
43.77895912700838
  0
LINE
  5
D0
330
88
100
AcDbEntity
  8
AM_4
100
AcDbLine
 10
-28.87350269189625
 20
45.40017153747049
 30
0.0
 11
-28.87350269189625
 21
44.0398765113519
 31
0.0
  0
ELLIPSE
  5
D1
330
88
100
AcDbEntity
  8
AM_4
100
AcDbEllipse
 10
-23.1
 20
45.54672607997477
 30
0.0
 11
4.999999999999996
 21
0.0
 31
0.0
210
0.0
220
0.0
230
1.0
 40
0.7071067811865523
 41
3.665191429188091
 42
4.71238898038469
  0
ELLIPSE
  5
D2
330
88
100
AcDbEntity
  8
AM_4
100
AcDbEllipse
 10
-23.10000000000001
 20
45.5467260799748
 30
0.0
 11
5.000000000000018
 21
0.0
 31
0.0
210
0.0
220
0.0
230
1.0
 40
0.7071067811865521
 41
4.71238898038469
 42
6.806784082777869
  0
ELLIPSE
  5
D3
330
88
100
AcDbEntity
  8
AM_4
100
AcDbEllipse
 10
-23.09999999999998
 20
45.54672607997465
 30
0.0
 11
4.999999999999982
 21
0.0
 31
0.0
210
0.0
220
0.0
230
1.0
 40
0.70710678118656
 41
0.5235987755983169
 42
0.8982051386273997
  0
ELLIPSE
  5
D4
330
88
100
AcDbEntity
  8
AM_4
100
AcDbEllipse
 10
-23.09999999999998
 20
45.54672607997495
 30
0.0
 11
5.000000000000007
 21
0.0
 31
0.0
210
0.0
220
0.0
230
1.0
 40
0.7071067811865209
 41
2.243387514962329
 42
2.617993877991528
  0
ELLIPSE
  5
D5
330
88
100
AcDbEntity
  8
AM_4
100
AcDbEllipse
 10
-23.09999999999993
 20
45.54672607997475
 30
0.0
 11
5.000000000000071
 21
0.0
 31
0.0
210
0.0
220
0.0
230
1.0
 40
0.7071067811865475
 41
2.617993877991501
 42
3.665191429188085
  0
LINE
  5
D6
330
88
100
AcDbEntity
  8
AM_4
100
AcDbLine
 10
-20.21324865405186
 20
41.86463763153775
 30
0.0
 11
-20.21324865405186
 21
40.50434260541916
 31
0.0
  0
LWPOLYLINE
  5
D7
330
88
100
AcDbEntity
  8
AM_4
100
AcDbPolyline
 90
        4
 70
     0
 43
0.0
 10
-23.09999999999999
 20
42.01119217404202
 10
-22.37831216351297
 20
42.00137488121423
 10
-21.65662432702593
 20
41.97250929900065
 10
-20.21324865405186
 20
41.86463763153775
  0
LWPOLYLINE
  5
D8
330
88
100
AcDbEntity
  8
AM_4
100
AcDbPolyline
 90
        4
 70
     0
 43
0.0
 10
-25.98675134594812
 20
41.86463763153775
 10
-25.33135904478312
 20
41.92113678653236
 10
-24.21901401901461
 20
41.98775691814748
 10
-23.09999999999999
 20
42.01119217404202
  0
LINE
  5
D9
330
88
100
AcDbEntity
  8
AM_4
100
AcDbLine
 10
-25.98675134594812
 20
41.86463763153775
 30
0.0
 11
-25.98675134594812
 21
40.50434260541916
 31
0.0
  0
ELLIPSE
  5
DA
330
88
100
AcDbEntity
  8
AM_4
100
AcDbEllipse
 10
-23.1
 20
46.16220049907135
 30
0.0
 11
3.607583894601117
 21
0.0
 31
0.0
210
0.0
220
0.0
230
1.0
 40
0.7071067811865491
 41
2.478209338400867
 42
6.283185307179586
  0
ELLIPSE
  5
DB
330
88
100
AcDbEntity
  8
AM_4
100
AcDbEllipse
 10
-23.09999999999997
 20
46.75503954950621
 30
0.0
 11
2.982994982562484
 21
0.0
 31
0.0
210
0.0
220
0.0
230
1.0
 40
0.7071067811865388
 41
2.754650415401448
 42
6.670127545367937
  0
LINE
  5
DC
330
88
100
AcDbEntity
  8
AM_4
100
AcDbLine
 10
-25.84897711671493
 20
47.5743866514828
 30
0.0
 11
-25.86245398937679
 21
47.55100029683268
 31
0.0
  0
LINE
  5
DD
330
88
100
AcDbEntity
  8
AM_4
100
AcDbLine
 10
-20.3375460106232
 20
47.55100029683268
 30
0.0
 11
-20.35102288328506
 21
47.5743866514828
 31
0.0
  0
ELLIPSE
  5
DE
330
88
100
AcDbEntity
  8
AM_4
100
AcDbEllipse
 10
-23.10000000000001
 20
46.16220049907132
 30
0.0
 11
3.607583894601127
 21
0.0
 31
0.0
210
0.0
220
0.0
230
1.0
 40
0.707106781186553
 41
0.0
 42
0.6633833151889306
  0
ELLIPSE
  5
DF
330
88
100
AcDbEntity
  8
AM_4
100
AcDbEllipse
 10
-23.09999999999998
 20
45.54672607997475
 30
0.0
 11
4.75
 21
0.0
 31
0.0
210
0.0
220
0.0
230
1.0
 40
0.7071067811865472
 41
2.267944363641288
 42
6.283185307179586
  0
ELLIPSE
  5
E0
330
88
100
AcDbEntity
  8
AM_4
100
AcDbEllipse
 10
-23.09999999999999
 20
45.54672607997473
 30
0.0
 11
4.749999999999996
 21
0.0
 31
0.0
210
0.0
220
0.0
230
1.0
 40
0.7071067811865478
 41
0.0
 42
0.873648289948535
  0
LINE
  5
E1
330
88
100
AcDbEntity
  8
AM_4
100
AcDbLine
 10
-20.42499999999999
 20
47.33217070247078
 30
0.0
 11
-20.42499999999999
 21
47.44884332136656
 31
0.0
  0
LINE
  5
E2
330
88
100
AcDbEntity
  8
AM_4
100
AcDbLine
 10
-25.775
 20
47.44884332136657
 30
0.0
 11
-25.775
 21
47.33217070247078
 31
0.0
  0
ELLIPSE
  5
E3
330
88
100
AcDbEntity
  8
AM_4
100
AcDbEllipse
 10
-23.09999999999999
 20
47.33217070247078
 30
0.0
 11
2.674999999999994
 21
0.0
 31
0.0
210
0.0
220
0.0
230
1.0
 40
0.7071067811865475
 41
3.141592653589793
 42
6.283185307179586
  0
LINE
  5
E4
330
88
100
AcDbEntity
  8
AM_4
100
AcDbLine
 10
-20.63076923076923
 20
47.09964135711905
 30
0.0
 11
-20.16923076923077
 21
47.88289809935646
 31
0.0
  0
LINE
  5
E5
330
88
100
AcDbEntity
  8
AM_4
100
AcDbLine
 10
-26.03076923076923
 20
47.88289809935646
 30
0.0
 11
-25.56923076923076
 21
47.09964135711905
 31
0.0
  0
ELLIPSE
  5
E6
330
88
100
AcDbEntity
  8
AM_4
100
AcDbEllipse
 10
-23.1
 20
47.82714544930138
 30
0.0
 11
2.674999999999997
 21
3.986060619354244E-8
 31
0.0
210
0.0
220
0.0
230
1.0
 40
0.7071067811865492
 41
3.536383753774819
 42
5.888394167965081
  0
ELLIPSE
  5
E7
330
88
100
AcDbEntity
  8
AM_4
100
AcDbEllipse
 10
-23.09999999999997
 20
48.74638426484405
 30
0.0
 11
3.174999999999979
 21
0.0
 31
0.0
210
0.0
220
0.0
230
1.0
 40
0.7071067811865359
 41
3.536383773289629
 42
6.699099359282073
  0
LINE
  5
E8
330
88
100
AcDbEntity
  8
AM_4
100
AcDbLine
 10
-25.2651591196919
 20
50.83681032449829
 30
0.0
 11
-26.00432300025953
 21
49.65344901175104
 31
0.0
  0
LINE
  5
E9
330
88
100
AcDbEntity
  8
AM_4
100
AcDbLine
 10
-20.19567699974047
 20
49.65344901175104
 30
0.0
 11
-20.93484088030809
 21
50.83681032449829
 31
0.0
  0
ELLIPSE
  5
EA
330
88
100
AcDbEntity
  8
AM_4
100
AcDbEllipse
 10
-23.09999999999998
 20
48.7463842648439
 30
0.0
 11
3.175000000000018
 21
0.0
 31
0.0
210
0.0
220
0.0
230
1.0
 40
0.7071067811865496
 41
2.725678601487254
 42
3.536383773289558
  0
ELLIPSE
  5
EB
330
88
100
AcDbEntity
  8
AM_4
100
AcDbEllipse
 10
-23.10000000000013
 20
50.16059782721679
 30
0.0
 11
2.366947548329819
 21
0.0
 31
0.0
210
0.0
220
0.0
230
1.0
 40
0.7071067811865615
 41
0.0
 42
6.283185307179586
  0
ENDBLK
  5
8B
330
88
100
AcDbEntity
  8
0
100
AcDbBlockEnd
  0
BLOCK
  5
EE
330
EC
100
AcDbEntity
  8
0
100
AcDbBlockBegin
  2
3_076348_0_in_076311_2
 70
     2
 10
0.0
 20
0.0
 30
0.0
  3
3_076348_0_in_076311_2
  1

  0
ATTDEF
  5
F0
330
EC
100
AcDbEntity
  8
AM_6
100
AcDbText
 10
2.999999999999998
 20
44.9912154126094
 30
0.0
 40
0.5
  1
Set Screw Medium Duty Extreme Duty Insert Metric Bore
100
AcDbAttributeDefinition
  3

  2
NN
 70
     8
280
     0
  0
ATTDEF
  5
F1
330
EC
100
AcDbEntity
  8
AM_6
100
AcDbText
 10
2.999999999999998
 20
44.4912154126094
 30
0.0
 40
0.5
  1
SC Medium Duty Bearing Inserts
100
AcDbAttributeDefinition
  3

  2
NT
 70
     8
280
     0
  0
ATTDEF
  5
F2
330
EC
100
AcDbEntity
  8
AM_6
100
AcDbText
 10
2.999999999999998
 20
43.9912154126094
 30
0.0
 40
0.5
  1
076348
100
AcDbAttributeDefinition
  3

  2
NB
 70
     8
280
     0
  0
ATTDEF
  5
F3
330
EC
100
AcDbEntity
  8
AM_6
100
AcDbText
 10
2.999999999999998
 20
43.4912154126094
 30
0.0
 40
0.5
  1
$PN.
100
AcDbAttributeDefinition
  3

  2
NBSYN
 70
     8
280
     0
  0
ATTDEF
  5
F4
330
EC
100
AcDbEntity
  8
AM_6
100
AcDbText
 10
2.999999999999998
 20
42.9912154126094
 30
0.0
 40
0.5
  1
076348
100
AcDbAttributeDefinition
  3

  2
LINA
 70
     8
280
     0
  0
ATTDEF
  5
F5
330
EC
100
AcDbEntity
  8
AM_6
100
AcDbText
 10
2.999999999999998
 20
42.4912154126094
 30
0.0
 40
0.5
  1
210
100
AcDbAttributeDefinition
  3

  2
SERIES
 70
     8
280
     0
  0
ATTDEF
  5
F6
330
EC
100
AcDbEntity
  8
AM_6
100
AcDbText
 10
2.999999999999998
 20
41.9912154126094
 30
0.0
 40
0.5
  1
45
100
AcDbAttributeDefinition
  3

  2
SS
 70
     8
280
     0
  0
ATTDEF
  5
F7
330
EC
100
AcDbEntity
  8
AM_6
100
AcDbText
 10
2.999999999999998
 20
41.4912154126094
 30
0.0
 40
0.5
  1
076348
100
AcDbAttributeDefinition
  3

  2
PN
 70
     8
280
     0
  0
ATTDEF
  5
F8
330
EC
100
AcDbEntity
  8
AM_6
100
AcDbText
 10
2.999999999999998
 20
40.9912154126094
 30
0.0
 40
0.5
  1
INS-SCMED-45M
100
AcDbAttributeDefinition
  3

  2
DESCRIPTION
 70
     8
280
     0
  0
ATTDEF
  5
F9
330
EC
100
AcDbEntity
  8
AM_6
100
AcDbText
 10
2.999999999999998
 20
40.4912154126094
 30
0.0
 40
0.5
  1
0.76
100
AcDbAttributeDefinition
  3

  2
WEIGHT
 70
     8
280
     0
  0
ATTDEF
  5
FA
330
EC
100
AcDbEntity
  8
AM_6
100
AcDbText
 10
2.999999999999998
 20
39.9912154126094
 30
0.0
 40
0.5
  1
49.3
100
AcDbAttributeDefinition
  3

  2
A
 70
     8
280
     0
  0
ATTDEF
  5
FB
330
EC
100
AcDbEntity
  8
AM_6
100
AcDbText
 10
2.999999999999998
 20
39.4912154126094
 30
0.0
 40
0.5
  1
22.1
100
AcDbAttributeDefinition
  3

  2
C
 70
     8
280
     0
  0
ATTDEF
  5
FC
330
EC
100
AcDbEntity
  8
AM_6
100
AcDbText
 10
2.999999999999998
 20
38.9912154126094
 30
0.0
 40
0.5
  1
90.0
100
AcDbAttributeDefinition
  3

  2
D
 70
     8
280
     0
  0
ATTDEF
  5
FD
330
EC
100
AcDbEntity
  8
AM_6
100
AcDbText
 10
2.999999999999998
 20
38.4912154126094
 30
0.0
 40
0.5
  1
6.4
100
AcDbAttributeDefinition
  3

  2
J
 70
     8
280
     0
  0
ATTDEF
  5
FE
330
EC
100
AcDbEntity
  8
AM_6
100
AcDbText
 10
2.999999999999998
 20
37.9912154126094
 30
0.0
 40
0.5
  1
61.7
100
AcDbAttributeDefinition
  3

  2
L
 70
     8
280
     0
  0
ATTDEF
  5
FF
330
EC
100
AcDbEntity
  8
AM_6
100
AcDbText
 10
2.999999999999998
 20
37.4912154126094
 30
0.0
 40
0.5
  1
M10 x 1.5
100
AcDbAttributeDefinition
  3

  2
N
 70
     8
280
     0
  0
ATTDEF
  5
100
330
EC
100
AcDbEntity
  8
AM_6
100
AcDbText
 10
2.999999999999998
 20
36.9912154126094
 30
0.0
 40
0.5
  1
19.1
100
AcDbAttributeDefinition
  3

  2
W
 70
     8
280
     0
  0
ATTDEF
  5
101
330
EC
100
AcDbEntity
  8
AM_6
100
AcDbText
 10
2.999999999999998
 20
36.4912154126094
 30
0.0
 40
0.5
  1
30.2
100
AcDbAttributeDefinition
  3

  2
Y
 70
     8
280
     0
  0
ATTDEF
  5
102
330
EC
100
AcDbEntity
  8
AM_6
100
AcDbText
 10
2.999999999999998
 20
35.9912154126094
 30
0.0
 40
0.5
  1
baldor
100
AcDbAttributeDefinition
  3

  2
COMPANY
 70
     8
280
     0
  0
LINE
  5
103
330
EC
100
AcDbEntity
  8
AM_9
100
AcDbLine
 10
-37.537
 20
22.49797747320799
 30
0.0
 11
-37.537
 21
30.44211720626539
 31
0.0
  0
LINE
  5
104
330
EC
100
AcDbEntity
  8
AM_9
100
AcDbLine
 10
-45.913
 20
30.44211720626539
 30
0.0
 11
-45.913
 21
22.5
 31
0.0
  0
LINE
  5
105
330
EC
100
AcDbEntity
  8
AM_9
100
AcDbLine
 10
-45.913
 20
30.44211720626539
 30
0.0
 11
-37.537
 21
30.44211720626539
 31
0.0
  0
LINE
  5
106
330
EC
100
AcDbEntity
  8
AM_9
100
AcDbLine
 10
-37.537
 20
30.44211720626539
 30
0.0
 11
-37.1291172062654
 21
30.84999999999999
 31
0.0
  0
LINE
  5
107
330
EC
100
AcDbEntity
  8
AM_9
100
AcDbLine
 10
-46.3208827937346
 20
30.84999999999999
 30
0.0
 11
-45.913
 21
30.44211720626539
 31
0.0
  0
LWPOLYLINE
  5
108
330
EC
100
AcDbEntity
  8
AM_9
100
AcDbPolyline
 90
       20
 70
     0
 43
0.0
 10
-45.913
 20
22.5
 10
-45.85636551475773
 20
22.48952727418986
 10
-45.68160107492755
 20
22.45807979472238
 10
-45.40385808028268
 20
22.41081553123092
 10
-45.01555211543824
 20
22.35035546080677
 10
-44.54328207163503
 20
22.28572120967368
 10
-43.9769840417031
 20
22.22120807076171
 10
-43.35837084024756
 20
22.16706016371524
 10
-42.67300003187971
 20
22.12711820505427
 10
-41.98763060262462
 20
22.10836110690783
 10
-41.27424246670913
 20
22.11139611950857
 10
-40.60260742783119
 20
22.13527549153295
 10
-39.94387446540149
 20
22.17843691899857
 10
-39.34870992710392
 20
22.23414964667064
 10
-38.80391990355374
 20
22.29895434610902
 10
-38.34718229161857
 20
22.36336979238718
 10
-37.97445726023928
 20
22.42269445991654
 10
-37.71699927426606
 20
22.46719221036496
 10
-37.56819826582597
 20
22.49421384839293
 10
-37.53700000002675
 20
22.49999999999502
  0
LINE
  5
109
330
EC
100
AcDbEntity
  8
AM_9
100
AcDbLine
 10
-50.066
 20
-22.5
 30
0.0
 11
-3.234000000000001
 21
-22.5
 31
0.0
  0
LINE
  5
10A
330
EC
100
AcDbEntity
  8
AM_9
100
AcDbLine
 10
-3.234000000000001
 20
22.5
 30
0.0
 11
-37.54791290706527
 21
22.5
 31
0.0
  0
LINE
  5
10B
330
EC
100
AcDbEntity
  8
AM_9
100
AcDbLine
 10
-45.91300000000001
 20
22.5
 30
0.0
 11
-50.066
 21
22.5
 31
0.0
  0
LINE
  5
10C
330
EC
100
AcDbEntity
  8
AM_9
100
AcDbLine
 10
-3.234000000000001
 20
-22.5
 30
0.0
 11
-2.000000000000002
 21
-23.73400000000004
 31
0.0
  0
LINE
  5
10D
330
EC
100
AcDbEntity
  8
AM_9
100
AcDbLine
 10
-2.000000000000002
 20
23.73400000000004
 30
0.0
 11
-3.234000000000001
 21
22.5
 31
0.0
  0
LINE
  5
10E
330
EC
100
AcDbEntity
  8
AM_9
100
AcDbLine
 10
-50.066
 20
22.5
 30
0.0
 11
-51.3
 21
23.73400000000004
 31
0.0
  0
LINE
  5
10F
330
EC
100
AcDbEntity
  8
AM_9
100
AcDbLine
 10
-51.3
 20
-23.73400000000004
 30
0.0
 11
-50.066
 21
-22.5
 31
0.0
  0
LWPOLYLINE
  5
110
330
EC
100
AcDbEntity
  8
AM_9
100
AcDbPolyline
 90
        5
 70
     0
 43
0.0
 10
-45.46755727492722
 20
11.17910314637964
 10
-45.58123982097332
 20
10.96438885090823
 10
-45.80422535304123
 20
10.35990935173653
 10
-45.90473436351692
 20
9.746612759485679
 10
-45.9129999878454
 20
9.509200065551262
  0
LINE
  5
111
330
EC
100
AcDbEntity
  8
AM_9
100
AcDbLine
 10
-37.537
 20
9.508515596429602
 30
0.0
 11
-37.537
 21
12.86539465741852
 31
0.0
  0
LINE
  5
112
330
EC
100
AcDbEntity
  8
AM_9
100
AcDbLine
 10
-45.913
 20
12.86539465741852
 30
0.0
 11
-45.913
 21
9.50779916261929
 31
0.0
  0
LWPOLYLINE
  5
113
330
EC
100
AcDbEntity
  8
AM_9
100
AcDbPolyline
 90
       21
 70
     0
 43
0.0
 10
-45.9129999878454
 20
9.509200065551262
 10
-45.88872074219895
 20
9.098892437322096
 10
-45.75982025634348
 20
8.47992009476994
 10
-45.51523882071645
 20
7.864551849070025
 10
-45.17329752489125
 20
7.301713424467426
 10
-44.7256734225398
 20
6.780610665448788
 10
-44.20045581593337
 20
6.339543793328583
 10
-43.58832260595139
 20
5.976623172976208
 10
-42.93928045904325
 20
5.724248728682189
 10
-42.23476127814446
 20
5.577826541042867
 10
-41.54595988846355
 20
5.550897320604738
 10
-40.84223175512075
 20
5.63984503429921
 10
-40.18834296206927
 20
5.834397813662715
 10
-39.5595294792873
 20
6.138610991864899
 10
-39.00085422979742
 20
6.530494467297186
 10
-38.5036376492049
 20
7.015926075209615
 10
-38.10382636238065
 20
7.560456799926866
 10
-37.79716146427864
 20
8.172127004450404
 10
-37.61073415126109
 20
8.794058586214371
 10
-37.53756114674642
 20
9.446734408607382
 10
-37.53700001320352
 20
9.508609491059767
  0
LWPOLYLINE
  5
114
330
EC
100
AcDbEntity
  8
AM_9
100
AcDbPolyline
 90
        4
 70
     0
 43
0.0
 10
-37.53700001320352
 20
9.508609491059767
 10
-37.5826267057911
 20
10.06409057449531
 10
-37.74504255391629
 20
10.67437009659023
 10
-37.98810854759891
 20
11.1888904635207
  0
LINE
  5
115
330
EC
100
AcDbEntity
  8
AM_9
100
AcDbLine
 10
-2.000000000000002
 20
29.61600000000003
 30
0.0
 11
-3.234000000000004
 21
30.84999999999999
 31
0.0
  0
LINE
  5
116
330
EC
100
AcDbEntity
  8
AM_9
100
AcDbLine
 10
-3.234000000000004
 20
-30.84999999999999
 30
0.0
 11
-2.000000000000002
 21
-29.61600000000003
 31
0.0
  0
LINE
  5
117
330
EC
100
AcDbEntity
  8
AM_9
100
AcDbLine
 10
-10.05
 20
-30.84999999999998
 30
0.0
 11
-3.234000000000004
 21
-30.84999999999998
 31
0.0
  0
LINE
  5
118
330
EC
100
AcDbEntity
  8
AM_9
100
AcDbLine
 10
-3.234000000000004
 20
30.84999999999998
 30
0.0
 11
-10.05
 21
30.84999999999998
 31
0.0
  0
LINE
  5
119
330
EC
100
AcDbEntity
  8
AM_9
100
AcDbLine
 10
-3.234000000000004
 20
30.84999999999998
 30
0.0
 11
-3.234000000000004
 21
-30.84999999999998
 31
0.0
  0
LWPOLYLINE
  5
11A
330
EC
100
AcDbEntity
  8
AM_9
100
AcDbPolyline
 90
        4
 70
     0
 43
0.0
 10
-37.28371994351672
 20
14.02897102593412
 10
-37.18826377574735
 20
13.65599755077049
 10
-37.13636909449062
 20
13.25417757086215
 10
-37.13464885026331
 20
12.84687517887843
  0
LWPOLYLINE
  5
11B
330
EC
100
AcDbEntity
  8
AM_9
100
AcDbPolyline
 90
        3
 70
     0
 43
0.0
 10
-37.13464885026331
 20
12.84687517887843
 10
-37.22945592890171
 20
12.22664300670395
 10
-37.28726657594486
 20
12.01851609191142
  0
LINE
  5
11C
330
EC
100
AcDbEntity
  8
AM_9
100
AcDbLine
 10
-37.3
 20
-30.84999999999999
 30
0.0
 11
-32.15
 21
-30.84999999999999
 31
0.0
  0
LINE
  5
11D
330
EC
100
AcDbEntity
  8
AM_9
100
AcDbLine
 10
-32.15
 20
30.84999999999999
 30
0.0
 11
-37.13129606317696
 21
30.84999999999999
 31
0.0
  0
LINE
  5
11E
330
EC
100
AcDbEntity
  8
AM_9
100
AcDbLine
 10
-37.12911720626649
 20
30.84999999999985
 30
0.0
 11
-37.28905433490715
 21
30.82961179191729
 31
0.0
  0
LINE
  5
11F
330
EC
100
AcDbEntity
  8
AM_9
100
AcDbLine
 10
-28.33333333333333
 20
-42.78999999999994
 30
0.0
 11
-25.38666666666666
 21
-42.78999999999994
 31
0.0
  0
LINE
  5
120
330
EC
100
AcDbEntity
  8
AM_9
100
AcDbLine
 10
-25.38666666666666
 20
42.78999999999994
 30
0.0
 11
-28.33333333333333
 21
42.78999999999994
 31
0.0
  0
LINE
  5
121
330
EC
100
AcDbEntity
  8
AM_9
100
AcDbLine
 10
-10.05
 20
42.19396883195163
 30
0.0
 11
-10.05
 21
-42.19396883195163
 31
0.0
  0
ARC
  5
122
330
EC
100
AcDbEntity
  8
AM_9
100
AcDbCircle
 10
-10.934
 20
-42.19396883195163
 30
0.0
 40
0.8839999999999996
100
AcDbArc
 50
291.4124787765732
 51
0.0
  0
ARC
  5
123
330
EC
100
AcDbEntity
  8
AM_9
100
AcDbCircle
 10
-10.934
 20
42.19396883195163
 30
0.0
 40
0.8840000000000003
100
AcDbArc
 50
0.0
 51
68.5875212234268
  0
LINE
  5
124
330
EC
100
AcDbEntity
  8
AM_9
100
AcDbLine
 10
-32.15
 20
42.1939688319516
 30
0.0
 11
-32.15
 21
-42.1939688319516
 31
0.0
  0
ARC
  5
125
330
EC
100
AcDbEntity
  8
AM_9
100
AcDbCircle
 10
-31.26599999999997
 20
-42.19396883195159
 30
0.0
 40
0.8840000000000288
100
AcDbArc
 50
179.9999991462263
 51
248.5875329531142
  0
ARC
  5
126
330
EC
100
AcDbEntity
  8
AM_9
100
AcDbCircle
 10
-31.26599999999997
 20
42.19396883195159
 30
0.0
 40
0.8840000000000307
100
AcDbArc
 50
111.4124670468858
 51
179.9999991462263
  0
ARC
  5
127
330
EC
100
AcDbEntity
  8
AM_9
100
AcDbCircle
 10
-21.09999999999986
 20
-16.26999999999956
 30
0.0
 40
28.73000000000044
100
AcDbArc
 50
248.587532953116
 51
255.4177622541452
  0
ARC
  5
128
330
EC
100
AcDbEntity
  8
AM_9
100
AcDbCircle
 10
-21.09999999999969
 20
16.26999999999897
 30
0.0
 40
28.73000000000105
100
AcDbArc
 50
104.5822377458548
 51
111.4124670468839
  0
LINE
  5
129
330
EC
100
AcDbEntity
  8
AM_9
100
AcDbLine
 10
-31.58873015873016
 20
43.01695196947389
 30
0.0
 11
-31.58873015873016
 21
-43.01695196947389
 31
0.0
  0
LINE
  5
12A
330
EC
100
AcDbEntity
  8
AM_9
100
AcDbLine
 10
-28.33333333333333
 20
44.07452820834922
 30
0.0
 11
-28.33333333333333
 21
-44.07452820834922
 31
0.0
  0
ARC
  5
12B
330
EC
100
AcDbEntity
  8
AM_9
100
AcDbCircle
 10
-21.09999999999999
 20
-16.27000000000021
 30
0.0
 40
28.72999999999978
100
AcDbArc
 50
261.4191278814026
 51
291.4124674077977
  0
ARC
  5
12C
330
EC
100
AcDbEntity
  8
AM_9
100
AcDbCircle
 10
-21.10000000000002
 20
16.26999999999998
 30
0.0
 40
28.73
100
AcDbArc
 50
68.5875325922024
 51
98.5808721185973
  0
LINE
  5
12D
330
EC
100
AcDbEntity
  8
AM_9
100
AcDbLine
 10
-25.38666666666667
 20
44.67840349067311
 30
0.0
 11
-25.38666666666667
 21
-44.67840349067311
 31
0.0
  0
LINE
  5
12E
330
EC
100
AcDbEntity
  8
AM_9
100
AcDbLine
 10
-10.61126967278734
 20
43.01695190340402
 30
0.0
 11
-10.61126967278734
 21
-43.01695190340402
 31
0.0
  0
LINE
  5
130
330
EC
100
AcDbEntity
  8
AM_5
100
AcDbLine
 10
-36.725
 20
22.5
 30
0.0
 11
-36.725
 21
30.84999999999999
 31
0.0
  0
LINE
  5
131
330
EC
100
AcDbEntity
  8
AM_5
100
AcDbLine
 10
-46.72499999999999
 20
22.5
 30
0.0
 11
-46.72499999999999
 21
30.84999999999999
 31
0.0
  0
LINE
  5
134
330
EC
100
AcDbEntity
  8
AM_7
100
AcDbLine
 10
-41.725
 20
32.28555251815465
 30
0.0
 11
-41.725
 21
20.59397565659104
 31
0.0
  0
LWPOLYLINE
  5
135
330
EC
100
AcDbEntity
  8
AM_4
100
AcDbPolyline
 90
        8
 70
     0
 43
0.0
 10
-41.725
 20
13.13835487639262
 10
-42.41129077901341
 20
13.09154597211841
 10
-43.09758155802683
 20
12.94670398047304
 10
-43.72596637507596
 20
12.71529110651796
 10
-44.31520639768021
 20
12.38923847057929
 10
-44.82253229303728
 20
11.98854395335215
 10
-45.2558449957483
 20
11.50235373860584
 10
-45.46755727492722
 20
11.17910314637964
  0
LWPOLYLINE
  5
136
330
EC
100
AcDbEntity
  8
AM_4
100
AcDbPolyline
 90
        9
 70
     0
 43
0.0
 10
-37.98810854759891
 20
11.1888904635207
 10
-38.0104256286331
 20
11.22672546496027
 10
-38.38606037525327
 20
11.73985435921277
 10
-38.8482609379009
 20
12.17997931024345
 10
-39.40564904806245
 20
12.55441375636351
 10
-40.01788430885206
 20
12.83652509930316
 10
-40.69878575689352
 20
13.03270167644704
 10
-41.20372262864804
 20
13.11143509987092
 10
-41.725
 20
13.13835487639262
  0
LINE
  5
137
330
EC
100
AcDbEntity
  8
AM_4
100
AcDbLine
 10
-51.3
 20
-29.61600000000003
 30
0.0
 11
-50.066
 21
-30.84999999999999
 31
0.0
  0
LINE
  5
138
330
EC
100
AcDbEntity
  8
AM_4
100
AcDbLine
 10
-50.066
 20
30.84999999999999
 30
0.0
 11
-51.3
 21
29.61600000000003
 31
0.0
  0
LINE
  5
139
330
EC
100
AcDbEntity
  8
AM_4
100
AcDbLine
 10
-51.3
 20
29.61600000000003
 30
0.0
 11
-51.3
 21
-29.61600000000003
 31
0.0
  0
LWPOLYLINE
  5
13A
330
EC
100
AcDbEntity
  8
AM_4
100
AcDbPolyline
 90
       36
 70
     0
 43
0.0
 10
-37.28726657594486
 20
12.01851609191142
 10
-37.43645507622362
 20
11.62400367324368
 10
-37.74451807679065
 20
11.06351649317233
 10
-38.14354241904555
 20
10.55122562203373
 10
-38.65029590589653
 20
10.07722031968127
 10
-39.22933784783315
 20
9.681243606389879
 10
-39.91054867933168
 20
9.355409488972816
 10
-40.63762242705152
 20
9.135922988731934
 10
-41.42975585282896
 20
9.026852757032815
 10
-42.22990997088472
 20
9.043032279162666
 10
-43.03163697388805
 20
9.189855777820682
 10
-43.79600163604388
 20
9.462750098038033
 10
-44.49415111936882
 20
9.852840952840909
 10
-45.11014066842957
 20
10.34947513309307
 10
-45.60222042421368
 20
10.91481022234481
 10
-45.97882529436513
 20
11.54825401194452
 10
-46.20910287704195
 20
12.1820910670103
 10
-46.31476361573858
 20
12.83698006226285
 10
-46.29408450150456
 20
13.45154740312673
 10
-46.16007979003914
 20
14.04814340467926
 10
-45.92021815273091
 20
14.60327033614249
 10
-45.58374588481944
 20
15.11242076033396
 10
-45.14132786064409
 20
15.582195703723
 10
-44.6198917748668
 20
15.98282052146186
 10
-43.99168535262125
 20
16.32657747577922
 10
-43.3076557908734
 20
16.57998975215757
 10
-42.54241432440741
 20
16.74517564960787
 10
-41.7554439224059
 20
16.80363986355292
 10
-40.94442790706692
 20
16.75031073365648
 10
-40.15539975546544
 20
16.58379025652796
 10
-39.41060075036604
 20
16.30447148549664
 10
-38.73375054906496
 20
15.91807999242835
 10
-38.16402966664295
 20
15.44488538109894
 10
-37.70093860123502
 20
14.88628403378573
 10
-37.38233762980867
 20
14.29497623203129
 10
-37.28371994351672
 20
14.02897102593412
  0
LINE
  5
13B
330
EC
100
AcDbEntity
  8
AM_4
100
AcDbLine
 10
-50.066
 20
-30.84999999999999
 30
0.0
 11
-37.3
 21
-30.84999999999999
 31
0.0
  0
LINE
  5
13C
330
EC
100
AcDbEntity
  8
AM_4
100
AcDbLine
 10
-46.3069040868358
 20
30.84999999999999
 30
0.0
 11
-50.066
 21
30.84999999999999
 31
0.0
  0
LINE
  5
13D
330
EC
100
AcDbEntity
  8
AM_4
100
AcDbLine
 10
-50.066
 20
30.84999999999999
 30
0.0
 11
-50.066
 21
-30.84999999999999
 31
0.0
  0
LWPOLYLINE
  5
13E
330
EC
100
AcDbEntity
  8
AM_4
100
AcDbPolyline
 90
       19
 70
     0
 43
0.0
 10
-37.28905433490715
 20
30.82961179191729
 10
-37.35006423578364
 20
30.82201873025446
 10
-37.62296386224217
 20
30.78930457208169
 10
-37.99131971409581
 20
30.74840266845854
 10
-38.45612748039228
 20
30.70216446923327
 10
-39.0159234097609
 20
30.65449796020395
 10
-39.6560979367199
 20
30.61081564513148
 10
-40.37256427620228
 20
30.5757297165276
 10
-41.14378135489137
 20
30.55435013069459
 10
-41.9399353043724
 20
30.55016627720888
 10
-42.75245788830835
 20
30.56464494087001
 10
-43.52177537383032
 20
30.59576729329984
 10
-44.26092804528336
 20
30.64153969608395
 10
-44.89286546259788
 20
30.69291378369478
 10
-45.44829825135767
 20
30.74730427009776
 10
-45.85262373889301
 20
30.7922849332666
 10
-46.14626746488022
 20
30.82777569109057
 10
-46.29073828142946
 20
30.84610387812353
 10
-46.32088279372714
 20
30.84999999999902
  0
ELLIPSE
  5
13F
330
EC
100
AcDbEntity
  8
AM_4
100
AcDbEllipse
 10
-41.725
 20
12.86539465741853
 30
0.0
 11
4.188000000000009
 21
0.0
 31
0.0
210
0.0
220
0.0
230
1.0
 40
0.9063077870366496
 41
0.0
 42
6.283185307179586
  0
ENDBLK
  5
EF
330
EC
100
AcDbEntity
  8
0
100
AcDbBlockEnd
  0
BLOCK
  5
142
330
140
100
AcDbEntity
  8
0
100
AcDbBlockBegin
  2
4_076311H_0_in_076311_2
 70
     2
 10
0.0
 20
0.0
 30
0.0
  3
4_076311H_0_in_076311_2
  1

  0
ATTDEF
  5
144
330
140
100
AcDbEntity
  8
AM_6
100
AcDbText
 10
6.865
 20
94.5
 30
0.0
 40
0.5
  1
F2B-SCMED -Metric - housing
100
AcDbAttributeDefinition
  3

  2
NN
 70
     8
280
     0
  0
ATTDEF
  5
145
330
140
100
AcDbEntity
  8
AM_6
100
AcDbText
 10
6.865
 20
94.0
 30
0.0
 40
0.5
  1
SC 2 Bolt Flange Bearings -(Normal Duty)
100
AcDbAttributeDefinition
  3

  2
NT
 70
     8
280
     0
  0
ATTDEF
  5
146
330
140
100
AcDbEntity
  8
AM_6
100
AcDbText
 10
6.865
 20
93.5
 30
0.0
 40
0.5
  1
076311H
100
AcDbAttributeDefinition
  3

  2
NB
 70
     8
280
     0
  0
ATTDEF
  5
147
330
140
100
AcDbEntity
  8
AM_6
100
AcDbText
 10
6.865
 20
93.0
 30
0.0
 40
0.5
  1
$PN.H
100
AcDbAttributeDefinition
  3

  2
NBSYN
 70
     8
280
     0
  0
ATTDEF
  5
148
330
140
100
AcDbEntity
  8
AM_6
100
AcDbText
 10
6.865
 20
92.5
 30
0.0
 40
0.5
  1
076311
100
AcDbAttributeDefinition
  3

  2
LINA
 70
     8
280
     0
  0
ATTDEF
  5
149
330
140
100
AcDbEntity
  8
AM_6
100
AcDbText
 10
6.865
 20
92.0
 30
0.0
 40
0.5
  1
210
100
AcDbAttributeDefinition
  3

  2
SERIES
 70
     8
280
     0
  0
ATTDEF
  5
14A
330
140
100
AcDbEntity
  8
AM_6
100
AcDbText
 10
6.865
 20
91.5
 30
0.0
 40
0.5
  1
45
100
AcDbAttributeDefinition
  3

  2
SS
 70
     8
280
     0
  0
ATTDEF
  5
14B
330
140
100
AcDbEntity
  8
AM_6
100
AcDbText
 10
6.865
 20
91.0
 30
0.0
 40
0.5
  1
076311
100
AcDbAttributeDefinition
  3

  2
PN
 70
     8
280
     0
  0
ATTDEF
  5
14C
330
140
100
AcDbEntity
  8
AM_6
100
AcDbText
 10
6.865
 20
90.5
 30
0.0
 40
0.5
  1
F2B-SCMED-45M
100
AcDbAttributeDefinition
  3

  2
DESCRIPTION
 70
     8
280
     0
  0
ATTDEF
  5
14D
330
140
100
AcDbEntity
  8
AM_6
100
AcDbText
 10
6.865
 20
90.0
 30
0.0
 40
0.5
  1
49.3
100
AcDbAttributeDefinition
  3

  2
A
 70
     8
280
     0
  0
ATTDEF
  5
14E
330
140
100
AcDbEntity
  8
AM_6
100
AcDbText
 10
6.865
 20
89.5
 30
0.0
 40
0.5
  1
189.0
100
AcDbAttributeDefinition
  3

  2
B
 70
     8
280
     0
  0
ATTDEF
  5
14F
330
140
100
AcDbEntity
  8
AM_6
100
AcDbText
 10
6.865
 20
89.0
 30
0.0
 40
0.5
  1
51.3
100
AcDbAttributeDefinition
  3

  2
C
 70
     8
280
     0
  0
ATTDEF
  5
150
330
140
100
AcDbEntity
  8
AM_6
100
AcDbText
 10
6.865
 20
88.5
 30
0.0
 40
0.5
  1
157.2
100
AcDbAttributeDefinition
  3

  2
D
 70
     8
280
     0
  0
ATTDEF
  5
151
330
140
100
AcDbEntity
  8
AM_6
100
AcDbText
 10
6.865
 20
88.0
 30
0.0
 40
0.5
  1
M16
100
AcDbAttributeDefinition
  3

  2
F
 70
     8
280
     0
  0
ATTDEF
  5
152
330
140
100
AcDbEntity
  8
AM_6
100
AcDbText
 10
6.865
 20
87.5
 30
0.0
 40
0.5
  1
16.0
100
AcDbAttributeDefinition
  3

  2
F1
 70
     8
280
     0
  0
ATTDEF
  5
153
330
140
100
AcDbEntity
  8
AM_6
100
AcDbText
 10
6.865
 20
87.0
 30
0.0
 40
0.5
  1
16.0
100
AcDbAttributeDefinition
  3

  2
H
 70
     8
280
     0
  0
ATTDEF
  5
154
330
140
100
AcDbEntity
  8
AM_6
100
AcDbText
 10
6.865
 20
86.5
 30
0.0
 40
0.5
  1
14.0
100
AcDbAttributeDefinition
  3

  2
J
 70
     8
280
     0
  0
ATTDEF
  5
155
330
140
100
AcDbEntity
  8
AM_6
100
AcDbText
 10
6.865
 20
86.0
 30
0.0
 40
0.5
  1
61.7
100
AcDbAttributeDefinition
  3

  2
L
 70
     8
280
     0
  0
ATTDEF
  5
156
330
140
100
AcDbEntity
  8
AM_6
100
AcDbText
 10
6.865
 20
85.5
 30
0.0
 40
0.5
  1
115.8
100
AcDbAttributeDefinition
  3

  2
M
 70
     8
280
     0
  0
ATTDEF
  5
157
330
140
100
AcDbEntity
  8
AM_6
100
AcDbText
 10
6.865
 20
85.0
 30
0.0
 40
0.5
  1
51.6
100
AcDbAttributeDefinition
  3

  2
N
 70
     8
280
     0
  0
ATTDEF
  5
158
330
140
100
AcDbEntity
  8
AM_6
100
AcDbText
 10
6.865
 20
84.5
 30
0.0
 40
0.5
  1
4450
100
AcDbAttributeDefinition
  3

  2
CAPS
 70
     8
280
     0
  0
ATTDEF
  5
159
330
140
100
AcDbEntity
  8
AM_6
100
AcDbText
 10
6.865
 20
84.0
 30
0.0
 40
0.5
  1
7891
100
AcDbAttributeDefinition
  3

  2
CAPD
 70
     8
280
     0
  0
ATTDEF
  5
15A
330
140
100
AcDbEntity
  8
AM_6
100
AcDbText
 10
6.865
 20
83.5
 30
0.0
 40
0.5
  1
baldor
100
AcDbAttributeDefinition
  3

  2
COMPANY
 70
     8
280
     0
  0
LINE
  5
15B
330
140
100
AcDbEntity
  8
AM_9
100
AcDbLine
 10
-16.0
 20
-86.59999999999998
 30
0.0
 11
0.0
 21
-86.59999999999998
 31
0.0
  0
LINE
  5
15C
330
140
100
AcDbEntity
  8
AM_9
100
AcDbLine
 10
0.0
 20
-70.6
 30
0.0
 11
-16.0
 21
-70.6
 31
0.0
  0
LINE
  5
15D
330
140
100
AcDbEntity
  8
AM_9
100
AcDbLine
 10
-16.0
 20
70.6
 30
0.0
 11
0.0
 21
70.6
 31
0.0
  0
LINE
  5
15E
330
140
100
AcDbEntity
  8
AM_9
100
AcDbLine
 10
0.0
 20
86.59999999999998
 30
0.0
 11
-16.0
 21
86.59999999999998
 31
0.0
  0
LINE
  5
15F
330
140
100
AcDbEntity
  8
AM_9
100
AcDbLine
 10
-24.245
 20
-44.49440976122732
 30
0.0
 11
-2.486666666666664
 21
-44.49440976122732
 31
0.0
  0
LINE
  5
160
330
140
100
AcDbEntity
  8
AM_9
100
AcDbLine
 10
-24.245
 20
-47.25
 30
0.0
 11
-2.486666666666665
 21
-47.25
 31
0.0
  0
LINE
  5
161
330
140
100
AcDbEntity
  8
AM_9
100
AcDbLine
 10
-24.245
 20
-47.25
 30
0.0
 11
-24.245
 21
-42.09738709231251
 31
0.0
  0
LINE
  5
162
330
140
100
AcDbEntity
  8
AM_9
100
AcDbLine
 10
-24.245
 20
42.09738709231251
 30
0.0
 11
-24.245
 21
47.25
 31
0.0
  0
LINE
  5
163
330
140
100
AcDbEntity
  8
AM_9
100
AcDbLine
 10
-24.245
 20
44.49440976122731
 30
0.0
 11
-2.486666666666665
 21
44.49440976122731
 31
0.0
  0
LINE
  5
164
330
140
100
AcDbEntity
  8
AM_9
100
AcDbLine
 10
-2.486666666666665
 20
47.25
 30
0.0
 11
-24.245
 21
47.25
 31
0.0
  0
LINE
  5
165
330
140
100
AcDbEntity
  8
AM_9
100
AcDbLine
 10
-2.0
 20
-58.15399999999999
 30
0.0
 11
0.0
 21
-58.15399999999999
 31
0.0
  0
LINE
  5
166
330
140
100
AcDbEntity
  8
AM_9
100
AcDbLine
 10
0.0
 20
58.15399999999999
 30
0.0
 11
-2.0
 21
58.15399999999999
 31
0.0
  0
LINE
  5
167
330
140
100
AcDbEntity
  8
AM_9
100
AcDbLine
 10
-1.999999999999999
 20
53.12486647958192
 30
0.0
 11
0.0000000000000014
 21
53.12486647958192
 31
0.0
  0
LINE
  5
168
330
140
100
AcDbEntity
  8
AM_9
100
AcDbLine
 10
-1.999999999999999
 20
-53.12486647958194
 30
0.0
 11
0.0000000000000014
 21
-53.12486647958194
 31
0.0
  0
LINE
  5
169
330
140
100
AcDbEntity
  8
AM_9
100
AcDbLine
 10
-14.4
 20
30.93893129770992
 30
0.0
 11
-14.4
 21
51.77043788028145
 31
0.0
  0
LINE
  5
16A
330
140
100
AcDbEntity
  8
AM_9
100
AcDbLine
 10
-24.245
 20
42.09738709231251
 30
0.0
 11
-2.486666666666664
 21
42.09738709231251
 31
0.0
  0
LINE
  5
16B
330
140
100
AcDbEntity
  8
AM_9
100
AcDbLine
 10
-2.486666666666664
 20
-42.09738709231251
 30
0.0
 11
-24.245
 21
-42.09738709231251
 31
0.0
  0
LINE
  5
16C
330
140
100
AcDbEntity
  8
AM_9
100
AcDbLine
 10
-33.90909090909091
 20
-45.0
 30
0.0
 11
-24.245
 21
-45.0
 31
0.0
  0
LINE
  5
16D
330
140
100
AcDbEntity
  8
AM_9
100
AcDbLine
 10
-24.245
 20
45.0
 30
0.0
 11
-33.90909090909091
 21
45.0
 31
0.0
  0
LINE
  5
16E
330
140
100
AcDbEntity
  8
AM_9
100
AcDbLine
 10
-37.3
 20
-49.5
 30
0.0
 11
-33.90909090909091
 21
-49.5
 31
0.0
  0
LINE
  5
16F
330
140
100
AcDbEntity
  8
AM_9
100
AcDbLine
 10
-33.90909090909091
 20
49.5
 30
0.0
 11
-37.3
 21
49.5
 31
0.0
  0
LINE
  5
170
330
140
100
AcDbEntity
  8
AM_9
100
AcDbLine
 10
-33.90909090909091
 20
49.5
 30
0.0
 11
-33.90909090909091
 21
-49.5
 31
0.0
  0
LINE
  5
171
330
140
100
AcDbEntity
  8
AM_9
100
AcDbLine
 10
-2.486666666666666
 20
-49.5
 30
0.0
 11
-2.0
 21
-49.5
 31
0.0
  0
LINE
  5
172
330
140
100
AcDbEntity
  8
AM_9
100
AcDbLine
 10
-2.0
 20
49.5
 30
0.0
 11
-2.486666666666666
 21
49.5
 31
0.0
  0
LINE
  5
173
330
140
100
AcDbEntity
  8
AM_9
100
AcDbLine
 10
-2.486666666666666
 20
49.5
 30
0.0
 11
-2.486666666666666
 21
-49.5
 31
0.0
  0
LINE
  5
174
330
140
100
AcDbEntity
  8
AM_9
100
AcDbLine
 10
-25.17212956473828
 20
50.96952296698006
 30
0.0
 11
-21.02787043526171
 21
50.96952296698006
 31
0.0
  0
LINE
  5
175
330
140
100
AcDbEntity
  8
AM_9
100
AcDbLine
 10
-14.4
 20
30.93893129770992
 30
0.0
 11
-2.000000000000003
 21
30.93893129770993
 31
0.0
  0
LINE
  5
176
330
140
100
AcDbEntity
  8
AM_9
100
AcDbLine
 10
-14.4
 20
49.08856591721077
 30
0.0
 11
-35.7
 21
49.08856591721077
 31
0.0
  0
LWPOLYLINE
  5
177
330
140
100
AcDbEntity
  8
AM_9
100
AcDbPolyline
 90
       11
 70
     0
 43
0.0
 10
-37.3
 20
47.92667529227585
 10
-37.29295983022729
 20
48.03562815519596
 10
-37.24423970292511
 20
48.2309129284397
 10
-37.14678903538523
 20
48.42304170355894
 10
-37.00949424297615
 20
48.59451553712297
 10
-36.82729242942037
 20
48.75138934417782
 10
-36.6204359136173
 20
48.87718881863034
 10
-36.37883302297877
 20
48.9788836642641
 10
-36.13046768396018
 20
49.04575628827116
 10
-35.86169587122369
 20
49.08262190165681
 10
-35.7
 20
49.08856591721077
  0
LINE
  5
178
330
140
100
AcDbEntity
  8
AM_9
100
AcDbLine
 10
-35.7
 20
30.70378960636053
 30
0.0
 11
-35.7
 21
51.90678126718311
 31
0.0
  0
LINE
  5
179
330
140
100
AcDbEntity
  8
AM_7
100
AcDbLine
 10
0.8
 20
78.6
 30
0.0
 11
-16.8
 21
78.6
 31
0.0
  0
LINE
  5
17A
330
140
100
AcDbEntity
  8
AM_7
100
AcDbLine
 10
0.8
 20
-78.6
 30
0.0
 11
-16.8
 21
-78.6
 31
0.0
  0
LINE
  5
17B
330
140
100
AcDbEntity
  8
AM_7
100
AcDbLine
 10
-53.765
 20
0.0
 30
0.0
 11
1.865
 21
0.0
 31
0.0
  0
LINE
  5
17C
330
140
100
AcDbEntity
  8
AM_4
100
AcDbLine
 10
-16.0
 20
-94.49999999999999
 30
0.0
 11
0.0
 21
-94.49999999999999
 31
0.0
  0
LINE
  5
17D
330
140
100
AcDbEntity
  8
AM_4
100
AcDbLine
 10
-16.0
 20
52.86306454200508
 30
0.0
 11
-16.0
 21
94.5
 31
0.0
  0
LINE
  5
17E
330
140
100
AcDbEntity
  8
AM_4
100
AcDbLine
 10
0.0
 20
94.5
 30
0.0
 11
-16.0
 21
94.5
 31
0.0
  0
LINE
  5
17F
330
140
100
AcDbEntity
  8
AM_4
100
AcDbLine
 10
-16.0
 20
-94.49999999999999
 30
0.0
 11
-16.0
 21
-52.86306454200508
 31
0.0
  0
LINE
  5
180
330
140
100
AcDbEntity
  8
AM_4
100
AcDbLine
 10
-14.4
 20
-82.78096285458611
 30
0.0
 11
-16.0
 21
-82.78096285458611
 31
0.0
  0
LINE
  5
181
330
140
100
AcDbEntity
  8
AM_4
100
AcDbLine
 10
-14.4
 20
82.78096285458611
 30
0.0
 11
-16.0
 21
82.78096285458611
 31
0.0
  0
LINE
  5
182
330
140
100
AcDbEntity
  8
AM_4
100
AcDbLine
 10
-1.999999999999998
 20
52.6636420506135
 30
0.0
 11
0.0000000000000016
 21
52.6636420506135
 31
0.0
  0
LINE
  5
183
330
140
100
AcDbEntity
  8
AM_4
100
AcDbLine
 10
0.0000000000000016
 20
52.6636420506135
 30
0.0
 11
0.0
 21
94.5
 31
0.0
  0
LINE
  5
184
330
140
100
AcDbEntity
  8
AM_4
100
AcDbLine
 10
0.0
 20
-94.49999999999999
 30
0.0
 11
0.0000000000000016
 21
-52.6636420506135
 31
0.0
  0
LINE
  5
185
330
140
100
AcDbEntity
  8
AM_4
100
AcDbLine
 10
0.0000000000000016
 20
-52.6636420506135
 30
0.0
 11
-1.999999999999998
 21
-52.6636420506135
 31
0.0
  0
LINE
  5
186
330
140
100
AcDbEntity
  8
AM_4
100
AcDbLine
 10
-14.4
 20
51.77043788028145
 30
0.0
 11
-14.4
 21
84.68433692193872
 31
0.0
  0
LINE
  5
187
330
140
100
AcDbEntity
  8
AM_4
100
AcDbLine
 10
-1.999999999999998
 20
59.33648133747395
 30
0.0
 11
0.0000000000000019
 21
59.33648133747393
 31
0.0
  0
LINE
  5
188
330
140
100
AcDbEntity
  8
AM_4
100
AcDbLine
 10
-16.0
 20
87.09618320610687
 30
0.0
 11
0.0000000000000008
 21
87.09618320610687
 31
0.0
  0
LINE
  5
189
330
140
100
AcDbEntity
  8
AM_4
100
AcDbLine
 10
-14.4
 20
84.68433692193872
 30
0.0
 11
-16.0
 21
84.6843369219387
 31
0.0
  0
LINE
  5
18A
330
140
100
AcDbEntity
  8
AM_4
100
AcDbLine
 10
-2.0
 20
51.77043788028144
 30
0.0
 11
-14.4
 21
51.77043788028145
 31
0.0
  0
LINE
  5
18B
330
140
100
AcDbEntity
  8
AM_4
100
AcDbLine
 10
-14.4
 20
51.90678126718311
 30
0.0
 11
-37.3
 21
51.90678126718311
 31
0.0
  0
LINE
  5
18C
330
140
100
AcDbEntity
  8
AM_4
100
AcDbLine
 10
0.0000000000000019
 20
-59.3364813374739
 30
0.0
 11
-1.999999999999998
 21
-59.3364813374739
 31
0.0
  0
LINE
  5
18D
330
140
100
AcDbEntity
  8
AM_4
100
AcDbLine
 10
-14.4
 20
-84.68433692193874
 30
0.0
 11
-14.4
 21
-30.93893129770991
 31
0.0
  0
LINE
  5
18E
330
140
100
AcDbEntity
  8
AM_4
100
AcDbLine
 10
-16.0
 20
-84.68433692193872
 30
0.0
 11
-14.4
 21
-84.68433692193874
 31
0.0
  0
LINE
  5
18F
330
140
100
AcDbEntity
  8
AM_4
100
AcDbLine
 10
-16.0
 20
-87.09618320610689
 30
0.0
 11
0.0000000000000008
 21
-87.09618320610689
 31
0.0
  0
LINE
  5
190
330
140
100
AcDbEntity
  8
AM_4
100
AcDbLine
 10
-21.02787043526171
 20
50.96952296698006
 30
0.0
 11
-2.0
 21
50.96952296698006
 31
0.0
  0
LINE
  5
191
330
140
100
AcDbEntity
  8
AM_4
100
AcDbLine
 10
-37.3
 20
50.96952296698006
 30
0.0
 11
-25.17212956473828
 21
50.96952296698006
 31
0.0
  0
LINE
  5
192
330
140
100
AcDbEntity
  8
AM_4
100
AcDbLine
 10
-1.999999999999998
 20
-59.3364813374739
 30
0.0
 11
-1.999999999999998
 21
59.33648133747395
 31
0.0
  0
LINE
  5
193
330
140
100
AcDbEntity
  8
AM_4
100
AcDbLine
 10
-37.3
 20
-56.3
 30
0.0
 11
-37.3
 21
56.3
 31
0.0
  0
LINE
  5
194
330
140
100
AcDbEntity
  8
AM_4
100
AcDbLine
 10
-37.3
 20
32.58474665612982
 30
0.0
 11
-1.999999999999999
 21
32.58474665612982
 31
0.0
  0
LINE
  5
195
330
140
100
AcDbEntity
  8
AM_4
100
AcDbLine
 10
-37.3
 20
37.11023005572373
 30
0.0
 11
-1.999999999999999
 21
37.11023005572374
 31
0.0
  0
LINE
  5
196
330
140
100
AcDbEntity
  8
AM_4
100
AcDbLine
 10
-14.4
 20
-52.86306454200508
 30
0.0
 11
-16.0
 21
-52.86306454200508
 31
0.0
  0
LINE
  5
197
330
140
100
AcDbEntity
  8
AM_4
100
AcDbLine
 10
-14.4
 20
-30.93893129770991
 30
0.0
 11
-1.999999999999997
 21
-30.9389312977099
 31
0.0
  0
LINE
  5
198
330
140
100
AcDbEntity
  8
AM_4
100
AcDbLine
 10
-35.7
 20
30.70378960636053
 30
0.0
 11
-1.999999999999999
 21
30.70378960636053
 31
0.0
  0
LINE
  5
199
330
140
100
AcDbEntity
  8
AM_4
100
AcDbLine
 10
-16.0
 20
52.86306454200508
 30
0.0
 11
-14.4
 21
52.86306454200508
 31
0.0
  0
LINE
  5
19A
330
140
100
AcDbEntity
  8
AM_4
100
AcDbLine
 10
-35.7
 20
-57.89999999999998
 30
0.0
 11
-16.0
 21
-57.89999999999998
 31
0.0
  0
LINE
  5
19B
330
140
100
AcDbEntity
  8
AM_4
100
AcDbLine
 10
-16.0
 20
57.89999999999998
 30
0.0
 11
-35.7
 21
57.89999999999998
 31
0.0
  0
LINE
  5
19C
330
140
100
AcDbEntity
  8
AM_4
100
AcDbLine
 10
-35.7
 20
30.70378960636053
 30
0.0
 11
-35.7
 21
-57.9
 31
0.0
  0
LWPOLYLINE
  5
19D
330
140
100
AcDbEntity
  8
AM_4
100
AcDbPolyline
 90
       10
 70
     0
 43
0.0
 10
-35.7
 20
30.70378960636053
 10
-35.95961682440792
 20
30.68840365303626
 10
-36.21923364881584
 20
30.64095129502131
 10
-36.45704865513059
 20
30.56559248928323
 10
-36.68003940351341
 20
30.46046335509724
 10
-36.87219787669515
 20
30.33291362658592
 10
-37.03664880126182
 20
30.1807337065638
 10
-37.16325066124203
 20
30.0121153983121
 10
-37.25145468489651
 20
29.82610133668602
 10
-37.3
 20
29.5418989814256
  0
ARC
  5
19E
330
140
100
AcDbEntity
  8
AM_4
100
AcDbCircle
 10
-35.7
 20
-56.3
 30
0.0
 40
1.599999999999994
100
AcDbArc
 50
180.0
 51
270.0
  0
ARC
  5
19F
330
140
100
AcDbEntity
  8
AM_4
100
AcDbCircle
 10
-35.7
 20
56.3
 30
0.0
 40
1.600000000000001
100
AcDbArc
 50
90.0
 51
180.0
  0
LINE
  5
1A0
330
140
100
AcDbEntity
  8
AM_4
100
AcDbLine
 10
-35.7
 20
57.9
 30
0.0
 11
-35.7
 21
51.90678126718311
 31
0.0
  0
ENDBLK
  5
143
330
140
100
AcDbEntity
  8
0
100
AcDbBlockEnd
  0
ENDSEC
  0
SECTION
  2
ENTITIES
  0
INSERT
  5
6F
330
1F
100
AcDbEntity
  8
0
100
AcDbBlockReference
  2
1_076311_2
 10
0.0
 20
0.0
 30
0.0
  0
POINT
  5
1A2
330
1F
100
AcDbEntity
  8
ConnectionPoints
100
AcDbPoint
 10
-51.3
 20
0.0
 30
0.0000000000000031
  0
POINT
  5
1A3
330
1F
100
AcDbEntity
  8
ConnectionPoints
100
AcDbPoint
 10
-23.09999999999999
 20
43.42540573641511
 30
43.42540573641511
  0
POINT
  5
1A4
330
1F
100
AcDbEntity
  8
ConnectionPoints
100
AcDbPoint
 10
-51.3
 20
0.0
 30
0.0000000000000031
  0
ENDSEC
  0
SECTION
  2
OBJECTS
  0
DICTIONARY
  5
C
330
0
100
AcDbDictionary
281
     1
  3
ACAD_DETAILVIEWSTYLE
350
1AC
  3
ACAD_GROUP
350
D
  3
ACAD_LAYOUT
350
1A
  3
ACAD_MATERIAL
350
43
  3
ACAD_MLEADERSTYLE
350
6B
  3
ACAD_MLINESTYLE
350
17
  3
ACAD_PLOTSETTINGS
350
19
  3
ACAD_PLOTSTYLENAME
350
E
  3
ACAD_SCALELIST
350
47
  3
ACAD_SECTIONVIEWSTYLE
350
1AD
  3
ACAD_TABLESTYLE
350
69
  3
ACAD_VISUALSTYLE
350
2A
  3
ACDB_RECOMPOSE_DATA
350
1A9
  3
AcDbVariableDictionary
350
1A5
  0
SUN
  5
6D
330
29
100
AcDbSun
 90
        1
290
     0
 63
     7
421
 16777215
 40
1.0
291
     1
 91
  2455826
 92
 54000000
292
     0
 70
     2
 71
   256
280
     1
  0
DICTIONARY
  5
1AC
102
{ACAD_REACTORS
330
C
102
}
330
C
100
AcDbDictionary
281
     1
  0
DICTIONARY
  5
D
102
{ACAD_REACTORS
330
C
102
}
330
C
100
AcDbDictionary
281
     1
  0
DICTIONARY
  5
1A
102
{ACAD_REACTORS
330
C
102
}
330
C
100
AcDbDictionary
281
     1
  3
Layout1
350
1E
  3
Layout2
350
26
  3
Model
350
22
  0
DICTIONARY
  5
43
102
{ACAD_REACTORS
330
C
102
}
330
C
100
AcDbDictionary
281
     1
  3
ByBlock
350
45
  3
ByLayer
350
44
  3
Global
350
46
  0
DICTIONARY
  5
6B
102
{ACAD_REACTORS
330
C
102
}
330
C
100
AcDbDictionary
281
     1
  3
Standard
350
6C
  0
DICTIONARY
  5
17
102
{ACAD_REACTORS
330
C
102
}
330
C
100
AcDbDictionary
281
     1
  3
Standard
350
18
  0
DICTIONARY
  5
19
102
{ACAD_REACTORS
330
C
102
}
330
C
100
AcDbDictionary
281
     1
  0
ACDBDICTIONARYWDFLT
  5
E
102
{ACAD_REACTORS
330
C
102
}
330
C
100
AcDbDictionary
281
     1
  3
Normal
350
F
100
AcDbDictionaryWithDefault
340
F
  0
DICTIONARY
  5
47
102
{ACAD_REACTORS
330
C
102
}
330
C
100
AcDbDictionary
281
     1
  3
A0
350
48
  3
A1
350
49
  3
A2
350
4A
  3
A3
350
4B
  3
A4
350
4C
  3
A5
350
4D
  3
A6
350
4E
  3
A7
350
4F
  3
A8
350
50
  3
A9
350
51
  3
B0
350
52
  3
B1
350
53
  3
B2
350
54
  3
B3
350
55
  3
B4
350
56
  3
B5
350
57
  3
B6
350
58
  3
B7
350
59
  3
B8
350
5A
  3
B9
350
5B
  3
C0
350
5C
  3
C1
350
5D
  3
C2
350
5E
  3
C3
350
5F
  3
C4
350
60
  3
C5
350
61
  3
C6
350
62
  3
C7
350
63
  3
C8
350
64
  3
C9
350
65
  3
D0
350
66
  3
D1
350
67
  3
D2
350
68
  0
DICTIONARY
  5
1AD
102
{ACAD_REACTORS
330
C
102
}
330
C
100
AcDbDictionary
281
     1
  0
DICTIONARY
  5
69
102
{ACAD_REACTORS
330
C
102
}
330
C
100
AcDbDictionary
281
     1
  3
Standard
350
6A
  0
DICTIONARY
  5
2A
102
{ACAD_REACTORS
330
C
102
}
330
C
100
AcDbDictionary
281
     1
  3
2dWireframe
350
2F
  3
Basic
350
32
  3
Brighten
350
36
  3
ColorChange
350
3A
  3
Conceptual
350
34
  3
Dim
350
35
  3
EdgeColorOff
350
3D
  3
Facepattern
350
39
  3
Flat
350
2B
  3
FlatWithEdges
350
2C
  3
Gouraud
350
2D
  3
GouraudWithEdges
350
2E
  3
Hidden
350
31
  3
JitterOff
350
3B
  3
Linepattern
350
38
  3
OverhangOff
350
3C
  3
Realistic
350
33
  3
Shaded
350
42
  3
Shaded with edges
350
41
  3
Shades of Gray
350
3E
  3
Sketchy
350
3F
  3
Thicken
350
37
  3
Wireframe
350
30
  3
X-Ray
350
40
  0
XRECORD
  5
1A9
102
{ACAD_REACTORS
330
C
102
}
330
C
100
AcDbXrecord
280
     1
 90
        1
330
6A
  0
DICTIONARY
  5
1A5
102
{ACAD_REACTORS
330
C
102
}
330
C
100
AcDbDictionary
281
     1
  3
CANNOSCALE
350
1A6
  3
CMLEADERSTYLE
350
1AB
  3
CTABLESTYLE
350
1AA
  0
LAYOUT
  5
1E
102
{ACAD_REACTORS
330
1A
102
}
330
1A
100
AcDbPlotSettings
  1

  2
none_device
  4

  6

 40
0.0
 41
0.0
 42
0.0
 43
0.0
 44
0.0
 45
0.0
 46
0.0
 47
0.0
 48
0.0
 49
0.0
140
0.0
141
0.0
142
1.0
143
1.0
 70
   688
 72
     1
 73
     0
 74
     5
  7

 75
    16
 76
     0
 77
     2
 78
   300
147
1.0
148
0.0
149
0.0
100
AcDbLayout
  1
Layout1
 70
     1
 71
     1
 10
0.0
 20
0.0
 11
420.0
 21
297.0
 12
0.0
 22
0.0
 32
0.0
 14
1.000000000000000E+20
 24
1.000000000000000E+20
 34
1.000000000000000E+20
 15
-1.000000000000000E+20
 25
-1.000000000000000E+20
 35
-1.000000000000000E+20
146
0.0
 13
0.0
 23
0.0
 33
0.0
 16
1.0
 26
0.0
 36
0.0
 17
0.0
 27
1.0
 37
0.0
 76
     0
330
1B
  0
LAYOUT
  5
26
102
{ACAD_REACTORS
330
1A
102
}
330
1A
100
AcDbPlotSettings
  1

  2
none_device
  4

  6

 40
0.0
 41
0.0
 42
0.0
 43
0.0
 44
0.0
 45
0.0
 46
0.0
 47
0.0
 48
0.0
 49
0.0
140
0.0
141
0.0
142
1.0
143
1.0
 70
   688
 72
     1
 73
     0
 74
     5
  7

 75
    16
 76
     0
 77
     2
 78
   300
147
1.0
148
0.0
149
0.0
100
AcDbLayout
  1
Layout2
 70
     1
 71
     2
 10
0.0
 20
0.0
 11
0.0
 21
0.0
 12
0.0
 22
0.0
 32
0.0
 14
0.0
 24
0.0
 34
0.0
 15
0.0
 25
0.0
 35
0.0
146
0.0
 13
0.0
 23
0.0
 33
0.0
 16
1.0
 26
0.0
 36
0.0
 17
0.0
 27
1.0
 37
0.0
 76
     0
330
23
  0
LAYOUT
  5
22
102
{ACAD_REACTORS
330
1A
102
}
330
1A
100
AcDbPlotSettings
  1

  2
none_device
  4
Letter_(8.50_x_11.00_Inches)
  6

 40
6.35
 41
6.35
 42
6.35000508
 43
6.35000508
 44
215.9
 45
279.4
 46
0.0
 47
0.0
 48
0.0
 49
0.0
140
0.0
141
0.0
142
1.0
143
1.0
 70
  1712
 72
     1
 73
     0
 74
     0
  7

 75
     0
 76
     0
 77
     2
 78
   300
147
1.0
148
0.0
149
0.0
100
AcDbLayout
  1
Model
 70
     1
 71
     0
 10
0.0
 20
0.0
 11
420.0
 21
297.0
 12
0.0
 22
0.0
 32
0.0
 14
1.000000000000000E+20
 24
1.000000000000000E+20
 34
1.000000000000000E+20
 15
-1.000000000000000E+20
 25
-1.000000000000000E+20
 35
-1.000000000000000E+20
146
0.0
 13
0.0
 23
0.0
 33
0.0
 16
1.0
 26
0.0
 36
0.0
 17
0.0
 27
1.0
 37
0.0
 76
     0
330
1F
331
29
  0
MATERIAL
  5
45
102
{ACAD_REACTORS
330
43
102
}
330
43
100
AcDbMaterial
  1
ByBlock
 72
     1
 94
      127
  0
MATERIAL
  5
44
102
{ACAD_REACTORS
330
43
102
}
330
43
100
AcDbMaterial
  1
ByLayer
 72
     1
 94
      127
  0
MATERIAL
  5
46
102
{ACAD_REACTORS
330
43
102
}
330
43
100
AcDbMaterial
  1
Global
 72
     1
 94
      127
  0
MLEADERSTYLE
  5
6C
102
{ACAD_REACTORS
330
6B
102
}
330
6B
100
AcDbMLeaderStyle
179
     2
170
     2
171
     1
172
     0
 90
        2
 40
0.0
 41
0.0
173
     1
 91
-1056964608
340
14
 92
       -2
290
     1
 42
2.0
291
     1
 43
8.0
  3
Standard
341
0
 44
4.0
300

342
11
174
     1
178
     6
175
     1
176
     0
 93
-1056964608
 45
4.0
292
     0
297
     0
 46
4.0
343
0
 94
-1056964608
 47
1.0
 49
1.0
140
1.0
293
     1
141
0.0
294
     1
177
     0
142
1.0
295
     0
296
     0
143
3.75
271
     0
272
     9
273
     9
298
     0
  0
MLINESTYLE
  5
18
102
{ACAD_REACTORS
330
17
102
}
330
17
100
AcDbMlineStyle
  2
Standard
 70
     0
  3

 62
   256
 51
90.0
 52
90.0
 71
     2
 49
0.5
 62
   256
  6
BYLAYER
 49
-0.5
 62
   256
  6
BYLAYER
  0
ACDBPLACEHOLDER
  5
F
102
{ACAD_REACTORS
330
E
102
}
330
E
  0
SCALE
  5
48
102
{ACAD_REACTORS
330
47
102
}
330
47
100
AcDbScale
 70
     0
300
1:1
140
1.0
141
1.0
290
     1
  0
SCALE
  5
49
102
{ACAD_REACTORS
330
47
102
}
330
47
100
AcDbScale
 70
     0
300
1:2
140
1.0
141
2.0
290
     0
  0
SCALE
  5
4A
102
{ACAD_REACTORS
330
47
102
}
330
47
100
AcDbScale
 70
     0
300
1:4
140
1.0
141
4.0
290
     0
  0
SCALE
  5
4B
102
{ACAD_REACTORS
330
47
102
}
330
47
100
AcDbScale
 70
     0
300
1:5
140
1.0
141
5.0
290
     0
  0
SCALE
  5
4C
102
{ACAD_REACTORS
330
47
102
}
330
47
100
AcDbScale
 70
     0
300
1:8
140
1.0
141
8.0
290
     0
  0
SCALE
  5
4D
102
{ACAD_REACTORS
330
47
102
}
330
47
100
AcDbScale
 70
     0
300
1:10
140
1.0
141
10.0
290
     0
  0
SCALE
  5
4E
102
{ACAD_REACTORS
330
47
102
}
330
47
100
AcDbScale
 70
     0
300
1:16
140
1.0
141
16.0
290
     0
  0
SCALE
  5
4F
102
{ACAD_REACTORS
330
47
102
}
330
47
100
AcDbScale
 70
     0
300
1:20
140
1.0
141
20.0
290
     0
  0
SCALE
  5
50
102
{ACAD_REACTORS
330
47
102
}
330
47
100
AcDbScale
 70
     0
300
1:30
140
1.0
141
30.0
290
     0
  0
SCALE
  5
51
102
{ACAD_REACTORS
330
47
102
}
330
47
100
AcDbScale
 70
     0
300
1:40
140
1.0
141
40.0
290
     0
  0
SCALE
  5
52
102
{ACAD_REACTORS
330
47
102
}
330
47
100
AcDbScale
 70
     0
300
1:50
140
1.0
141
50.0
290
     0
  0
SCALE
  5
53
102
{ACAD_REACTORS
330
47
102
}
330
47
100
AcDbScale
 70
     0
300
1:100
140
1.0
141
100.0
290
     0
  0
SCALE
  5
54
102
{ACAD_REACTORS
330
47
102
}
330
47
100
AcDbScale
 70
     0
300
2:1
140
2.0
141
1.0
290
     0
  0
SCALE
  5
55
102
{ACAD_REACTORS
330
47
102
}
330
47
100
AcDbScale
 70
     0
300
4:1
140
4.0
141
1.0
290
     0
  0
SCALE
  5
56
102
{ACAD_REACTORS
330
47
102
}
330
47
100
AcDbScale
 70
     0
300
8:1
140
8.0
141
1.0
290
     0
  0
SCALE
  5
57
102
{ACAD_REACTORS
330
47
102
}
330
47
100
AcDbScale
 70
     0
300
10:1
140
10.0
141
1.0
290
     0
  0
SCALE
  5
58
102
{ACAD_REACTORS
330
47
102
}
330
47
100
AcDbScale
 70
     0
300
100:1
140
100.0
141
1.0
290
     0
  0
SCALE
  5
59
102
{ACAD_REACTORS
330
47
102
}
330
47
100
AcDbScale
 70
     0
300
1/128" = 1'-0"
140
0.0078125
141
12.0
290
     0
  0
SCALE
  5
5A
102
{ACAD_REACTORS
330
47
102
}
330
47
100
AcDbScale
 70
     0
300
1/64" = 1'-0"
140
0.015625
141
12.0
290
     0
  0
SCALE
  5
5B
102
{ACAD_REACTORS
330
47
102
}
330
47
100
AcDbScale
 70
     0
300
1/32" = 1'-0"
140
0.03125
141
12.0
290
     0
  0
SCALE
  5
5C
102
{ACAD_REACTORS
330
47
102
}
330
47
100
AcDbScale
 70
     0
300
1/16" = 1'-0"
140
0.0625
141
12.0
290
     0
  0
SCALE
  5
5D
102
{ACAD_REACTORS
330
47
102
}
330
47
100
AcDbScale
 70
     0
300
3/32" = 1'-0"
140
0.09375
141
12.0
290
     0
  0
SCALE
  5
5E
102
{ACAD_REACTORS
330
47
102
}
330
47
100
AcDbScale
 70
     0
300
1/8" = 1'-0"
140
0.125
141
12.0
290
     0
  0
SCALE
  5
5F
102
{ACAD_REACTORS
330
47
102
}
330
47
100
AcDbScale
 70
     0
300
3/16" = 1'-0"
140
0.1875
141
12.0
290
     0
  0
SCALE
  5
60
102
{ACAD_REACTORS
330
47
102
}
330
47
100
AcDbScale
 70
     0
300
1/4" = 1'-0"
140
0.25
141
12.0
290
     0
  0
SCALE
  5
61
102
{ACAD_REACTORS
330
47
102
}
330
47
100
AcDbScale
 70
     0
300
3/8" = 1'-0"
140
0.375
141
12.0
290
     0
  0
SCALE
  5
62
102
{ACAD_REACTORS
330
47
102
}
330
47
100
AcDbScale
 70
     0
300
1/2" = 1'-0"
140
0.5
141
12.0
290
     0
  0
SCALE
  5
63
102
{ACAD_REACTORS
330
47
102
}
330
47
100
AcDbScale
 70
     0
300
3/4" = 1'-0"
140
0.75
141
12.0
290
     0
  0
SCALE
  5
64
102
{ACAD_REACTORS
330
47
102
}
330
47
100
AcDbScale
 70
     0
300
1" = 1'-0"
140
1.0
141
12.0
290
     0
  0
SCALE
  5
65
102
{ACAD_REACTORS
330
47
102
}
330
47
100
AcDbScale
 70
     0
300
1-1/2" = 1'-0"
140
1.5
141
12.0
290
     0
  0
SCALE
  5
66
102
{ACAD_REACTORS
330
47
102
}
330
47
100
AcDbScale
 70
     0
300
3" = 1'-0"
140
3.0
141
12.0
290
     0
  0
SCALE
  5
67
102
{ACAD_REACTORS
330
47
102
}
330
47
100
AcDbScale
 70
     0
300
6" = 1'-0"
140
6.0
141
12.0
290
     0
  0
SCALE
  5
68
102
{ACAD_REACTORS
330
47
102
}
330
47
100
AcDbScale
 70
     0
300
1'-0" = 1'-0"
140
12.0
141
12.0
290
     0
  0
TABLESTYLE
  5
6A
102
{ACAD_REACTORS
330
69
102
}
102
{ACAD_XDICTIONARY
360
1A7
102
}
330
69
100
AcDbTableStyle
  3
Standard
 70
     0
 71
     0
 40
0.06
 41
0.06
280
     0
281
     0
  7
Standard
140
4.5
170
     2
 62
     0
 63
   257
283
     0
 90
        4
 91
        0
  1

274
    -2
284
     1
 64
     0
275
    -2
285
     1
 65
     0
276
    -2
286
     1
 66
     0
277
    -2
287
     1
 67
     0
278
    -2
288
     1
 68
     0
279
    -2
289
     1
 69
     0
  7
Standard
140
6.0
170
     5
 62
     0
 63
   257
283
     0
 90
        4
 91
        0
  1

274
    -2
284
     1
 64
     0
275
    -2
285
     1
 65
     0
276
    -2
286
     1
 66
     0
277
    -2
287
     1
 67
     0
278
    -2
288
     1
 68
     0
279
    -2
289
     1
 69
     0
  7
Standard
140
4.5
170
     5
 62
     0
 63
   257
283
     0
 90
        4
 91
        0
  1

274
    -2
284
     1
 64
     0
275
    -2
285
     1
 65
     0
276
    -2
286
     1
 66
     0
277
    -2
287
     1
 67
     0
278
    -2
288
     1
 68
     0
279
    -2
289
     1
 69
     0
  0
VISUALSTYLE
  5
2F
102
{ACAD_REACTORS
330
2A
102
}
330
2A
100
AcDbVisualStyle
  2
2dWireframe
 70
     4
177
     3
291
     0
 70
    58
 90
        0
176
     1
 90
        2
176
     1
 90
        0
176
     1
 90
        0
176
     1
 40
0.6
176
     1
 40
30.0
176
     1
 62
     7
420
 16777215
176
     1
 90
        1
176
     1
 90
        4
176
     1
 62
     7
176
     1
 62
   257
176
     1
 90
        1
176
     1
 90
        1
176
     1
 40
1.0
176
     1
 90
        0
176
     1
 62
   257
176
     1
 40
1.0
176
     1
 90
        1
176
     1
 90
        6
176
     1
 90
        2
176
     1
 62
     7
176
     1
 90
        5
176
     1
 90
        0
176
     1
 90
        0
176
     1
290
     0
176
     1
 90
        1
176
     1
 40
0.0
176
     1
 90
        0
176
     1
290
     1
176
     1
290
     1
176
     1
290
     0
176
     1
290
     0
176
     1
290
     0
176
     1
290
     0
176
     1
290
     0
176
     1
290
     0
176
     1
290
     0
176
     1
 90
       50
176
     1
 40
0.0
176
     1
 40
1.0
176
     1
 90
        0
176
     1
 62
    18
420
        0
176
     1
 90
       50
176
     1
 90
        3
176
     1
 62
     5
420
      255
176
     1
290
     0
176
     1
 90
       50
176
     1
 90
       50
176
     1
 90
       50
176
     1
290
     0
176
     1
 90
       50
176
     1
 62
   256
176
     0
 40
1.0
176
     0
 90
        2
176
     1
  1
strokes_ogs.tif
176
     1
290
     0
176
     1
 40
1.0
176
     1
 40
1.0
176
     1
  0
VISUALSTYLE
  5
32
102
{ACAD_REACTORS
330
2A
102
}
330
2A
100
AcDbVisualStyle
  2
Basic
 70
     7
177
     3
291
     1
 70
    58
 90
        1
176
     1
 90
        0
176
     1
 90
        1
176
     1
 90
        0
176
     1
 40
0.6
176
     1
 40
30.0
176
     1
 62
     7
420
 16777215
176
     1
 90
        0
176
     1
 90
        4
176
     1
 62
     7
176
     1
 62
   257
176
     1
 90
        1
176
     1
 90
        1
176
     1
 40
1.0
176
     1
 90
        8
176
     1
 62
     7
176
     1
 40
1.0
176
     1
 90
        1
176
     1
 90
        6
176
     1
 90
        2
176
     1
 62
     7
176
     1
 90
        5
176
     1
 90
        0
176
     1
 90
        0
176
     1
290
     0
176
     1
 90
        1
176
     1
 40
0.0
176
     1
 90
        0
176
     1
290
     0
176
     1
290
     1
176
     1
290
     1
176
     1
290
     0
176
     1
290
     0
176
     1
290
     0
176
     1
290
     0
176
     1
290
     0
176
     1
290
     0
176
     1
 90
       50
176
     1
 40
0.0
176
     1
 40
1.0
176
     1
 90
        0
176
     1
 62
    18
420
        0
176
     1
 90
       50
176
     1
 90
        3
176
     1
 62
     5
420
      255
176
     1
290
     0
176
     1
 90
       50
176
     1
 90
       50
176
     1
 90
       50
176
     1
290
     0
176
     1
 90
       50
176
     1
 62
   256
176
     0
 40
1.0
176
     0
 90
        2
176
     1
  1
strokes_ogs.tif
176
     1
290
     0
176
     1
 40
1.0
176
     1
 40
1.0
176
     1
  0
VISUALSTYLE
  5
36
102
{ACAD_REACTORS
330
2A
102
}
330
2A
100
AcDbVisualStyle
  2
Brighten
 70
    12
177
     3
291
     1
 70
    58
 90
        2
176
     1
 90
        2
176
     1
 90
        0
176
     1
 90
        0
176
     1
 40
0.6
176
     1
 40
30.0
176
     1
 62
     7
420
 16777215
176
     1
 90
        1
176
     1
 90
        4
176
     1
 62
     7
176
     1
 62
   257
176
     1
 90
        1
176
     1
 90
        1
176
     1
 40
1.0
176
     1
 90
        8
176
     1
 62
     7
176
     1
 40
1.0
176
     1
 90
        1
176
     1
 90
        6
176
     1
 90
        2
176
     1
 62
     7
176
     1
 90
        5
176
     1
 90
        0
176
     1
 90
        0
176
     1
290
     0
176
     1
 90
        1
176
     1
 40
50.0
176
     1
 90
        0
176
     1
290
     0
176
     1
290
     1
176
     1
290
     1
176
     1
290
     0
176
     1
290
     0
176
     1
290
     0
176
     1
290
     0
176
     1
290
     0
176
     1
290
     0
176
     1
 90
       50
176
     1
 40
0.0
176
     1
 40
1.0
176
     1
 90
        0
176
     1
 62
    18
420
        0
176
     1
 90
       50
176
     1
 90
        3
176
     1
 62
     5
420
      255
176
     1
290
     0
176
     1
 90
       50
176
     1
 90
       50
176
     1
 90
       50
176
     1
290
     0
176
     1
 90
       50
176
     1
 62
   256
176
     0
 40
1.0
176
     0
 90
        2
176
     1
  1
strokes_ogs.tif
176
     1
290
     0
176
     1
 40
1.0
176
     1
 40
1.0
176
     1
  0
VISUALSTYLE
  5
3A
102
{ACAD_REACTORS
330
2A
102
}
330
2A
100
AcDbVisualStyle
  2
ColorChange
 70
    16
177
     3
291
     1
 70
    58
 90
        2
176
     1
 90
        2
176
     1
 90
        3
176
     1
 90
        0
176
     1
 40
0.6
176
     1
 40
30.0
176
     1
 62
     8
420
  8421504
176
     1
 90
        1
176
     1
 90
        4
176
     1
 62
     7
176
     1
 62
   257
176
     1
 90
        1
176
     1
 90
        1
176
     1
 40
1.0
176
     1
 90
        8
176
     1
 62
     8
420
  8421504
176
     1
 40
1.0
176
     1
 90
        1
176
     1
 90
        6
176
     1
 90
        2
176
     1
 62
     7
176
     1
 90
        5
176
     1
 90
        0
176
     1
 90
        0
176
     1
290
     0
176
     1
 90
        1
176
     1
 40
0.0
176
     1
 90
        0
176
     1
290
     0
176
     1
290
     1
176
     1
290
     1
176
     1
290
     0
176
     1
290
     0
176
     1
290
     0
176
     1
290
     0
176
     1
290
     0
176
     1
290
     0
176
     1
 90
       50
176
     1
 40
0.0
176
     1
 40
1.0
176
     1
 90
        0
176
     1
 62
    18
420
        0
176
     1
 90
       50
176
     1
 90
        3
176
     1
 62
     5
420
      255
176
     1
290
     0
176
     1
 90
       50
176
     1
 90
       50
176
     1
 90
       50
176
     1
290
     0
176
     1
 90
       50
176
     1
 62
   256
176
     0
 40
1.0
176
     0
 90
        2
176
     1
  1
strokes_ogs.tif
176
     1
290
     0
176
     1
 40
1.0
176
     1
 40
1.0
176
     1
  0
VISUALSTYLE
  5
34
102
{ACAD_REACTORS
330
2A
102
}
330
2A
100
AcDbVisualStyle
  2
Conceptual
 70
     9
177
     3
291
     0
 70
    58
 90
        3
176
     1
 90
        2
176
     1
 90
        0
176
     1
 90
        0
176
     1
 40
0.6
176
     1
 40
30.0
176
     1
 62
     7
420
 16777215
176
     1
 90
        2
176
     1
 90
        2
176
     1
 62
     7
176
     1
 62
   257
176
     1
 90
        1
176
     1
 90
        1
176
     1
 40
179.0
176
     1
 90
        8
176
     1
 62
     7
176
     1
 40
1.0
176
     1
 90
        1
176
     1
 90
        6
176
     1
 90
        2
176
     1
 62
     7
176
     1
 90
        3
176
     1
 90
        0
176
     1
 90
        0
176
     1
290
     0
176
     1
 90
        1
176
     1
 40
0.0
176
     1
 90
        0
176
     1
290
     0
176
     1
290
     1
176
     1
290
     1
176
     1
290
     0
176
     1
290
     0
176
     1
290
     0
176
     1
290
     0
176
     1
290
     0
176
     1
290
     0
176
     1
 90
       50
176
     1
 40
0.0
176
     1
 40
1.0
176
     1
 90
        0
176
     1
 62
    18
420
        0
176
     1
 90
       50
176
     1
 90
        3
176
     1
 62
     5
420
      255
176
     1
290
     0
176
     1
 90
       50
176
     1
 90
       50
176
     1
 90
       50
176
     1
290
     0
176
     1
 90
       50
176
     1
 62
   256
176
     0
 40
1.0
176
     0
 90
        2
176
     1
  1
strokes_ogs.tif
176
     1
290
     0
176
     1
 40
1.0
176
     1
 40
1.0
176
     1
  0
VISUALSTYLE
  5
35
102
{ACAD_REACTORS
330
2A
102
}
330
2A
100
AcDbVisualStyle
  2
Dim
 70
    11
177
     3
291
     1
 70
    58
 90
        2
176
     1
 90
        2
176
     1
 90
        0
176
     1
 90
        0
176
     1
 40
0.6
176
     1
 40
30.0
176
     1
 62
     7
420
 16777215
176
     1
 90
        1
176
     1
 90
        4
176
     1
 62
     7
176
     1
 62
   257
176
     1
 90
        1
176
     1
 90
        1
176
     1
 40
1.0
176
     1
 90
        8
176
     1
 62
     7
176
     1
 40
1.0
176
     1
 90
        1
176
     1
 90
        6
176
     1
 90
        2
176
     1
 62
     7
176
     1
 90
        5
176
     1
 90
        0
176
     1
 90
        0
176
     1
290
     0
176
     1
 90
        1
176
     1
 40
-50.0
176
     1
 90
        0
176
     1
290
     0
176
     1
290
     1
176
     1
290
     1
176
     1
290
     0
176
     1
290
     0
176
     1
290
     0
176
     1
290
     0
176
     1
290
     0
176
     1
290
     0
176
     1
 90
       50
176
     1
 40
0.0
176
     1
 40
1.0
176
     1
 90
        0
176
     1
 62
    18
420
        0
176
     1
 90
       50
176
     1
 90
        3
176
     1
 62
     5
420
      255
176
     1
290
     0
176
     1
 90
       50
176
     1
 90
       50
176
     1
 90
       50
176
     1
290
     0
176
     1
 90
       50
176
     1
 62
   256
176
     0
 40
1.0
176
     0
 90
        2
176
     1
  1
strokes_ogs.tif
176
     1
290
     0
176
     1
 40
1.0
176
     1
 40
1.0
176
     1
  0
VISUALSTYLE
  5
3D
102
{ACAD_REACTORS
330
2A
102
}
330
2A
100
AcDbVisualStyle
  2
EdgeColorOff
 70
    22
177
     3
291
     1
 70
    58
 90
        2
176
     0
 90
        2
176
     0
 90
        0
176
     0
 90
        0
176
     0
 40
0.6
176
     0
 40
30.0
176
     0
 62
     7
420
 16777215
176
     0
 90
        1
176
     0
 90
        4
176
     0
 62
     7
176
     0
 62
   257
176
     0
 90
        1
176
     0
 90
        1
176
     0
 40
1.0
176
     0
 90
        8
176
     2
 62
     7
176
     0
 40
1.0
176
     0
 90
        1
176
     0
 90
        6
176
     0
 90
        2
176
     0
 62
     7
176
     0
 90
        5
176
     0
 90
        0
176
     0
 90
        0
176
     0
290
     0
176
     0
 90
        1
176
     0
 40
0.0
176
     0
 90
        0
176
     0
290
     0
176
     0
290
     1
176
     0
290
     1
176
     0
290
     0
176
     0
290
     0
176
     0
290
     0
176
     0
290
     0
176
     0
290
     0
176
     0
290
     0
176
     0
 90
       50
176
     0
 40
0.0
176
     0
 40
1.0
176
     0
 90
        0
176
     0
 62
    18
420
        0
176
     0
 90
       50
176
     0
 90
        3
176
     0
 62
     5
420
      255
176
     0
290
     0
176
     0
 90
       50
176
     0
 90
       50
176
     0
 90
       50
176
     0
290
     0
176
     0
 90
       50
176
     0
 62
   256
176
     0
 40
1.0
176
     0
 90
        2
176
     0
  1
strokes_ogs.tif
176
     0
290
     0
176
     0
 40
1.0
176
     0
 40
1.0
176
     0
  0
VISUALSTYLE
  5
39
102
{ACAD_REACTORS
330
2A
102
}
330
2A
100
AcDbVisualStyle
  2
Facepattern
 70
    15
177
     3
291
     1
 70
    58
 90
        2
176
     1
 90
        2
176
     1
 90
        0
176
     1
 90
        0
176
     1
 40
0.6
176
     1
 40
30.0
176
     1
 62
     7
420
 16777215
176
     1
 90
        1
176
     1
 90
        4
176
     1
 62
     7
176
     1
 62
   257
176
     1
 90
        1
176
     1
 90
        1
176
     1
 40
1.0
176
     1
 90
        8
176
     1
 62
     7
176
     1
 40
1.0
176
     1
 90
        1
176
     1
 90
        6
176
     1
 90
        2
176
     1
 62
     7
176
     1
 90
        5
176
     1
 90
        0
176
     1
 90
        0
176
     1
290
     0
176
     1
 90
        1
176
     1
 40
0.0
176
     1
 90
        0
176
     1
290
     0
176
     1
290
     1
176
     1
290
     1
176
     1
290
     0
176
     1
290
     0
176
     1
290
     0
176
     1
290
     0
176
     1
290
     0
176
     1
290
     0
176
     1
 90
       50
176
     1
 40
0.0
176
     1
 40
1.0
176
     1
 90
        0
176
     1
 62
    18
420
        0
176
     1
 90
       50
176
     1
 90
        3
176
     1
 62
     5
420
      255
176
     1
290
     0
176
     1
 90
       50
176
     1
 90
       50
176
     1
 90
       50
176
     1
290
     0
176
     1
 90
       50
176
     1
 62
   256
176
     0
 40
1.0
176
     0
 90
        2
176
     1
  1
strokes_ogs.tif
176
     1
290
     0
176
     1
 40
1.0
176
     1
 40
1.0
176
     1
  0
VISUALSTYLE
  5
2B
102
{ACAD_REACTORS
330
2A
102
}
330
2A
100
AcDbVisualStyle
  2
Flat
 70
     0
177
     3
291
     1
 70
    58
 90
        2
176
     1
 90
        1
176
     1
 90
        1
176
     1
 90
        2
176
     1
 40
0.6
176
     1
 40
30.0
176
     1
 62
     7
420
 16777215
176
     1
 90
        0
176
     1
 90
        0
176
     1
 62
     7
176
     1
 62
   257
176
     1
 90
        1
176
     1
 90
        1
176
     1
 40
1.0
176
     1
 90
        8
176
     1
 62
     7
176
     1
 40
1.0
176
     1
 90
        1
176
     1
 90
        6
176
     1
 90
        2
176
     1
 62
     7
176
     1
 90
        5
176
     1
 90
        0
176
     1
 90
        0
176
     1
290
     0
176
     1
 90
       13
176
     1
 40
0.0
176
     1
 90
        0
176
     1
290
     0
176
     1
290
     1
176
     1
290
     1
176
     1
290
     0
176
     1
290
     0
176
     1
290
     0
176
     1
290
     0
176
     1
290
     0
176
     1
290
     0
176
     1
 90
       50
176
     1
 40
0.0
176
     1
 40
1.0
176
     1
 90
        0
176
     1
 62
    18
420
        0
176
     1
 90
       50
176
     1
 90
        3
176
     1
 62
     5
420
      255
176
     1
290
     0
176
     1
 90
       50
176
     1
 90
       50
176
     1
 90
       50
176
     1
290
     0
176
     1
 90
       50
176
     1
 62
   256
176
     0
 40
1.0
176
     0
 90
        2
176
     1
  1
strokes_ogs.tif
176
     1
290
     0
176
     1
 40
1.0
176
     1
 40
1.0
176
     1
  0
VISUALSTYLE
  5
2C
102
{ACAD_REACTORS
330
2A
102
}
330
2A
100
AcDbVisualStyle
  2
FlatWithEdges
 70
     1
177
     3
291
     1
 70
    58
 90
        2
176
     1
 90
        1
176
     1
 90
        1
176
     1
 90
        2
176
     1
 40
0.6
176
     1
 40
30.0
176
     1
 62
     7
420
 16777215
176
     1
 90
        1
176
     1
 90
        0
176
     1
 62
     7
176
     1
 62
   257
176
     1
 90
        1
176
     1
 90
        1
176
     1
 40
1.0
176
     1
 90
        0
176
     1
 62
   257
176
     1
 40
1.0
176
     1
 90
        1
176
     1
 90
        6
176
     1
 90
        2
176
     1
 62
     7
176
     1
 90
        5
176
     1
 90
        0
176
     1
 90
        0
176
     1
290
     0
176
     1
 90
       13
176
     1
 40
0.0
176
     1
 90
        0
176
     1
290
     0
176
     1
290
     1
176
     1
290
     1
176
     1
290
     0
176
     1
290
     0
176
     1
290
     0
176
     1
290
     0
176
     1
290
     0
176
     1
290
     0
176
     1
 90
       50
176
     1
 40
0.0
176
     1
 40
1.0
176
     1
 90
        0
176
     1
 62
    18
420
        0
176
     1
 90
       50
176
     1
 90
        3
176
     1
 62
     5
420
      255
176
     1
290
     0
176
     1
 90
       50
176
     1
 90
       50
176
     1
 90
       50
176
     1
290
     0
176
     1
 90
       50
176
     1
 62
   256
176
     0
 40
1.0
176
     0
 90
        2
176
     1
  1
strokes_ogs.tif
176
     1
290
     0
176
     1
 40
1.0
176
     1
 40
1.0
176
     1
  0
VISUALSTYLE
  5
2D
102
{ACAD_REACTORS
330
2A
102
}
330
2A
100
AcDbVisualStyle
  2
Gouraud
 70
     2
177
     3
291
     1
 70
    58
 90
        2
176
     1
 90
        2
176
     1
 90
        1
176
     1
 90
        2
176
     1
 40
0.6
176
     1
 40
30.0
176
     1
 62
     7
420
 16777215
176
     1
 90
        0
176
     1
 90
        0
176
     1
 62
     7
176
     1
 62
   257
176
     1
 90
        1
176
     1
 90
        1
176
     1
 40
1.0
176
     1
 90
        0
176
     1
 62
     7
176
     1
 40
1.0
176
     1
 90
        1
176
     1
 90
        6
176
     1
 90
        2
176
     1
 62
     7
176
     1
 90
        5
176
     1
 90
        0
176
     1
 90
        0
176
     1
290
     0
176
     1
 90
       13
176
     1
 40
0.0
176
     1
 90
        0
176
     1
290
     0
176
     1
290
     1
176
     1
290
     1
176
     1
290
     0
176
     1
290
     0
176
     1
290
     0
176
     1
290
     0
176
     1
290
     0
176
     1
290
     0
176
     1
 90
       50
176
     1
 40
0.0
176
     1
 40
1.0
176
     1
 90
        0
176
     1
 62
    18
420
        0
176
     1
 90
       50
176
     1
 90
        3
176
     1
 62
     5
420
      255
176
     1
290
     0
176
     1
 90
       50
176
     1
 90
       50
176
     1
 90
       50
176
     1
290
     0
176
     1
 90
       50
176
     1
 62
   256
176
     0
 40
1.0
176
     0
 90
        2
176
     1
  1
strokes_ogs.tif
176
     1
290
     0
176
     1
 40
1.0
176
     1
 40
1.0
176
     1
  0
VISUALSTYLE
  5
2E
102
{ACAD_REACTORS
330
2A
102
}
330
2A
100
AcDbVisualStyle
  2
GouraudWithEdges
 70
     3
177
     3
291
     1
 70
    58
 90
        2
176
     1
 90
        2
176
     1
 90
        1
176
     1
 90
        2
176
     1
 40
0.6
176
     1
 40
30.0
176
     1
 62
     7
420
 16777215
176
     1
 90
        1
176
     1
 90
        0
176
     1
 62
     7
176
     1
 62
   257
176
     1
 90
        1
176
     1
 90
        1
176
     1
 40
1.0
176
     1
 90
        0
176
     1
 62
   257
176
     1
 40
1.0
176
     1
 90
        1
176
     1
 90
        6
176
     1
 90
        2
176
     1
 62
     7
176
     1
 90
        5
176
     1
 90
        0
176
     1
 90
        0
176
     1
290
     0
176
     1
 90
       13
176
     1
 40
0.0
176
     1
 90
        0
176
     1
290
     0
176
     1
290
     1
176
     1
290
     1
176
     1
290
     0
176
     1
290
     0
176
     1
290
     0
176
     1
290
     0
176
     1
290
     0
176
     1
290
     0
176
     1
 90
       50
176
     1
 40
0.0
176
     1
 40
1.0
176
     1
 90
        0
176
     1
 62
    18
420
        0
176
     1
 90
       50
176
     1
 90
        3
176
     1
 62
     5
420
      255
176
     1
290
     0
176
     1
 90
       50
176
     1
 90
       50
176
     1
 90
       50
176
     1
290
     0
176
     1
 90
       50
176
     1
 62
   256
176
     0
 40
1.0
176
     0
 90
        2
176
     1
  1
strokes_ogs.tif
176
     1
290
     0
176
     1
 40
1.0
176
     1
 40
1.0
176
     1
  0
VISUALSTYLE
  5
31
102
{ACAD_REACTORS
330
2A
102
}
330
2A
100
AcDbVisualStyle
  2
Hidden
 70
     6
177
     3
291
     0
 70
    58
 90
        1
176
     1
 90
        2
176
     1
 90
        2
176
     1
 90
        0
176
     1
 40
0.6
176
     1
 40
30.0
176
     1
 62
     7
420
 16777215
176
     1
 90
        2
176
     1
 90
        2
176
     1
 62
     7
176
     1
 62
   257
176
     1
 90
        2
176
     1
 90
        1
176
     1
 40
40.0
176
     1
 90
        0
176
     1
 62
   257
176
     1
 40
1.0
176
     1
 90
        1
176
     1
 90
        6
176
     1
 90
        2
176
     1
 62
     7
176
     1
 90
        3
176
     1
 90
        0
176
     1
 90
        0
176
     1
290
     0
176
     1
 90
        1
176
     1
 40
0.0
176
     1
 90
        0
176
     1
290
     0
176
     1
290
     1
176
     1
290
     1
176
     1
290
     0
176
     1
290
     0
176
     1
290
     0
176
     1
290
     0
176
     1
290
     0
176
     1
290
     0
176
     1
 90
       50
176
     1
 40
0.0
176
     1
 40
1.0
176
     1
 90
        0
176
     1
 62
    18
420
        0
176
     1
 90
       50
176
     1
 90
        3
176
     1
 62
     5
420
      255
176
     1
290
     0
176
     1
 90
       50
176
     1
 90
       50
176
     1
 90
       50
176
     1
290
     0
176
     1
 90
       50
176
     1
 62
   256
176
     0
 40
1.0
176
     0
 90
        2
176
     1
  1
strokes_ogs.tif
176
     1
290
     0
176
     1
 40
1.0
176
     1
 40
1.0
176
     1
  0
VISUALSTYLE
  5
3B
102
{ACAD_REACTORS
330
2A
102
}
330
2A
100
AcDbVisualStyle
  2
JitterOff
 70
    20
177
     3
291
     1
 70
    58
 90
        2
176
     0
 90
        2
176
     0
 90
        0
176
     0
 90
        0
176
     0
 40
0.6
176
     0
 40
30.0
176
     0
 62
     7
420
 16777215
176
     0
 90
        1
176
     0
 90
        4
176
     0
 62
     7
176
     0
 62
   257
176
     0
 90
        1
176
     0
 90
        1
176
     0
 40
1.0
176
     0
 90
       10
176
     2
 62
     7
176
     0
 40
1.0
176
     0
 90
        1
176
     0
 90
        6
176
     0
 90
        2
176
     0
 62
     7
176
     0
 90
        5
176
     0
 90
        0
176
     0
 90
        0
176
     0
290
     0
176
     0
 90
        1
176
     0
 40
0.0
176
     0
 90
        0
176
     0
290
     0
176
     0
290
     1
176
     0
290
     1
176
     0
290
     0
176
     0
290
     0
176
     0
290
     0
176
     0
290
     0
176
     0
290
     0
176
     0
290
     0
176
     0
 90
       50
176
     0
 40
0.0
176
     0
 40
1.0
176
     0
 90
        0
176
     0
 62
    18
420
        0
176
     0
 90
       50
176
     0
 90
        3
176
     0
 62
     5
420
      255
176
     0
290
     0
176
     0
 90
       50
176
     0
 90
       50
176
     0
 90
       50
176
     0
290
     0
176
     0
 90
       50
176
     0
 62
   256
176
     0
 40
1.0
176
     0
 90
        2
176
     0
  1
strokes_ogs.tif
176
     0
290
     0
176
     0
 40
1.0
176
     0
 40
1.0
176
     0
  0
VISUALSTYLE
  5
38
102
{ACAD_REACTORS
330
2A
102
}
330
2A
100
AcDbVisualStyle
  2
Linepattern
 70
    14
177
     3
291
     1
 70
    58
 90
        2
176
     1
 90
        2
176
     1
 90
        0
176
     1
 90
        0
176
     1
 40
0.6
176
     1
 40
30.0
176
     1
 62
     7
420
 16777215
176
     1
 90
        1
176
     1
 90
        4
176
     1
 62
     7
176
     1
 62
   257
176
     1
 90
        7
176
     1
 90
        7
176
     1
 40
1.0
176
     1
 90
        8
176
     1
 62
     7
176
     1
 40
1.0
176
     1
 90
        1
176
     1
 90
        6
176
     1
 90
        2
176
     1
 62
     7
176
     1
 90
        5
176
     1
 90
        0
176
     1
 90
        0
176
     1
290
     0
176
     1
 90
        1
176
     1
 40
0.0
176
     1
 90
        0
176
     1
290
     0
176
     1
290
     1
176
     1
290
     1
176
     1
290
     0
176
     1
290
     0
176
     1
290
     0
176
     1
290
     0
176
     1
290
     0
176
     1
290
     0
176
     1
 90
       50
176
     1
 40
0.0
176
     1
 40
1.0
176
     1
 90
        0
176
     1
 62
    18
420
        0
176
     1
 90
       50
176
     1
 90
        3
176
     1
 62
     5
420
      255
176
     1
290
     0
176
     1
 90
       50
176
     1
 90
       50
176
     1
 90
       50
176
     1
290
     0
176
     1
 90
       50
176
     1
 62
   256
176
     0
 40
1.0
176
     0
 90
        2
176
     1
  1
strokes_ogs.tif
176
     1
290
     0
176
     1
 40
1.0
176
     1
 40
1.0
176
     1
  0
VISUALSTYLE
  5
3C
102
{ACAD_REACTORS
330
2A
102
}
330
2A
100
AcDbVisualStyle
  2
OverhangOff
 70
    21
177
     3
291
     1
 70
    58
 90
        2
176
     0
 90
        2
176
     0
 90
        0
176
     0
 90
        0
176
     0
 40
0.6
176
     0
 40
30.0
176
     0
 62
     7
420
 16777215
176
     0
 90
        1
176
     0
 90
        4
176
     0
 62
     7
176
     0
 62
   257
176
     0
 90
        1
176
     0
 90
        1
176
     0
 40
1.0
176
     0
 90
        9
176
     2
 62
     7
176
     0
 40
1.0
176
     0
 90
        1
176
     0
 90
        6
176
     0
 90
        2
176
     0
 62
     7
176
     0
 90
        5
176
     0
 90
        0
176
     0
 90
        0
176
     0
290
     0
176
     0
 90
        1
176
     0
 40
0.0
176
     0
 90
        0
176
     0
290
     0
176
     0
290
     1
176
     0
290
     1
176
     0
290
     0
176
     0
290
     0
176
     0
290
     0
176
     0
290
     0
176
     0
290
     0
176
     0
290
     0
176
     0
 90
       50
176
     0
 40
0.0
176
     0
 40
1.0
176
     0
 90
        0
176
     0
 62
    18
420
        0
176
     0
 90
       50
176
     0
 90
        3
176
     0
 62
     5
420
      255
176
     0
290
     0
176
     0
 90
       50
176
     0
 90
       50
176
     0
 90
       50
176
     0
290
     0
176
     0
 90
       50
176
     0
 62
   256
176
     0
 40
1.0
176
     0
 90
        2
176
     0
  1
strokes_ogs.tif
176
     0
290
     0
176
     0
 40
1.0
176
     0
 40
1.0
176
     0
  0
VISUALSTYLE
  5
33
102
{ACAD_REACTORS
330
2A
102
}
330
2A
100
AcDbVisualStyle
  2
Realistic
 70
     8
177
     3
291
     0
 70
    58
 90
        2
176
     1
 90
        3
176
     1
 90
        0
176
     1
 90
        2
176
     1
 40
0.6
176
     1
 40
30.0
176
     1
 62
     7
420
 16777215
176
     1
 90
        0
176
     1
 90
        0
176
     1
 62
     7
176
     1
 62
   257
176
     1
 90
        1
176
     1
 90
        1
176
     1
 40
1.0
176
     1
 90
        8
176
     1
 62
   257
176
     1
 40
1.0
176
     1
 90
        1
176
     1
 90
        6
176
     1
 90
        2
176
     1
 62
     7
176
     1
 90
        3
176
     1
 90
        0
176
     1
 90
        0
176
     1
290
     0
176
     1
 90
       13
176
     1
 40
0.0
176
     1
 90
        0
176
     1
290
     0
176
     1
290
     1
176
     1
290
     1
176
     1
290
     0
176
     1
290
     0
176
     1
290
     0
176
     1
290
     0
176
     1
290
     0
176
     1
290
     0
176
     1
 90
       50
176
     1
 40
0.0
176
     1
 40
1.0
176
     1
 90
        0
176
     1
 62
    18
420
        0
176
     1
 90
       50
176
     1
 90
        3
176
     1
 62
     5
420
      255
176
     1
290
     0
176
     1
 90
       50
176
     1
 90
       50
176
     1
 90
       50
176
     1
290
     0
176
     1
 90
       50
176
     1
 62
   256
176
     0
 40
1.0
176
     0
 90
        2
176
     1
  1
strokes_ogs.tif
176
     1
290
     0
176
     1
 40
1.0
176
     1
 40
1.0
176
     1
  0
VISUALSTYLE
  5
42
102
{ACAD_REACTORS
330
2A
102
}
330
2A
100
AcDbVisualStyle
  2
Shaded
 70
    27
177
     3
291
     0
 70
    58
 90
        2
176
     1
 90
        2
176
     1
 90
        1
176
     1
 90
        2
176
     1
 40
0.6
176
     1
 40
30.0
176
     1
 62
     7
420
 16777215
176
     1
 90
        0
176
     1
 90
        4
176
     1
 62
     7
176
     1
 62
   257
176
     1
 90
        1
176
     1
 90
        1
176
     1
 40
1.0
176
     1
 90
        8
176
     1
 62
   257
176
     1
 40
1.0
176
     1
 90
        1
176
     1
 90
        6
176
     1
 90
        2
176
     1
 62
     8
420
  7895160
176
     1
 90
        3
176
     1
 90
        0
176
     1
 90
        0
176
     1
290
     0
176
     1
 90
        5
176
     1
 40
0.0
176
     1
 90
        0
176
     1
290
     0
176
     1
290
     1
176
     1
290
     1
176
     1
290
     0
176
     1
290
     0
176
     1
290
     0
176
     1
290
     0
176
     1
290
     0
176
     1
290
     0
176
     1
 90
       50
176
     1
 40
0.0
176
     1
 40
1.0
176
     1
 90
        0
176
     1
 62
    18
420
        0
176
     1
 90
       50
176
     1
 90
        3
176
     1
 62
     5
420
      255
176
     1
290
     0
176
     1
 90
       50
176
     1
 90
       50
176
     1
 90
       50
176
     1
290
     0
176
     1
 90
       50
176
     1
 62
   256
176
     0
 40
1.0
176
     0
 90
        2
176
     1
  1
strokes_ogs.tif
176
     1
290
     0
176
     1
 40
1.0
176
     1
 40
1.0
176
     1
  0
VISUALSTYLE
  5
41
102
{ACAD_REACTORS
330
2A
102
}
330
2A
100
AcDbVisualStyle
  2
Shaded with edges
 70
    26
177
     3
291
     0
 70
    58
 90
        2
176
     1
 90
        2
176
     1
 90
        1
176
     1
 90
        2
176
     1
 40
0.6
176
     1
 40
30.0
176
     1
 62
     7
420
 16777215
176
     1
 90
        1
176
     1
 90
       10
176
     1
 62
     7
176
     1
 62
   257
176
     1
 90
        2
176
     1
 90
        1
176
     1
 40
1.0
176
     1
 90
        8
176
     1
 62
   257
176
     1
 40
1.0
176
     1
 90
        1
176
     1
 90
        6
176
     1
 90
        2
176
     1
 62
     7
176
     1
 90
        3
176
     1
 90
        0
176
     1
 90
        0
176
     1
290
     0
176
     1
 90
        5
176
     1
 40
0.0
176
     1
 90
        0
176
     1
290
     0
176
     1
290
     1
176
     1
290
     1
176
     1
290
     0
176
     1
290
     0
176
     1
290
     0
176
     1
290
     0
176
     1
290
     0
176
     1
290
     0
176
     1
 90
       50
176
     1
 40
0.0
176
     1
 40
1.0
176
     1
 90
        0
176
     1
 62
    18
420
        0
176
     1
 90
       50
176
     1
 90
        3
176
     1
 62
     5
420
      255
176
     1
290
     0
176
     1
 90
       50
176
     1
 90
       50
176
     1
 90
       50
176
     1
290
     0
176
     1
 90
       50
176
     1
 62
   256
176
     0
 40
1.0
176
     0
 90
        2
176
     1
  1
strokes_ogs.tif
176
     1
290
     0
176
     1
 40
1.0
176
     1
 40
1.0
176
     1
  0
VISUALSTYLE
  5
3E
102
{ACAD_REACTORS
330
2A
102
}
330
2A
100
AcDbVisualStyle
  2
Shades of Gray
 70
    23
177
     3
291
     0
 70
    58
 90
        2
176
     1
 90
        2
176
     1
 90
        3
176
     1
 90
        0
176
     1
 40
0.6
176
     1
 40
30.0
176
     1
 62
     7
420
 16777215
176
     1
 90
        2
176
     1
 90
        2
176
     1
 62
     7
176
     1
 62
     7
176
     1
 90
        1
176
     1
 90
        1
176
     1
 40
40.0
176
     1
 90
        8
176
     1
 62
     7
176
     1
 40
1.0
176
     1
 90
        1
176
     1
 90
        6
176
     1
 90
        2
176
     1
 62
     7
176
     1
 90
        3
176
     1
 90
        0
176
     1
 90
        0
176
     1
290
     0
176
     1
 90
        1
176
     1
 40
0.0
176
     1
 90
        0
176
     1
290
     0
176
     1
290
     1
176
     1
290
     1
176
     1
290
     0
176
     1
290
     0
176
     1
290
     0
176
     1
290
     0
176
     1
290
     0
176
     1
290
     0
176
     1
 90
       50
176
     1
 40
0.0
176
     1
 40
1.0
176
     1
 90
        0
176
     1
 62
    18
420
        0
176
     1
 90
       50
176
     1
 90
        3
176
     1
 62
     5
420
      255
176
     1
290
     0
176
     1
 90
       50
176
     1
 90
       50
176
     1
 90
       50
176
     1
290
     0
176
     1
 90
       50
176
     1
 62
   256
176
     0
 40
1.0
176
     0
 90
        2
176
     1
  1
strokes_ogs.tif
176
     1
290
     0
176
     1
 40
1.0
176
     1
 40
1.0
176
     1
  0
VISUALSTYLE
  5
3F
102
{ACAD_REACTORS
330
2A
102
}
330
2A
100
AcDbVisualStyle
  2
Sketchy
 70
    24
177
     3
291
     0
 70
    58
 90
        1
176
     1
 90
        2
176
     1
 90
        2
176
     1
 90
        0
176
     1
 40
0.6
176
     1
 40
30.0
176
     1
 62
     7
420
 16777215
176
     1
 90
        2
176
     1
 90
        2
176
     1
 62
     7
176
     1
 62
     7
176
     1
 90
        1
176
     1
 90
        1
176
     1
 40
40.0
176
     1
 90
       11
176
     1
 62
     7
176
     1
 40
1.0
176
     1
 90
        1
176
     1
 90
        6
176
     1
 90
        2
176
     1
 62
     7
176
     1
 90
        6
176
     1
 90
        0
176
     1
 90
        0
176
     1
290
     0
176
     1
 90
        1
176
     1
 40
0.0
176
     1
 90
        0
176
     1
290
     0
176
     1
290
     1
176
     1
290
     1
176
     1
290
     0
176
     1
290
     0
176
     1
290
     0
176
     1
290
     0
176
     1
290
     0
176
     1
290
     0
176
     1
 90
       50
176
     1
 40
0.0
176
     1
 40
1.0
176
     1
 90
        0
176
     1
 62
    18
420
        0
176
     1
 90
       50
176
     1
 90
        3
176
     1
 62
     5
420
      255
176
     1
290
     0
176
     1
 90
       50
176
     1
 90
       50
176
     1
 90
       50
176
     1
290
     0
176
     1
 90
       50
176
     1
 62
   256
176
     0
 40
1.0
176
     0
 90
        2
176
     1
  1
strokes_ogs.tif
176
     1
290
     0
176
     1
 40
1.0
176
     1
 40
1.0
176
     1
  0
VISUALSTYLE
  5
37
102
{ACAD_REACTORS
330
2A
102
}
330
2A
100
AcDbVisualStyle
  2
Thicken
 70
    13
177
     3
291
     1
 70
    58
 90
        2
176
     1
 90
        2
176
     1
 90
        0
176
     1
 90
        0
176
     1
 40
0.6
176
     1
 40
30.0
176
     1
 62
     7
420
 16777215
176
     1
 90
        1
176
     1
 90
        4
176
     1
 62
     7
176
     1
 62
   257
176
     1
 90
        1
176
     1
 90
        1
176
     1
 40
1.0
176
     1
 90
       12
176
     1
 62
     7
176
     1
 40
1.0
176
     1
 90
        1
176
     1
 90
        6
176
     1
 90
        2
176
     1
 62
     7
176
     1
 90
        5
176
     1
 90
        0
176
     1
 90
        0
176
     1
290
     0
176
     1
 90
        1
176
     1
 40
0.0
176
     1
 90
        0
176
     1
290
     0
176
     1
290
     1
176
     1
290
     1
176
     1
290
     0
176
     1
290
     0
176
     1
290
     0
176
     1
290
     0
176
     1
290
     0
176
     1
290
     0
176
     1
 90
       50
176
     1
 40
0.0
176
     1
 40
1.0
176
     1
 90
        0
176
     1
 62
    18
420
        0
176
     1
 90
       50
176
     1
 90
        3
176
     1
 62
     5
420
      255
176
     1
290
     0
176
     1
 90
       50
176
     1
 90
       50
176
     1
 90
       50
176
     1
290
     0
176
     1
 90
       50
176
     1
 62
   256
176
     0
 40
1.0
176
     0
 90
        2
176
     1
  1
strokes_ogs.tif
176
     1
290
     0
176
     1
 40
1.0
176
     1
 40
1.0
176
     1
  0
VISUALSTYLE
  5
30
102
{ACAD_REACTORS
330
2A
102
}
330
2A
100
AcDbVisualStyle
  2
Wireframe
 70
     5
177
     3
291
     0
 70
    58
 90
        0
176
     1
 90
        2
176
     1
 90
        0
176
     1
 90
        0
176
     1
 40
0.6
176
     1
 40
30.0
176
     1
 62
     7
420
 16777215
176
     1
 90
        1
176
     1
 90
        4
176
     1
 62
     7
176
     1
 62
   257
176
     1
 90
        1
176
     1
 90
        1
176
     1
 40
1.0
176
     1
 90
        0
176
     1
 62
   257
176
     1
 40
1.0
176
     1
 90
        1
176
     1
 90
        6
176
     1
 90
        2
176
     1
 62
     7
176
     1
 90
        3
176
     1
 90
        0
176
     1
 90
        0
176
     1
290
     0
176
     1
 90
        1
176
     1
 40
0.0
176
     1
 90
        0
176
     1
290
     0
176
     1
290
     1
176
     1
290
     1
176
     1
290
     0
176
     1
290
     0
176
     1
290
     0
176
     1
290
     0
176
     1
290
     0
176
     1
290
     0
176
     1
 90
       50
176
     1
 40
0.0
176
     1
 40
1.0
176
     1
 90
        0
176
     1
 62
    18
420
        0
176
     1
 90
       50
176
     1
 90
        3
176
     1
 62
     5
420
      255
176
     1
290
     0
176
     1
 90
       50
176
     1
 90
       50
176
     1
 90
       50
176
     1
290
     0
176
     1
 90
       50
176
     1
 62
   256
176
     0
 40
1.0
176
     0
 90
        2
176
     1
  1
strokes_ogs.tif
176
     1
290
     0
176
     1
 40
1.0
176
     1
 40
1.0
176
     1
  0
VISUALSTYLE
  5
40
102
{ACAD_REACTORS
330
2A
102
}
330
2A
100
AcDbVisualStyle
  2
X-Ray
 70
    25
177
     3
291
     0
 70
    58
 90
        2
176
     1
 90
        2
176
     1
 90
        1
176
     1
 90
        1
176
     1
 40
0.5
176
     1
 40
30.0
176
     1
 62
     7
420
 16777215
176
     1
 90
        1
176
     1
 90
        0
176
     1
 62
     7
176
     1
 62
   257
176
     1
 90
        1
176
     1
 90
        1
176
     1
 40
1.0
176
     1
 90
        8
176
     1
 62
     7
176
     1
 40
1.0
176
     1
 90
        1
176
     1
 90
        6
176
     1
 90
        2
176
     1
 62
     7
176
     1
 90
        3
176
     1
 90
        0
176
     1
 90
        0
176
     1
290
     0
176
     1
 90
       13
176
     1
 40
0.0
176
     1
 90
        0
176
     1
290
     0
176
     1
290
     1
176
     1
290
     1
176
     1
290
     0
176
     1
290
     0
176
     1
290
     0
176
     1
290
     0
176
     1
290
     0
176
     1
290
     0
176
     1
 90
       50
176
     1
 40
0.0
176
     1
 40
1.0
176
     1
 90
        0
176
     1
 62
    18
420
        0
176
     1
 90
       50
176
     1
 90
        3
176
     1
 62
     5
420
      255
176
     1
290
     0
176
     1
 90
       50
176
     1
 90
       50
176
     1
 90
       50
176
     1
290
     0
176
     1
 90
       50
176
     1
 62
   256
176
     0
 40
1.0
176
     0
 90
        2
176
     1
  1
strokes_ogs.tif
176
     1
290
     0
176
     1
 40
1.0
176
     1
 40
1.0
176
     1
  0
DICTIONARYVAR
  5
1A6
102
{ACAD_REACTORS
330
1A5
102
}
330
1A5
100
DictionaryVariables
280
     0
  1
1:1
  0
DICTIONARYVAR
  5
1AB
102
{ACAD_REACTORS
330
1A5
102
}
330
1A5
100
DictionaryVariables
280
     0
  1
Standard
  0
DICTIONARYVAR
  5
1AA
102
{ACAD_REACTORS
330
1A5
102
}
330
1A5
100
DictionaryVariables
280
     0
  1
Standard
  0
DICTIONARY
  5
1A7
330
6A
100
AcDbDictionary
280
     1
281
     1
  3
ACAD_ROUNDTRIP_2008_TABLESTYLE_CELLSTYLEMAP
360
1A8
  0
CELLSTYLEMAP
  5
1A8
102
{ACAD_REACTORS
330
1A7
102
}
330
1A7
100
AcDbCellStyleMap
 90
        3
300
CELLSTYLE
  1
TABLEFORMAT_BEGIN
 90
        5
170
     1
 91
        0
 92
    32768
 62
   257
 93
        1
300
CONTENTFORMAT
  1
CONTENTFORMAT_BEGIN
 90
        0
 91
        0
 92
        4
 93
        0
300

 40
0.0
140
1.0
 94
        5
 62
     0
340
11
144
6.0
309
CONTENTFORMAT_END
171
     1
301
MARGIN
  1
CELLMARGIN_BEGIN
 40
1.5
 40
1.5
 40
1.5
 40
1.5
 40
1.5
 40
1.5
309
CELLMARGIN_END
 94
        6
 95
        1
302
GRIDFORMAT
  1
GRIDFORMAT_BEGIN
 90
        0
 91
        1
 62
     0
 92
       -2
340
14
 93
        0
 40
0.045
309
GRIDFORMAT_END
 95
        2
302
GRIDFORMAT
  1
GRIDFORMAT_BEGIN
 90
        0
 91
        1
 62
     0
 92
       -2
340
14
 93
        0
 40
0.045
309
GRIDFORMAT_END
 95
        4
302
GRIDFORMAT
  1
GRIDFORMAT_BEGIN
 90
        0
 91
        1
 62
     0
 92
       -2
340
14
 93
        0
 40
0.045
309
GRIDFORMAT_END
 95
        8
302
GRIDFORMAT
  1
GRIDFORMAT_BEGIN
 90
        0
 91
        1
 62
     0
 92
       -2
340
14
 93
        0
 40
0.045
309
GRIDFORMAT_END
 95
       16
302
GRIDFORMAT
  1
GRIDFORMAT_BEGIN
 90
        0
 91
        1
 62
     0
 92
       -2
340
14
 93
        0
 40
0.045
309
GRIDFORMAT_END
 95
       32
302
GRIDFORMAT
  1
GRIDFORMAT_BEGIN
 90
        0
 91
        1
 62
     0
 92
       -2
340
14
 93
        0
 40
0.045
309
GRIDFORMAT_END
309
TABLEFORMAT_END
  1
CELLSTYLE_BEGIN
 90
        1
 91
        1
300
_TITLE
309
CELLSTYLE_END
300
CELLSTYLE
  1
TABLEFORMAT_BEGIN
 90
        5
170
     1
 91
        0
 92
        0
 62
   257
 93
        1
300
CONTENTFORMAT
  1
CONTENTFORMAT_BEGIN
 90
        0
 91
        0
 92
        4
 93
        0
300

 40
0.0
140
1.0
 94
        5
 62
     0
340
11
144
4.5
309
CONTENTFORMAT_END
171
     1
301
MARGIN
  1
CELLMARGIN_BEGIN
 40
1.5
 40
1.5
 40
1.5
 40
1.5
 40
1.5
 40
1.5
309
CELLMARGIN_END
 94
        6
 95
        1
302
GRIDFORMAT
  1
GRIDFORMAT_BEGIN
 90
        0
 91
        1
 62
     0
 92
       -2
340
14
 93
        0
 40
0.045
309
GRIDFORMAT_END
 95
        2
302
GRIDFORMAT
  1
GRIDFORMAT_BEGIN
 90
        0
 91
        1
 62
     0
 92
       -2
340
14
 93
        0
 40
0.045
309
GRIDFORMAT_END
 95
        4
302
GRIDFORMAT
  1
GRIDFORMAT_BEGIN
 90
        0
 91
        1
 62
     0
 92
       -2
340
14
 93
        0
 40
0.045
309
GRIDFORMAT_END
 95
        8
302
GRIDFORMAT
  1
GRIDFORMAT_BEGIN
 90
        0
 91
        1
 62
     0
 92
       -2
340
14
 93
        0
 40
0.045
309
GRIDFORMAT_END
 95
       16
302
GRIDFORMAT
  1
GRIDFORMAT_BEGIN
 90
        0
 91
        1
 62
     0
 92
       -2
340
14
 93
        0
 40
0.045
309
GRIDFORMAT_END
 95
       32
302
GRIDFORMAT
  1
GRIDFORMAT_BEGIN
 90
        0
 91
        1
 62
     0
 92
       -2
340
14
 93
        0
 40
0.045
309
GRIDFORMAT_END
309
TABLEFORMAT_END
  1
CELLSTYLE_BEGIN
 90
        2
 91
        1
300
_HEADER
309
CELLSTYLE_END
300
CELLSTYLE
  1
TABLEFORMAT_BEGIN
 90
        5
170
     1
 91
        0
 92
        0
 62
   257
 93
        1
300
CONTENTFORMAT
  1
CONTENTFORMAT_BEGIN
 90
        0
 91
        0
 92
        4
 93
        0
300

 40
0.0
140
1.0
 94
        2
 62
     0
340
11
144
4.5
309
CONTENTFORMAT_END
171
     1
301
MARGIN
  1
CELLMARGIN_BEGIN
 40
1.5
 40
1.5
 40
1.5
 40
1.5
 40
1.5
 40
1.5
309
CELLMARGIN_END
 94
        6
 95
        1
302
GRIDFORMAT
  1
GRIDFORMAT_BEGIN
 90
        0
 91
        1
 62
     0
 92
       -2
340
14
 93
        0
 40
0.045
309
GRIDFORMAT_END
 95
        2
302
GRIDFORMAT
  1
GRIDFORMAT_BEGIN
 90
        0
 91
        1
 62
     0
 92
       -2
340
14
 93
        0
 40
0.045
309
GRIDFORMAT_END
 95
        4
302
GRIDFORMAT
  1
GRIDFORMAT_BEGIN
 90
        0
 91
        1
 62
     0
 92
       -2
340
14
 93
        0
 40
0.045
309
GRIDFORMAT_END
 95
        8
302
GRIDFORMAT
  1
GRIDFORMAT_BEGIN
 90
        0
 91
        1
 62
     0
 92
       -2
340
14
 93
        0
 40
0.045
309
GRIDFORMAT_END
 95
       16
302
GRIDFORMAT
  1
GRIDFORMAT_BEGIN
 90
        0
 91
        1
 62
     0
 92
       -2
340
14
 93
        0
 40
0.045
309
GRIDFORMAT_END
 95
       32
302
GRIDFORMAT
  1
GRIDFORMAT_BEGIN
 90
        0
 91
        1
 62
     0
 92
       -2
340
14
 93
        0
 40
0.045
309
GRIDFORMAT_END
309
TABLEFORMAT_END
  1
CELLSTYLE_BEGIN
 90
        3
 91
        2
300
_DATA
309
CELLSTYLE_END
  0
ENDSEC
  0
EOF