0
SECTION
  2
HEADER
  9
$ACADVER
  1
AC1027
  9
$ACADMAINTVER
 70
     8
  9
$DWGCODEPAGE
  3
ANSI_1252
  9
$REQUIREDVERSIONS
160
                 0
  9
$COMMENTS
  1
File was created by Cadenas
  9
$CUSTOMPROPERTYTAG
  1
NN
  9
$CUSTOMPROPERTY
  1
Set Screw Extreme Duty Wide Slot Take Up Metric Bore
  9
$CUSTOMPROPERTYTAG
  1
NT
  9
$CUSTOMPROPERTY
  1
SCED Take-Up Bearings -Wide Slot -(Normal Duty)
  9
$CUSTOMPROPERTYTAG
  1
NB
  9
$CUSTOMPROPERTY
  1
076275
  9
$CUSTOMPROPERTYTAG
  1
NBSYN
  9
$CUSTOMPROPERTY
  1
$PN.
  9
$CUSTOMPROPERTYTAG
  1
LINA
  9
$CUSTOMPROPERTY
  1
076275
  9
$CUSTOMPROPERTYTAG
  1
SERIES
  9
$CUSTOMPROPERTY
  1
205
  9
$CUSTOMPROPERTYTAG
  1
SS
  9
$CUSTOMPROPERTY
  1
25
  9
$CUSTOMPROPERTYTAG
  1
PN
  9
$CUSTOMPROPERTY
  1
076275
  9
$CUSTOMPROPERTYTAG
  1
DESCRIPTION
  9
$CUSTOMPROPERTY
  1
WSTU-SCED-25M
  9
$CUSTOMPROPERTYTAG
  1
W
  9
$CUSTOMPROPERTY
  1
1.0
  9
$CUSTOMPROPERTYTAG
  1
FS
  9
$CUSTOMPROPERTY
  1
WS300
  9
$CUSTOMPROPERTYTAG
  1
A
  9
$CUSTOMPROPERTY
  1
34.0
  9
$CUSTOMPROPERTYTAG
  1
B
  9
$CUSTOMPROPERTY
  1
96.8
  9
$CUSTOMPROPERTYTAG
  1
C
  9
$CUSTOMPROPERTY
  1
13.49
  9
$CUSTOMPROPERTYTAG
  1
D
  9
$CUSTOMPROPERTY
  1
50.8
  9
$CUSTOMPROPERTYTAG
  1
E
  9
$CUSTOMPROPERTY
  1
62.0
  9
$CUSTOMPROPERTYTAG
  1
F
  9
$CUSTOMPROPERTY
  1
15.9
  9
$CUSTOMPROPERTYTAG
  1
G
  9
$CUSTOMPROPERTY
  1
9.7
  9
$CUSTOMPROPERTYTAG
  1
H
  9
$CUSTOMPROPERTY
  1
16.0
  9
$CUSTOMPROPERTYTAG
  1
J
  9
$CUSTOMPROPERTY
  1
50.8
  9
$CUSTOMPROPERTYTAG
  1
K
  9
$CUSTOMPROPERTY
  1
33.3
  9
$CUSTOMPROPERTYTAG
  1
L
  9
$CUSTOMPROPERTY
  1
33.5
  9
$CUSTOMPROPERTYTAG
  1
M
  9
$CUSTOMPROPERTY
  1
75.82 / 76.58
  9
$CUSTOMPROPERTYTAG
  1
N
  9
$CUSTOMPROPERTY
  1
92.2
  9
$CUSTOMPROPERTYTAG
  1
R
  9
$CUSTOMPROPERTY
  1
14.2
  9
$CUSTOMPROPERTYTAG
  1
S
  9
$CUSTOMPROPERTY
  1
19.8
  9
$CUSTOMPROPERTYTAG
  1
T
  9
$CUSTOMPROPERTY
  1
35.1
  9
$CUSTOMPROPERTYTAG
  1
COMPANY
  9
$CUSTOMPROPERTY
  1
baldor
  9
$INSBASE
 10
0.0
 20
0.0
 30
0.0
  9
$EXTMIN
 10
1.000000000000000E+20
 20
1.000000000000000E+20
 30
1.000000000000000E+20
  9
$EXTMAX
 10
-1.000000000000000E+20
 20
-1.000000000000000E+20
 30
-1.000000000000000E+20
  9
$LIMMIN
 10
0.0
 20
0.0
  9
$LIMMAX
 10
420.0
 20
297.0
  9
$ORTHOMODE
 70
     0
  9
$REGENMODE
 70
     1
  9
$FILLMODE
 70
     1
  9
$QTEXTMODE
 70
     0
  9
$MIRRTEXT
 70
     1
  9
$LTSCALE
 40
1.0
  9
$ATTMODE
 70
     1
  9
$TEXTSIZE
 40
2.5
  9
$TRACEWID
 40
1.0
  9
$TEXTSTYLE
  7
Standard
  9
$CLAYER
  8
0
  9
$CELTYPE
  6
ByLayer
  9
$CECOLOR
 62
   256
  9
$CELTSCALE
 40
1.0
  9
$DISPSILH
 70
     0
  9
$DIMSCALE
 40
1.0
  9
$DIMASZ
 40
2.5
  9
$DIMEXO
 40
0.625
  9
$DIMDLI
 40
3.75
  9
$DIMRND
 40
0.0
  9
$DIMDLE
 40
0.0
  9
$DIMEXE
 40
1.25
  9
$DIMTP
 40
0.0
  9
$DIMTM
 40
0.0
  9
$DIMTXT
 40
2.5
  9
$DIMCEN
 40
2.5
  9
$DIMTSZ
 40
0.0
  9
$DIMTOL
 70
     0
  9
$DIMLIM
 70
     0
  9
$DIMTIH
 70
     0
  9
$DIMTOH
 70
     0
  9
$DIMSE1
 70
     0
  9
$DIMSE2
 70
     0
  9
$DIMTAD
 70
     1
  9
$DIMZIN
 70
     8
  9
$DIMBLK
  1

  9
$DIMASO
 70
     1
  9
$DIMSHO
 70
     1
  9
$DIMPOST
  1

  9
$DIMAPOST
  1

  9
$DIMALT
 70
     0
  9
$DIMALTD
 70
     3
  9
$DIMALTF
 40
0.03937007874016
  9
$DIMLFAC
 40
1.0
  9
$DIMTOFL
 70
     1
  9
$DIMTVP
 40
0.0
  9
$DIMTIX
 70
     0
  9
$DIMSOXD
 70
     0
  9
$DIMSAH
 70
     0
  9
$DIMBLK1
  1

  9
$DIMBLK2
  1

  9
$DIMSTYLE
  2
ISO-25
  9
$DIMCLRD
 70
     0
  9
$DIMCLRE
 70
     0
  9
$DIMCLRT
 70
     0
  9
$DIMTFAC
 40
1.0
  9
$DIMGAP
 40
0.625
  9
$DIMJUST
 70
     0
  9
$DIMSD1
 70
     0
  9
$DIMSD2
 70
     0
  9
$DIMTOLJ
 70
     0
  9
$DIMTZIN
 70
     8
  9
$DIMALTZ
 70
     0
  9
$DIMALTTZ
 70
     0
  9
$DIMUPT
 70
     0
  9
$DIMDEC
 70
     2
  9
$DIMTDEC
 70
     2
  9
$DIMALTU
 70
     2
  9
$DIMALTTD
 70
     3
  9
$DIMTXSTY
  7
Standard
  9
$DIMAUNIT
 70
     0
  9
$DIMADEC
 70
     0
  9
$DIMALTRND
 40
0.0
  9
$DIMAZIN
 70
     0
  9
$DIMDSEP
 70
    44
  9
$DIMATFIT
 70
     3
  9
$DIMFRAC
 70
     0
  9
$DIMLDRBLK
  1

  9
$DIMLUNIT
 70
     2
  9
$DIMLWD
 70
    -2
  9
$DIMLWE
 70
    -2
  9
$DIMTMOVE
 70
     0
  9
$DIMFXL
 40
1.0
  9
$DIMFXLON
 70
     0
  9
$DIMJOGANG
 40
0.7853981633974483
  9
$DIMTFILL
 70
     0
  9
$DIMTFILLCLR
 70
     0
  9
$DIMARCSYM
 70
     0
  9
$DIMLTYPE
  6

  9
$DIMLTEX1
  6

  9
$DIMLTEX2
  6

  9
$DIMTXTDIRECTION
 70
     0
  9
$LUNITS
 70
     2
  9
$LUPREC
 70
     4
  9
$SKETCHINC
 40
1.0
  9
$FILLETRAD
 40
10.0
  9
$AUNITS
 70
     0
  9
$AUPREC
 70
     0
  9
$MENU
  1
.
  9
$ELEVATION
 40
0.0
  9
$PELEVATION
 40
0.0
  9
$THICKNESS
 40
0.0
  9
$LIMCHECK
 70
     0
  9
$CHAMFERA
 40
0.0
  9
$CHAMFERB
 40
0.0
  9
$CHAMFERC
 40
0.0
  9
$CHAMFERD
 40
0.0
  9
$SKPOLY
 70
     0
  9
$TDCREATE
 40
2458168.889225509
  9
$TDUCREATE
 40
2458168.847558843
  9
$TDUPDATE
 40
2458168.889225694
  9
$TDUUPDATE
 40
2458168.847559028
  9
$TDINDWG
 40
0.0000000116
  9
$TDUSRTIMER
 40
0.0000000116
  9
$USRTIMER
 70
     1
  9
$ANGBASE
 50
0.0
  9
$ANGDIR
 70
     0
  9
$PDMODE
 70
     0
  9
$PDSIZE
 40
0.0
  9
$PLINEWID
 40
0.0
  9
$SPLFRAME
 70
     0
  9
$SPLINETYPE
 70
     6
  9
$SPLINESEGS
 70
     8
  9
$HANDSEED
  5
1F9
  9
$SURFTAB1
 70
     6
  9
$SURFTAB2
 70
     6
  9
$SURFTYPE
 70
     6
  9
$SURFU
 70
     6
  9
$SURFV
 70
     6
  9
$UCSBASE
  2

  9
$UCSNAME
  2

  9
$UCSORG
 10
0.0
 20
0.0
 30
0.0
  9
$UCSXDIR
 10
1.0
 20
0.0
 30
0.0
  9
$UCSYDIR
 10
0.0
 20
1.0
 30
0.0
  9
$UCSORTHOREF
  2

  9
$UCSORTHOVIEW
 70
     0
  9
$UCSORGTOP
 10
0.0
 20
0.0
 30
0.0
  9
$UCSORGBOTTOM
 10
0.0
 20
0.0
 30
0.0
  9
$UCSORGLEFT
 10
0.0
 20
0.0
 30
0.0
  9
$UCSORGRIGHT
 10
0.0
 20
0.0
 30
0.0
  9
$UCSORGFRONT
 10
0.0
 20
0.0
 30
0.0
  9
$UCSORGBACK
 10
0.0
 20
0.0
 30
0.0
  9
$PUCSBASE
  2

  9
$PUCSNAME
  2

  9
$PUCSORG
 10
0.0
 20
0.0
 30
0.0
  9
$PUCSXDIR
 10
1.0
 20
0.0
 30
0.0
  9
$PUCSYDIR
 10
0.0
 20
1.0
 30
0.0
  9
$PUCSORTHOREF
  2

  9
$PUCSORTHOVIEW
 70
     0
  9
$PUCSORGTOP
 10
0.0
 20
0.0
 30
0.0
  9
$PUCSORGBOTTOM
 10
0.0
 20
0.0
 30
0.0
  9
$PUCSORGLEFT
 10
0.0
 20
0.0
 30
0.0
  9
$PUCSORGRIGHT
 10
0.0
 20
0.0
 30
0.0
  9
$PUCSORGFRONT
 10
0.0
 20
0.0
 30
0.0
  9
$PUCSORGBACK
 10
0.0
 20
0.0
 30
0.0
  9
$USERI1
 70
     0
  9
$USERI2
 70
     0
  9
$USERI3
 70
     0
  9
$USERI4
 70
     0
  9
$USERI5
 70
     0
  9
$USERR1
 40
0.0
  9
$USERR2
 40
0.0
  9
$USERR3
 40
0.0
  9
$USERR4
 40
0.0
  9
$USERR5
 40
0.0
  9
$WORLDVIEW
 70
     1
  9
$SHADEDGE
 70
     3
  9
$SHADEDIF
 70
    70
  9
$TILEMODE
 70
     1
  9
$MAXACTVP
 70
    64
  9
$PINSBASE
 10
0.0
 20
0.0
 30
0.0
  9
$PLIMCHECK
 70
     0
  9
$PEXTMIN
 10
1.000000000000000E+20
 20
1.000000000000000E+20
 30
1.000000000000000E+20
  9
$PEXTMAX
 10
-1.000000000000000E+20
 20
-1.000000000000000E+20
 30
-1.000000000000000E+20
  9
$PLIMMIN
 10
0.0
 20
0.0
  9
$PLIMMAX
 10
420.0
 20
297.0
  9
$UNITMODE
 70
     0
  9
$VISRETAIN
 70
     1
  9
$PLINEGEN
 70
     0
  9
$PSLTSCALE
 70
     1
  9
$TREEDEPTH
 70
  3020
  9
$CMLSTYLE
  2
Standard
  9
$CMLJUST
 70
     0
  9
$CMLSCALE
 40
20.0
  9
$PROXYGRAPHICS
 70
     1
  9
$MEASUREMENT
 70
     1
  9
$CELWEIGHT
370
    -1
  9
$ENDCAPS
280
     0
  9
$JOINSTYLE
280
     0
  9
$LWDISPLAY
290
     0
  9
$INSUNITS
 70
     4
  9
$HYPERLINKBASE
  1

  9
$STYLESHEET
  1

  9
$XEDIT
290
     1
  9
$CEPSNTYPE
380
     0
  9
$PSTYLEMODE
290
     1
  9
$FINGERPRINTGUID
  2
{9843FC20-E639-481D-8518-F678A8AAFC7E}
  9
$VERSIONGUID
  2
{FAEB1C32-E019-11D5-929B-00C0DF256EC4}
  9
$EXTNAMES
290
     1
  9
$PSVPSCALE
 40
0.0
  9
$OLESTARTUP
290
     0
  9
$SORTENTS
280
   127
  9
$INDEXCTL
280
     0
  9
$HIDETEXT
280
     1
  9
$XCLIPFRAME
280
     2
  9
$HALOGAP
280
     0
  9
$OBSCOLOR
 70
   257
  9
$OBSLTYPE
280
     0
  9
$INTERSECTIONDISPLAY
280
     0
  9
$INTERSECTIONCOLOR
 70
   257
  9
$DIMASSOC
280
     2
  9
$PROJECTNAME
  1

  9
$CAMERADISPLAY
290
     0
  9
$LENSLENGTH
 40
50.0
  9
$CAMERAHEIGHT
 40
0.0
  9
$STEPSPERSEC
 40
2.0
  9
$STEPSIZE
 40
6.0
  9
$3DDWFPREC
 40
2.0
  9
$PSOLWIDTH
 40
5.0
  9
$PSOLHEIGHT
 40
80.0
  9
$LOFTANG1
 40
1.570796326794897
  9
$LOFTANG2
 40
1.570796326794897
  9
$LOFTMAG1
 40
0.0
  9
$LOFTMAG2
 40
0.0
  9
$LOFTPARAM
 70
     7
  9
$LOFTNORMALS
280
     1
  9
$LATITUDE
 40
37.795
  9
$LONGITUDE
 40
-122.394
  9
$NORTHDIRECTION
 40
0.0
  9
$TIMEZONE
 70
 -8000
  9
$LIGHTGLYPHDISPLAY
280
     1
  9
$TILEMODELIGHTSYNCH
280
     1
  9
$CMATERIAL
347
44
  9
$SOLIDHIST
280
     0
  9
$SHOWHIST
280
     1
  9
$DWFFRAME
280
     2
  9
$DGNFRAME
280
     2
  9
$REALWORLDSCALE
290
     1
  9
$INTERFERECOLOR
 62
   256
  9
$CSHADOW
280
     0
  9
$SHADOWPLANELOCATION
 40
0.0
  0
ENDSEC
  0
SECTION
  2
CLASSES
  0
CLASS
  1
ACDBDICTIONARYWDFLT
  2
AcDbDictionaryWithDefault
  3
ObjectDBX Classes
 90
        0
 91
        4
280
     0
281
     0
  0
CLASS
  1
VISUALSTYLE
  2
AcDbVisualStyle
  3
ObjectDBX Classes
 90
     4095
 91
        4
280
     0
281
     0
  0
CLASS
  1
MATERIAL
  2
AcDbMaterial
  3
ObjectDBX Classes
 90
     1153
 91
        4
280
     0
281
     0
  0
CLASS
  1
SCALE
  2
AcDbScale
  3
ObjectDBX Classes
 90
     1153
 91
        4
280
     0
281
     0
  0
CLASS
  1
TABLESTYLE
  2
AcDbTableStyle
  3
ObjectDBX Classes
 90
     4095
 91
        4
280
     0
281
     0
  0
CLASS
  1
MLEADERSTYLE
  2
AcDbMLeaderStyle
  3
ACDB_MLEADERSTYLE_CLASS
 90
     4095
 91
        4
280
     0
281
     0
  0
CLASS
  1
SUN
  2
AcDbSun
  3
SCENEOE
 90
     1153
 91
        4
280
     0
281
     0
  0
CLASS
  1
DICTIONARYVAR
  2
AcDbDictionaryVar
  3
ObjectDBX Classes
 90
        0
 91
        4
280
     0
281
     0
  0
CLASS
  1
CELLSTYLEMAP
  2
AcDbCellStyleMap
  3
ObjectDBX Classes
 90
     1152
 91
        4
280
     0
281
     0
  0
ENDSEC
  0
SECTION
  2
TABLES
  0
TABLE
  2
VPORT
  5
8
330
0
100
AcDbSymbolTable
 70
     1
  0
VPORT
  5
29
330
8
100
AcDbSymbolTableRecord
100
AcDbViewportTableRecord
  2
*Active
 70
     0
 10
0.0
 20
0.0
 11
1.0
 21
1.0
 12
-1.975000000000023
 22
0.0
 13
0.0
 23
0.0
 14
10.0
 24
10.0
 15
10.0
 25
10.0
 16
0.0
 26
0.0
 36
1.0
 17
0.0
 27
0.0
 37
0.0
 40
94.04400000000004
 41
0.4235357917570492
 42
50.0
 43
0.0
 44
0.0
 50
0.0
 51
0.0
 71
     0
 72
   100
 73
     1
 74
     3
 75
     0
 76
     0
 77
     0
 78
     0
281
     0
 65
     1
110
0.0
120
0.0
130
0.0
111
1.0
121
0.0
131
0.0
112
0.0
122
1.0
132
0.0
 79
     0
146
0.0
348
2F
 60
     3
 61
     5
292
     1
282
     1
141
0.0
142
0.0
 63
   250
361
6D
  0
ENDTAB
  0
TABLE
  2
LTYPE
  5
5
330
0
100
AcDbSymbolTable
 70
     3
  0
LTYPE
  5
14
330
5
100
AcDbSymbolTableRecord
100
AcDbLinetypeTableRecord
  2
ByBlock
 70
     0
  3

 72
    65
 73
     0
 40
0.0
  0
LTYPE
  5
15
330
5
100
AcDbSymbolTableRecord
100
AcDbLinetypeTableRecord
  2
ByLayer
 70
     0
  3

 72
    65
 73
     0
 40
0.0
  0
LTYPE
  5
16
330
5
100
AcDbSymbolTableRecord
100
AcDbLinetypeTableRecord
  2
Continuous
 70
     0
  3
Solid line
 72
    65
 73
     0
 40
0.0
  0
LTYPE
  5
A6
330
5
100
AcDbSymbolTableRecord
100
AcDbLinetypeTableRecord
  2
Dashed
 70
     0
  3

 72
    65
 73
     2
 40
2.0
 49
1.0
 74
     0
 49
-1.0
 74
     0
  0
LTYPE
  5
E1
330
5
100
AcDbSymbolTableRecord
100
AcDbLinetypeTableRecord
  2
Center
 70
     0
  3

 72
    65
 73
     4
 40
1.5
 49
0.45
 74
     0
 49
-0.5
 74
     0
 49
0.05
 74
     0
 49
-0.5
 74
     0
  0
ENDTAB
  0
TABLE
  2
LAYER
  5
2
330
0
100
AcDbSymbolTable
 70
     7
  0
LAYER
  5
10
330
2
100
AcDbSymbolTableRecord
100
AcDbLayerTableRecord
  2
0
 70
     0
 62
     7
  6
Continuous
370
    -3
390
F
347
46
348
0
  0
LAYER
  5
72
330
2
100
AcDbSymbolTableRecord
100
AcDbLayerTableRecord
  2
AM_6
 70
     0
 62
    -2
  6
Continuous
370
    35
390
F
347
46
348
0
  0
LAYER
  5
A7
330
2
100
AcDbSymbolTableRecord
100
AcDbLayerTableRecord
  2
AM_9
 70
     0
 62
     6
  6
Dashed
370
    25
390
F
347
46
348
0
  0
LAYER
  5
DE
330
2
100
AcDbSymbolTableRecord
100
AcDbLayerTableRecord
  2
AM_5
 70
     0
 62
     3
  6
Continuous
370
    25
390
F
347
46
348
0
  0
LAYER
  5
E2
330
2
100
AcDbSymbolTableRecord
100
AcDbLayerTableRecord
  2
AM_7
 70
     0
 62
     7
  6
Center
370
    25
390
F
347
46
348
0
  0
LAYER
  5
E5
330
2
100
AcDbSymbolTableRecord
100
AcDbLayerTableRecord
  2
AM_4
 70
     0
 62
     7
  6
Continuous
370
    50
390
F
347
46
348
0
  0
LAYER
  5
1EC
330
2
100
AcDbSymbolTableRecord
100
AcDbLayerTableRecord
  2
ConnectionPoints
 70
     0
 62
     7
  6
Continuous
370
    50
390
F
347
46
348
0
  0
ENDTAB
  0
TABLE
  2
STYLE
  5
3
330
0
100
AcDbSymbolTable
 70
     1
  0
STYLE
  5
11
330
3
100
AcDbSymbolTableRecord
100
AcDbTextStyleTableRecord
  2
Standard
 70
     0
 40
0.0
 41
1.0
 50
0.0
 71
     0
 42
2.5
  3
txt
  4

  0
ENDTAB
  0
TABLE
  2
VIEW
  5
6
330
0
100
AcDbSymbolTable
 70
     0
  0
ENDTAB
  0
TABLE
  2
UCS
  5
7
330
0
100
AcDbSymbolTable
 70
     0
  0
ENDTAB
  0
TABLE
  2
APPID
  5
9
330
0
100
AcDbSymbolTable
 70
     1
  0
APPID
  5
12
330
9
100
AcDbSymbolTableRecord
100
AcDbRegAppTableRecord
  2
ACAD
 70
     0
  0
ENDTAB
  0
TABLE
  2
DIMSTYLE
  5
A
330
0
100
AcDbSymbolTable
 70
     1
100
AcDbDimStyleTable
  0
DIMSTYLE
105
27
330
A
100
AcDbSymbolTableRecord
100
AcDbDimStyleTableRecord
  2
ISO-25
 70
     0
 41
2.5
 42
0.625
 43
3.75
 44
1.25
 73
     0
 74
     0
 77
     1
 78
     8
140
2.5
141
2.5
143
0.03937007874016
147
0.625
171
     3
172
     1
178
     0
271
     2
272
     2
274
     3
278
    44
283
     0
284
     8
340
11
  0
ENDTAB
  0
TABLE
  2
BLOCK_RECORD
  5
1
330
0
100
AcDbSymbolTable
 70
     5
  0
BLOCK_RECORD
  5
1F
330
1
100
AcDbSymbolTableRecord
100
AcDbBlockTableRecord
  2
*Model_Space
340
22
 70
     0
280
     1
281
     0
  0
BLOCK_RECORD
  5
1B
330
1
100
AcDbSymbolTableRecord
100
AcDbBlockTableRecord
  2
*Paper_Space
340
1E
 70
     0
280
     1
281
     0
  0
BLOCK_RECORD
  5
23
330
1
100
AcDbSymbolTableRecord
100
AcDbBlockTableRecord
  2
*Paper_Space0
340
26
 70
     0
280
     1
281
     0
  0
BLOCK_RECORD
  5
6E
330
1
100
AcDbSymbolTableRecord
100
AcDbBlockTableRecord
  2
1_076275_2
340
0
102
{BLKREFS
331
6F
102
}
 70
     0
280
     1
281
     0
  0
BLOCK_RECORD
  5
8F
330
1
100
AcDbSymbolTableRecord
100
AcDbBlockTableRecord
  2
2_076286_0_in_076275_2
340
0
102
{BLKREFS
331
90
102
}
 70
     0
280
     1
281
     0
  0
BLOCK_RECORD
  5
F7
330
1
100
AcDbSymbolTableRecord
100
AcDbBlockTableRecord
  2
3_405016_Metric_0_in_076275_2
340
0
102
{BLKREFS
331
F8
102
}
 70
     0
280
     1
281
     0
  0
BLOCK_RECORD
  5
176
330
1
100
AcDbSymbolTableRecord
100
AcDbBlockTableRecord
  2
4_076275h_0_in_076275_2
340
0
102
{BLKREFS
331
177
102
}
 70
     0
280
     1
281
     0
  0
ENDTAB
  0
ENDSEC
  0
SECTION
  2
BLOCKS
  0
BLOCK
  5
20
330
1F
100
AcDbEntity
  8
0
100
AcDbBlockBegin
  2
*Model_Space
 70
     0
 10
0.0
 20
0.0
 30
0.0
  3
*Model_Space
  1

  0
ENDBLK
  5
21
330
1F
100
AcDbEntity
  8
0
100
AcDbBlockEnd
  0
BLOCK
  5
1C
330
1B
100
AcDbEntity
 67
     1
  8
0
100
AcDbBlockBegin
  2
*Paper_Space
 70
     0
 10
0.0
 20
0.0
 30
0.0
  3
*Paper_Space
  1

  0
ENDBLK
  5
1D
330
1B
100
AcDbEntity
 67
     1
  8
0
100
AcDbBlockEnd
  0
BLOCK
  5
24
330
23
100
AcDbEntity
  8
0
100
AcDbBlockBegin
  2
*Paper_Space0
 70
     0
 10
0.0
 20
0.0
 30
0.0
  3
*Paper_Space0
  1

  0
ENDBLK
  5
25
330
23
100
AcDbEntity
  8
0
100
AcDbBlockEnd
  0
BLOCK
  5
70
330
6E
100
AcDbEntity
  8
0
100
AcDbBlockBegin
  2
1_076275_2
 70
     2
 10
0.0
 20
0.0
 30
0.0
  3
1_076275_2
  1

  0
ATTDEF
  5
73
330
6E
100
AcDbEntity
  8
AM_6
100
AcDbText
 10
22.55
 20
46.10000000000001
 30
0.0
 40
0.5
  1
Set Screw Extreme Duty Wide Slot Take Up Metric Bore
100
AcDbAttributeDefinition
  3

  2
NN
 70
     8
280
     0
  0
ATTDEF
  5
74
330
6E
100
AcDbEntity
  8
AM_6
100
AcDbText
 10
22.55
 20
45.60000000000001
 30
0.0
 40
0.5
  1
SCED Take-Up Bearings -Wide Slot -(Normal Duty)
100
AcDbAttributeDefinition
  3

  2
NT
 70
     8
280
     0
  0
ATTDEF
  5
75
330
6E
100
AcDbEntity
  8
AM_6
100
AcDbText
 10
22.55
 20
45.10000000000001
 30
0.0
 40
0.5
  1
076275
100
AcDbAttributeDefinition
  3

  2
NB
 70
     8
280
     0
  0
ATTDEF
  5
76
330
6E
100
AcDbEntity
  8
AM_6
100
AcDbText
 10
22.55
 20
44.60000000000001
 30
0.0
 40
0.5
  1
$PN.
100
AcDbAttributeDefinition
  3

  2
NBSYN
 70
     8
280
     0
  0
ATTDEF
  5
77
330
6E
100
AcDbEntity
  8
AM_6
100
AcDbText
 10
22.55
 20
44.10000000000001
 30
0.0
 40
0.5
  1
076275
100
AcDbAttributeDefinition
  3

  2
LINA
 70
     8
280
     0
  0
ATTDEF
  5
78
330
6E
100
AcDbEntity
  8
AM_6
100
AcDbText
 10
22.55
 20
43.60000000000001
 30
0.0
 40
0.5
  1
205
100
AcDbAttributeDefinition
  3

  2
SERIES
 70
     8
280
     0
  0
ATTDEF
  5
79
330
6E
100
AcDbEntity
  8
AM_6
100
AcDbText
 10
22.55
 20
43.10000000000001
 30
0.0
 40
0.5
  1
25
100
AcDbAttributeDefinition
  3

  2
SS
 70
     8
280
     0
  0
ATTDEF
  5
7A
330
6E
100
AcDbEntity
  8
AM_6
100
AcDbText
 10
22.55
 20
42.60000000000001
 30
0.0
 40
0.5
  1
076275
100
AcDbAttributeDefinition
  3

  2
PN
 70
     8
280
     0
  0
ATTDEF
  5
7B
330
6E
100
AcDbEntity
  8
AM_6
100
AcDbText
 10
22.55
 20
42.10000000000001
 30
0.0
 40
0.5
  1
WSTU-SCED-25M
100
AcDbAttributeDefinition
  3

  2
DESCRIPTION
 70
     8
280
     0
  0
ATTDEF
  5
7C
330
6E
100
AcDbEntity
  8
AM_6
100
AcDbText
 10
22.55
 20
41.60000000000001
 30
0.0
 40
0.5
  1
1.0
100
AcDbAttributeDefinition
  3

  2
W
 70
     8
280
     0
  0
ATTDEF
  5
7D
330
6E
100
AcDbEntity
  8
AM_6
100
AcDbText
 10
22.55
 20
41.10000000000001
 30
0.0
 40
0.5
  1
WS300
100
AcDbAttributeDefinition
  3

  2
FS
 70
     8
280
     0
  0
ATTDEF
  5
7E
330
6E
100
AcDbEntity
  8
AM_6
100
AcDbText
 10
22.55
 20
40.60000000000001
 30
0.0
 40
0.5
  1
34.0
100
AcDbAttributeDefinition
  3

  2
A
 70
     8
280
     0
  0
ATTDEF
  5
7F
330
6E
100
AcDbEntity
  8
AM_6
100
AcDbText
 10
22.55
 20
40.10000000000001
 30
0.0
 40
0.5
  1
96.8
100
AcDbAttributeDefinition
  3

  2
B
 70
     8
280
     0
  0
ATTDEF
  5
80
330
6E
100
AcDbEntity
  8
AM_6
100
AcDbText
 10
22.55
 20
39.60000000000001
 30
0.0
 40
0.5
  1
13.49
100
AcDbAttributeDefinition
  3

  2
C
 70
     8
280
     0
  0
ATTDEF
  5
81
330
6E
100
AcDbEntity
  8
AM_6
100
AcDbText
 10
22.55
 20
39.10000000000001
 30
0.0
 40
0.5
  1
50.8
100
AcDbAttributeDefinition
  3

  2
D
 70
     8
280
     0
  0
ATTDEF
  5
82
330
6E
100
AcDbEntity
  8
AM_6
100
AcDbText
 10
22.55
 20
38.60000000000001
 30
0.0
 40
0.5
  1
62.0
100
AcDbAttributeDefinition
  3

  2
E
 70
     8
280
     0
  0
ATTDEF
  5
83
330
6E
100
AcDbEntity
  8
AM_6
100
AcDbText
 10
22.55
 20
38.10000000000001
 30
0.0
 40
0.5
  1
15.9
100
AcDbAttributeDefinition
  3

  2
F
 70
     8
280
     0
  0
ATTDEF
  5
84
330
6E
100
AcDbEntity
  8
AM_6
100
AcDbText
 10
22.55
 20
37.60000000000001
 30
0.0
 40
0.5
  1
9.7
100
AcDbAttributeDefinition
  3

  2
G
 70
     8
280
     0
  0
ATTDEF
  5
85
330
6E
100
AcDbEntity
  8
AM_6
100
AcDbText
 10
22.55
 20
37.10000000000001
 30
0.0
 40
0.5
  1
16.0
100
AcDbAttributeDefinition
  3

  2
H
 70
     8
280
     0
  0
ATTDEF
  5
86
330
6E
100
AcDbEntity
  8
AM_6
100
AcDbText
 10
22.55
 20
36.60000000000001
 30
0.0
 40
0.5
  1
50.8
100
AcDbAttributeDefinition
  3

  2
J
 70
     8
280
     0
  0
ATTDEF
  5
87
330
6E
100
AcDbEntity
  8
AM_6
100
AcDbText
 10
22.55
 20
36.10000000000001
 30
0.0
 40
0.5
  1
33.3
100
AcDbAttributeDefinition
  3

  2
K
 70
     8
280
     0
  0
ATTDEF
  5
88
330
6E
100
AcDbEntity
  8
AM_6
100
AcDbText
 10
22.55
 20
35.60000000000001
 30
0.0
 40
0.5
  1
33.5
100
AcDbAttributeDefinition
  3

  2
L
 70
     8
280
     0
  0
ATTDEF
  5
89
330
6E
100
AcDbEntity
  8
AM_6
100
AcDbText
 10
22.55
 20
35.10000000000001
 30
0.0
 40
0.5
  1
75.82 / 76.58
100
AcDbAttributeDefinition
  3

  2
M
 70
     8
280
     0
  0
ATTDEF
  5
8A
330
6E
100
AcDbEntity
  8
AM_6
100
AcDbText
 10
22.55
 20
34.60000000000001
 30
0.0
 40
0.5
  1
92.2
100
AcDbAttributeDefinition
  3

  2
N
 70
     8
280
     0
  0
ATTDEF
  5
8B
330
6E
100
AcDbEntity
  8
AM_6
100
AcDbText
 10
22.55
 20
34.10000000000001
 30
0.0
 40
0.5
  1
14.2
100
AcDbAttributeDefinition
  3

  2
R
 70
     8
280
     0
  0
ATTDEF
  5
8C
330
6E
100
AcDbEntity
  8
AM_6
100
AcDbText
 10
22.55
 20
33.60000000000001
 30
0.0
 40
0.5
  1
19.8
100
AcDbAttributeDefinition
  3

  2
S
 70
     8
280
     0
  0
ATTDEF
  5
8D
330
6E
100
AcDbEntity
  8
AM_6
100
AcDbText
 10
22.55
 20
33.10000000000001
 30
0.0
 40
0.5
  1
35.1
100
AcDbAttributeDefinition
  3

  2
T
 70
     8
280
     0
  0
ATTDEF
  5
8E
330
6E
100
AcDbEntity
  8
AM_6
100
AcDbText
 10
22.55
 20
32.60000000000001
 30
0.0
 40
0.5
  1
baldor
100
AcDbAttributeDefinition
  3

  2
COMPANY
 70
     8
280
     0
  0
INSERT
  5
90
330
6E
100
AcDbEntity
  8
0
100
AcDbBlockReference
  2
2_076286_0_in_076275_2
 10
0.0
 20
0.0
 30
0.0
  0
INSERT
  5
F8
330
6E
100
AcDbEntity
  8
0
100
AcDbBlockReference
  2
3_405016_Metric_0_in_076275_2
 10
0.0
 20
0.0
 30
0.0
  0
INSERT
  5
177
330
6E
100
AcDbEntity
  8
0
100
AcDbBlockReference
  2
4_076275h_0_in_076275_2
 10
0.0
 20
0.0
 30
0.0
  0
ENDBLK
  5
71
330
6E
100
AcDbEntity
  8
0
100
AcDbBlockEnd
  0
BLOCK
  5
91
330
8F
100
AcDbEntity
  8
0
100
AcDbBlockBegin
  2
2_076286_0_in_076275_2
 70
     2
 10
0.0
 20
0.0
 30
0.0
  3
2_076286_0_in_076275_2
  1

  0
ATTDEF
  5
93
330
8F
100
AcDbEntity
  8
AM_6
100
AcDbText
 10
20.9
 20
25.98709583157104
 30
0.0
 40
0.5
  1
Set Screw Extreme Duty Insert Metric Bore
100
AcDbAttributeDefinition
  3

  2
NN
 70
     8
280
     0
  0
ATTDEF
  5
94
330
8F
100
AcDbEntity
  8
AM_6
100
AcDbText
 10
20.9
 20
25.48709583157104
 30
0.0
 40
0.5
  1
SC Medium Duty Bearing Inserts
100
AcDbAttributeDefinition
  3

  2
NT
 70
     8
280
     0
  0
ATTDEF
  5
95
330
8F
100
AcDbEntity
  8
AM_6
100
AcDbText
 10
20.9
 20
24.98709583157104
 30
0.0
 40
0.5
  1
076286
100
AcDbAttributeDefinition
  3

  2
NB
 70
     8
280
     0
  0
ATTDEF
  5
96
330
8F
100
AcDbEntity
  8
AM_6
100
AcDbText
 10
20.9
 20
24.48709583157104
 30
0.0
 40
0.5
  1
$PN.
100
AcDbAttributeDefinition
  3

  2
NBSYN
 70
     8
280
     0
  0
ATTDEF
  5
97
330
8F
100
AcDbEntity
  8
AM_6
100
AcDbText
 10
20.9
 20
23.98709583157104
 30
0.0
 40
0.5
  1
076286
100
AcDbAttributeDefinition
  3

  2
LINA
 70
     8
280
     0
  0
ATTDEF
  5
98
330
8F
100
AcDbEntity
  8
AM_6
100
AcDbText
 10
20.9
 20
23.48709583157104
 30
0.0
 40
0.5
  1
205
100
AcDbAttributeDefinition
  3

  2
SERIES
 70
     8
280
     0
  0
ATTDEF
  5
99
330
8F
100
AcDbEntity
  8
AM_6
100
AcDbText
 10
20.9
 20
22.98709583157104
 30
0.0
 40
0.5
  1
25
100
AcDbAttributeDefinition
  3

  2
SS
 70
     8
280
     0
  0
ATTDEF
  5
9A
330
8F
100
AcDbEntity
  8
AM_6
100
AcDbText
 10
20.9
 20
22.48709583157104
 30
0.0
 40
0.5
  1
076286
100
AcDbAttributeDefinition
  3

  2
PN
 70
     8
280
     0
  0
ATTDEF
  5
9B
330
8F
100
AcDbEntity
  8
AM_6
100
AcDbText
 10
20.9
 20
21.98709583157104
 30
0.0
 40
0.5
  1
INS-SCED-25M
100
AcDbAttributeDefinition
  3

  2
DESCRIPTION
 70
     8
280
     0
  0
ATTDEF
  5
9C
330
8F
100
AcDbEntity
  8
AM_6
100
AcDbText
 10
20.9
 20
21.48709583157104
 30
0.0
 40
0.5
  1
0.18
100
AcDbAttributeDefinition
  3

  2
WEIGHT
 70
     8
280
     0
  0
ATTDEF
  5
9D
330
8F
100
AcDbEntity
  8
AM_6
100
AcDbText
 10
20.9
 20
20.98709583157104
 30
0.0
 40
0.5
  1
34.0
100
AcDbAttributeDefinition
  3

  2
A
 70
     8
280
     0
  0
ATTDEF
  5
9E
330
8F
100
AcDbEntity
  8
AM_6
100
AcDbText
 10
20.9
 20
20.48709583157104
 30
0.0
 40
0.5
  1
15.0
100
AcDbAttributeDefinition
  3

  2
C
 70
     8
280
     0
  0
ATTDEF
  5
9F
330
8F
100
AcDbEntity
  8
AM_6
100
AcDbText
 10
20.9
 20
19.98709583157104
 30
0.0
 40
0.5
  1
52
100
AcDbAttributeDefinition
  3

  2
D
 70
     8
280
     0
  0
ATTDEF
  5
A0
330
8F
100
AcDbEntity
  8
AM_6
100
AcDbText
 10
20.9
 20
19.48709583157104
 30
0.0
 40
0.5
  1
4.1
100
AcDbAttributeDefinition
  3

  2
J
 70
     8
280
     0
  0
ATTDEF
  5
A1
330
8F
100
AcDbEntity
  8
AM_6
100
AcDbText
 10
20.9
 20
18.98709583157104
 30
0.0
 40
0.5
  1
33.5
100
AcDbAttributeDefinition
  3

  2
L
 70
     8
280
     0
  0
ATTDEF
  5
A2
330
8F
100
AcDbEntity
  8
AM_6
100
AcDbText
 10
20.9
 20
18.48709583157104
 30
0.0
 40
0.5
  1
M6 x 1
100
AcDbAttributeDefinition
  3

  2
N
 70
     8
280
     0
  0
ATTDEF
  5
A3
330
8F
100
AcDbEntity
  8
AM_6
100
AcDbText
 10
20.9
 20
17.98709583157104
 30
0.0
 40
0.5
  1
14.2
100
AcDbAttributeDefinition
  3

  2
W
 70
     8
280
     0
  0
ATTDEF
  5
A4
330
8F
100
AcDbEntity
  8
AM_6
100
AcDbText
 10
20.9
 20
17.48709583157104
 30
0.0
 40
0.5
  1
19.8
100
AcDbAttributeDefinition
  3

  2
Y
 70
     8
280
     0
  0
ATTDEF
  5
A5
330
8F
100
AcDbEntity
  8
AM_6
100
AcDbText
 10
20.9
 20
16.98709583157104
 30
0.0
 40
0.5
  1
baldor
100
AcDbAttributeDefinition
  3

  2
COMPANY
 70
     8
280
     0
  0
LINE
  5
A8
330
8F
100
AcDbEntity
  8
AM_9
100
AcDbLine
 10
-11.1915
 20
12.67616109951159
 30
0.0
 11
-11.1915
 21
16.2085
 31
0.0
  0
LINE
  5
A9
330
8F
100
AcDbEntity
  8
AM_9
100
AcDbLine
 10
-16.1085
 20
16.2085
 30
0.0
 11
-16.1085
 21
12.67616109951159
 31
0.0
  0
LINE
  5
AA
330
8F
100
AcDbEntity
  8
AM_9
100
AcDbLine
 10
-16.1085
 20
16.2085
 30
0.0
 11
-11.1915
 21
16.2085
 31
0.0
  0
LINE
  5
AB
330
8F
100
AcDbEntity
  8
AM_9
100
AcDbLine
 10
-11.1915
 20
16.2085
 30
0.0
 11
-10.65000000000001
 21
16.74999999999999
 31
0.0
  0
LINE
  5
AC
330
8F
100
AcDbEntity
  8
AM_9
100
AcDbLine
 10
-16.65
 20
16.74999999999999
 30
0.0
 11
-16.1085
 21
16.2085
 31
0.0
  0
LINE
  5
AD
330
8F
100
AcDbEntity
  8
AM_9
100
AcDbLine
 10
-16.1085
 20
12.67616109951159
 30
0.0
 11
-11.1915
 21
12.67616109951159
 31
0.0
  0
LINE
  5
AE
330
8F
100
AcDbEntity
  8
AM_9
100
AcDbLine
 10
-16.1085
 20
12.67616109951159
 30
0.0
 11
-16.28195202696737
 21
12.50270907254422
 31
0.0
  0
LINE
  5
AF
330
8F
100
AcDbEntity
  8
AM_9
100
AcDbLine
 10
-11.01609576490605
 20
12.50075686441764
 30
0.0
 11
-11.1915
 21
12.67616109951159
 31
0.0
  0
LWPOLYLINE
  5
B0
330
8F
100
AcDbEntity
  8
AM_9
100
AcDbPolyline
 90
       39
 70
     0
 43
0.0
 10
-11.72112705696286
 20
3.372204153773997
 10
-11.42986058910429
 20
3.787714339714284
 10
-11.21301698495919
 20
4.238058157650936
 10
-11.07447135857734
 20
4.710728038758472
 10
-11.01690639255255
 20
5.189847985169491
 10
-11.04465042843832
 20
5.677390221435586
 10
-11.15935381951216
 20
6.144343684154139
 10
-11.36029658628856
 20
6.57868506248685
 10
-11.64278820779914
 20
6.96854056509294
 10
-11.99525119758653
 20
7.296047214154712
 10
-12.41503563848466
 20
7.558642348466197
 10
-12.77000645288451
 20
7.705240717148743
 10
-13.15038104405798
 20
7.802507444996713
 10
-13.5484368720787
 20
7.845123602633138
 10
-13.94978297945136
 20
7.831243206499706
 10
-14.31258728363932
 20
7.767779018888354
 10
-14.65804153437294
 20
7.659268460469658
 10
-14.99260346000961
 20
7.501532762923159
 10
-15.29483494034234
 20
7.304017018891662
 10
-15.59441240535615
 20
7.036602026719287
 10
-15.84345305281904
 20
6.730592397390879
 10
-16.06076412592262
 20
6.344113531453447
 10
-16.2063592590445
 20
5.924826258455067
 10
-16.27914571388458
 20
5.451559021511632
 10
-16.26633547985202
 20
4.964154277558564
 10
-16.16530562070906
 20
4.469806445970895
 10
-15.97872335311335
 20
3.989803321789168
 10
-15.70989186628849
 20
3.54150070232193
 10
-15.36383549011004
 20
3.140476728382947
 10
-14.9661785328734
 20
2.82025420977481
 10
-14.51277134577975
 20
2.579823504807877
 10
-14.08664989245468
 20
2.452896339969305
 10
-13.64372352817468
 20
2.409414835678228
 10
-13.26426863174877
 20
2.443169912118083
 10
-12.8958626879977
 20
2.538886640601825
 10
-12.55216266148999
 20
2.689762796965968
 10
-12.23510272328719
 20
2.888471521013944
 10
-11.96252845370802
 20
3.115363530525051
 10
-11.72112705696286
 20
3.372204153773998
  0
LINE
  5
B1
330
8F
100
AcDbEntity
  8
AM_9
100
AcDbLine
 10
-19.13
 20
-12.5
 30
0.0
 11
13.53
 21
-12.5
 31
0.0
  0
LINE
  5
B2
330
8F
100
AcDbEntity
  8
AM_9
100
AcDbLine
 10
13.53
 20
12.5
 30
0.0
 11
-11.01740759114927
 21
12.5
 31
0.0
  0
LINE
  5
B3
330
8F
100
AcDbEntity
  8
AM_9
100
AcDbLine
 10
-16.27726636757742
 20
12.5
 30
0.0
 11
-19.13
 21
12.5
 31
0.0
  0
LWPOLYLINE
  5
B4
330
8F
100
AcDbEntity
  8
AM_9
100
AcDbPolyline
 90
       20
 70
     0
 43
0.0
 10
-16.28466109941858
 20
12.49999999997516
 10
-16.25681763390308
 20
12.49259779518996
 10
-16.14523190096376
 20
12.46361480115769
 10
-15.94344765475314
 20
12.41402627192353
 10
-15.66829831359702
 20
12.35243999386123
 10
-15.30619805998023
 20
12.28241319565648
 10
-14.91107067292071
 20
12.22089455724328
 10
-14.44512453638269
 20
12.16913670222588
 10
-14.02971964991954
 20
12.14254659460004
 10
-13.58327940995444
 20
12.13490476035169
 10
-13.21263263697319
 20
12.14511969473104
 10
-12.8439508811826
 20
12.170086891526
 10
-12.5057654210864
 20
12.20577260895234
 10
-12.18807075123433
 20
12.25018511881204
 10
-11.87791745966634
 20
12.3034309092932
 10
-11.60622489241347
 20
12.35784374730862
 10
-11.36007404446843
 20
12.41319360927793
 10
-11.17455078938244
 20
12.45859140437255
 10
-11.05437152615107
 20
12.48964219550318
 10
-11.01533890050521
 20
12.49999999999551
  0
LINE
  5
B5
330
8F
100
AcDbEntity
  8
AM_9
100
AcDbLine
 10
13.53
 20
-12.5
 30
0.0
 11
14.2
 21
-13.17
 31
0.0
  0
LINE
  5
B6
330
8F
100
AcDbEntity
  8
AM_9
100
AcDbLine
 10
14.2
 20
13.17
 30
0.0
 11
13.53
 21
12.5
 31
0.0
  0
LINE
  5
B7
330
8F
100
AcDbEntity
  8
AM_9
100
AcDbLine
 10
-19.13
 20
12.5
 30
0.0
 11
-19.8
 21
13.17
 31
0.0
  0
LINE
  5
B8
330
8F
100
AcDbEntity
  8
AM_9
100
AcDbLine
 10
-19.8
 20
-13.17
 30
0.0
 11
-19.13
 21
-12.5
 31
0.0
  0
ELLIPSE
  5
B9
330
8F
100
AcDbEntity
  8
AM_9
100
AcDbEllipse
 10
-13.64999999999998
 20
5.357177169420671
 30
0.0
 11
2.458500000000019
 21
0.0
 31
0.0
210
0.0
220
0.0
230
1.0
 40
0.9063077870366478
 41
2.799995694668901
 42
3.141592653589793
  0
ELLIPSE
  5
BA
330
8F
100
AcDbEntity
  8
AM_9
100
AcDbEllipse
 10
-13.65
 20
5.357177169420662
 30
0.0
 11
2.458499999999997
 21
0.0
 31
0.0
210
0.0
220
0.0
230
1.0
 40
0.9063077870366506
 41
1.570796326794897
 42
2.799995694668896
  0
LINE
  5
BB
330
8F
100
AcDbEntity
  8
AM_9
100
AcDbLine
 10
-11.1915
 20
5.357177169420661
 30
0.0
 11
-11.1915
 21
6.850008095424127
 31
0.0
  0
LINE
  5
BC
330
8F
100
AcDbEntity
  8
AM_9
100
AcDbLine
 10
-16.1085
 20
6.850008095424127
 30
0.0
 11
-16.1085
 21
5.357177169420661
 31
0.0
  0
ELLIPSE
  5
BD
330
8F
100
AcDbEntity
  8
AM_9
100
AcDbEllipse
 10
-13.64999999999999
 20
6.850008095424135
 30
0.0
 11
2.45849999999999
 21
0.0
 31
0.0
210
0.0
220
0.0
230
1.0
 40
0.9063077870366504
 41
3.085737002136284
 42
7.853981633974483
  0
ELLIPSE
  5
BE
330
8F
100
AcDbEntity
  8
AM_9
100
AcDbEllipse
 10
-13.65
 20
5.357177169420663
 30
0.0
 11
2.458500000000003
 21
0.0
 31
0.0
210
0.0
220
0.0
230
1.0
 40
0.9063077870366502
 41
3.141592653589793
 42
6.283185307179586
  0
ELLIPSE
  5
BF
330
8F
100
AcDbEntity
  8
AM_9
100
AcDbEllipse
 10
-13.65
 20
5.357177169420662
 30
0.0
 11
2.458499999999994
 21
0.0
 31
0.0
210
0.0
220
0.0
230
1.0
 40
0.9063077870366513
 41
0.4775074438542699
 42
1.570796326794897
  0
ELLIPSE
  5
C0
330
8F
100
AcDbEntity
  8
AM_9
100
AcDbEllipse
 10
-13.64999999999989
 20
5.357177169420749
 30
0.0
 11
2.458499999999892
 21
0.0
 31
0.0
210
0.0
220
0.0
230
1.0
 40
0.9063077870366402
 41
0.0
 42
0.47750744385426
  0
ELLIPSE
  5
C1
330
8F
100
AcDbEntity
  8
AM_9
100
AcDbEllipse
 10
-13.65
 20
6.850008095424117
 30
0.0
 11
2.458500000000003
 21
0.0
 31
0.0
210
0.0
220
0.0
230
1.0
 40
0.906307787036653
 41
1.570796326794897
 42
2.364027861748726
  0
LINE
  5
C2
330
8F
100
AcDbEntity
  8
AM_9
100
AcDbLine
 10
7.5
 20
-16.75
 30
0.0
 11
11.4665
 21
-16.75
 31
0.0
  0
LINE
  5
C3
330
8F
100
AcDbEntity
  8
AM_9
100
AcDbLine
 10
11.46650000000001
 20
16.75
 30
0.0
 11
7.5
 21
16.75
 31
0.0
  0
LWPOLYLINE
  5
C4
330
8F
100
AcDbEntity
  8
AM_9
100
AcDbPolyline
 90
       11
 70
     0
 43
0.0
 10
-11.45855636658348
 20
8.74561925960061
 10
-11.31865386477382
 20
8.617393205260889
 10
-11.01476898545484
 20
8.254097536313507
 10
-10.80896608908464
 20
7.87226686019887
 10
-10.68510040771098
 20
7.45854287926813
 10
-10.65041319852163
 20
7.062081068772934
 10
-10.6914639754911
 20
6.661321561338204
 10
-10.80192503856187
 20
6.283104258118999
 10
-10.97648424575081
 20
5.922490587647899
 10
-11.14783100757736
 20
5.66717709460941
 10
-11.34921252470706
 20
5.430583042427558
  0
LWPOLYLINE
  5
C5
330
8F
100
AcDbEntity
  8
AM_9
100
AcDbPolyline
 90
        9
 70
     0
 43
0.0
 10
-14.8850440063801
 20
9.28456616179205
 10
-14.69808315922361
 20
9.344560182807218
 10
-14.19706035492114
 20
9.45221316007703
 10
-13.68158233813054
 20
9.491280906498089
 10
-13.14847922752085
 20
9.458460708910547
 10
-12.62949587729406
 20
9.352446118963568
 10
-12.1390617479814
 20
9.173125431469362
 10
-11.69314378822453
 20
8.923682888952913
 10
-11.45855636658348
 20
8.74561925960061
  0
LWPOLYLINE
  5
C6
330
8F
100
AcDbEntity
  8
AM_9
100
AcDbPolyline
 90
       13
 70
     0
 43
0.0
 10
-11.46119383937351
 20
5.319298114858302
 10
-11.66091559505287
 20
5.147782717647337
 10
-12.01237082390019
 20
4.909207817392536
 10
-12.45768284825735
 20
4.694873127488305
 10
-12.93284578268054
 20
4.550187968996413
 10
-13.45270633223147
 20
4.47760418820427
 10
-13.97791128487009
 20
4.487732100861097
 10
-14.50503851335271
 20
4.584339226802191
 10
-15.00770047090623
 20
4.764467623118943
 10
-15.4667588658266
 20
5.022208135947614
 10
-15.87156834534959
 20
5.350607358463001
 10
-16.19275426890539
 20
5.72266725710204
 10
-16.43701226489555
 20
6.138721082013108
  0
LINE
  5
C7
330
8F
100
AcDbEntity
  8
AM_9
100
AcDbLine
 10
-11.34921252470706
 20
5.430583042427558
 30
0.0
 11
-11.46119383937351
 21
5.319298114858302
 31
0.0
  0
LINE
  5
C8
330
8F
100
AcDbEntity
  8
AM_9
100
AcDbLine
 10
-11.4665
 20
-16.74999999999999
 30
0.0
 11
-7.499999999999998
 21
-16.74999999999999
 31
0.0
  0
LINE
  5
C9
330
8F
100
AcDbEntity
  8
AM_9
100
AcDbLine
 10
-7.499999999999998
 20
16.74999999999999
 30
0.0
 11
-10.65452209554057
 21
16.74999999999999
 31
0.0
  0
LINE
  5
CA
330
8F
100
AcDbEntity
  8
AM_9
100
AcDbLine
 10
-11.39722889049466
 20
16.65012730535571
 30
0.0
 11
-11.46615815297827
 21
16.64230298528727
 31
0.0
  0
LWPOLYLINE
  5
CB
330
8F
100
AcDbEntity
  8
AM_9
100
AcDbPolyline
 90
        6
 70
     0
 43
0.0
 10
-10.6500000000091
 20
16.74999999999861
 10
-10.68019586110394
 20
16.74543531520784
 10
-10.77791802407213
 20
16.73096532249504
 10
-10.94470177424756
 20
16.70734174777959
 10
-11.17266231156424
 20
16.67725616943732
 10
-11.39722889049466
 20
16.65012730535571
  0
LINE
  5
CC
330
8F
100
AcDbEntity
  8
AM_9
100
AcDbLine
 10
13.53
 20
11.17772785498019
 30
0.0
 11
13.53
 21
-11.17772785498019
 31
0.0
  0
LINE
  5
CD
330
8F
100
AcDbEntity
  8
AM_9
100
AcDbLine
 10
14.2
 20
10.31321967185806
 30
0.0
 11
14.2
 21
-10.31321967185806
 31
0.0
  0
LINE
  5
CE
330
8F
100
AcDbEntity
  8
AM_9
100
AcDbLine
 10
-4.919999999999999
 20
-24.633333347
 30
0.0
 11
-3.28
 21
-24.633333347
 31
0.0
  0
LINE
  5
CF
330
8F
100
AcDbEntity
  8
AM_9
100
AcDbLine
 10
-3.28
 20
24.633333347
 30
0.0
 11
-4.919999999999999
 21
24.633333347
 31
0.0
  0
LINE
  5
D0
330
8F
100
AcDbEntity
  8
AM_9
100
AcDbLine
 10
7.5
 20
24.27776760742223
 30
0.0
 11
7.5
 21
-24.27776760742223
 31
0.0
  0
ARC
  5
D1
330
8F
100
AcDbEntity
  8
AM_9
100
AcDbCircle
 10
6.679999999999998
 20
-24.27776760742223
 30
0.0
 40
0.8199999999999998
100
AcDbArc
 50
285.3841801599843
 51
0.0000008537736463
  0
ARC
  5
D2
330
8F
100
AcDbEntity
  8
AM_9
100
AcDbCircle
 10
6.679999999999998
 20
24.27776760742223
 30
0.0
 40
0.8200000000000021
100
AcDbArc
 50
0.0000008537736463
 51
74.61581984001569
  0
LINE
  5
D3
330
8F
100
AcDbEntity
  8
AM_9
100
AcDbLine
 10
-7.500000000000002
 20
24.27776760742222
 30
0.0
 11
-7.500000000000002
 21
-24.27776760742222
 31
0.0
  0
ARC
  5
D4
330
8F
100
AcDbEntity
  8
AM_9
100
AcDbCircle
 10
-6.679999999999991
 20
-24.27776760742222
 30
0.0
 40
0.8200000000000109
100
AcDbArc
 50
180.0
 51
254.6158198400158
  0
ARC
  5
D5
330
8F
100
AcDbEntity
  8
AM_9
100
AcDbCircle
 10
-6.679999999999991
 20
24.27776760742222
 30
0.0
 40
0.82000000000001
100
AcDbArc
 50
105.3841801599841
 51
180.0
  0
ARC
  5
D6
330
8F
100
AcDbEntity
  8
AM_9
100
AcDbCircle
 10
0.0000000000004023
 20
-0.0000000000017515
 30
0.0
 40
26.00000000000179
100
AcDbArc
 50
100.9078961826721
 51
105.384180159984
  0
ARC
  5
D7
330
8F
100
AcDbEntity
  8
AM_9
100
AcDbCircle
 10
0.0000000005234311
 20
0.0000000022333104
 30
0.0
 40
26.00000000229969
100
AcDbArc
 50
254.6158198402139
 51
259.09210381713
  0
LINE
  5
D8
330
8F
100
AcDbEntity
  8
AM_9
100
AcDbLine
 10
-6.897537728355831
 20
25.06838593300151
 30
0.0
 11
-6.897537728355831
 21
-25.06838593300933
 31
0.0
  0
LINE
  5
D9
330
8F
100
AcDbEntity
  8
AM_9
100
AcDbLine
 10
-4.919999999999999
 20
25.53024872577625
 30
0.0
 11
-4.919999999999999
 21
-25.53024872578408
 31
0.0
  0
ARC
  5
DA
330
8F
100
AcDbEntity
  8
AM_9
100
AcDbCircle
 10
-0.0000000000000107
 20
-0.0000000000000533
 30
0.0
 40
26.00000000000005
100
AcDbArc
 50
74.61581984001583
 51
97.24739381446811
  0
ARC
  5
DB
330
8F
100
AcDbEntity
  8
AM_9
100
AcDbCircle
 10
0.0000000000043082
 20
-0.0000000000605844
 30
0.0
 40
25.99999999994036
100
AcDbArc
 50
262.7526061855056
 51
285.3841801600105
  0
LINE
  5
DC
330
8F
100
AcDbEntity
  8
AM_9
100
AcDbLine
 10
-3.28
 20
25.79227791413546
 30
0.0
 11
-3.28
 21
-25.79227791413538
 31
0.0
  0
LINE
  5
DD
330
8F
100
AcDbEntity
  8
AM_9
100
AcDbLine
 10
6.897537728355838
 20
25.0683859330015
 30
0.0
 11
6.897537728355838
 21
-25.06838593300142
 31
0.0
  0
LINE
  5
DF
330
8F
100
AcDbEntity
  8
AM_5
100
AcDbLine
 10
-10.65
 20
16.74999999999999
 30
0.0
 11
-10.65
 21
12.5
 31
0.0
  0
LINE
  5
E0
330
8F
100
AcDbEntity
  8
AM_5
100
AcDbLine
 10
-16.65
 20
16.74999999999999
 30
0.0
 11
-16.65
 21
12.5
 31
0.0
  0
LINE
  5
E3
330
8F
100
AcDbEntity
  8
AM_7
100
AcDbLine
 10
-21.5
 20
0.0
 30
0.0
 11
15.9
 21
0.0
 31
0.0
  0
LINE
  5
E4
330
8F
100
AcDbEntity
  8
AM_7
100
AcDbLine
 10
-13.65
 20
16.98076694502442
 30
0.0
 11
-13.65
 21
11.90389415448717
 31
0.0
  0
ELLIPSE
  5
E6
330
8F
100
AcDbEntity
  8
AM_4
100
AcDbEllipse
 10
-13.64999999999995
 20
6.850008095424103
 30
0.0
 11
2.458500000000054
 21
0.0
 31
0.0
210
0.0
220
0.0
230
1.0
 40
0.90630778703665
 41
2.364027861748735
 42
3.085737002136274
  0
LINE
  5
E7
330
8F
100
AcDbEntity
  8
AM_4
100
AcDbLine
 10
11.4665
 20
-16.75
 30
0.0
 11
13.53
 21
-16.75
 31
0.0
  0
LINE
  5
E8
330
8F
100
AcDbEntity
  8
AM_4
100
AcDbLine
 10
13.53
 20
16.75
 30
0.0
 11
11.46650000000001
 21
16.75
 31
0.0
  0
LINE
  5
E9
330
8F
100
AcDbEntity
  8
AM_4
100
AcDbLine
 10
-19.8
 20
-16.08
 30
0.0
 11
-19.13
 21
-16.75
 31
0.0
  0
LINE
  5
EA
330
8F
100
AcDbEntity
  8
AM_4
100
AcDbLine
 10
-19.13
 20
16.75
 30
0.0
 11
-19.8
 21
16.08
 31
0.0
  0
LINE
  5
EB
330
8F
100
AcDbEntity
  8
AM_4
100
AcDbLine
 10
-19.8
 20
16.08
 30
0.0
 11
-19.8
 21
-16.08
 31
0.0
  0
LWPOLYLINE
  5
EC
330
8F
100
AcDbEntity
  8
AM_4
100
AcDbPolyline
 90
       12
 70
     0
 43
0.0
 10
-16.43701226489555
 20
6.138721082013108
 10
-16.4373098195803
 20
6.139363185932273
 10
-16.58297640121004
 20
6.549816557637302
 10
-16.64731582356577
 20
6.972786222498456
 10
-16.63013156041639
 20
7.363003092314862
 10
-16.54112881785384
 20
7.740530020126386
 10
-16.38564458094385
 20
8.09027748881979
 10
-16.16973894612676
 20
8.410281369645862
 10
-15.88471055593643
 20
8.70784990400204
 10
-15.54983058938826
 20
8.961409652596586
 10
-15.14195742665196
 20
9.181808226622936
 10
-14.8850440063801
 20
9.28456616179205
  0
LINE
  5
ED
330
8F
100
AcDbEntity
  8
AM_4
100
AcDbLine
 10
-19.13
 20
-16.74999999999999
 30
0.0
 11
-11.4665
 21
-16.74999999999999
 31
0.0
  0
LINE
  5
EE
330
8F
100
AcDbEntity
  8
AM_4
100
AcDbLine
 10
-16.64287769224286
 20
16.74999999999999
 30
0.0
 11
-19.13
 21
16.74999999999999
 31
0.0
  0
LINE
  5
EF
330
8F
100
AcDbEntity
  8
AM_4
100
AcDbLine
 10
-19.13
 20
16.74999999999999
 30
0.0
 11
-19.13
 21
-16.74999999999999
 31
0.0
  0
LWPOLYLINE
  5
F0
330
8F
100
AcDbEntity
  8
AM_4
100
AcDbPolyline
 90
       15
 70
     0
 43
0.0
 10
-11.46615815297827
 20
16.64230298528727
 10
-11.8153119479289
 20
16.60632391425782
 10
-12.22102371781037
 20
16.57224763051507
 10
-12.6826417570413
 20
16.54368739721737
 10
-13.18145554656722
 20
16.52514984093103
 10
-13.70261423777044
 20
16.51953260293147
 10
-14.23689336776269
 20
16.52838525661137
 10
-14.74692819928761
 20
16.55060079463782
 10
-15.23976775421745
 20
16.58475312539792
 10
-15.6647046630344
 20
16.62410982806257
 10
-16.04142989907515
 20
16.66658278732786
 10
-16.31729726170356
 20
16.70214924793277
 10
-16.52118060122207
 20
16.73083400947971
 10
-16.62383717681002
 20
16.74604243619125
 10
-16.64999999998564
 20
16.74999999999781
  0
LINE
  5
F1
330
8F
100
AcDbEntity
  8
AM_4
100
AcDbLine
 10
14.2
 20
16.08
 30
0.0
 11
13.53
 21
16.75
 31
0.0
  0
LINE
  5
F2
330
8F
100
AcDbEntity
  8
AM_4
100
AcDbLine
 10
13.53
 20
-16.75
 30
0.0
 11
14.2
 21
-16.08
 31
0.0
  0
LINE
  5
F3
330
8F
100
AcDbEntity
  8
AM_4
100
AcDbLine
 10
13.53
 20
-11.17772785498019
 30
0.0
 11
13.53
 21
-16.75
 31
0.0
  0
LINE
  5
F4
330
8F
100
AcDbEntity
  8
AM_4
100
AcDbLine
 10
13.53
 20
16.75
 30
0.0
 11
13.53
 21
11.17772785498019
 31
0.0
  0
LINE
  5
F5
330
8F
100
AcDbEntity
  8
AM_4
100
AcDbLine
 10
14.2
 20
-10.31321967185806
 30
0.0
 11
14.2
 21
-16.08
 31
0.0
  0
LINE
  5
F6
330
8F
100
AcDbEntity
  8
AM_4
100
AcDbLine
 10
14.2
 20
16.08
 30
0.0
 11
14.2
 21
10.31321967185806
 31
0.0
  0
ENDBLK
  5
92
330
8F
100
AcDbEntity
  8
0
100
AcDbBlockEnd
  0
BLOCK
  5
F9
330
F7
100
AcDbEntity
  8
0
100
AcDbBlockBegin
  2
3_405016_Metric_0_in_076275_2
 70
     2
 10
0.0
 20
0.0
 30
0.0
  3
3_405016_Metric_0_in_076275_2
  1

  0
ATTDEF
  5
FB
330
F7
100
AcDbEntity
  8
AM_6
100
AcDbText
 10
10.55625000000001
 20
-12.11490184921512
 30
0.0
 40
0.5
  1
405016 -Metric
100
AcDbAttributeDefinition
  3

  2
NN
 70
     8
280
     0
  0
ATTDEF
  5
FC
330
F7
100
AcDbEntity
  8
AM_6
100
AcDbText
 10
10.55625000000001
 20
-12.61490184921512
 30
0.0
 40
0.5
  1
Grease Fitting
100
AcDbAttributeDefinition
  3

  2
NT
 70
     8
280
     0
  0
ATTDEF
  5
FD
330
F7
100
AcDbEntity
  8
AM_6
100
AcDbText
 10
10.55625000000001
 20
-13.11490184921512
 30
0.0
 40
0.5
  1
405016-Metric
100
AcDbAttributeDefinition
  3

  2
NB
 70
     8
280
     0
  0
ATTDEF
  5
FE
330
F7
100
AcDbEntity
  8
AM_6
100
AcDbText
 10
10.55625000000001
 20
-13.61490184921512
 30
0.0
 40
0.5
  1
$MN.-Metric
100
AcDbAttributeDefinition
  3

  2
NBSYN
 70
     8
280
     0
  0
ATTDEF
  5
FF
330
F7
100
AcDbEntity
  8
AM_6
100
AcDbText
 10
10.55625000000001
 20
-14.11490184921512
 30
0.0
 40
0.5
  1
405016
100
AcDbAttributeDefinition
  3

  2
LINA
 70
     8
280
     0
  0
ATTDEF
  5
100
330
F7
100
AcDbEntity
  8
AM_6
100
AcDbText
 10
10.55625000000001
 20
-14.61490184921512
 30
0.0
 40
0.5
  1
405016
100
AcDbAttributeDefinition
  3

  2
MN
 70
     8
280
     0
  0
ATTDEF
  5
101
330
F7
100
AcDbEntity
  8
AM_6
100
AcDbText
 10
10.55625000000001
 20
-15.11490184921512
 30
0.0
 40
0.5
  1
7/16 HEX
100
AcDbAttributeDefinition
  3

  2
H
 70
     8
280
     0
  0
ATTDEF
  5
102
330
F7
100
AcDbEntity
  8
AM_6
100
AcDbText
 10
10.55625000000001
 20
-15.61490184921512
 30
0.0
 40
0.5
  1
9.728
100
AcDbAttributeDefinition
  3

  2
NDR
 70
     8
280
     0
  0
ATTDEF
  5
103
330
F7
100
AcDbEntity
  8
AM_6
100
AcDbText
 10
10.55625000000001
 20
-16.11490184921512
 30
0.0
 40
0.5
  1
8.560
100
AcDbAttributeDefinition
  3

  2
KDR
 70
     8
280
     0
  0
ATTDEF
  5
104
330
F7
100
AcDbEntity
  8
AM_6
100
AcDbText
 10
10.55625000000001
 20
-16.61490184921512
 30
0.0
 40
0.5
  1
4.0005
100
AcDbAttributeDefinition
  3

  2
BZE
 70
     8
280
     0
  0
ATTDEF
  5
105
330
F7
100
AcDbEntity
  8
AM_6
100
AcDbText
 10
10.55625000000001
 20
-17.11490184921512
 30
0.0
 40
0.5
  1
11.1125
100
AcDbAttributeDefinition
  3

  2
HEX
 70
     8
280
     0
  0
ATTDEF
  5
106
330
F7
100
AcDbEntity
  8
AM_6
100
AcDbText
 10
10.55625000000001
 20
-17.61490184921512
 30
0.0
 40
0.5
  1
7.143750
100
AcDbAttributeDefinition
  3

  2
HEX2
 70
     8
280
     0
  0
ATTDEF
  5
107
330
F7
100
AcDbEntity
  8
AM_6
100
AcDbText
 10
10.55625000000001
 20
-18.11490184921512
 30
0.0
 40
0.5
  1
baldor
100
AcDbAttributeDefinition
  3

  2
COMPANY
 70
     8
280
     0
  0
LWPOLYLINE
  5
108
330
F7
100
AcDbEntity
  8
AM_9
100
AcDbPolyline
 90
        5
 70
     0
 43
0.0
 10
-4.549376881905937
 20
-27.47716575011957
 10
-4.680053692952523
 20
-26.63722104716566
 10
-4.73004052558698
 20
-25.76453519314442
 10
-4.684077415975233
 20
-24.84541173564804
 10
-4.549376881905937
 20
-23.90529075011957
  0
LINE
  5
109
330
F7
100
AcDbEntity
  8
AM_9
100
AcDbLine
 10
-3.837282897828232
 20
-23.73926331106881
 30
0.0
 11
-4.549376881905937
 21
-23.90529075011957
 31
0.0
  0
LWPOLYLINE
  5
10A
330
F7
100
AcDbEntity
  8
AM_9
100
AcDbPolyline
 90
        5
 70
     0
 43
0.0
 10
-4.549376881905937
 20
-23.90529075011957
 10
-5.050422008373631
 20
-23.10708835050992
 10
-5.477080537076166
 20
-22.27674219793952
 10
-5.817773758536458
 20
-21.40065630374616
 10
-6.068998929608748
 20
-20.503094947145
  0
LINE
  5
10B
330
F7
100
AcDbEntity
  8
AM_9
100
AcDbLine
 10
-5.333905179049322
 20
-20.33170502447113
 30
0.0
 11
-6.068998929608748
 21
-20.503094947145
 31
0.0
  0
LINE
  5
10C
330
F7
100
AcDbEntity
  8
AM_9
100
AcDbLine
 10
-6.068998929608748
 20
-20.503094947145
 30
0.0
 11
-6.887292896806423
 21
-20.61610033531011
 31
0.0
  0
LWPOLYLINE
  5
10D
330
F7
100
AcDbEntity
  8
AM_9
100
AcDbPolyline
 90
        3
 70
     0
 43
0.0
 10
-7.147354260923541
 20
-20.64492744350231
 10
-7.39591091997546
 20
-20.66531207475421
 10
-7.58869625231989
 20
-20.67279169482685
  0
LWPOLYLINE
  5
10E
330
F7
100
AcDbEntity
  8
AM_9
100
AcDbPolyline
 90
        5
 70
     0
 43
0.0
 10
-6.068998929608748
 20
-27.646844947145
 10
-5.830160733401208
 20
-27.63615077826177
 10
-5.503852774457659
 20
-27.60578491330025
 10
-5.070861224918888
 20
-27.55179039060551
 10
-4.549376881905937
 20
-27.47716575011957
  0
LINE
  5
10F
330
F7
100
AcDbEntity
  8
AM_9
100
AcDbLine
 10
-3.837282897828232
 20
-27.31113831106881
 30
0.0
 11
-4.549376881905937
 21
-27.47716575011957
 31
0.0
  0
ELLIPSE
  5
110
330
F7
100
AcDbEntity
  8
AM_9
100
AcDbEllipse
 10
-11.90625000000001
 20
-25.41640353647999
 30
0.0
 11
-0.5968279661269504
 21
2.559803407425758
 31
0.0
210
0.0
220
0.0
230
1.0
 40
0.3659981507706683
 41
2.957156468664756
 42
6.467621492104613
  0
LINE
  5
111
330
F7
100
AcDbEntity
  8
AM_9
100
AcDbLine
 10
-11.4665
 20
-27.97899751638475
 30
0.0
 11
-9.587647916362409
 21
-28.4434288151668
 31
0.0
  0
LINE
  5
112
330
F7
100
AcDbEntity
  8
AM_9
100
AcDbLine
 10
-11.16548248281835
 20
-21.67607452079886
 30
0.0
 11
-11.4665
 21
-21.92985205053632
 31
0.0
  0
LWPOLYLINE
  5
113
330
F7
100
AcDbEntity
  8
AM_9
100
AcDbPolyline
 90
        3
 70
     0
 43
0.0
 10
-6.830431020205951
 20
-20.49599925250315
 10
-6.382400080731244
 20
-20.42866661256951
 10
-5.996343371387014
 20
-20.37656484729697
  0
LWPOLYLINE
  5
114
330
F7
100
AcDbEntity
  8
AM_9
100
AcDbPolyline
 90
       12
 70
     0
 43
0.0
 10
-9.602838505004438
 20
-21.79314988930262
 10
-9.6362824638633
 20
-21.76448110894576
 10
-9.798012484775912
 20
-21.64338494702403
 10
-9.958950638196564
 20
-21.55041936094289
 10
-10.11903140715933
 20
-21.48365156108395
 10
-10.27894419528078
 20
-21.44140116058774
 10
-10.43865943893543
 20
-21.42300917130178
 10
-10.61370723716308
 20
-21.4304057269212
 10
-10.77960299805793
 20
-21.46546275166992
 10
-10.93400668357038
 20
-21.52540020392845
 10
-11.07518967139875
 20
-21.60729889981125
 10
-11.17456580254856
 20
-21.6838119533619
  0
LINE
  5
115
330
F7
100
AcDbEntity
  8
AM_9
100
AcDbLine
 10
-8.262813275263651
 20
-27.70481027704951
 30
0.0
 11
-8.250147662412697
 21
-27.67618595072707
 31
0.0
  0
LWPOLYLINE
  5
116
330
F7
100
AcDbEntity
  8
AM_9
100
AcDbPolyline
 90
       11
 70
     0
 43
0.0
 10
-9.59776912370754
 20
-28.44087898654713
 10
-9.456817950677966
 20
-28.46779118139255
 10
-9.297461961612356
 20
-28.47593405211213
 10
-9.125803250718992
 20
-28.45757667868718
 10
-8.964161239860125
 20
-28.41262451319089
 10
-8.81472621629791
 20
-28.34392147398707
 10
-8.678689050065364
 20
-28.25416548584721
 10
-8.555673509244347
 20
-28.14479054439864
 10
-8.444807304290732
 20
-28.01573832219213
 10
-8.345158685039417
 20
-27.86526786585906
 10
-8.27032048793963
 20
-27.72120923373025
  0
ELLIPSE
  5
117
330
F7
100
AcDbEntity
  8
AM_9
100
AcDbEllipse
 10
-10.14553017344004
 20
-25.00588496698466
 30
0.0
 11
-0.8025283190312217
 21
3.442055068134597
 31
0.0
210
0.0
220
0.0
230
1.0
 40
0.3659981507706672
 41
0.1888955362259761
 42
0.5179275353666373
  0
ELLIPSE
  5
118
330
F7
100
AcDbEntity
  8
AM_9
100
AcDbEllipse
 10
-10.14553017343998
 20
-25.00588496698483
 30
0.0
 11
-0.8025283190312464
 21
3.442055068134838
 31
0.0
210
0.0
220
0.0
230
1.0
 40
0.3659981507706662
 41
1.489250501748874
 42
6.467621492104634
  0
LWPOLYLINE
  5
119
330
F7
100
AcDbEntity
  8
AM_9
100
AcDbPolyline
 90
        4
 70
     0
 43
0.0
 10
-0.0000000000000015
 20
-15.26077898385299
 10
1.382816900963397
 20
-16.03668148362152
 10
2.079498027705431
 20
-16.40788157881202
 10
2.778124999999997
 20
-16.76499999999999
  0
LWPOLYLINE
  5
11A
330
F7
100
AcDbEntity
  8
AM_9
100
AcDbPolyline
 90
        4
 70
     0
 43
0.0
 10
-2.778125000000002
 20
-16.76499999999999
 10
-2.083593750000003
 20
-16.41002021714921
 10
-1.389062500000002
 20
-16.04007281403005
 10
-0.0000000000000015
 20
-15.26077898385299
  0
LWPOLYLINE
  5
11B
330
F7
100
AcDbEntity
  8
AM_9
100
AcDbPolyline
 90
        7
 70
     0
 43
0.0
 10
-3.837282897828232
 20
-27.31113831106881
 10
-3.973124856539689
 20
-27.30971497347934
 10
-4.165448524257248
 20
-27.32086209670618
 10
-4.429920560679955
 20
-27.34781574339292
 10
-4.766969289547204
 20
-27.39142327771371
 10
-5.038389331589475
 20
-27.43051854591996
 10
-5.333905179049322
 20
-27.47545502447113
  0
LWPOLYLINE
  5
11C
330
F7
100
AcDbEntity
  8
AM_9
100
AcDbPolyline
 90
        4
 70
     0
 43
0.0
 10
-3.837282897828232
 20
-23.73926331106881
 10
-3.705296695971725
 20
-24.34716981401241
 10
-3.624930539193418
 20
-24.97852718757702
 10
-3.605746149316371
 20
-25.4713429823555
  0
LINE
  5
11D
330
F7
100
AcDbEntity
  8
AM_9
100
AcDbLine
 10
-4.505385945460209
 20
-21.65703703279178
 30
0.0
 11
-4.485106171058625
 21
-21.69782873077597
 31
0.0
  0
LINE
  5
11E
330
F7
100
AcDbEntity
  8
AM_9
100
AcDbLine
 10
-4.685381530099466
 20
-21.31990745497107
 30
0.0
 11
-4.670169322140428
 21
-21.3468818328832
 31
0.0
  0
LWPOLYLINE
  5
11F
330
F7
100
AcDbEntity
  8
AM_9
100
AcDbPolyline
 90
        3
 70
     0
 43
0.0
 10
-5.333905179049322
 20
-20.33170502447113
 10
-4.936675458173814
 20
-20.90501849892114
 10
-4.685381530099466
 20
-21.31990745497107
  0
LWPOLYLINE
  5
120
330
F7
100
AcDbEntity
  8
AM_9
100
AcDbPolyline
 90
        4
 70
     0
 43
0.0
 10
-5.73628200726986
 20
-20.34773773910476
 10
-5.560509266840903
 20
-20.33396339412863
 10
-5.432128708591389
 20
-20.32940516129987
 10
-5.333905179049322
 20
-20.33170502447113
  0
LINE
  5
121
330
F7
100
AcDbEntity
  8
AM_9
100
AcDbLine
 10
-4.477259168340676
 20
-21.7137418757499
 30
0.0
 11
-4.485689043732694
 21
-21.69664667849583
 31
0.0
  0
LINE
  5
122
330
F7
100
AcDbEntity
  8
AM_9
100
AcDbLine
 10
-3.605746148079323
 20
-25.4727681062321
 30
0.0
 11
-3.605746148079323
 21
-25.45167328227922
 31
0.0
  0
LWPOLYLINE
  5
123
330
F7
100
AcDbEntity
  8
AM_9
100
AcDbPolyline
 90
        4
 70
     0
 43
0.0
 10
-3.631729417407922
 20
-26.05650678164989
 10
-3.660719790057629
 20
-26.33052124034201
 10
-3.735821825959486
 20
-26.81929277268664
 10
-3.837282897828232
 20
-27.31113831106881
  0
LINE
  5
124
330
F7
100
AcDbEntity
  8
AM_9
100
AcDbLine
 10
-3.605746149316371
 20
-25.4713429823555
 30
0.0
 11
-3.606565871142023
 21
-25.57386831352332
 31
0.0
  0
LWPOLYLINE
  5
125
330
F7
100
AcDbEntity
  8
AM_9
100
AcDbPolyline
 90
        4
 70
     0
 43
0.0
 10
-4.252932128521136
 20
-22.22205231197664
 10
-4.060772684155616
 20
-22.77892471870115
 10
-3.934543968436729
 20
-23.25742216782156
 10
-3.837282897828232
 20
-23.73926331106881
  0
LINE
  5
126
330
F7
100
AcDbEntity
  8
AM_9
100
AcDbLine
 10
-4.485106171058625
 20
-21.69782873077597
 30
0.0
 11
-4.330873443224866
 21
-22.03248822417125
 31
0.0
  0
ELLIPSE
  5
127
330
F7
100
AcDbEntity
  8
AM_9
100
AcDbEllipse
 10
-5.115285751734383
 20
-23.83306421886846
 30
0.0
 11
-0.8110435929053212
 21
3.478577195640807
 31
0.0
210
0.0
220
0.0
230
1.0
 40
0.3659981507706662
 41
2.15041640465821
 42
6.13994693963689
  0
LWPOLYLINE
  5
128
330
F7
100
AcDbEntity
  8
AM_9
100
AcDbPolyline
 90
        3
 70
     0
 43
0.0
 10
-7.76086478799207
 20
-22.93345337203564
 10
-7.69811432306444
 20
-23.59564052161344
 10
-7.58869625231989
 20
-24.24466669482685
  0
LWPOLYLINE
  5
129
330
F7
100
AcDbEntity
  8
AM_9
100
AcDbPolyline
 90
        4
 70
     0
 43
0.0
 10
-6.609853898455276
 20
-21.79592592808983
 10
-6.646959991776583
 20
-21.42364633553604
 10
-6.724401268817782
 20
-20.95485116086409
 10
-6.830431020205951
 20
-20.49599925250315
  0
LINE
  5
12A
330
F7
100
AcDbEntity
  8
AM_9
100
AcDbLine
 10
-6.830431020205951
 20
-20.49599925250315
 30
0.0
 11
-7.58869625231989
 21
-20.67279169482685
 31
0.0
  0
LWPOLYLINE
  5
12B
330
F7
100
AcDbEntity
  8
AM_9
100
AcDbPolyline
 90
        3
 70
     0
 43
0.0
 10
-7.58869625231989
 20
-20.67279169482685
 10
-7.697739397127513
 20
-21.36987070916351
 10
-7.76086478799207
 20
-22.06428852429533
  0
LINE
  5
12C
330
F7
100
AcDbEntity
  8
AM_9
100
AcDbLine
 10
-6.887292896806423
 20
-20.61610033531011
 30
0.0
 11
-7.147354260923541
 21
-20.64492744350231
 31
0.0
  0
ELLIPSE
  5
12D
330
F7
100
AcDbEntity
  8
AM_9
100
AcDbEllipse
 10
-6.266296641270933
 20
-24.1014268150738
 30
0.0
 11
-0.811043592905322
 21
3.4785771956408
 31
0.0
210
0.0
220
0.0
230
1.0
 40
0.3659981507706667
 41
2.150416404658194
 42
6.139946939636901
  0
ELLIPSE
  5
12E
330
F7
100
AcDbEntity
  8
AM_9
100
AcDbEllipse
 10
-6.266296641271008
 20
-24.10142681507383
 30
0.0
 11
-0.8110435929052986
 21
3.478577195640685
 31
0.0
210
0.0
220
0.0
230
1.0
 40
0.3659981507706564
 41
1.246673396391119
 42
1.95115673485052
  0
LWPOLYLINE
  5
12F
330
F7
100
AcDbEntity
  8
AM_9
100
AcDbPolyline
 90
        3
 70
     0
 43
0.0
 10
-7.76086478799207
 20
-22.06428852429533
 10
-7.784509761460651
 20
-22.50209309386889
 10
-7.76086478799207
 20
-22.93345337203564
  0
ELLIPSE
  5
130
330
F7
100
AcDbEntity
  8
AM_9
100
AcDbEllipse
 10
-6.266296641270979
 20
-24.10142681507385
 30
0.0
 11
-0.8110435929052628
 21
3.478577195640884
 31
0.0
210
0.0
220
0.0
230
1.0
 40
0.3659981507706545
 41
0.0560213022650125
 42
0.8626327579757861
  0
LWPOLYLINE
  5
131
330
F7
100
AcDbEntity
  8
AM_9
100
AcDbPolyline
 90
       20
 70
     0
 43
0.0
 10
-8.255327492322513
 20
-27.68804227733763
 10
-8.255205127172253
 20
-27.68776693417487
 10
-8.24565766419526
 20
-27.66864625619629
 10
-8.22019777024548
 20
-27.62556435832682
 10
-8.175153507152965
 20
-27.56173382013538
 10
-8.106675631479572
 20
-27.48101716010317
 10
-8.011034380557518
 20
-27.38834745848743
 10
-7.885477573711247
 20
-27.29029737923202
 10
-7.729806310001718
 20
-27.19535602412418
 10
-7.548114108147928
 20
-27.1131237870322
 10
-7.349141096376059
 20
-27.0520759658676
 10
-7.144358246114049
 20
-27.01713206499451
 10
-6.945860100202338
 20
-27.00874649514649
 10
-6.764294457894477
 20
-27.02325996865957
 10
-6.607338708620906
 20
-27.05420470713417
 10
-6.479363556092845
 20
-27.09391329296582
 10
-6.381192817219724
 20
-27.13513946009122
 10
-6.311151072354906
 20
-27.17204068901642
 10
-6.266545488470912
 20
-27.20021799466946
 10
-6.244654812778388
 20
-27.21628248769643
  0
LWPOLYLINE
  5
132
330
F7
100
AcDbEntity
  8
AM_9
100
AcDbPolyline
 90
        4
 70
     0
 43
0.0
 10
-6.241414701572782
 20
-27.21892780726908
 10
-6.243105966804975
 20
-27.21742478154549
 10
-6.259815857994789
 20
-27.20123338856661
 10
-6.276667495130523
 20
-27.18355688567721
  0
LWPOLYLINE
  5
133
330
F7
100
AcDbEntity
  8
AM_9
100
AcDbPolyline
 90
        4
 70
     0
 43
0.0
 10
-7.638738983459714
 20
-21.34176829792514
 10
-7.629269076796038
 20
-21.31200764229973
 10
-7.622846311830499
 20
-21.29462813046475
 10
-7.62274442641425
 20
-21.29438549841288
  0
LWPOLYLINE
  5
134
330
F7
100
AcDbEntity
  8
AM_9
100
AcDbPolyline
 90
       19
 70
     0
 43
0.0
 10
-7.627394948313553
 20
-21.30417832106265
 10
-7.64646267044346
 20
-21.33860612511166
 10
-7.683729599257086
 20
-21.39507768288649
 10
-7.742978420203905
 20
-21.46997998730353
 10
-7.828046940802788
 20
-21.5588437792812
 10
-7.942200684556959
 20
-21.65577308322732
 10
-8.086814784494036
 20
-21.75297861487609
 10
-8.259558164158443
 20
-21.84108315387034
 10
-8.453319219757166
 20
-21.91087023985538
 10
-8.657325409102587
 20
-21.95587940860033
 10
-8.859675226551916
 20
-21.97398706904396
 10
-9.048619206047164
 20
-21.96739571304722
 10
-9.215485981296965
 20
-21.94172612517471
 10
-9.354575223355177
 20
-21.90439254041551
 10
-9.463796541518276
 20
-21.8629652619138
 10
-9.544068621780623
 20
-21.82386161969874
 10
-9.597856329525351
 20
-21.7919816278565
 10
-9.627942731144534
 20
-21.77103477903268
 10
-9.636242777380295
 20
-21.76451315688062
  0
LINE
  5
135
330
F7
100
AcDbEntity
  8
AM_9
100
AcDbLine
 10
-4.498867597488412
 20
-20.8204069871461
 30
0.0
 11
-5.749702073295882
 21
-21.11204383472276
 31
0.0
  0
LINE
  5
136
330
F7
100
AcDbEntity
  8
AM_9
100
AcDbLine
 10
-4.480869430172889
 20
-26.55408460301415
 30
0.0
 11
-3.412724916061097
 21
-26.30504261954086
 31
0.0
  0
LWPOLYLINE
  5
137
330
F7
100
AcDbEntity
  8
AM_9
100
AcDbPolyline
 90
       20
 70
     0
 43
0.0
 10
-3.412894494842746
 20
-26.3050821492517
 10
-3.284291520882656
 20
-26.23897056608314
 10
-3.167739146394208
 20
-26.09739677942888
 10
-3.070557447853724
 20
-25.87844987254282
 10
-3.001126812430813
 20
-25.60117718386941
 10
-2.957268343506165
 20
-25.25713980143761
 10
-2.942714645652547
 20
-24.87598889147063
 10
-2.956956816676946
 20
-24.44617048344425
 10
-2.998748603033094
 20
-24.00411945689947
 10
-3.069253891791883
 20
-23.53682779519101
 10
-3.162573084305298
 20
-23.08318536004807
 10
-3.281280336792629
 20
-22.63043103280826
 10
-3.415613668153261
 20
-22.21573983368014
 10
-3.569173128090977
 20
-21.82795336822162
 10
-3.729407788863488
 20
-21.49881015362551
 10
-3.900563582124102
 20
-21.21968684955892
 10
-4.068570560479344
 20
-21.01363114871167
 10
-4.237973131810883
 20
-20.87524012688494
 10
-4.397035613753721
 20
-20.81581586980424
 10
-4.498659790440589
 20
-20.82035854774171
  0
LINE
  5
138
330
F7
100
AcDbEntity
  8
AM_9
100
AcDbLine
 10
-4.498659790440589
 20
-20.82035854774171
 30
0.0
 11
-4.547549295795373
 21
-20.83672297245753
 31
0.0
  0
LWPOLYLINE
  5
139
330
F7
100
AcDbEntity
  8
AM_9
100
AcDbPolyline
 90
        3
 70
     0
 43
0.0
 10
-6.830431020205951
 20
-24.06787425250315
 10
-6.691143549353728
 20
-23.36623035747344
 10
-6.609853898455522
 20
-22.66509077583033
  0
LWPOLYLINE
  5
13A
330
F7
100
AcDbEntity
  8
AM_9
100
AcDbPolyline
 90
        5
 70
     0
 43
0.0
 10
-4.54754929579452
 20
-24.75827702754265
 10
-4.404185730898369
 20
-25.1523333905603
 10
-4.24365364181598
 20
-25.51169258101901
 10
-4.079360450144662
 20
-25.80628096276114
 10
-3.926243126173362
 20
-26.02100899365895
  0
ARC
  5
13B
330
F7
100
AcDbEntity
  8
AM_9
100
AcDbCircle
 10
0.0000000000000036
 20
-22.7975
 30
0.0
 40
5.079999999999997
100
AcDbArc
 50
219.3552520988683
 51
0.0000008537736463
  0
LWPOLYLINE
  5
13C
330
F7
100
AcDbEntity
  8
AM_9
100
AcDbPolyline
 90
        6
 70
     0
 43
0.0
 10
-3.926243126173362
 20
-26.02100899365895
 10
-3.906600444275935
 20
-26.04450398452263
 10
-3.73973362729044
 20
-26.2064851037963
 10
-3.574110867010545
 20
-26.29664742480978
 10
-3.423743718108896
 20
-26.30738010504424
 10
-3.412894494842746
 20
-26.3050821492517
  0
LINE
  5
13D
330
F7
100
AcDbEntity
  8
AM_9
100
AcDbLine
 10
-5.996343371387014
 20
-20.37656484729697
 30
0.0
 11
-5.73628200726986
 21
-20.34773773910476
 31
0.0
  0
ELLIPSE
  5
13E
330
F7
100
AcDbEntity
  8
AM_9
100
AcDbEllipse
 10
-5.115285751734362
 20
-23.83306421886851
 30
0.0
 11
-0.8110435929053613
 21
3.478577195640846
 31
0.0
210
0.0
220
0.0
230
1.0
 40
0.3659981507705697
 41
0.0560213022650142
 42
0.8626327579757292
  0
LINE
  5
13F
330
F7
100
AcDbEntity
  8
AM_9
100
AcDbLine
 10
-6.609853898455522
 20
-22.66509077583033
 30
0.0
 11
-6.609853898455276
 21
-21.79592592808983
 31
0.0
  0
ELLIPSE
  5
140
330
F7
100
AcDbEntity
  8
AM_9
100
AcDbEllipse
 10
-5.11528575230414
 20
-23.83306421939211
 30
0.0
 11
-0.8110435927616462
 21
3.478577194525563
 31
0.0
210
0.0
220
0.0
230
1.0
 40
0.3659981506946406
 41
1.144545278883383
 42
1.951156734849338
  0
LWPOLYLINE
  5
141
330
F7
100
AcDbEntity
  8
AM_9
100
AcDbPolyline
 90
        3
 70
     0
 43
0.0
 10
-5.333905179049322
 20
-27.47545502447113
 10
-5.495237602967161
 20
-26.73041542538193
 10
-5.736282007269851
 20
-25.98665993102582
  0
LINE
  5
142
330
F7
100
AcDbEntity
  8
AM_9
100
AcDbLine
 10
-5.736282007269851
 20
-25.98665993102582
 30
0.0
 11
-5.996343371387008
 21
-25.40012942772721
 31
0.0
  0
LINE
  5
143
330
F7
100
AcDbEntity
  8
AM_9
100
AcDbLine
 10
-6.706350323683842
 20
-24.23826585155183
 30
0.0
 11
-6.830431020205951
 21
-24.06787425250315
 31
0.0
  0
LWPOLYLINE
  5
144
330
F7
100
AcDbEntity
  8
AM_9
100
AcDbPolyline
 90
        4
 70
     0
 43
0.0
 10
-6.066661151630173
 20
-25.26324864018673
 10
-6.253713524124906
 20
-24.92910892482294
 10
-6.529083721607241
 20
-24.49383114052073
 10
-6.706350323683842
 20
-24.23826585155183
  0
LINE
  5
145
330
F7
100
AcDbEntity
  8
AM_9
100
AcDbLine
 10
-5.996343371387008
 20
-25.40012942772721
 30
0.0
 11
-6.066661151630173
 21
-25.26324864018673
 31
0.0
  0
LINE
  5
146
330
F7
100
AcDbEntity
  8
AM_9
100
AcDbLine
 10
-6.830431020205951
 20
-24.06787425250315
 30
0.0
 11
-7.58869625231989
 21
-24.24466669482685
 31
0.0
  0
LINE
  5
147
330
F7
100
AcDbEntity
  8
AM_9
100
AcDbLine
 10
-7.249190792634615
 20
-25.40123853715867
 30
0.0
 11
-7.14735426092354
 21
-25.66849202393259
 31
0.0
  0
LWPOLYLINE
  5
148
330
F7
100
AcDbEntity
  8
AM_9
100
AcDbPolyline
 90
        3
 70
     0
 43
0.0
 10
-7.58869625231989
 20
-24.24466669482685
 10
-7.397029361446426
 20
-24.95843506077802
 10
-7.249190792634615
 20
-25.40123853715867
  0
LINE
  5
149
330
F7
100
AcDbEntity
  8
AM_9
100
AcDbLine
 10
-7.14735426092354
 20
-25.66849202393259
 30
0.0
 11
-6.887292896806423
 21
-26.25502252723111
 31
0.0
  0
LWPOLYLINE
  5
14A
330
F7
100
AcDbEntity
  8
AM_9
100
AcDbPolyline
 90
        3
 70
     0
 43
0.0
 10
-6.887292896806423
 20
-26.25502252723111
 10
-6.50701144007841
 20
-26.9587295930775
 10
-6.068998929608748
 20
-27.646844947145
  0
LINE
  5
14B
330
F7
100
AcDbEntity
  8
AM_9
100
AcDbLine
 10
-5.333905179049322
 20
-27.47545502447113
 30
0.0
 11
-6.068998929608748
 21
-27.646844947145
 31
0.0
  0
LWPOLYLINE
  5
14C
330
F7
100
AcDbEntity
  8
AM_9
100
AcDbPolyline
 90
        4
 70
     0
 43
0.0
 10
2.778124999999998
 20
-15.495
 10
2.083593749999998
 20
-15.15544853285078
 10
1.389062499999998
 20
-14.83086468596994
 10
-0.0000000000000014
 20
-14.221096016147
  0
LWPOLYLINE
  5
14D
330
F7
100
AcDbEntity
  8
AM_9
100
AcDbPolyline
 90
        4
 70
     0
 43
0.0
 10
-0.0000000000000014
 20
-14.221096016147
 10
-1.382816900963401
 20
-14.82801041734187
 10
-2.079498027705435
 20
-15.1534914488934
 10
-2.778125000000002
 20
-15.495
  0
LWPOLYLINE
  5
14E
330
F7
100
AcDbEntity
  8
AM_9
100
AcDbPolyline
 90
        4
 70
     0
 43
0.0
 10
-5.556250000000002
 20
-18.03890398385299
 10
-4.173433099036602
 20
-17.43198958265812
 10
-3.476751972294569
 20
-17.10650855110659
 10
-2.778125000000002
 20
-16.76499999999999
  0
LWPOLYLINE
  5
14F
330
F7
100
AcDbEntity
  8
AM_9
100
AcDbPolyline
 90
        4
 70
     0
 43
0.0
 10
2.778124999999997
 20
-16.76499999999999
 10
3.472656249999997
 20
-17.1045514671492
 10
4.167187499999998
 20
-17.42913531403005
 10
5.556249999999999
 20
-18.03890398385299
  0
LINE
  5
150
330
F7
100
AcDbEntity
  8
AM_9
100
AcDbLine
 10
-0.0000000000000015
 20
-15.26077898385299
 30
0.0
 11
-0.0000000000000014
 21
-14.221096016147
 31
0.0
  0
LWPOLYLINE
  5
151
330
F7
100
AcDbEntity
  8
AM_9
100
AcDbPolyline
 90
        4
 70
     0
 43
0.0
 10
5.556249999999999
 20
-16.999221016147
 10
4.173433099036599
 20
-16.22331851637847
 10
3.476751972294565
 20
-15.85211842118797
 10
2.778124999999998
 20
-15.495
  0
LWPOLYLINE
  5
152
330
F7
100
AcDbEntity
  8
AM_9
100
AcDbPolyline
 90
        4
 70
     0
 43
0.0
 10
-2.778125000000002
 20
-15.495
 10
-3.472656250000002
 20
-15.84997978285078
 10
-4.167187500000002
 20
-16.21992718596994
 10
-5.556250000000002
 20
-16.999221016147
  0
ELLIPSE
  5
153
330
F7
100
AcDbEntity
  8
AM_9
100
AcDbEllipse
 10
-0.0000000000000009
 20
-22.7975
 30
0.0
 11
-5.080000000000004
 21
6.221205739668558E-16
 31
0.0
210
0.0
220
0.0
230
1.0
 40
0.8660254037844376
 41
0.461946020566967
 42
5.821239286612619
  0
LWPOLYLINE
  5
154
330
F7
100
AcDbEntity
  8
AM_9
100
AcDbPolyline
 90
        7
 70
     0
 43
0.0
 10
-4.54754929579453
 20
-24.75827702754265
 10
-4.680277139818005
 20
-24.35201089390837
 10
-4.804994146739736
 20
-23.94416923971288
 10
-4.917691338485696
 20
-23.51829675767451
 10
-5.008516140987742
 20
-23.07511714162145
 10
-5.065126856945112
 20
-22.63132388347286
 10
-5.079999999236803
 20
-22.28334199862463
  0
LINE
  5
155
330
F7
100
AcDbEntity
  8
AM_9
100
AcDbLine
 10
-5.080000000000001
 20
-20.93218749999999
 30
0.0
 11
-5.080000000000001
 21
-22.28561088939235
 31
0.0
  0
LINE
  5
156
330
F7
100
AcDbEntity
  8
AM_9
100
AcDbLine
 10
5.079999999999997
 20
-22.7975
 30
0.0
 11
5.079999999999997
 21
-20.9321875
 31
0.0
  0
LWPOLYLINE
  5
157
330
F7
100
AcDbEntity
  8
AM_9
100
AcDbPolyline
 90
        8
 70
     0
 43
0.0
 10
-5.079999999236803
 20
-22.28334199862463
 10
-5.079458245572024
 20
-22.21958631698212
 10
-5.050335633392995
 20
-21.83171697599753
 10
-4.982589552160019
 20
-21.50331484601791
 10
-4.878563523460394
 20
-21.22259458609681
 10
-4.752207997638139
 20
-21.01256082294767
 10
-4.610115106939384
 20
-20.87226857346144
 10
-4.547549295794529
 20
-20.83672297245733
  0
LINE
  5
158
330
F7
100
AcDbEntity
  8
AM_9
100
AcDbLine
 10
-5.556250000000003
 20
-23.59515398385299
 30
0.0
 11
-5.556250000000002
 21
-16.999221016147
 31
0.0
  0
LWPOLYLINE
  5
159
330
F7
100
AcDbEntity
  8
AM_9
100
AcDbPolyline
 90
        4
 70
     0
 43
0.0
 10
-2.778125000000002
 20
-25.09937499999999
 10
-3.472656250000003
 20
-24.74439521714921
 10
-4.167187500000002
 20
-24.37444781403006
 10
-5.556250000000003
 20
-23.59515398385299
  0
LINE
  5
15A
330
F7
100
AcDbEntity
  8
AM_9
100
AcDbLine
 10
-1.962081025744009
 20
-25.49676811894602
 30
0.0
 11
-2.778125000000002
 21
-25.09937499999999
 31
0.0
  0
LWPOLYLINE
  5
15B
330
F7
100
AcDbEntity
  8
AM_9
100
AcDbPolyline
 90
        3
 70
     0
 43
0.0
 10
-0.0000000000000026
 20
-26.37327898385299
 10
-1.382816900963401
 20
-25.76636458265812
 10
-1.962081025744009
 20
-25.49676811894602
  0
LWPOLYLINE
  5
15C
330
F7
100
AcDbEntity
  8
AM_9
100
AcDbPolyline
 90
        4
 70
     0
 43
0.0
 10
-5.556250000000003
 20
-22.555471016147
 10
-4.173433099036602
 20
-23.16238541734187
 10
-3.476751972294569
 20
-23.4878664488934
 10
-2.778125000000002
 20
-23.829375
  0
LINE
  5
15D
330
F7
100
AcDbEntity
  8
AM_9
100
AcDbLine
 10
-0.0000000000000026
 20
-26.37327898385299
 30
0.0
 11
-0.0000000000000028
 21
-25.333596016147
 31
0.0
  0
LWPOLYLINE
  5
15E
330
F7
100
AcDbEntity
  8
AM_9
100
AcDbPolyline
 90
        4
 70
     0
 43
0.0
 10
2.778124999999997
 20
-25.099375
 10
2.083593749999996
 20
-25.43892646714921
 10
1.389062499999997
 20
-25.76351031403005
 10
-0.0000000000000026
 20
-26.37327898385299
  0
LWPOLYLINE
  5
15F
330
F7
100
AcDbEntity
  8
AM_9
100
AcDbPolyline
 90
        4
 70
     0
 43
0.0
 10
5.556249999999999
 20
-23.59515398385299
 10
4.173433099036599
 20
-24.37105648362152
 10
3.476751972294564
 20
-24.74225657881203
 10
2.778124999999997
 20
-25.099375
  0
LINE
  5
160
330
F7
100
AcDbEntity
  8
AM_9
100
AcDbLine
 10
5.556249999999999
 20
-23.59515398385299
 30
0.0
 11
5.556249999999999
 21
-16.999221016147
 31
0.0
  0
LWPOLYLINE
  5
161
330
F7
100
AcDbEntity
  8
AM_9
100
AcDbPolyline
 90
        4
 70
     0
 43
0.0
 10
2.778124999999998
 20
-23.829375
 10
3.472656249999997
 20
-23.48982353285079
 10
4.167187499999998
 20
-23.16523968596994
 10
5.556249999999999
 20
-22.555471016147
  0
LWPOLYLINE
  5
162
330
F7
100
AcDbEntity
  8
AM_9
100
AcDbPolyline
 90
        4
 70
     0
 43
0.0
 10
-2.778125000000002
 20
-23.829375
 10
-2.083593750000002
 20
-24.18435478285079
 10
-1.389062500000002
 20
-24.55430218596994
 10
-0.0000000000000028
 20
-25.333596016147
  0
LWPOLYLINE
  5
163
330
F7
100
AcDbEntity
  8
AM_9
100
AcDbPolyline
 90
        4
 70
     0
 43
0.0
 10
-0.0000000000000028
 20
-25.333596016147
 10
1.382816900963397
 20
-24.55769351637847
 10
2.079498027705431
 20
-24.18649342118796
 10
2.778124999999998
 20
-23.829375
  0
LINE
  5
164
330
F7
100
AcDbEntity
  8
AM_9
100
AcDbLine
 10
-5.080000000000001
 20
-18.66999999999999
 30
0.0
 11
-5.080000000000001
 21
-19.6621875
 31
0.0
  0
LINE
  5
165
330
F7
100
AcDbEntity
  8
AM_9
100
AcDbLine
 10
5.079999999999997
 20
-19.6621875
 30
0.0
 11
5.079999999999997
 21
-18.66999999999999
 31
0.0
  0
LINE
  5
166
330
F7
100
AcDbEntity
  8
AM_9
100
AcDbLine
 10
-4.702588083318101
 20
-15.97267350379018
 30
0.0
 11
-4.857153757791753
 21
-18.44197524036601
 31
0.0
  0
LINE
  5
167
330
F7
100
AcDbEntity
  8
AM_9
100
AcDbLine
 10
4.85715375779175
 20
-18.44197524036601
 30
0.0
 11
4.702588083318098
 21
-15.97267350379018
 31
0.0
  0
ELLIPSE
  5
168
330
F7
100
AcDbEntity
  8
AM_9
100
AcDbEllipse
 10
-0.0000000000000017
 20
-15.891875
 30
0.0
 11
4.106358510281482
 21
0.0
 31
0.0
210
0.0
220
0.0
230
1.0
 40
0.8660254037844387
 41
0.0
 42
6.283185307179586
  0
ELLIPSE
  5
169
330
F7
100
AcDbEntity
  8
AM_9
100
AcDbEllipse
 10
-9.474104895899876
 20
-24.84933959258695
 30
0.0
 11
-0.7681852811307943
 21
3.294757303237134
 31
0.0
210
0.0
220
0.0
230
1.0
 40
0.3659981507706673
 41
0.0
 42
6.283185307179586
  0
ELLIPSE
  5
16A
330
F7
100
AcDbEntity
  8
AM_9
100
AcDbEllipse
 10
-5.115285751734385
 20
-23.83306421886846
 30
0.0
 11
-0.6344163215614999
 21
2.721020384145707
 31
0.0
210
0.0
220
0.0
230
1.0
 40
0.3659981507706665
 41
0.0
 42
6.283185307179586
  0
ELLIPSE
  5
16B
330
F7
100
AcDbEntity
  8
AM_9
100
AcDbEllipse
 10
-0.0000000000000098
 20
-20.93218750000001
 30
0.0
 11
-5.079999999999979
 21
6.221205739668529E-16
 31
0.0
210
0.0
220
0.0
230
1.0
 40
0.866025403784439
 41
0.0
 42
6.283185307179586
  0
ELLIPSE
  5
16C
330
F7
100
AcDbEntity
  8
AM_9
100
AcDbEllipse
 10
0.0000000000000031
 20
-20.93218749999999
 30
0.0
 11
-5.556250000000006
 21
6.804443777762488E-16
 31
0.0
210
0.0
220
0.0
230
1.0
 40
0.8660254037844372
 41
0.0
 42
6.283185307179586
  0
ELLIPSE
  5
16D
330
F7
100
AcDbEntity
  8
AM_9
100
AcDbEllipse
 10
-0.0000000000000022
 20
-19.66218750000002
 30
0.0
 11
-5.556249999999995
 21
6.804443777762475E-16
 31
0.0
210
0.0
220
0.0
230
1.0
 40
0.8660254037844354
 41
0.0
 42
6.283185307179586
  0
ELLIPSE
  5
16E
330
F7
100
AcDbEntity
  8
AM_9
100
AcDbEllipse
 10
-0.0000000000000027
 20
-19.66218749999999
 30
0.0
 11
-5.079999999999996
 21
7.569789948686661E-8
 31
0.0
210
0.0
220
0.0
230
1.0
 40
0.8660254037844395
 41
0.0
 42
6.283185307179586
  0
ELLIPSE
  5
16F
330
F7
100
AcDbEntity
  8
AM_9
100
AcDbEllipse
 10
-0.0000000000000058
 20
-18.66999999999999
 30
0.0
 11
-5.079999999999998
 21
6.221205739668552E-16
 31
0.0
210
0.0
220
0.0
230
1.0
 40
0.8660254037844386
 41
0.0
 42
6.283185307179586
  0
ELLIPSE
  5
170
330
F7
100
AcDbEntity
  8
AM_9
100
AcDbEllipse
 10
0.000000000000008
 20
-18.66999999999999
 30
0.0
 11
-4.864285115153668
 21
5.957031196413054E-16
 31
0.0
210
0.0
220
0.0
230
1.0
 40
0.8660254037844378
 41
0.0
 42
6.283185307179586
  0
ELLIPSE
  5
171
330
F7
100
AcDbEntity
  8
AM_9
100
AcDbEllipse
 10
-0.0000000000000018
 20
-16.19344199719767
 30
0.0
 11
-4.709492504676835
 21
5.767464921460937E-16
 31
0.0
210
0.0
220
0.0
230
1.0
 40
0.8660254037844394
 41
0.0
 42
6.283185307179586
  0
LINE
  5
172
330
F7
100
AcDbEntity
  8
AM_4
100
AcDbLine
 10
-11.49136154692728
 20
-27.97285201901978
 30
0.0
 11
-11.4665
 21
-27.97899751638475
 31
0.0
  0
LINE
  5
173
330
F7
100
AcDbEntity
  8
AM_4
100
AcDbLine
 10
-11.4665
 20
-21.92985205053632
 30
0.0
 11
-12.66477284326564
 21
-22.94007472781638
 31
0.0
  0
ELLIPSE
  5
174
330
F7
100
AcDbEntity
  8
AM_4
100
AcDbEllipse
 10
-11.90625
 20
-25.41640353647998
 30
0.0
 11
-0.5968279661269505
 21
2.559803407425779
 31
0.0
210
0.0
220
0.0
230
1.0
 40
0.3659981507706681
 41
0.1844361849250378
 42
2.957156468664755
  0
ELLIPSE
  5
175
330
F7
100
AcDbEntity
  8
AM_4
100
AcDbEllipse
 10
-10.14553017343997
 20
-25.00588496698487
 30
0.0
 11
-0.8025283190312539
 21
3.442055068134853
 31
0.0
210
0.0
220
0.0
230
1.0
 40
0.3659981507706663
 41
0.5179275353666366
 42
1.489250501748863
  0
ENDBLK
  5
FA
330
F7
100
AcDbEntity
  8
0
100
AcDbBlockEnd
  0
BLOCK
  5
178
330
176
100
AcDbEntity
  8
0
100
AcDbBlockBegin
  2
4_076275h_0_in_076275_2
 70
     2
 10
0.0
 20
0.0
 30
0.0
  3
4_076275h_0_in_076275_2
  1

  0
ATTDEF
  5
17A
330
176
100
AcDbEntity
  8
AM_6
100
AcDbText
 10
22.55
 20
46.10000000000001
 30
0.0
 40
0.5
  1
WSTU-SCED - Metric - Housing
100
AcDbAttributeDefinition
  3

  2
NN
 70
     8
280
     0
  0
ATTDEF
  5
17B
330
176
100
AcDbEntity
  8
AM_6
100
AcDbText
 10
22.55
 20
45.60000000000001
 30
0.0
 40
0.5
  1
SCED Take-Up Bearings -Wide Slot -(Normal Duty)
100
AcDbAttributeDefinition
  3

  2
NT
 70
     8
280
     0
  0
ATTDEF
  5
17C
330
176
100
AcDbEntity
  8
AM_6
100
AcDbText
 10
22.55
 20
45.10000000000001
 30
0.0
 40
0.5
  1
076275h
100
AcDbAttributeDefinition
  3

  2
NB
 70
     8
280
     0
  0
ATTDEF
  5
17D
330
176
100
AcDbEntity
  8
AM_6
100
AcDbText
 10
22.55
 20
44.60000000000001
 30
0.0
 40
0.5
  1
$PN.h
100
AcDbAttributeDefinition
  3

  2
NBSYN
 70
     8
280
     0
  0
ATTDEF
  5
17E
330
176
100
AcDbEntity
  8
AM_6
100
AcDbText
 10
22.55
 20
44.10000000000001
 30
0.0
 40
0.5
  1
076275
100
AcDbAttributeDefinition
  3

  2
LINA
 70
     8
280
     0
  0
ATTDEF
  5
17F
330
176
100
AcDbEntity
  8
AM_6
100
AcDbText
 10
22.55
 20
43.60000000000001
 30
0.0
 40
0.5
  1
205
100
AcDbAttributeDefinition
  3

  2
SERIES
 70
     8
280
     0
  0
ATTDEF
  5
180
330
176
100
AcDbEntity
  8
AM_6
100
AcDbText
 10
22.55
 20
43.10000000000001
 30
0.0
 40
0.5
  1
25
100
AcDbAttributeDefinition
  3

  2
SS
 70
     8
280
     0
  0
ATTDEF
  5
181
330
176
100
AcDbEntity
  8
AM_6
100
AcDbText
 10
22.55
 20
42.60000000000001
 30
0.0
 40
0.5
  1
076275
100
AcDbAttributeDefinition
  3

  2
PN
 70
     8
280
     0
  0
ATTDEF
  5
182
330
176
100
AcDbEntity
  8
AM_6
100
AcDbText
 10
22.55
 20
42.10000000000001
 30
0.0
 40
0.5
  1
WSTU-SCED-25M
100
AcDbAttributeDefinition
  3

  2
DESCRIPTION
 70
     8
280
     0
  0
ATTDEF
  5
183
330
176
100
AcDbEntity
  8
AM_6
100
AcDbText
 10
22.55
 20
41.60000000000001
 30
0.0
 40
0.5
  1
1.0
100
AcDbAttributeDefinition
  3

  2
W
 70
     8
280
     0
  0
ATTDEF
  5
184
330
176
100
AcDbEntity
  8
AM_6
100
AcDbText
 10
22.55
 20
41.10000000000001
 30
0.0
 40
0.5
  1
WS300
100
AcDbAttributeDefinition
  3

  2
FS
 70
     8
280
     0
  0
ATTDEF
  5
185
330
176
100
AcDbEntity
  8
AM_6
100
AcDbText
 10
22.55
 20
40.60000000000001
 30
0.0
 40
0.5
  1
34.0
100
AcDbAttributeDefinition
  3

  2
A
 70
     8
280
     0
  0
ATTDEF
  5
186
330
176
100
AcDbEntity
  8
AM_6
100
AcDbText
 10
22.55
 20
40.10000000000001
 30
0.0
 40
0.5
  1
96.8
100
AcDbAttributeDefinition
  3

  2
B
 70
     8
280
     0
  0
ATTDEF
  5
187
330
176
100
AcDbEntity
  8
AM_6
100
AcDbText
 10
22.55
 20
39.60000000000001
 30
0.0
 40
0.5
  1
13.49
100
AcDbAttributeDefinition
  3

  2
C
 70
     8
280
     0
  0
ATTDEF
  5
188
330
176
100
AcDbEntity
  8
AM_6
100
AcDbText
 10
22.55
 20
39.10000000000001
 30
0.0
 40
0.5
  1
50.8
100
AcDbAttributeDefinition
  3

  2
D
 70
     8
280
     0
  0
ATTDEF
  5
189
330
176
100
AcDbEntity
  8
AM_6
100
AcDbText
 10
22.55
 20
38.60000000000001
 30
0.0
 40
0.5
  1
62.0
100
AcDbAttributeDefinition
  3

  2
E
 70
     8
280
     0
  0
ATTDEF
  5
18A
330
176
100
AcDbEntity
  8
AM_6
100
AcDbText
 10
22.55
 20
38.10000000000001
 30
0.0
 40
0.5
  1
15.9
100
AcDbAttributeDefinition
  3

  2
F
 70
     8
280
     0
  0
ATTDEF
  5
18B
330
176
100
AcDbEntity
  8
AM_6
100
AcDbText
 10
22.55
 20
37.60000000000001
 30
0.0
 40
0.5
  1
9.7
100
AcDbAttributeDefinition
  3

  2
G
 70
     8
280
     0
  0
ATTDEF
  5
18C
330
176
100
AcDbEntity
  8
AM_6
100
AcDbText
 10
22.55
 20
37.10000000000001
 30
0.0
 40
0.5
  1
16.0
100
AcDbAttributeDefinition
  3

  2
H
 70
     8
280
     0
  0
ATTDEF
  5
18D
330
176
100
AcDbEntity
  8
AM_6
100
AcDbText
 10
22.55
 20
36.60000000000001
 30
0.0
 40
0.5
  1
50.8
100
AcDbAttributeDefinition
  3

  2
J
 70
     8
280
     0
  0
ATTDEF
  5
18E
330
176
100
AcDbEntity
  8
AM_6
100
AcDbText
 10
22.55
 20
36.10000000000001
 30
0.0
 40
0.5
  1
33.3
100
AcDbAttributeDefinition
  3

  2
K
 70
     8
280
     0
  0
ATTDEF
  5
18F
330
176
100
AcDbEntity
  8
AM_6
100
AcDbText
 10
22.55
 20
35.60000000000001
 30
0.0
 40
0.5
  1
33.5
100
AcDbAttributeDefinition
  3

  2
L
 70
     8
280
     0
  0
ATTDEF
  5
190
330
176
100
AcDbEntity
  8
AM_6
100
AcDbText
 10
22.55
 20
35.10000000000001
 30
0.0
 40
0.5
  1
75.82 / 76.58
100
AcDbAttributeDefinition
  3

  2
M
 70
     8
280
     0
  0
ATTDEF
  5
191
330
176
100
AcDbEntity
  8
AM_6
100
AcDbText
 10
22.55
 20
34.60000000000001
 30
0.0
 40
0.5
  1
92.2
100
AcDbAttributeDefinition
  3

  2
N
 70
     8
280
     0
  0
ATTDEF
  5
192
330
176
100
AcDbEntity
  8
AM_6
100
AcDbText
 10
22.55
 20
34.10000000000001
 30
0.0
 40
0.5
  1
14.2
100
AcDbAttributeDefinition
  3

  2
R
 70
     8
280
     0
  0
ATTDEF
  5
193
330
176
100
AcDbEntity
  8
AM_6
100
AcDbText
 10
22.55
 20
33.60000000000001
 30
0.0
 40
0.5
  1
19.8
100
AcDbAttributeDefinition
  3

  2
S
 70
     8
280
     0
  0
ATTDEF
  5
194
330
176
100
AcDbEntity
  8
AM_6
100
AcDbText
 10
22.55
 20
33.10000000000001
 30
0.0
 40
0.5
  1
35.1
100
AcDbAttributeDefinition
  3

  2
T
 70
     8
280
     0
  0
ATTDEF
  5
195
330
176
100
AcDbEntity
  8
AM_6
100
AcDbText
 10
22.55
 20
32.60000000000001
 30
0.0
 40
0.5
  1
1565
100
AcDbAttributeDefinition
  3

  2
CAPS
 70
     8
280
     0
  0
ATTDEF
  5
196
330
176
100
AcDbEntity
  8
AM_6
100
AcDbText
 10
22.55
 20
32.10000000000001
 30
0.0
 40
0.5
  1
3146
100
AcDbAttributeDefinition
  3

  2
CAPD
 70
     8
280
     0
  0
ATTDEF
  5
197
330
176
100
AcDbEntity
  8
AM_6
100
AcDbText
 10
22.55
 20
31.60000000000001
 30
0.0
 40
0.5
  1
baldor
100
AcDbAttributeDefinition
  3

  2
COMPANY
 70
     8
280
     0
  0
LWPOLYLINE
  5
198
330
176
100
AcDbEntity
  8
AM_9
100
AcDbPolyline
 90
       39
 70
     0
 43
0.0
 10
-10.668
 20
-17.4
 10
-10.62837715830272
 20
-16.59840746537387
 10
-10.508612281197
 20
-15.78467623113959
 10
-10.32946882674356
 20
-15.04011347183598
 10
-10.08562405858886
 20
-14.30217256203874
 10
-9.769371350982452
 20
-13.55632038281657
 10
-9.389269281698597
 20
-12.82888890488246
 10
-8.9499006080123
 20
-12.12839990500862
 10
-8.453004472419849
 20
-11.45701414852632
 10
-7.886061280512393
 20
-10.80331432518483
 10
-7.265508399047833
 20
-10.19107622063006
 10
-6.587964158535844
 20
-9.620096718837548
 10
-5.86387446428899
 20
-9.101876298628579
 10
-5.074629311955358
 20
-8.629023800115723
 10
-4.24617990211588
 20
-8.222398862214366
 10
-3.412819252015418
 20
-7.896777507769504
 10
-2.553872204001976
 20
-7.641296619482078
 10
-1.647221123420676
 20
-7.454868036271169
 10
-0.7270532606677752
 20
-7.348970719047762
 10
0.1322110493735505
 20
-7.324421567167714
 10
0.9905321072248315
 20
-7.370815120291385
 10
1.867129717473497
 20
-7.492480084793767
 10
2.729766601422549
 20
-7.687225505077463
 10
3.537176942208772
 20
-7.940353338245554
 10
4.320983046164134
 20
-8.25559812972002
 10
5.096308643561382
 20
-8.640831427167212
 10
5.836979954019411
 20
-9.084262353925961
 10
6.54528766037483
 20
-9.587074053665395
 10
7.209568030765681
 20
-10.14036717815973
 10
7.841846493023339
 20
-10.75643843031752
 10
8.419493420725091
 20
-11.41538289011242
 10
8.939998889948662
 20
-12.11392890650307
 10
9.398054740753357
 20
-12.84422266246868
 10
9.800820371720448
 20
-13.62353373427215
 10
10.13028353130922
 20
-14.42332187271019
 10
10.36120444206708
 20
-15.15407412971554
 10
10.52866972586716
 20
-15.89048180895429
 10
10.63302276250273
 20
-16.64783724604345
 10
10.668
 20
-17.4
  0
LINE
  5
199
330
176
100
AcDbEntity
  8
AM_9
100
AcDbLine
 10
-10.7645
 20
-23.78823238494192
 30
0.0
 11
-11.4665
 21
-22.74892533725492
 31
0.0
  0
LINE
  5
19A
330
176
100
AcDbEntity
  8
AM_9
100
AcDbLine
 10
-11.4665
 20
22.74892533725492
 30
0.0
 11
-10.7645
 21
23.78823238494192
 31
0.0
  0
LINE
  5
19B
330
176
100
AcDbEntity
  8
AM_9
100
AcDbLine
 10
-10.7645
 20
-23.78823238494192
 30
0.0
 11
-10.7645
 21
23.78823238494192
 31
0.0
  0
LINE
  5
19C
330
176
100
AcDbEntity
  8
AM_9
100
AcDbLine
 10
10.7645
 20
-23.78823238494192
 30
0.0
 11
10.7645
 21
23.78823238494192
 31
0.0
  0
LINE
  5
19D
330
176
100
AcDbEntity
  8
AM_9
100
AcDbLine
 10
-7.167778479750876
 20
-23.78823238494192
 30
0.0
 11
-10.7645
 21
-23.78823238494192
 31
0.0
  0
LINE
  5
19E
330
176
100
AcDbEntity
  8
AM_9
100
AcDbLine
 10
10.7645
 20
-23.78823238494192
 30
0.0
 11
7.167778479750872
 21
-23.78823238494192
 31
0.0
  0
LINE
  5
19F
330
176
100
AcDbEntity
  8
AM_9
100
AcDbLine
 10
-10.7645
 20
23.78823238494192
 30
0.0
 11
10.7645
 21
23.78823238494192
 31
0.0
  0
LWPOLYLINE
  5
1A0
330
176
100
AcDbEntity
  8
AM_9
100
AcDbPolyline
 90
       13
 70
     0
 43
0.0
 10
-4.901389936041411
 20
-25.60590948775051
 10
-4.249489175257998
 20
-25.95588393809353
 10
-3.568222207475987
 20
-26.24846513123161
 10
-2.866451437537622
 20
-26.48417668214952
 10
-1.926124179714915
 20
-26.70931504269566
 10
-0.9662084491746189
 20
-26.84357863851477
 10
-0.0000000000000016
 20
-26.88808486120945
 10
0.8648371023205207
 20
-26.85238258436447
 10
1.726867880835864
 20
-26.7446774400263
 10
2.576208399663391
 20
-26.56407195749007
 10
3.402974722920466
 20
-26.30966866605092
 10
4.16928795078433
 20
-25.99397654058188
 10
4.901389936041411
 20
-25.60590948775051
  0
ELLIPSE
  5
1A1
330
176
100
AcDbEntity
  8
AM_9
100
AcDbEllipse
 10
-0.000000000000002
 20
-18.67
 30
0.0
 11
-8.128000000000004
 21
9.953929183469690E-16
 31
0.0
210
0.0
220
0.0
230
1.0
 40
0.8660254037844387
 41
0.0
 42
6.283185307179586
  0
LINE
  5
1A2
330
176
100
AcDbEntity
  8
AM_9
100
AcDbLine
 10
10.6665164883363
 20
-17.5600668642505
 30
0.0
 11
10.66799667426075
 21
-17.3924209394332
 31
0.0
  0
LWPOLYLINE
  5
1A3
330
176
100
AcDbEntity
  8
AM_9
100
AcDbPolyline
 90
       20
 70
     0
 43
0.0
 10
6.067940850323073
 20
-25.28344159055513
 10
6.322931022601884
 20
-25.12039859140321
 10
6.751901500482687
 20
-24.82206553396701
 10
7.163374224468863
 20
-24.50447351589762
 10
7.556244442143712
 20
-24.16846925006559
 10
7.929461097142307
 20
-23.81495825106063
 10
8.282032427347929
 20
-23.44490130533738
 10
8.613031135619508
 20
-23.05931008271029
 10
8.921598908509813
 20
-22.65924197945273
 10
9.206950083964967
 20
-22.24579434338873
 10
9.468374315732337
 20
-21.82009828084369
 10
9.70523814565157
 20
-21.38331227758706
 10
9.916985467927315
 20
-20.9366158768927
 10
10.10313694326891
 20
-20.48120364676286
 10
10.26328848706346
 20
-20.01827963772706
 10
10.39710900792486
 20
-19.54905248753701
 10
10.50433760717368
 20
-19.07473127597115
 10
10.58478046518473
 20
-18.59652217822812
 10
10.63830763876451
 20
-18.11562591422502
 10
10.66069785726006
 20
-17.75507562340945
  0
LINE
  5
1A4
330
176
100
AcDbEntity
  8
AM_9
100
AcDbLine
 10
5.875302800088357
 20
-25.40005504351615
 30
0.0
 11
6.067940850323073
 21
-25.28344159055513
 31
0.0
  0
LWPOLYLINE
  5
1A5
330
176
100
AcDbEntity
  8
AM_9
100
AcDbPolyline
 90
       24
 70
     0
 43
0.0
 10
-5.875353238966052
 20
-25.40002522383081
 10
-5.418596954653799
 20
-25.65544559399285
 10
-4.946748469776058
 20
-25.89044216786406
 10
-4.462089659684164
 20
-26.10376709832077
 10
-3.965872828513193
 20
-26.29486076191445
 10
-3.459378941897217
 20
-26.46322412874799
 10
-2.943913107452722
 20
-26.60841918002146
 10
-2.420800385808262
 20
-26.73006893422481
 10
-1.891381969041592
 20
-26.82785719098176
 10
-1.357011732872892
 20
-26.90152809875392
 10
-0.8190531441071802
 20
-26.95088564383421
 10
-0.2788764858275985
 20
-26.97579314557194
 10
0.262143650899795
 20
-26.97617282844816
 10
0.8026306695761964
 20
-26.95200552674915
 10
1.341197469146729
 20
-26.90333177178665
 10
1.876469471190255
 20
-26.83025100322808
 10
2.407076369909837
 20
-26.73292166794745
 10
2.93165422181867
 20
-26.61156180248468
 10
3.448847899629172
 20
-26.46644978403661
 10
3.957313816899059
 20
-26.29792520961129
 10
4.455722994468074
 20
-26.10638983969429
 10
4.942764530305411
 20
-25.89230852213144
 10
5.417149518677721
 20
-25.65620999150462
 10
5.875302800088357
 20
-25.40005504351615
  0
LINE
  5
1A6
330
176
100
AcDbEntity
  8
AM_9
100
AcDbLine
 10
-6.068085963026424
 20
-25.28335166113607
 30
0.0
 11
-5.875353238966052
 21
-25.40002522383081
 31
0.0
  0
LWPOLYLINE
  5
1A7
330
176
100
AcDbEntity
  8
AM_9
100
AcDbPolyline
 90
       21
 70
     0
 43
0.0
 10
-10.66762624800203
 20
-17.4803450649986
 10
-10.66297058335959
 20
-17.6946985802505
 10
-10.63304309142752
 20
-18.17638228212354
 10
-10.57628328892339
 20
-18.65586810469818
 10
-10.49285614454094
 20
-19.13200191105249
 10
-10.38297814524689
 20
-19.60364027190673
 10
-10.24691723516397
 20
-20.06965003540516
 10
-10.08499343289547
 20
-20.52890805868596
 10
-9.89758004417106
 20
-20.98030125349279
 10
-9.685105341429615
 20
-21.42272709558696
 10
-9.448054541436663
 20
-21.8550947216781
 10
-9.186971879736054
 20
-22.27632670049891
 10
-8.902462560962423
 20
-22.68536151752592
 10
-8.595194360668675
 20
-23.08115675854553
 10
-8.26589866986773
 20
-23.46269292040939
 10
-7.915370808256713
 20
-23.82897772383627
 10
-7.544469483687206
 20
-24.17905075930612
 10
-7.154115338818264
 20
-24.51198826850686
 10
-6.745288593969178
 20
-24.82690785414139
 10
-6.319025860077989
 20
-25.12297292121604
 10
-6.068085963026424
 20
-25.28335166113607
  0
LINE
  5
1A8
330
176
100
AcDbEntity
  8
AM_9
100
AcDbLine
 10
-10.6679973978325
 20
-17.40670407572812
 30
0.0
 11
-10.66762624800203
 21
-17.4803450649986
 31
0.0
  0
LINE
  5
1A9
330
176
100
AcDbEntity
  8
AM_9
100
AcDbLine
 10
10.7645
 20
23.78823238494192
 30
0.0
 11
11.4665
 21
22.74892533725493
 31
0.0
  0
LINE
  5
1AA
330
176
100
AcDbEntity
  8
AM_9
100
AcDbLine
 10
11.4665
 20
-22.74892533725494
 30
0.0
 11
10.7645
 21
-23.78823238494192
 31
0.0
  0
LWPOLYLINE
  5
1AB
330
176
100
AcDbEntity
  8
AM_9
100
AcDbPolyline
 90
       12
 70
     0
 43
0.0
 10
10.668
 20
-17.4
 10
10.66610697969535
 20
-17.57374843734767
 10
10.61576851580431
 20
-18.30454711759549
 10
10.49759755246863
 20
-19.01875979244011
 10
10.3059823490866
 20
-19.73149486869811
 10
10.04527960177862
 20
-20.41738492952147
 10
9.727022153582409
 20
-21.05533283471592
 10
9.3477363349768
 20
-21.66102446482916
 10
8.897329978534984
 20
-22.24656393356751
 10
8.38851271136756
 20
-22.79291668848072
 10
7.807689329048338
 20
-23.31172943899555
 10
7.167778479750874
 20
-23.78823238494192
  0
LWPOLYLINE
  5
1AC
330
176
100
AcDbEntity
  8
AM_9
100
AcDbPolyline
 90
        4
 70
     0
 43
0.0
 10
7.167778479750871
 20
-23.78823238494192
 10
6.451866782500406
 20
-24.47487108125591
 10
5.686852483291435
 20
-25.08684842802911
 10
4.901389936041404
 20
-25.60590948775051
  0
ELLIPSE
  5
1AD
330
176
100
AcDbEntity
  8
AM_9
100
AcDbEllipse
 10
-0.0000000000170735
 20
-17.4000000000288
 30
0.0
 11
10.6679999999638
 21
0.0
 31
0.0
210
0.0
220
0.0
230
1.0
 40
0.8660254037843435
 41
4.206244435028138
 42
4.23501550036266
  0
ELLIPSE
  5
1AE
330
176
100
AcDbEntity
  8
AM_9
100
AcDbEllipse
 10
-0.0000000000050164
 20
-17.39999999998657
 30
0.0
 11
10.6679999999903
 21
0.0
 31
0.0
210
0.0
220
0.0
230
1.0
 40
0.8660254037861203
 41
4.188573766063543
 42
4.206244435028497
  0
ELLIPSE
  5
1AF
330
176
100
AcDbEntity
  8
AM_9
100
AcDbEllipse
 10
0.0000000000016129
 20
-17.39999999999818
 30
0.0
 11
10.66800000000298
 21
0.0
 31
0.0
210
0.0
220
0.0
230
1.0
 40
0.8660254037844082
 41
5.189762460406511
 42
10.47175907324282
  0
LWPOLYLINE
  5
1B0
330
176
100
AcDbEntity
  8
AM_9
100
AcDbPolyline
 90
        4
 70
     0
 43
0.0
 10
-4.901389936041409
 20
-25.60590948775051
 10
-5.708571412423719
 20
-25.07100495184136
 10
-6.472307213427823
 20
-24.45690212768079
 10
-7.167778479750872
 20
-23.78823238494193
  0
LWPOLYLINE
  5
1B1
330
176
100
AcDbEntity
  8
AM_9
100
AcDbPolyline
 90
       11
 70
     0
 43
0.0
 10
-7.167778479750876
 20
-23.78823238494192
 10
-7.79537516215747
 20
-23.32175236187796
 10
-8.373679077096092
 20
-22.80740985684319
 10
-8.90493956688675
 20
-22.2376616278386
 10
-9.375638469724567
 20
-21.62059363364516
 10
-9.765380887624517
 20
-20.98622458686535
 10
-10.09050458631483
 20
-20.31215781813553
 10
-10.35027444043783
 20
-19.58993426835265
 10
-10.53516820408219
 20
-18.83314461929707
 10
-10.6344943464032
 20
-18.126524280794
 10
-10.668
 20
-17.4
  0
LINE
  5
1B2
330
176
100
AcDbEntity
  8
AM_9
100
AcDbLine
 10
-6.070500000000002
 20
-25.94451882275801
 30
0.0
 11
11.4665
 21
-25.94451882275801
 31
0.0
  0
LINE
  5
1B3
330
176
100
AcDbEntity
  8
AM_9
100
AcDbLine
 10
-6.070500000000003
 20
-27.25
 30
0.0
 11
11.46649999999999
 21
-27.25
 31
0.0
  0
LINE
  5
1B4
330
176
100
AcDbEntity
  8
AM_9
100
AcDbLine
 10
-6.070500000000003
 20
-27.25
 30
0.0
 11
-6.070500000000002
 21
-24.6283486442848
 31
0.0
  0
LINE
  5
1B5
330
176
100
AcDbEntity
  8
AM_9
100
AcDbLine
 10
-6.070500000000002
 20
25.94451882275801
 30
0.0
 11
11.4665
 21
25.94451882275801
 31
0.0
  0
LINE
  5
1B6
330
176
100
AcDbEntity
  8
AM_9
100
AcDbLine
 10
-6.070500000000002
 20
24.6283486442848
 30
0.0
 11
-6.070500000000003
 21
27.25
 31
0.0
  0
LINE
  5
1B7
330
176
100
AcDbEntity
  8
AM_9
100
AcDbLine
 10
11.4665
 20
27.25
 30
0.0
 11
-6.070500000000003
 21
27.25
 31
0.0
  0
LINE
  5
1B8
330
176
100
AcDbEntity
  8
AM_9
100
AcDbLine
 10
-6.070500000000002
 20
24.6283486442848
 30
0.0
 11
11.4665
 21
24.6283486442848
 31
0.0
  0
LINE
  5
1B9
330
176
100
AcDbEntity
  8
AM_9
100
AcDbLine
 10
11.4665
 20
-24.6283486442848
 30
0.0
 11
-6.070500000000002
 21
-24.6283486442848
 31
0.0
  0
LINE
  5
1BA
330
176
100
AcDbEntity
  8
AM_9
100
AcDbLine
 10
-11.46650000000001
 20
-26.0
 30
0.0
 11
-6.070500000000003
 21
-26.0
 31
0.0
  0
LINE
  5
1BB
330
176
100
AcDbEntity
  8
AM_9
100
AcDbLine
 10
-6.070500000000003
 20
26.0
 30
0.0
 11
-11.4665
 21
26.0
 31
0.0
  0
LINE
  5
1BC
330
176
100
AcDbEntity
  8
AM_9
100
AcDbLine
 10
11.4665
 20
-13.28615361005585
 30
0.0
 11
11.4665
 21
13.28615361005585
 31
0.0
  0
LINE
  5
1BD
330
176
100
AcDbEntity
  8
AM_9
100
AcDbLine
 10
-11.4665
 20
13.28615361005584
 30
0.0
 11
-11.4665
 21
-13.28615361005584
 31
0.0
  0
LINE
  5
1BE
330
176
100
AcDbEntity
  8
AM_9
100
AcDbLine
 10
-11.4665
 20
-15.301
 30
0.0
 11
11.4665
 21
-15.301
 31
0.0
  0
LINE
  5
1BF
330
176
100
AcDbEntity
  8
AM_9
100
AcDbLine
 10
-11.4665
 20
-16.65
 30
0.0
 11
11.4665
 21
-16.65
 31
0.0
  0
LINE
  5
1C0
330
176
100
AcDbEntity
  8
AM_9
100
AcDbLine
 10
-11.4665
 20
15.30099999999999
 30
0.0
 11
11.4665
 21
15.30099999999999
 31
0.0
  0
LINE
  5
1C1
330
176
100
AcDbEntity
  8
AM_9
100
AcDbLine
 10
-11.4665
 20
16.65
 30
0.0
 11
11.4665
 21
16.65
 31
0.0
  0
LINE
  5
1C2
330
176
100
AcDbEntity
  8
AM_7
100
AcDbLine
 10
0.0000000000000038
 20
-8.3475
 30
0.0
 11
0.0000000000000038
 21
8.3475
 31
0.0
  0
LINE
  5
1C3
330
176
100
AcDbEntity
  8
AM_4
100
AcDbLine
 10
6.745000000000002
 20
37.91
 30
0.0
 11
6.745000000000003
 21
46.10000000000001
 31
0.0
  0
LWPOLYLINE
  5
1C4
330
176
100
AcDbEntity
  8
AM_4
100
AcDbPolyline
 90
       19
 70
     0
 43
0.0
 10
12.14100000000001
 20
46.1
 10
12.2585730969666
 20
46.09486664772577
 10
12.3752513916727
 20
46.07950565881347
 10
12.49014689184331
 20
46.05403393966395
 10
12.60238517334633
 20
46.01864534544018
 10
12.71111203508821
 20
45.97360920471244
 10
12.81550000000001
 20
45.91926826970521
 10
12.91475461263757
 20
45.85603610774585
 10
13.00812048546715
 20
45.78439395376751
 10
13.09488704782066
 20
45.70488704782066
 10
13.17439395376751
 20
45.61812048546714
 10
13.24603610774586
 20
45.52475461263756
 10
13.30926826970522
 20
45.4255
 10
13.36360920471245
 20
45.32111203508821
 10
13.4086453454402
 20
45.21238517334633
 10
13.44403393966396
 20
45.1001468918433
 10
13.46950565881348
 20
44.98525139167269
 10
13.48486664772577
 20
44.86857309696659
 10
13.49000000000001
 20
44.751
  0
LINE
  5
1C5
330
176
100
AcDbEntity
  8
AM_4
100
AcDbLine
 10
6.745000000000003
 20
46.10000000000001
 30
0.0
 11
12.14100000000001
 21
46.1
 31
0.0
  0
LINE
  5
1C6
330
176
100
AcDbEntity
  8
AM_4
100
AcDbLine
 10
11.46650000000001
 20
13.28615361005584
 30
0.0
 11
11.4665
 21
33.81500000000001
 31
0.0
  0
LINE
  5
1C7
330
176
100
AcDbEntity
  8
AM_4
100
AcDbLine
 10
-11.4665
 20
33.81500000000001
 30
0.0
 11
-11.4665
 21
13.28615361005584
 31
0.0
  0
LINE
  5
1C8
330
176
100
AcDbEntity
  8
AM_4
100
AcDbLine
 10
-6.744999999999999
 20
46.10000000000001
 30
0.0
 11
-6.744999999999998
 21
37.91
 31
0.0
  0
LINE
  5
1C9
330
176
100
AcDbEntity
  8
AM_4
100
AcDbLine
 10
-13.49
 20
35.8385
 30
0.0
 11
-11.4665
 21
33.81500000000001
 31
0.0
  0
LINE
  5
1CA
330
176
100
AcDbEntity
  8
AM_4
100
AcDbLine
 10
-6.744999999999998
 20
37.91
 30
0.0
 11
6.745000000000002
 21
37.91
 31
0.0
  0
LINE
  5
1CB
330
176
100
AcDbEntity
  8
AM_4
100
AcDbLine
 10
11.4665
 20
33.81500000000001
 30
0.0
 11
13.49
 21
35.8385
 31
0.0
  0
LINE
  5
1CC
330
176
100
AcDbEntity
  8
AM_4
100
AcDbLine
 10
13.49
 20
35.8385
 30
0.0
 11
13.49
 21
44.751
 31
0.0
  0
LINE
  5
1CD
330
176
100
AcDbEntity
  8
AM_4
100
AcDbLine
 10
13.49
 20
44.751
 30
0.0
 11
6.745000000000003
 21
44.751
 31
0.0
  0
LINE
  5
1CE
330
176
100
AcDbEntity
  8
AM_4
100
AcDbLine
 10
-13.49
 20
44.75099999999999
 30
0.0
 11
-13.49
 21
35.8385
 31
0.0
  0
LINE
  5
1CF
330
176
100
AcDbEntity
  8
AM_4
100
AcDbLine
 10
11.4665
 20
-33.81500000000001
 30
0.0
 11
11.4665
 21
-13.28615361005585
 31
0.0
  0
LINE
  5
1D0
330
176
100
AcDbEntity
  8
AM_4
100
AcDbLine
 10
-11.4665
 20
-13.28615361005584
 30
0.0
 11
-11.4665
 21
-33.81500000000001
 31
0.0
  0
LINE
  5
1D1
330
176
100
AcDbEntity
  8
AM_4
100
AcDbLine
 10
6.744999999999996
 20
-46.1
 30
0.0
 11
6.744999999999997
 21
-37.91
 31
0.0
  0
LINE
  5
1D2
330
176
100
AcDbEntity
  8
AM_4
100
AcDbLine
 10
-11.4665
 20
-33.81500000000001
 30
0.0
 11
-13.49
 21
-35.8385
 31
0.0
  0
LINE
  5
1D3
330
176
100
AcDbEntity
  8
AM_4
100
AcDbLine
 10
-6.745000000000003
 20
-37.91
 30
0.0
 11
-6.745000000000003
 21
-46.1
 31
0.0
  0
LINE
  5
1D4
330
176
100
AcDbEntity
  8
AM_4
100
AcDbLine
 10
-13.49
 20
-35.8385
 30
0.0
 11
-13.49
 21
-44.75099999999999
 31
0.0
  0
LINE
  5
1D5
330
176
100
AcDbEntity
  8
AM_4
100
AcDbLine
 10
6.744999999999997
 20
-37.91
 30
0.0
 11
-6.745000000000003
 21
-37.91
 31
0.0
  0
LINE
  5
1D6
330
176
100
AcDbEntity
  8
AM_4
100
AcDbLine
 10
13.49
 20
-44.75099999999999
 30
0.0
 11
13.49
 21
-35.8385
 31
0.0
  0
LINE
  5
1D7
330
176
100
AcDbEntity
  8
AM_4
100
AcDbLine
 10
13.49
 20
-35.8385
 30
0.0
 11
11.4665
 21
-33.81500000000001
 31
0.0
  0
LINE
  5
1D8
330
176
100
AcDbEntity
  8
AM_4
100
AcDbLine
 10
-12.14099999999999
 20
46.1
 30
0.0
 11
-6.744999999999999
 21
46.10000000000001
 31
0.0
  0
LWPOLYLINE
  5
1D9
330
176
100
AcDbEntity
  8
AM_4
100
AcDbPolyline
 90
       19
 70
     0
 43
0.0
 10
-13.49
 20
44.751
 10
-13.48486664772576
 20
44.86857309696659
 10
-13.46950565881347
 20
44.98525139167269
 10
-13.44403393966395
 20
45.1001468918433
 10
-13.40864534544019
 20
45.21238517334633
 10
-13.36360920471244
 20
45.32111203508821
 10
-13.30926826970521
 20
45.4255
 10
-13.24603610774585
 20
45.52475461263757
 10
-13.1743939537675
 20
45.61812048546714
 10
-13.09488704782065
 20
45.70488704782066
 10
-13.00812048546714
 20
45.78439395376751
 10
-12.91475461263756
 20
45.85603610774586
 10
-12.81549999999999
 20
45.91926826970521
 10
-12.7111120350882
 20
45.97360920471245
 10
-12.60238517334632
 20
46.01864534544019
 10
-12.49014689184329
 20
46.05403393966396
 10
-12.37525139167268
 20
46.07950565881347
 10
-12.25857309696658
 20
46.09486664772577
 10
-12.14099999999999
 20
46.10000000000001
  0
LINE
  5
1DA
330
176
100
AcDbEntity
  8
AM_4
100
AcDbLine
 10
-6.744999999999998
 20
44.751
 30
0.0
 11
-13.49
 21
44.75099999999999
 31
0.0
  0
LINE
  5
1DB
330
176
100
AcDbEntity
  8
AM_4
100
AcDbLine
 10
6.744999999999996
 20
-46.1
 30
0.0
 11
12.14099999999999
 21
-46.1
 31
0.0
  0
LWPOLYLINE
  5
1DC
330
176
100
AcDbEntity
  8
AM_4
100
AcDbPolyline
 90
       19
 70
     0
 43
0.0
 10
13.48999999999999
 20
-44.75099989949166
 10
13.48486665648564
 20
-44.86857299684072
 10
13.46950567626655
 20
-44.9852512926913
 10
13.44403396567742
 20
-45.1001467947597
 10
13.40864537981606
 20
-45.21238507889938
 10
13.36360924718909
 20
-45.32111194399671
 10
13.30926831995937
 20
-45.42549991295723
 10
13.24603616539505
 20
-45.52475453030596
 10
13.174394018373
 20
-45.61812040847329
 10
13.09488711889077
 20
-45.70488697675053
 10
13.00812056246098
 20
-45.78439388916199
 10
12.91475469496916
 20
-45.85603605009664
 10
12.81550008704276
 20
-45.91926821945104
 10
12.71111212617968
 20
-45.97360916223578
 10
12.60238526779326
 20
-46.01864531106431
 10
12.49014698892688
 20
-46.05403391365049
 10
12.37525149065407
 20
-46.07950564136038
 10
12.25857319709245
 20
-46.09486663896588
 10
12.14100010050832
 20
-46.09999999999999
  0
LINE
  5
1DD
330
176
100
AcDbEntity
  8
AM_4
100
AcDbLine
 10
13.49
 20
-44.75099999999999
 30
0.0
 11
6.744999999999997
 21
-44.75099999999999
 31
0.0
  0
LINE
  5
1DE
330
176
100
AcDbEntity
  8
AM_4
100
AcDbLine
 10
-6.745000000000004
 20
-44.75099999999999
 30
0.0
 11
-13.49
 21
-44.75099999999999
 31
0.0
  0
LWPOLYLINE
  5
1DF
330
176
100
AcDbEntity
  8
AM_4
100
AcDbPolyline
 90
       19
 70
     0
 43
0.0
 10
-12.14100000000001
 20
-46.1
 10
-12.2585730969666
 20
-46.09486664772577
 10
-12.37525139167269
 20
-46.07950565881347
 10
-12.49014689184331
 20
-46.05403393966396
 10
-12.60238517334633
 20
-46.01864534544019
 10
-12.71111203508821
 20
-45.97360920471244
 10
-12.81550000000001
 20
-45.91926826970521
 10
-12.91475461263757
 20
-45.85603610774585
 10
-13.00812048546715
 20
-45.78439395376751
 10
-13.09488704782066
 20
-45.70488704782066
 10
-13.17439395376751
 20
-45.61812048546714
 10
-13.24603610774586
 20
-45.52475461263756
 10
-13.30926826970522
 20
-45.4255
 10
-13.36360920471245
 20
-45.32111203508821
 10
-13.4086453454402
 20
-45.21238517334633
 10
-13.44403393966396
 20
-45.1001468918433
 10
-13.46950565881348
 20
-44.98525139167269
 10
-13.48486664772577
 20
-44.86857309696659
 10
-13.49000000000001
 20
-44.751
  0
LINE
  5
1E0
330
176
100
AcDbEntity
  8
AM_4
100
AcDbLine
 10
-12.141
 20
-46.1
 30
0.0
 11
-6.745000000000003
 21
-46.1
 31
0.0
  0
LWPOLYLINE
  5
1E1
330
176
100
AcDbEntity
  8
AM_4
100
AcDbPolyline
 90
       19
 70
     0
 43
0.0
 10
-10.1175
 20
-25.4
 10
-10.23507309696659
 20
-25.39486664772576
 10
-10.35175139167269
 20
-25.37950565881346
 10
-10.4666468918433
 20
-25.35403393966395
 10
-10.57888517334633
 20
-25.31864534544019
 10
-10.68761203508821
 20
-25.27360920471244
 10
-10.792
 20
-25.2192682697052
 10
-10.89125461263756
 20
-25.15603610774585
 10
-10.98462048546715
 20
-25.0843939537675
 10
-11.07138704782066
 20
-25.00488704782065
 10
-11.15089395376751
 20
-24.91812048546714
 10
-11.22253610774585
 20
-24.82475461263756
 10
-11.28576826970521
 20
-24.72549999999999
 10
-11.34010920471245
 20
-24.6211120350882
 10
-11.3851453454402
 20
-24.51238517334632
 10
-11.42053393966396
 20
-24.4001468918433
 10
-11.44600565881347
 20
-24.28525139167268
 10
-11.46136664772577
 20
-24.16857309696658
 10
-11.46650000000001
 20
-24.05100002010166
  0
LWPOLYLINE
  5
1E2
330
176
100
AcDbEntity
  8
AM_4
100
AcDbPolyline
 90
       19
 70
     0
 43
0.0
 10
11.46650000000001
 20
-24.05099999999999
 10
11.46136664772578
 20
-24.16857309696658
 10
11.44600565881348
 20
-24.28525139167268
 10
11.42053393966397
 20
-24.40014689184329
 10
11.3851453454402
 20
-24.51238517334632
 10
11.34010920471245
 20
-24.6211120350882
 10
11.28576826970522
 20
-24.72549999999999
 10
11.22253610774586
 20
-24.82475461263756
 10
11.15089395376751
 20
-24.91812048546714
 10
11.07138704782066
 20
-25.00488704782065
 10
10.98462048546715
 20
-25.0843939537675
 10
10.89125461263757
 20
-25.15603610774585
 10
10.79200000000001
 20
-25.21926826970521
 10
10.68761203508821
 20
-25.27360920471244
 10
10.57888517334633
 20
-25.31864534544019
 10
10.46664689184331
 20
-25.35403393966395
 10
10.3517513916727
 20
-25.37950565881346
 10
10.23507309696659
 20
-25.39486664772576
 10
10.11750000000001
 20
-25.4
  0
LINE
  5
1E3
330
176
100
AcDbEntity
  8
AM_4
100
AcDbLine
 10
-10.1175
 20
-25.4
 30
0.0
 11
10.1175
 21
-25.4
 31
0.0
  0
ARC
  5
1E4
330
176
100
AcDbEntity
  8
AM_4
100
AcDbCircle
 10
0.0000000000000018
 20
-0.0000000000000009
 30
0.0
 40
17.55
100
AcDbArc
 50
130.7955511346656
 51
229.2044488653344
  0
CIRCLE
  5
1E5
330
176
100
AcDbEntity
  8
AM_4
100
AcDbCircle
 10
0.0000000000000038
 20
0.0
 30
0.0
 40
7.95
  0
ARC
  5
1E6
330
176
100
AcDbEntity
  8
AM_4
100
AcDbCircle
 10
0.0000000000000036
 20
0.0000000000000009
 30
0.0
 40
17.55
100
AcDbArc
 50
310.7955511346655
 51
49.20444886533443
  0
LINE
  5
1E7
330
176
100
AcDbEntity
  8
AM_4
100
AcDbLine
 10
11.46650000000001
 20
-24.05099999999999
 30
0.0
 11
-11.4665
 21
-24.051
 31
0.0
  0
LINE
  5
1E8
330
176
100
AcDbEntity
  8
AM_4
100
AcDbLine
 10
-10.11749999999999
 20
25.4
 30
0.0
 11
10.11750000000001
 21
25.4
 31
0.0
  0
LWPOLYLINE
  5
1E9
330
176
100
AcDbEntity
  8
AM_4
100
AcDbPolyline
 90
       19
 70
     0
 43
0.0
 10
-11.4665
 20
24.051
 10
-11.46136664772576
 20
24.16857309696659
 10
-11.44600565881347
 20
24.28525139167269
 10
-11.42053393966395
 20
24.4001468918433
 10
-11.38514534544019
 20
24.51238517334633
 10
-11.34010920471244
 20
24.6211120350882
 10
-11.28576826970521
 20
24.7255
 10
-11.22253610774585
 20
24.82475461263756
 10
-11.1508939537675
 20
24.91812048546714
 10
-11.07138704782065
 20
25.00488704782065
 10
-10.98462048546714
 20
25.0843939537675
 10
-10.89125461263756
 20
25.15603610774585
 10
-10.792
 20
25.21926826970521
 10
-10.68761203508821
 20
25.27360920471244
 10
-10.57888517334633
 20
25.31864534544019
 10
-10.4666468918433
 20
25.35403393966395
 10
-10.35175139167269
 20
25.37950565881346
 10
-10.23507309696659
 20
25.39486664772576
 10
-10.11750000000001
 20
25.4
  0
LINE
  5
1EA
330
176
100
AcDbEntity
  8
AM_4
100
AcDbLine
 10
11.46650000000001
 20
24.051
 30
0.0
 11
-11.4665
 21
24.05100000000001
 31
0.0
  0
LWPOLYLINE
  5
1EB
330
176
100
AcDbEntity
  8
AM_4
100
AcDbPolyline
 90
       19
 70
     0
 43
0.0
 10
10.11750000000001
 20
25.4
 10
10.23507309696659
 20
25.39486664772576
 10
10.35175139167269
 20
25.37950565881346
 10
10.4666468918433
 20
25.35403393966395
 10
10.57888517334633
 20
25.31864534544019
 10
10.68761203508821
 20
25.27360920471244
 10
10.792
 20
25.21926826970521
 10
10.89125461263756
 20
25.15603610774585
 10
10.98462048546714
 20
25.0843939537675
 10
11.07138704782065
 20
25.00488704782065
 10
11.1508939537675
 20
24.91812048546715
 10
11.22253610774585
 20
24.82475461263757
 10
11.28576826970521
 20
24.7255
 10
11.34010920471244
 20
24.62111203508821
 10
11.38514534544019
 20
24.51238517334633
 10
11.42053393966395
 20
24.40014689184331
 10
11.44600565881347
 20
24.28525139167269
 10
11.46136664772577
 20
24.1685730969666
 10
11.4665
 20
24.05100000000001
  0
ENDBLK
  5
179
330
176
100
AcDbEntity
  8
0
100
AcDbBlockEnd
  0
ENDSEC
  0
SECTION
  2
ENTITIES
  0
INSERT
  5
6F
330
1F
100
AcDbEntity
  8
0
100
AcDbBlockReference
  2
1_076275_2
 10
0.0
 20
0.0
 30
0.0
  0
POINT
  5
1ED
330
1F
100
AcDbEntity
  8
ConnectionPoints
100
AcDbPoint
 10
-0.000000000000002
 20
-18.66999999999999
 30
-32.33738857731094
  0
POINT
  5
1EE
330
1F
100
AcDbEntity
  8
ConnectionPoints
100
AcDbPoint
 10
-0.000000000000002
 20
-18.66999999999999
 30
-32.33738857731094
  0
POINT
  5
1EF
330
1F
100
AcDbEntity
  8
ConnectionPoints
100
AcDbPoint
 10
-19.8
 20
0.0
 30
0.0000000000000012
  0
ENDSEC
  0
SECTION
  2
OBJECTS
  0
DICTIONARY
  5
C
330
0
100
AcDbDictionary
281
     1
  3
ACAD_DETAILVIEWSTYLE
350
1F7
  3
ACAD_GROUP
350
D
  3
ACAD_LAYOUT
350
1A
  3
ACAD_MATERIAL
350
43
  3
ACAD_MLEADERSTYLE
350
6B
  3
ACAD_MLINESTYLE
350
17
  3
ACAD_PLOTSETTINGS
350
19
  3
ACAD_PLOTSTYLENAME
350
E
  3
ACAD_SCALELIST
350
47
  3
ACAD_SECTIONVIEWSTYLE
350
1F8
  3
ACAD_TABLESTYLE
350
69
  3
ACAD_VISUALSTYLE
350
2A
  3
ACDB_RECOMPOSE_DATA
350
1F4
  3
AcDbVariableDictionary
350
1F0
  0
SUN
  5
6D
330
29
100
AcDbSun
 90
        1
290
     0
 63
     7
421
 16777215
 40
1.0
291
     1
 91
  2455826
 92
 54000000
292
     0
 70
     2
 71
   256
280
     1
  0
DICTIONARY
  5
1F7
102
{ACAD_REACTORS
330
C
102
}
330
C
100
AcDbDictionary
281
     1
  0
DICTIONARY
  5
D
102
{ACAD_REACTORS
330
C
102
}
330
C
100
AcDbDictionary
281
     1
  0
DICTIONARY
  5
1A
102
{ACAD_REACTORS
330
C
102
}
330
C
100
AcDbDictionary
281
     1
  3
Layout1
350
1E
  3
Layout2
350
26
  3
Model
350
22
  0
DICTIONARY
  5
43
102
{ACAD_REACTORS
330
C
102
}
330
C
100
AcDbDictionary
281
     1
  3
ByBlock
350
45
  3
ByLayer
350
44
  3
Global
350
46
  0
DICTIONARY
  5
6B
102
{ACAD_REACTORS
330
C
102
}
330
C
100
AcDbDictionary
281
     1
  3
Standard
350
6C
  0
DICTIONARY
  5
17
102
{ACAD_REACTORS
330
C
102
}
330
C
100
AcDbDictionary
281
     1
  3
Standard
350
18
  0
DICTIONARY
  5
19
102
{ACAD_REACTORS
330
C
102
}
330
C
100
AcDbDictionary
281
     1
  0
ACDBDICTIONARYWDFLT
  5
E
102
{ACAD_REACTORS
330
C
102
}
330
C
100
AcDbDictionary
281
     1
  3
Normal
350
F
100
AcDbDictionaryWithDefault
340
F
  0
DICTIONARY
  5
47
102
{ACAD_REACTORS
330
C
102
}
330
C
100
AcDbDictionary
281
     1
  3
A0
350
48
  3
A1
350
49
  3
A2
350
4A
  3
A3
350
4B
  3
A4
350
4C
  3
A5
350
4D
  3
A6
350
4E
  3
A7
350
4F
  3
A8
350
50
  3
A9
350
51
  3
B0
350
52
  3
B1
350
53
  3
B2
350
54
  3
B3
350
55
  3
B4
350
56
  3
B5
350
57
  3
B6
350
58
  3
B7
350
59
  3
B8
350
5A
  3
B9
350
5B
  3
C0
350
5C
  3
C1
350
5D
  3
C2
350
5E
  3
C3
350
5F
  3
C4
350
60
  3
C5
350
61
  3
C6
350
62
  3
C7
350
63
  3
C8
350
64
  3
C9
350
65
  3
D0
350
66
  3
D1
350
67
  3
D2
350
68
  0
DICTIONARY
  5
1F8
102
{ACAD_REACTORS
330
C
102
}
330
C
100
AcDbDictionary
281
     1
  0
DICTIONARY
  5
69
102
{ACAD_REACTORS
330
C
102
}
330
C
100
AcDbDictionary
281
     1
  3
Standard
350
6A
  0
DICTIONARY
  5
2A
102
{ACAD_REACTORS
330
C
102
}
330
C
100
AcDbDictionary
281
     1
  3
2dWireframe
350
2F
  3
Basic
350
32
  3
Brighten
350
36
  3
ColorChange
350
3A
  3
Conceptual
350
34
  3
Dim
350
35
  3
EdgeColorOff
350
3D
  3
Facepattern
350
39
  3
Flat
350
2B
  3
FlatWithEdges
350
2C
  3
Gouraud
350
2D
  3
GouraudWithEdges
350
2E
  3
Hidden
350
31
  3
JitterOff
350
3B
  3
Linepattern
350
38
  3
OverhangOff
350
3C
  3
Realistic
350
33
  3
Shaded
350
42
  3
Shaded with edges
350
41
  3
Shades of Gray
350
3E
  3
Sketchy
350
3F
  3
Thicken
350
37
  3
Wireframe
350
30
  3
X-Ray
350
40
  0
XRECORD
  5
1F4
102
{ACAD_REACTORS
330
C
102
}
330
C
100
AcDbXrecord
280
     1
 90
        1
330
6A
  0
DICTIONARY
  5
1F0
102
{ACAD_REACTORS
330
C
102
}
330
C
100
AcDbDictionary
281
     1
  3
CANNOSCALE
350
1F1
  3
CMLEADERSTYLE
350
1F6
  3
CTABLESTYLE
350
1F5
  0
LAYOUT
  5
1E
102
{ACAD_REACTORS
330
1A
102
}
330
1A
100
AcDbPlotSettings
  1

  2
none_device
  4

  6

 40
0.0
 41
0.0
 42
0.0
 43
0.0
 44
0.0
 45
0.0
 46
0.0
 47
0.0
 48
0.0
 49
0.0
140
0.0
141
0.0
142
1.0
143
1.0
 70
   688
 72
     1
 73
     0
 74
     5
  7

 75
    16
 76
     0
 77
     2
 78
   300
147
1.0
148
0.0
149
0.0
100
AcDbLayout
  1
Layout1
 70
     1
 71
     1
 10
0.0
 20
0.0
 11
420.0
 21
297.0
 12
0.0
 22
0.0
 32
0.0
 14
1.000000000000000E+20
 24
1.000000000000000E+20
 34
1.000000000000000E+20
 15
-1.000000000000000E+20
 25
-1.000000000000000E+20
 35
-1.000000000000000E+20
146
0.0
 13
0.0
 23
0.0
 33
0.0
 16
1.0
 26
0.0
 36
0.0
 17
0.0
 27
1.0
 37
0.0
 76
     0
330
1B
  0
LAYOUT
  5
26
102
{ACAD_REACTORS
330
1A
102
}
330
1A
100
AcDbPlotSettings
  1

  2
none_device
  4

  6

 40
0.0
 41
0.0
 42
0.0
 43
0.0
 44
0.0
 45
0.0
 46
0.0
 47
0.0
 48
0.0
 49
0.0
140
0.0
141
0.0
142
1.0
143
1.0
 70
   688
 72
     1
 73
     0
 74
     5
  7

 75
    16
 76
     0
 77
     2
 78
   300
147
1.0
148
0.0
149
0.0
100
AcDbLayout
  1
Layout2
 70
     1
 71
     2
 10
0.0
 20
0.0
 11
0.0
 21
0.0
 12
0.0
 22
0.0
 32
0.0
 14
0.0
 24
0.0
 34
0.0
 15
0.0
 25
0.0
 35
0.0
146
0.0
 13
0.0
 23
0.0
 33
0.0
 16
1.0
 26
0.0
 36
0.0
 17
0.0
 27
1.0
 37
0.0
 76
     0
330
23
  0
LAYOUT
  5
22
102
{ACAD_REACTORS
330
1A
102
}
330
1A
100
AcDbPlotSettings
  1

  2
none_device
  4
Letter_(8.50_x_11.00_Inches)
  6

 40
6.35
 41
6.35
 42
6.35000508
 43
6.35000508
 44
215.9
 45
279.4
 46
0.0
 47
0.0
 48
0.0
 49
0.0
140
0.0
141
0.0
142
1.0
143
1.0
 70
  1712
 72
     1
 73
     0
 74
     0
  7

 75
     0
 76
     0
 77
     2
 78
   300
147
1.0
148
0.0
149
0.0
100
AcDbLayout
  1
Model
 70
     1
 71
     0
 10
0.0
 20
0.0
 11
420.0
 21
297.0
 12
0.0
 22
0.0
 32
0.0
 14
1.000000000000000E+20
 24
1.000000000000000E+20
 34
1.000000000000000E+20
 15
-1.000000000000000E+20
 25
-1.000000000000000E+20
 35
-1.000000000000000E+20
146
0.0
 13
0.0
 23
0.0
 33
0.0
 16
1.0
 26
0.0
 36
0.0
 17
0.0
 27
1.0
 37
0.0
 76
     0
330
1F
331
29
  0
MATERIAL
  5
45
102
{ACAD_REACTORS
330
43
102
}
330
43
100
AcDbMaterial
  1
ByBlock
 72
     1
 94
      127
  0
MATERIAL
  5
44
102
{ACAD_REACTORS
330
43
102
}
330
43
100
AcDbMaterial
  1
ByLayer
 72
     1
 94
      127
  0
MATERIAL
  5
46
102
{ACAD_REACTORS
330
43
102
}
330
43
100
AcDbMaterial
  1
Global
 72
     1
 94
      127
  0
MLEADERSTYLE
  5
6C
102
{ACAD_REACTORS
330
6B
102
}
330
6B
100
AcDbMLeaderStyle
179
     2
170
     2
171
     1
172
     0
 90
        2
 40
0.0
 41
0.0
173
     1
 91
-1056964608
340
14
 92
       -2
290
     1
 42
2.0
291
     1
 43
8.0
  3
Standard
341
0
 44
4.0
300

342
11
174
     1
178
     6
175
     1
176
     0
 93
-1056964608
 45
4.0
292
     0
297
     0
 46
4.0
343
0
 94
-1056964608
 47
1.0
 49
1.0
140
1.0
293
     1
141
0.0
294
     1
177
     0
142
1.0
295
     0
296
     0
143
3.75
271
     0
272
     9
273
     9
298
     0
  0
MLINESTYLE
  5
18
102
{ACAD_REACTORS
330
17
102
}
330
17
100
AcDbMlineStyle
  2
Standard
 70
     0
  3

 62
   256
 51
90.0
 52
90.0
 71
     2
 49
0.5
 62
   256
  6
BYLAYER
 49
-0.5
 62
   256
  6
BYLAYER
  0
ACDBPLACEHOLDER
  5
F
102
{ACAD_REACTORS
330
E
102
}
330
E
  0
SCALE
  5
48
102
{ACAD_REACTORS
330
47
102
}
330
47
100
AcDbScale
 70
     0
300
1:1
140
1.0
141
1.0
290
     1
  0
SCALE
  5
49
102
{ACAD_REACTORS
330
47
102
}
330
47
100
AcDbScale
 70
     0
300
1:2
140
1.0
141
2.0
290
     0
  0
SCALE
  5
4A
102
{ACAD_REACTORS
330
47
102
}
330
47
100
AcDbScale
 70
     0
300
1:4
140
1.0
141
4.0
290
     0
  0
SCALE
  5
4B
102
{ACAD_REACTORS
330
47
102
}
330
47
100
AcDbScale
 70
     0
300
1:5
140
1.0
141
5.0
290
     0
  0
SCALE
  5
4C
102
{ACAD_REACTORS
330
47
102
}
330
47
100
AcDbScale
 70
     0
300
1:8
140
1.0
141
8.0
290
     0
  0
SCALE
  5
4D
102
{ACAD_REACTORS
330
47
102
}
330
47
100
AcDbScale
 70
     0
300
1:10
140
1.0
141
10.0
290
     0
  0
SCALE
  5
4E
102
{ACAD_REACTORS
330
47
102
}
330
47
100
AcDbScale
 70
     0
300
1:16
140
1.0
141
16.0
290
     0
  0
SCALE
  5
4F
102
{ACAD_REACTORS
330
47
102
}
330
47
100
AcDbScale
 70
     0
300
1:20
140
1.0
141
20.0
290
     0
  0
SCALE
  5
50
102
{ACAD_REACTORS
330
47
102
}
330
47
100
AcDbScale
 70
     0
300
1:30
140
1.0
141
30.0
290
     0
  0
SCALE
  5
51
102
{ACAD_REACTORS
330
47
102
}
330
47
100
AcDbScale
 70
     0
300
1:40
140
1.0
141
40.0
290
     0
  0
SCALE
  5
52
102
{ACAD_REACTORS
330
47
102
}
330
47
100
AcDbScale
 70
     0
300
1:50
140
1.0
141
50.0
290
     0
  0
SCALE
  5
53
102
{ACAD_REACTORS
330
47
102
}
330
47
100
AcDbScale
 70
     0
300
1:100
140
1.0
141
100.0
290
     0
  0
SCALE
  5
54
102
{ACAD_REACTORS
330
47
102
}
330
47
100
AcDbScale
 70
     0
300
2:1
140
2.0
141
1.0
290
     0
  0
SCALE
  5
55
102
{ACAD_REACTORS
330
47
102
}
330
47
100
AcDbScale
 70
     0
300
4:1
140
4.0
141
1.0
290
     0
  0
SCALE
  5
56
102
{ACAD_REACTORS
330
47
102
}
330
47
100
AcDbScale
 70
     0
300
8:1
140
8.0
141
1.0
290
     0
  0
SCALE
  5
57
102
{ACAD_REACTORS
330
47
102
}
330
47
100
AcDbScale
 70
     0
300
10:1
140
10.0
141
1.0
290
     0
  0
SCALE
  5
58
102
{ACAD_REACTORS
330
47
102
}
330
47
100
AcDbScale
 70
     0
300
100:1
140
100.0
141
1.0
290
     0
  0
SCALE
  5
59
102
{ACAD_REACTORS
330
47
102
}
330
47
100
AcDbScale
 70
     0
300
1/128" = 1'-0"
140
0.0078125
141
12.0
290
     0
  0
SCALE
  5
5A
102
{ACAD_REACTORS
330
47
102
}
330
47
100
AcDbScale
 70
     0
300
1/64" = 1'-0"
140
0.015625
141
12.0
290
     0
  0
SCALE
  5
5B
102
{ACAD_REACTORS
330
47
102
}
330
47
100
AcDbScale
 70
     0
300
1/32" = 1'-0"
140
0.03125
141
12.0
290
     0
  0
SCALE
  5
5C
102
{ACAD_REACTORS
330
47
102
}
330
47
100
AcDbScale
 70
     0
300
1/16" = 1'-0"
140
0.0625
141
12.0
290
     0
  0
SCALE
  5
5D
102
{ACAD_REACTORS
330
47
102
}
330
47
100
AcDbScale
 70
     0
300
3/32" = 1'-0"
140
0.09375
141
12.0
290
     0
  0
SCALE
  5
5E
102
{ACAD_REACTORS
330
47
102
}
330
47
100
AcDbScale
 70
     0
300
1/8" = 1'-0"
140
0.125
141
12.0
290
     0
  0
SCALE
  5
5F
102
{ACAD_REACTORS
330
47
102
}
330
47
100
AcDbScale
 70
     0
300
3/16" = 1'-0"
140
0.1875
141
12.0
290
     0
  0
SCALE
  5
60
102
{ACAD_REACTORS
330
47
102
}
330
47
100
AcDbScale
 70
     0
300
1/4" = 1'-0"
140
0.25
141
12.0
290
     0
  0
SCALE
  5
61
102
{ACAD_REACTORS
330
47
102
}
330
47
100
AcDbScale
 70
     0
300
3/8" = 1'-0"
140
0.375
141
12.0
290
     0
  0
SCALE
  5
62
102
{ACAD_REACTORS
330
47
102
}
330
47
100
AcDbScale
 70
     0
300
1/2" = 1'-0"
140
0.5
141
12.0
290
     0
  0
SCALE
  5
63
102
{ACAD_REACTORS
330
47
102
}
330
47
100
AcDbScale
 70
     0
300
3/4" = 1'-0"
140
0.75
141
12.0
290
     0
  0
SCALE
  5
64
102
{ACAD_REACTORS
330
47
102
}
330
47
100
AcDbScale
 70
     0
300
1" = 1'-0"
140
1.0
141
12.0
290
     0
  0
SCALE
  5
65
102
{ACAD_REACTORS
330
47
102
}
330
47
100
AcDbScale
 70
     0
300
1-1/2" = 1'-0"
140
1.5
141
12.0
290
     0
  0
SCALE
  5
66
102
{ACAD_REACTORS
330
47
102
}
330
47
100
AcDbScale
 70
     0
300
3" = 1'-0"
140
3.0
141
12.0
290
     0
  0
SCALE
  5
67
102
{ACAD_REACTORS
330
47
102
}
330
47
100
AcDbScale
 70
     0
300
6" = 1'-0"
140
6.0
141
12.0
290
     0
  0
SCALE
  5
68
102
{ACAD_REACTORS
330
47
102
}
330
47
100
AcDbScale
 70
     0
300
1'-0" = 1'-0"
140
12.0
141
12.0
290
     0
  0
TABLESTYLE
  5
6A
102
{ACAD_REACTORS
330
69
102
}
102
{ACAD_XDICTIONARY
360
1F2
102
}
330
69
100
AcDbTableStyle
  3
Standard
 70
     0
 71
     0
 40
0.06
 41
0.06
280
     0
281
     0
  7
Standard
140
4.5
170
     2
 62
     0
 63
   257
283
     0
 90
        4
 91
        0
  1

274
    -2
284
     1
 64
     0
275
    -2
285
     1
 65
     0
276
    -2
286
     1
 66
     0
277
    -2
287
     1
 67
     0
278
    -2
288
     1
 68
     0
279
    -2
289
     1
 69
     0
  7
Standard
140
6.0
170
     5
 62
     0
 63
   257
283
     0
 90
        4
 91
        0
  1

274
    -2
284
     1
 64
     0
275
    -2
285
     1
 65
     0
276
    -2
286
     1
 66
     0
277
    -2
287
     1
 67
     0
278
    -2
288
     1
 68
     0
279
    -2
289
     1
 69
     0
  7
Standard
140
4.5
170
     5
 62
     0
 63
   257
283
     0
 90
        4
 91
        0
  1

274
    -2
284
     1
 64
     0
275
    -2
285
     1
 65
     0
276
    -2
286
     1
 66
     0
277
    -2
287
     1
 67
     0
278
    -2
288
     1
 68
     0
279
    -2
289
     1
 69
     0
  0
VISUALSTYLE
  5
2F
102
{ACAD_REACTORS
330
2A
102
}
330
2A
100
AcDbVisualStyle
  2
2dWireframe
 70
     4
177
     3
291
     0
 70
    58
 90
        0
176
     1
 90
        2
176
     1
 90
        0
176
     1
 90
        0
176
     1
 40
0.6
176
     1
 40
30.0
176
     1
 62
     7
420
 16777215
176
     1
 90
        1
176
     1
 90
        4
176
     1
 62
     7
176
     1
 62
   257
176
     1
 90
        1
176
     1
 90
        1
176
     1
 40
1.0
176
     1
 90
        0
176
     1
 62
   257
176
     1
 40
1.0
176
     1
 90
        1
176
     1
 90
        6
176
     1
 90
        2
176
     1
 62
     7
176
     1
 90
        5
176
     1
 90
        0
176
     1
 90
        0
176
     1
290
     0
176
     1
 90
        1
176
     1
 40
0.0
176
     1
 90
        0
176
     1
290
     1
176
     1
290
     1
176
     1
290
     0
176
     1
290
     0
176
     1
290
     0
176
     1
290
     0
176
     1
290
     0
176
     1
290
     0
176
     1
290
     0
176
     1
 90
       50
176
     1
 40
0.0
176
     1
 40
1.0
176
     1
 90
        0
176
     1
 62
    18
420
        0
176
     1
 90
       50
176
     1
 90
        3
176
     1
 62
     5
420
      255
176
     1
290
     0
176
     1
 90
       50
176
     1
 90
       50
176
     1
 90
       50
176
     1
290
     0
176
     1
 90
       50
176
     1
 62
   256
176
     0
 40
1.0
176
     0
 90
        2
176
     1
  1
strokes_ogs.tif
176
     1
290
     0
176
     1
 40
1.0
176
     1
 40
1.0
176
     1
  0
VISUALSTYLE
  5
32
102
{ACAD_REACTORS
330
2A
102
}
330
2A
100
AcDbVisualStyle
  2
Basic
 70
     7
177
     3
291
     1
 70
    58
 90
        1
176
     1
 90
        0
176
     1
 90
        1
176
     1
 90
        0
176
     1
 40
0.6
176
     1
 40
30.0
176
     1
 62
     7
420
 16777215
176
     1
 90
        0
176
     1
 90
        4
176
     1
 62
     7
176
     1
 62
   257
176
     1
 90
        1
176
     1
 90
        1
176
     1
 40
1.0
176
     1
 90
        8
176
     1
 62
     7
176
     1
 40
1.0
176
     1
 90
        1
176
     1
 90
        6
176
     1
 90
        2
176
     1
 62
     7
176
     1
 90
        5
176
     1
 90
        0
176
     1
 90
        0
176
     1
290
     0
176
     1
 90
        1
176
     1
 40
0.0
176
     1
 90
        0
176
     1
290
     0
176
     1
290
     1
176
     1
290
     1
176
     1
290
     0
176
     1
290
     0
176
     1
290
     0
176
     1
290
     0
176
     1
290
     0
176
     1
290
     0
176
     1
 90
       50
176
     1
 40
0.0
176
     1
 40
1.0
176
     1
 90
        0
176
     1
 62
    18
420
        0
176
     1
 90
       50
176
     1
 90
        3
176
     1
 62
     5
420
      255
176
     1
290
     0
176
     1
 90
       50
176
     1
 90
       50
176
     1
 90
       50
176
     1
290
     0
176
     1
 90
       50
176
     1
 62
   256
176
     0
 40
1.0
176
     0
 90
        2
176
     1
  1
strokes_ogs.tif
176
     1
290
     0
176
     1
 40
1.0
176
     1
 40
1.0
176
     1
  0
VISUALSTYLE
  5
36
102
{ACAD_REACTORS
330
2A
102
}
330
2A
100
AcDbVisualStyle
  2
Brighten
 70
    12
177
     3
291
     1
 70
    58
 90
        2
176
     1
 90
        2
176
     1
 90
        0
176
     1
 90
        0
176
     1
 40
0.6
176
     1
 40
30.0
176
     1
 62
     7
420
 16777215
176
     1
 90
        1
176
     1
 90
        4
176
     1
 62
     7
176
     1
 62
   257
176
     1
 90
        1
176
     1
 90
        1
176
     1
 40
1.0
176
     1
 90
        8
176
     1
 62
     7
176
     1
 40
1.0
176
     1
 90
        1
176
     1
 90
        6
176
     1
 90
        2
176
     1
 62
     7
176
     1
 90
        5
176
     1
 90
        0
176
     1
 90
        0
176
     1
290
     0
176
     1
 90
        1
176
     1
 40
50.0
176
     1
 90
        0
176
     1
290
     0
176
     1
290
     1
176
     1
290
     1
176
     1
290
     0
176
     1
290
     0
176
     1
290
     0
176
     1
290
     0
176
     1
290
     0
176
     1
290
     0
176
     1
 90
       50
176
     1
 40
0.0
176
     1
 40
1.0
176
     1
 90
        0
176
     1
 62
    18
420
        0
176
     1
 90
       50
176
     1
 90
        3
176
     1
 62
     5
420
      255
176
     1
290
     0
176
     1
 90
       50
176
     1
 90
       50
176
     1
 90
       50
176
     1
290
     0
176
     1
 90
       50
176
     1
 62
   256
176
     0
 40
1.0
176
     0
 90
        2
176
     1
  1
strokes_ogs.tif
176
     1
290
     0
176
     1
 40
1.0
176
     1
 40
1.0
176
     1
  0
VISUALSTYLE
  5
3A
102
{ACAD_REACTORS
330
2A
102
}
330
2A
100
AcDbVisualStyle
  2
ColorChange
 70
    16
177
     3
291
     1
 70
    58
 90
        2
176
     1
 90
        2
176
     1
 90
        3
176
     1
 90
        0
176
     1
 40
0.6
176
     1
 40
30.0
176
     1
 62
     8
420
  8421504
176
     1
 90
        1
176
     1
 90
        4
176
     1
 62
     7
176
     1
 62
   257
176
     1
 90
        1
176
     1
 90
        1
176
     1
 40
1.0
176
     1
 90
        8
176
     1
 62
     8
420
  8421504
176
     1
 40
1.0
176
     1
 90
        1
176
     1
 90
        6
176
     1
 90
        2
176
     1
 62
     7
176
     1
 90
        5
176
     1
 90
        0
176
     1
 90
        0
176
     1
290
     0
176
     1
 90
        1
176
     1
 40
0.0
176
     1
 90
        0
176
     1
290
     0
176
     1
290
     1
176
     1
290
     1
176
     1
290
     0
176
     1
290
     0
176
     1
290
     0
176
     1
290
     0
176
     1
290
     0
176
     1
290
     0
176
     1
 90
       50
176
     1
 40
0.0
176
     1
 40
1.0
176
     1
 90
        0
176
     1
 62
    18
420
        0
176
     1
 90
       50
176
     1
 90
        3
176
     1
 62
     5
420
      255
176
     1
290
     0
176
     1
 90
       50
176
     1
 90
       50
176
     1
 90
       50
176
     1
290
     0
176
     1
 90
       50
176
     1
 62
   256
176
     0
 40
1.0
176
     0
 90
        2
176
     1
  1
strokes_ogs.tif
176
     1
290
     0
176
     1
 40
1.0
176
     1
 40
1.0
176
     1
  0
VISUALSTYLE
  5
34
102
{ACAD_REACTORS
330
2A
102
}
330
2A
100
AcDbVisualStyle
  2
Conceptual
 70
     9
177
     3
291
     0
 70
    58
 90
        3
176
     1
 90
        2
176
     1
 90
        0
176
     1
 90
        0
176
     1
 40
0.6
176
     1
 40
30.0
176
     1
 62
     7
420
 16777215
176
     1
 90
        2
176
     1
 90
        2
176
     1
 62
     7
176
     1
 62
   257
176
     1
 90
        1
176
     1
 90
        1
176
     1
 40
179.0
176
     1
 90
        8
176
     1
 62
     7
176
     1
 40
1.0
176
     1
 90
        1
176
     1
 90
        6
176
     1
 90
        2
176
     1
 62
     7
176
     1
 90
        3
176
     1
 90
        0
176
     1
 90
        0
176
     1
290
     0
176
     1
 90
        1
176
     1
 40
0.0
176
     1
 90
        0
176
     1
290
     0
176
     1
290
     1
176
     1
290
     1
176
     1
290
     0
176
     1
290
     0
176
     1
290
     0
176
     1
290
     0
176
     1
290
     0
176
     1
290
     0
176
     1
 90
       50
176
     1
 40
0.0
176
     1
 40
1.0
176
     1
 90
        0
176
     1
 62
    18
420
        0
176
     1
 90
       50
176
     1
 90
        3
176
     1
 62
     5
420
      255
176
     1
290
     0
176
     1
 90
       50
176
     1
 90
       50
176
     1
 90
       50
176
     1
290
     0
176
     1
 90
       50
176
     1
 62
   256
176
     0
 40
1.0
176
     0
 90
        2
176
     1
  1
strokes_ogs.tif
176
     1
290
     0
176
     1
 40
1.0
176
     1
 40
1.0
176
     1
  0
VISUALSTYLE
  5
35
102
{ACAD_REACTORS
330
2A
102
}
330
2A
100
AcDbVisualStyle
  2
Dim
 70
    11
177
     3
291
     1
 70
    58
 90
        2
176
     1
 90
        2
176
     1
 90
        0
176
     1
 90
        0
176
     1
 40
0.6
176
     1
 40
30.0
176
     1
 62
     7
420
 16777215
176
     1
 90
        1
176
     1
 90
        4
176
     1
 62
     7
176
     1
 62
   257
176
     1
 90
        1
176
     1
 90
        1
176
     1
 40
1.0
176
     1
 90
        8
176
     1
 62
     7
176
     1
 40
1.0
176
     1
 90
        1
176
     1
 90
        6
176
     1
 90
        2
176
     1
 62
     7
176
     1
 90
        5
176
     1
 90
        0
176
     1
 90
        0
176
     1
290
     0
176
     1
 90
        1
176
     1
 40
-50.0
176
     1
 90
        0
176
     1
290
     0
176
     1
290
     1
176
     1
290
     1
176
     1
290
     0
176
     1
290
     0
176
     1
290
     0
176
     1
290
     0
176
     1
290
     0
176
     1
290
     0
176
     1
 90
       50
176
     1
 40
0.0
176
     1
 40
1.0
176
     1
 90
        0
176
     1
 62
    18
420
        0
176
     1
 90
       50
176
     1
 90
        3
176
     1
 62
     5
420
      255
176
     1
290
     0
176
     1
 90
       50
176
     1
 90
       50
176
     1
 90
       50
176
     1
290
     0
176
     1
 90
       50
176
     1
 62
   256
176
     0
 40
1.0
176
     0
 90
        2
176
     1
  1
strokes_ogs.tif
176
     1
290
     0
176
     1
 40
1.0
176
     1
 40
1.0
176
     1
  0
VISUALSTYLE
  5
3D
102
{ACAD_REACTORS
330
2A
102
}
330
2A
100
AcDbVisualStyle
  2
EdgeColorOff
 70
    22
177
     3
291
     1
 70
    58
 90
        2
176
     0
 90
        2
176
     0
 90
        0
176
     0
 90
        0
176
     0
 40
0.6
176
     0
 40
30.0
176
     0
 62
     7
420
 16777215
176
     0
 90
        1
176
     0
 90
        4
176
     0
 62
     7
176
     0
 62
   257
176
     0
 90
        1
176
     0
 90
        1
176
     0
 40
1.0
176
     0
 90
        8
176
     2
 62
     7
176
     0
 40
1.0
176
     0
 90
        1
176
     0
 90
        6
176
     0
 90
        2
176
     0
 62
     7
176
     0
 90
        5
176
     0
 90
        0
176
     0
 90
        0
176
     0
290
     0
176
     0
 90
        1
176
     0
 40
0.0
176
     0
 90
        0
176
     0
290
     0
176
     0
290
     1
176
     0
290
     1
176
     0
290
     0
176
     0
290
     0
176
     0
290
     0
176
     0
290
     0
176
     0
290
     0
176
     0
290
     0
176
     0
 90
       50
176
     0
 40
0.0
176
     0
 40
1.0
176
     0
 90
        0
176
     0
 62
    18
420
        0
176
     0
 90
       50
176
     0
 90
        3
176
     0
 62
     5
420
      255
176
     0
290
     0
176
     0
 90
       50
176
     0
 90
       50
176
     0
 90
       50
176
     0
290
     0
176
     0
 90
       50
176
     0
 62
   256
176
     0
 40
1.0
176
     0
 90
        2
176
     0
  1
strokes_ogs.tif
176
     0
290
     0
176
     0
 40
1.0
176
     0
 40
1.0
176
     0
  0
VISUALSTYLE
  5
39
102
{ACAD_REACTORS
330
2A
102
}
330
2A
100
AcDbVisualStyle
  2
Facepattern
 70
    15
177
     3
291
     1
 70
    58
 90
        2
176
     1
 90
        2
176
     1
 90
        0
176
     1
 90
        0
176
     1
 40
0.6
176
     1
 40
30.0
176
     1
 62
     7
420
 16777215
176
     1
 90
        1
176
     1
 90
        4
176
     1
 62
     7
176
     1
 62
   257
176
     1
 90
        1
176
     1
 90
        1
176
     1
 40
1.0
176
     1
 90
        8
176
     1
 62
     7
176
     1
 40
1.0
176
     1
 90
        1
176
     1
 90
        6
176
     1
 90
        2
176
     1
 62
     7
176
     1
 90
        5
176
     1
 90
        0
176
     1
 90
        0
176
     1
290
     0
176
     1
 90
        1
176
     1
 40
0.0
176
     1
 90
        0
176
     1
290
     0
176
     1
290
     1
176
     1
290
     1
176
     1
290
     0
176
     1
290
     0
176
     1
290
     0
176
     1
290
     0
176
     1
290
     0
176
     1
290
     0
176
     1
 90
       50
176
     1
 40
0.0
176
     1
 40
1.0
176
     1
 90
        0
176
     1
 62
    18
420
        0
176
     1
 90
       50
176
     1
 90
        3
176
     1
 62
     5
420
      255
176
     1
290
     0
176
     1
 90
       50
176
     1
 90
       50
176
     1
 90
       50
176
     1
290
     0
176
     1
 90
       50
176
     1
 62
   256
176
     0
 40
1.0
176
     0
 90
        2
176
     1
  1
strokes_ogs.tif
176
     1
290
     0
176
     1
 40
1.0
176
     1
 40
1.0
176
     1
  0
VISUALSTYLE
  5
2B
102
{ACAD_REACTORS
330
2A
102
}
330
2A
100
AcDbVisualStyle
  2
Flat
 70
     0
177
     3
291
     1
 70
    58
 90
        2
176
     1
 90
        1
176
     1
 90
        1
176
     1
 90
        2
176
     1
 40
0.6
176
     1
 40
30.0
176
     1
 62
     7
420
 16777215
176
     1
 90
        0
176
     1
 90
        0
176
     1
 62
     7
176
     1
 62
   257
176
     1
 90
        1
176
     1
 90
        1
176
     1
 40
1.0
176
     1
 90
        8
176
     1
 62
     7
176
     1
 40
1.0
176
     1
 90
        1
176
     1
 90
        6
176
     1
 90
        2
176
     1
 62
     7
176
     1
 90
        5
176
     1
 90
        0
176
     1
 90
        0
176
     1
290
     0
176
     1
 90
       13
176
     1
 40
0.0
176
     1
 90
        0
176
     1
290
     0
176
     1
290
     1
176
     1
290
     1
176
     1
290
     0
176
     1
290
     0
176
     1
290
     0
176
     1
290
     0
176
     1
290
     0
176
     1
290
     0
176
     1
 90
       50
176
     1
 40
0.0
176
     1
 40
1.0
176
     1
 90
        0
176
     1
 62
    18
420
        0
176
     1
 90
       50
176
     1
 90
        3
176
     1
 62
     5
420
      255
176
     1
290
     0
176
     1
 90
       50
176
     1
 90
       50
176
     1
 90
       50
176
     1
290
     0
176
     1
 90
       50
176
     1
 62
   256
176
     0
 40
1.0
176
     0
 90
        2
176
     1
  1
strokes_ogs.tif
176
     1
290
     0
176
     1
 40
1.0
176
     1
 40
1.0
176
     1
  0
VISUALSTYLE
  5
2C
102
{ACAD_REACTORS
330
2A
102
}
330
2A
100
AcDbVisualStyle
  2
FlatWithEdges
 70
     1
177
     3
291
     1
 70
    58
 90
        2
176
     1
 90
        1
176
     1
 90
        1
176
     1
 90
        2
176
     1
 40
0.6
176
     1
 40
30.0
176
     1
 62
     7
420
 16777215
176
     1
 90
        1
176
     1
 90
        0
176
     1
 62
     7
176
     1
 62
   257
176
     1
 90
        1
176
     1
 90
        1
176
     1
 40
1.0
176
     1
 90
        0
176
     1
 62
   257
176
     1
 40
1.0
176
     1
 90
        1
176
     1
 90
        6
176
     1
 90
        2
176
     1
 62
     7
176
     1
 90
        5
176
     1
 90
        0
176
     1
 90
        0
176
     1
290
     0
176
     1
 90
       13
176
     1
 40
0.0
176
     1
 90
        0
176
     1
290
     0
176
     1
290
     1
176
     1
290
     1
176
     1
290
     0
176
     1
290
     0
176
     1
290
     0
176
     1
290
     0
176
     1
290
     0
176
     1
290
     0
176
     1
 90
       50
176
     1
 40
0.0
176
     1
 40
1.0
176
     1
 90
        0
176
     1
 62
    18
420
        0
176
     1
 90
       50
176
     1
 90
        3
176
     1
 62
     5
420
      255
176
     1
290
     0
176
     1
 90
       50
176
     1
 90
       50
176
     1
 90
       50
176
     1
290
     0
176
     1
 90
       50
176
     1
 62
   256
176
     0
 40
1.0
176
     0
 90
        2
176
     1
  1
strokes_ogs.tif
176
     1
290
     0
176
     1
 40
1.0
176
     1
 40
1.0
176
     1
  0
VISUALSTYLE
  5
2D
102
{ACAD_REACTORS
330
2A
102
}
330
2A
100
AcDbVisualStyle
  2
Gouraud
 70
     2
177
     3
291
     1
 70
    58
 90
        2
176
     1
 90
        2
176
     1
 90
        1
176
     1
 90
        2
176
     1
 40
0.6
176
     1
 40
30.0
176
     1
 62
     7
420
 16777215
176
     1
 90
        0
176
     1
 90
        0
176
     1
 62
     7
176
     1
 62
   257
176
     1
 90
        1
176
     1
 90
        1
176
     1
 40
1.0
176
     1
 90
        0
176
     1
 62
     7
176
     1
 40
1.0
176
     1
 90
        1
176
     1
 90
        6
176
     1
 90
        2
176
     1
 62
     7
176
     1
 90
        5
176
     1
 90
        0
176
     1
 90
        0
176
     1
290
     0
176
     1
 90
       13
176
     1
 40
0.0
176
     1
 90
        0
176
     1
290
     0
176
     1
290
     1
176
     1
290
     1
176
     1
290
     0
176
     1
290
     0
176
     1
290
     0
176
     1
290
     0
176
     1
290
     0
176
     1
290
     0
176
     1
 90
       50
176
     1
 40
0.0
176
     1
 40
1.0
176
     1
 90
        0
176
     1
 62
    18
420
        0
176
     1
 90
       50
176
     1
 90
        3
176
     1
 62
     5
420
      255
176
     1
290
     0
176
     1
 90
       50
176
     1
 90
       50
176
     1
 90
       50
176
     1
290
     0
176
     1
 90
       50
176
     1
 62
   256
176
     0
 40
1.0
176
     0
 90
        2
176
     1
  1
strokes_ogs.tif
176
     1
290
     0
176
     1
 40
1.0
176
     1
 40
1.0
176
     1
  0
VISUALSTYLE
  5
2E
102
{ACAD_REACTORS
330
2A
102
}
330
2A
100
AcDbVisualStyle
  2
GouraudWithEdges
 70
     3
177
     3
291
     1
 70
    58
 90
        2
176
     1
 90
        2
176
     1
 90
        1
176
     1
 90
        2
176
     1
 40
0.6
176
     1
 40
30.0
176
     1
 62
     7
420
 16777215
176
     1
 90
        1
176
     1
 90
        0
176
     1
 62
     7
176
     1
 62
   257
176
     1
 90
        1
176
     1
 90
        1
176
     1
 40
1.0
176
     1
 90
        0
176
     1
 62
   257
176
     1
 40
1.0
176
     1
 90
        1
176
     1
 90
        6
176
     1
 90
        2
176
     1
 62
     7
176
     1
 90
        5
176
     1
 90
        0
176
     1
 90
        0
176
     1
290
     0
176
     1
 90
       13
176
     1
 40
0.0
176
     1
 90
        0
176
     1
290
     0
176
     1
290
     1
176
     1
290
     1
176
     1
290
     0
176
     1
290
     0
176
     1
290
     0
176
     1
290
     0
176
     1
290
     0
176
     1
290
     0
176
     1
 90
       50
176
     1
 40
0.0
176
     1
 40
1.0
176
     1
 90
        0
176
     1
 62
    18
420
        0
176
     1
 90
       50
176
     1
 90
        3
176
     1
 62
     5
420
      255
176
     1
290
     0
176
     1
 90
       50
176
     1
 90
       50
176
     1
 90
       50
176
     1
290
     0
176
     1
 90
       50
176
     1
 62
   256
176
     0
 40
1.0
176
     0
 90
        2
176
     1
  1
strokes_ogs.tif
176
     1
290
     0
176
     1
 40
1.0
176
     1
 40
1.0
176
     1
  0
VISUALSTYLE
  5
31
102
{ACAD_REACTORS
330
2A
102
}
330
2A
100
AcDbVisualStyle
  2
Hidden
 70
     6
177
     3
291
     0
 70
    58
 90
        1
176
     1
 90
        2
176
     1
 90
        2
176
     1
 90
        0
176
     1
 40
0.6
176
     1
 40
30.0
176
     1
 62
     7
420
 16777215
176
     1
 90
        2
176
     1
 90
        2
176
     1
 62
     7
176
     1
 62
   257
176
     1
 90
        2
176
     1
 90
        1
176
     1
 40
40.0
176
     1
 90
        0
176
     1
 62
   257
176
     1
 40
1.0
176
     1
 90
        1
176
     1
 90
        6
176
     1
 90
        2
176
     1
 62
     7
176
     1
 90
        3
176
     1
 90
        0
176
     1
 90
        0
176
     1
290
     0
176
     1
 90
        1
176
     1
 40
0.0
176
     1
 90
        0
176
     1
290
     0
176
     1
290
     1
176
     1
290
     1
176
     1
290
     0
176
     1
290
     0
176
     1
290
     0
176
     1
290
     0
176
     1
290
     0
176
     1
290
     0
176
     1
 90
       50
176
     1
 40
0.0
176
     1
 40
1.0
176
     1
 90
        0
176
     1
 62
    18
420
        0
176
     1
 90
       50
176
     1
 90
        3
176
     1
 62
     5
420
      255
176
     1
290
     0
176
     1
 90
       50
176
     1
 90
       50
176
     1
 90
       50
176
     1
290
     0
176
     1
 90
       50
176
     1
 62
   256
176
     0
 40
1.0
176
     0
 90
        2
176
     1
  1
strokes_ogs.tif
176
     1
290
     0
176
     1
 40
1.0
176
     1
 40
1.0
176
     1
  0
VISUALSTYLE
  5
3B
102
{ACAD_REACTORS
330
2A
102
}
330
2A
100
AcDbVisualStyle
  2
JitterOff
 70
    20
177
     3
291
     1
 70
    58
 90
        2
176
     0
 90
        2
176
     0
 90
        0
176
     0
 90
        0
176
     0
 40
0.6
176
     0
 40
30.0
176
     0
 62
     7
420
 16777215
176
     0
 90
        1
176
     0
 90
        4
176
     0
 62
     7
176
     0
 62
   257
176
     0
 90
        1
176
     0
 90
        1
176
     0
 40
1.0
176
     0
 90
       10
176
     2
 62
     7
176
     0
 40
1.0
176
     0
 90
        1
176
     0
 90
        6
176
     0
 90
        2
176
     0
 62
     7
176
     0
 90
        5
176
     0
 90
        0
176
     0
 90
        0
176
     0
290
     0
176
     0
 90
        1
176
     0
 40
0.0
176
     0
 90
        0
176
     0
290
     0
176
     0
290
     1
176
     0
290
     1
176
     0
290
     0
176
     0
290
     0
176
     0
290
     0
176
     0
290
     0
176
     0
290
     0
176
     0
290
     0
176
     0
 90
       50
176
     0
 40
0.0
176
     0
 40
1.0
176
     0
 90
        0
176
     0
 62
    18
420
        0
176
     0
 90
       50
176
     0
 90
        3
176
     0
 62
     5
420
      255
176
     0
290
     0
176
     0
 90
       50
176
     0
 90
       50
176
     0
 90
       50
176
     0
290
     0
176
     0
 90
       50
176
     0
 62
   256
176
     0
 40
1.0
176
     0
 90
        2
176
     0
  1
strokes_ogs.tif
176
     0
290
     0
176
     0
 40
1.0
176
     0
 40
1.0
176
     0
  0
VISUALSTYLE
  5
38
102
{ACAD_REACTORS
330
2A
102
}
330
2A
100
AcDbVisualStyle
  2
Linepattern
 70
    14
177
     3
291
     1
 70
    58
 90
        2
176
     1
 90
        2
176
     1
 90
        0
176
     1
 90
        0
176
     1
 40
0.6
176
     1
 40
30.0
176
     1
 62
     7
420
 16777215
176
     1
 90
        1
176
     1
 90
        4
176
     1
 62
     7
176
     1
 62
   257
176
     1
 90
        7
176
     1
 90
        7
176
     1
 40
1.0
176
     1
 90
        8
176
     1
 62
     7
176
     1
 40
1.0
176
     1
 90
        1
176
     1
 90
        6
176
     1
 90
        2
176
     1
 62
     7
176
     1
 90
        5
176
     1
 90
        0
176
     1
 90
        0
176
     1
290
     0
176
     1
 90
        1
176
     1
 40
0.0
176
     1
 90
        0
176
     1
290
     0
176
     1
290
     1
176
     1
290
     1
176
     1
290
     0
176
     1
290
     0
176
     1
290
     0
176
     1
290
     0
176
     1
290
     0
176
     1
290
     0
176
     1
 90
       50
176
     1
 40
0.0
176
     1
 40
1.0
176
     1
 90
        0
176
     1
 62
    18
420
        0
176
     1
 90
       50
176
     1
 90
        3
176
     1
 62
     5
420
      255
176
     1
290
     0
176
     1
 90
       50
176
     1
 90
       50
176
     1
 90
       50
176
     1
290
     0
176
     1
 90
       50
176
     1
 62
   256
176
     0
 40
1.0
176
     0
 90
        2
176
     1
  1
strokes_ogs.tif
176
     1
290
     0
176
     1
 40
1.0
176
     1
 40
1.0
176
     1
  0
VISUALSTYLE
  5
3C
102
{ACAD_REACTORS
330
2A
102
}
330
2A
100
AcDbVisualStyle
  2
OverhangOff
 70
    21
177
     3
291
     1
 70
    58
 90
        2
176
     0
 90
        2
176
     0
 90
        0
176
     0
 90
        0
176
     0
 40
0.6
176
     0
 40
30.0
176
     0
 62
     7
420
 16777215
176
     0
 90
        1
176
     0
 90
        4
176
     0
 62
     7
176
     0
 62
   257
176
     0
 90
        1
176
     0
 90
        1
176
     0
 40
1.0
176
     0
 90
        9
176
     2
 62
     7
176
     0
 40
1.0
176
     0
 90
        1
176
     0
 90
        6
176
     0
 90
        2
176
     0
 62
     7
176
     0
 90
        5
176
     0
 90
        0
176
     0
 90
        0
176
     0
290
     0
176
     0
 90
        1
176
     0
 40
0.0
176
     0
 90
        0
176
     0
290
     0
176
     0
290
     1
176
     0
290
     1
176
     0
290
     0
176
     0
290
     0
176
     0
290
     0
176
     0
290
     0
176
     0
290
     0
176
     0
290
     0
176
     0
 90
       50
176
     0
 40
0.0
176
     0
 40
1.0
176
     0
 90
        0
176
     0
 62
    18
420
        0
176
     0
 90
       50
176
     0
 90
        3
176
     0
 62
     5
420
      255
176
     0
290
     0
176
     0
 90
       50
176
     0
 90
       50
176
     0
 90
       50
176
     0
290
     0
176
     0
 90
       50
176
     0
 62
   256
176
     0
 40
1.0
176
     0
 90
        2
176
     0
  1
strokes_ogs.tif
176
     0
290
     0
176
     0
 40
1.0
176
     0
 40
1.0
176
     0
  0
VISUALSTYLE
  5
33
102
{ACAD_REACTORS
330
2A
102
}
330
2A
100
AcDbVisualStyle
  2
Realistic
 70
     8
177
     3
291
     0
 70
    58
 90
        2
176
     1
 90
        3
176
     1
 90
        0
176
     1
 90
        2
176
     1
 40
0.6
176
     1
 40
30.0
176
     1
 62
     7
420
 16777215
176
     1
 90
        0
176
     1
 90
        0
176
     1
 62
     7
176
     1
 62
   257
176
     1
 90
        1
176
     1
 90
        1
176
     1
 40
1.0
176
     1
 90
        8
176
     1
 62
   257
176
     1
 40
1.0
176
     1
 90
        1
176
     1
 90
        6
176
     1
 90
        2
176
     1
 62
     7
176
     1
 90
        3
176
     1
 90
        0
176
     1
 90
        0
176
     1
290
     0
176
     1
 90
       13
176
     1
 40
0.0
176
     1
 90
        0
176
     1
290
     0
176
     1
290
     1
176
     1
290
     1
176
     1
290
     0
176
     1
290
     0
176
     1
290
     0
176
     1
290
     0
176
     1
290
     0
176
     1
290
     0
176
     1
 90
       50
176
     1
 40
0.0
176
     1
 40
1.0
176
     1
 90
        0
176
     1
 62
    18
420
        0
176
     1
 90
       50
176
     1
 90
        3
176
     1
 62
     5
420
      255
176
     1
290
     0
176
     1
 90
       50
176
     1
 90
       50
176
     1
 90
       50
176
     1
290
     0
176
     1
 90
       50
176
     1
 62
   256
176
     0
 40
1.0
176
     0
 90
        2
176
     1
  1
strokes_ogs.tif
176
     1
290
     0
176
     1
 40
1.0
176
     1
 40
1.0
176
     1
  0
VISUALSTYLE
  5
42
102
{ACAD_REACTORS
330
2A
102
}
330
2A
100
AcDbVisualStyle
  2
Shaded
 70
    27
177
     3
291
     0
 70
    58
 90
        2
176
     1
 90
        2
176
     1
 90
        1
176
     1
 90
        2
176
     1
 40
0.6
176
     1
 40
30.0
176
     1
 62
     7
420
 16777215
176
     1
 90
        0
176
     1
 90
        4
176
     1
 62
     7
176
     1
 62
   257
176
     1
 90
        1
176
     1
 90
        1
176
     1
 40
1.0
176
     1
 90
        8
176
     1
 62
   257
176
     1
 40
1.0
176
     1
 90
        1
176
     1
 90
        6
176
     1
 90
        2
176
     1
 62
     8
420
  7895160
176
     1
 90
        3
176
     1
 90
        0
176
     1
 90
        0
176
     1
290
     0
176
     1
 90
        5
176
     1
 40
0.0
176
     1
 90
        0
176
     1
290
     0
176
     1
290
     1
176
     1
290
     1
176
     1
290
     0
176
     1
290
     0
176
     1
290
     0
176
     1
290
     0
176
     1
290
     0
176
     1
290
     0
176
     1
 90
       50
176
     1
 40
0.0
176
     1
 40
1.0
176
     1
 90
        0
176
     1
 62
    18
420
        0
176
     1
 90
       50
176
     1
 90
        3
176
     1
 62
     5
420
      255
176
     1
290
     0
176
     1
 90
       50
176
     1
 90
       50
176
     1
 90
       50
176
     1
290
     0
176
     1
 90
       50
176
     1
 62
   256
176
     0
 40
1.0
176
     0
 90
        2
176
     1
  1
strokes_ogs.tif
176
     1
290
     0
176
     1
 40
1.0
176
     1
 40
1.0
176
     1
  0
VISUALSTYLE
  5
41
102
{ACAD_REACTORS
330
2A
102
}
330
2A
100
AcDbVisualStyle
  2
Shaded with edges
 70
    26
177
     3
291
     0
 70
    58
 90
        2
176
     1
 90
        2
176
     1
 90
        1
176
     1
 90
        2
176
     1
 40
0.6
176
     1
 40
30.0
176
     1
 62
     7
420
 16777215
176
     1
 90
        1
176
     1
 90
       10
176
     1
 62
     7
176
     1
 62
   257
176
     1
 90
        2
176
     1
 90
        1
176
     1
 40
1.0
176
     1
 90
        8
176
     1
 62
   257
176
     1
 40
1.0
176
     1
 90
        1
176
     1
 90
        6
176
     1
 90
        2
176
     1
 62
     7
176
     1
 90
        3
176
     1
 90
        0
176
     1
 90
        0
176
     1
290
     0
176
     1
 90
        5
176
     1
 40
0.0
176
     1
 90
        0
176
     1
290
     0
176
     1
290
     1
176
     1
290
     1
176
     1
290
     0
176
     1
290
     0
176
     1
290
     0
176
     1
290
     0
176
     1
290
     0
176
     1
290
     0
176
     1
 90
       50
176
     1
 40
0.0
176
     1
 40
1.0
176
     1
 90
        0
176
     1
 62
    18
420
        0
176
     1
 90
       50
176
     1
 90
        3
176
     1
 62
     5
420
      255
176
     1
290
     0
176
     1
 90
       50
176
     1
 90
       50
176
     1
 90
       50
176
     1
290
     0
176
     1
 90
       50
176
     1
 62
   256
176
     0
 40
1.0
176
     0
 90
        2
176
     1
  1
strokes_ogs.tif
176
     1
290
     0
176
     1
 40
1.0
176
     1
 40
1.0
176
     1
  0
VISUALSTYLE
  5
3E
102
{ACAD_REACTORS
330
2A
102
}
330
2A
100
AcDbVisualStyle
  2
Shades of Gray
 70
    23
177
     3
291
     0
 70
    58
 90
        2
176
     1
 90
        2
176
     1
 90
        3
176
     1
 90
        0
176
     1
 40
0.6
176
     1
 40
30.0
176
     1
 62
     7
420
 16777215
176
     1
 90
        2
176
     1
 90
        2
176
     1
 62
     7
176
     1
 62
     7
176
     1
 90
        1
176
     1
 90
        1
176
     1
 40
40.0
176
     1
 90
        8
176
     1
 62
     7
176
     1
 40
1.0
176
     1
 90
        1
176
     1
 90
        6
176
     1
 90
        2
176
     1
 62
     7
176
     1
 90
        3
176
     1
 90
        0
176
     1
 90
        0
176
     1
290
     0
176
     1
 90
        1
176
     1
 40
0.0
176
     1
 90
        0
176
     1
290
     0
176
     1
290
     1
176
     1
290
     1
176
     1
290
     0
176
     1
290
     0
176
     1
290
     0
176
     1
290
     0
176
     1
290
     0
176
     1
290
     0
176
     1
 90
       50
176
     1
 40
0.0
176
     1
 40
1.0
176
     1
 90
        0
176
     1
 62
    18
420
        0
176
     1
 90
       50
176
     1
 90
        3
176
     1
 62
     5
420
      255
176
     1
290
     0
176
     1
 90
       50
176
     1
 90
       50
176
     1
 90
       50
176
     1
290
     0
176
     1
 90
       50
176
     1
 62
   256
176
     0
 40
1.0
176
     0
 90
        2
176
     1
  1
strokes_ogs.tif
176
     1
290
     0
176
     1
 40
1.0
176
     1
 40
1.0
176
     1
  0
VISUALSTYLE
  5
3F
102
{ACAD_REACTORS
330
2A
102
}
330
2A
100
AcDbVisualStyle
  2
Sketchy
 70
    24
177
     3
291
     0
 70
    58
 90
        1
176
     1
 90
        2
176
     1
 90
        2
176
     1
 90
        0
176
     1
 40
0.6
176
     1
 40
30.0
176
     1
 62
     7
420
 16777215
176
     1
 90
        2
176
     1
 90
        2
176
     1
 62
     7
176
     1
 62
     7
176
     1
 90
        1
176
     1
 90
        1
176
     1
 40
40.0
176
     1
 90
       11
176
     1
 62
     7
176
     1
 40
1.0
176
     1
 90
        1
176
     1
 90
        6
176
     1
 90
        2
176
     1
 62
     7
176
     1
 90
        6
176
     1
 90
        0
176
     1
 90
        0
176
     1
290
     0
176
     1
 90
        1
176
     1
 40
0.0
176
     1
 90
        0
176
     1
290
     0
176
     1
290
     1
176
     1
290
     1
176
     1
290
     0
176
     1
290
     0
176
     1
290
     0
176
     1
290
     0
176
     1
290
     0
176
     1
290
     0
176
     1
 90
       50
176
     1
 40
0.0
176
     1
 40
1.0
176
     1
 90
        0
176
     1
 62
    18
420
        0
176
     1
 90
       50
176
     1
 90
        3
176
     1
 62
     5
420
      255
176
     1
290
     0
176
     1
 90
       50
176
     1
 90
       50
176
     1
 90
       50
176
     1
290
     0
176
     1
 90
       50
176
     1
 62
   256
176
     0
 40
1.0
176
     0
 90
        2
176
     1
  1
strokes_ogs.tif
176
     1
290
     0
176
     1
 40
1.0
176
     1
 40
1.0
176
     1
  0
VISUALSTYLE
  5
37
102
{ACAD_REACTORS
330
2A
102
}
330
2A
100
AcDbVisualStyle
  2
Thicken
 70
    13
177
     3
291
     1
 70
    58
 90
        2
176
     1
 90
        2
176
     1
 90
        0
176
     1
 90
        0
176
     1
 40
0.6
176
     1
 40
30.0
176
     1
 62
     7
420
 16777215
176
     1
 90
        1
176
     1
 90
        4
176
     1
 62
     7
176
     1
 62
   257
176
     1
 90
        1
176
     1
 90
        1
176
     1
 40
1.0
176
     1
 90
       12
176
     1
 62
     7
176
     1
 40
1.0
176
     1
 90
        1
176
     1
 90
        6
176
     1
 90
        2
176
     1
 62
     7
176
     1
 90
        5
176
     1
 90
        0
176
     1
 90
        0
176
     1
290
     0
176
     1
 90
        1
176
     1
 40
0.0
176
     1
 90
        0
176
     1
290
     0
176
     1
290
     1
176
     1
290
     1
176
     1
290
     0
176
     1
290
     0
176
     1
290
     0
176
     1
290
     0
176
     1
290
     0
176
     1
290
     0
176
     1
 90
       50
176
     1
 40
0.0
176
     1
 40
1.0
176
     1
 90
        0
176
     1
 62
    18
420
        0
176
     1
 90
       50
176
     1
 90
        3
176
     1
 62
     5
420
      255
176
     1
290
     0
176
     1
 90
       50
176
     1
 90
       50
176
     1
 90
       50
176
     1
290
     0
176
     1
 90
       50
176
     1
 62
   256
176
     0
 40
1.0
176
     0
 90
        2
176
     1
  1
strokes_ogs.tif
176
     1
290
     0
176
     1
 40
1.0
176
     1
 40
1.0
176
     1
  0
VISUALSTYLE
  5
30
102
{ACAD_REACTORS
330
2A
102
}
330
2A
100
AcDbVisualStyle
  2
Wireframe
 70
     5
177
     3
291
     0
 70
    58
 90
        0
176
     1
 90
        2
176
     1
 90
        0
176
     1
 90
        0
176
     1
 40
0.6
176
     1
 40
30.0
176
     1
 62
     7
420
 16777215
176
     1
 90
        1
176
     1
 90
        4
176
     1
 62
     7
176
     1
 62
   257
176
     1
 90
        1
176
     1
 90
        1
176
     1
 40
1.0
176
     1
 90
        0
176
     1
 62
   257
176
     1
 40
1.0
176
     1
 90
        1
176
     1
 90
        6
176
     1
 90
        2
176
     1
 62
     7
176
     1
 90
        3
176
     1
 90
        0
176
     1
 90
        0
176
     1
290
     0
176
     1
 90
        1
176
     1
 40
0.0
176
     1
 90
        0
176
     1
290
     0
176
     1
290
     1
176
     1
290
     1
176
     1
290
     0
176
     1
290
     0
176
     1
290
     0
176
     1
290
     0
176
     1
290
     0
176
     1
290
     0
176
     1
 90
       50
176
     1
 40
0.0
176
     1
 40
1.0
176
     1
 90
        0
176
     1
 62
    18
420
        0
176
     1
 90
       50
176
     1
 90
        3
176
     1
 62
     5
420
      255
176
     1
290
     0
176
     1
 90
       50
176
     1
 90
       50
176
     1
 90
       50
176
     1
290
     0
176
     1
 90
       50
176
     1
 62
   256
176
     0
 40
1.0
176
     0
 90
        2
176
     1
  1
strokes_ogs.tif
176
     1
290
     0
176
     1
 40
1.0
176
     1
 40
1.0
176
     1
  0
VISUALSTYLE
  5
40
102
{ACAD_REACTORS
330
2A
102
}
330
2A
100
AcDbVisualStyle
  2
X-Ray
 70
    25
177
     3
291
     0
 70
    58
 90
        2
176
     1
 90
        2
176
     1
 90
        1
176
     1
 90
        1
176
     1
 40
0.5
176
     1
 40
30.0
176
     1
 62
     7
420
 16777215
176
     1
 90
        1
176
     1
 90
        0
176
     1
 62
     7
176
     1
 62
   257
176
     1
 90
        1
176
     1
 90
        1
176
     1
 40
1.0
176
     1
 90
        8
176
     1
 62
     7
176
     1
 40
1.0
176
     1
 90
        1
176
     1
 90
        6
176
     1
 90
        2
176
     1
 62
     7
176
     1
 90
        3
176
     1
 90
        0
176
     1
 90
        0
176
     1
290
     0
176
     1
 90
       13
176
     1
 40
0.0
176
     1
 90
        0
176
     1
290
     0
176
     1
290
     1
176
     1
290
     1
176
     1
290
     0
176
     1
290
     0
176
     1
290
     0
176
     1
290
     0
176
     1
290
     0
176
     1
290
     0
176
     1
 90
       50
176
     1
 40
0.0
176
     1
 40
1.0
176
     1
 90
        0
176
     1
 62
    18
420
        0
176
     1
 90
       50
176
     1
 90
        3
176
     1
 62
     5
420
      255
176
     1
290
     0
176
     1
 90
       50
176
     1
 90
       50
176
     1
 90
       50
176
     1
290
     0
176
     1
 90
       50
176
     1
 62
   256
176
     0
 40
1.0
176
     0
 90
        2
176
     1
  1
strokes_ogs.tif
176
     1
290
     0
176
     1
 40
1.0
176
     1
 40
1.0
176
     1
  0
DICTIONARYVAR
  5
1F1
102
{ACAD_REACTORS
330
1F0
102
}
330
1F0
100
DictionaryVariables
280
     0
  1
1:1
  0
DICTIONARYVAR
  5
1F6
102
{ACAD_REACTORS
330
1F0
102
}
330
1F0
100
DictionaryVariables
280
     0
  1
Standard
  0
DICTIONARYVAR
  5
1F5
102
{ACAD_REACTORS
330
1F0
102
}
330
1F0
100
DictionaryVariables
280
     0
  1
Standard
  0
DICTIONARY
  5
1F2
330
6A
100
AcDbDictionary
280
     1
281
     1
  3
ACAD_ROUNDTRIP_2008_TABLESTYLE_CELLSTYLEMAP
360
1F3
  0
CELLSTYLEMAP
  5
1F3
102
{ACAD_REACTORS
330
1F2
102
}
330
1F2
100
AcDbCellStyleMap
 90
        3
300
CELLSTYLE
  1
TABLEFORMAT_BEGIN
 90
        5
170
     1
 91
        0
 92
    32768
 62
   257
 93
        1
300
CONTENTFORMAT
  1
CONTENTFORMAT_BEGIN
 90
        0
 91
        0
 92
        4
 93
        0
300

 40
0.0
140
1.0
 94
        5
 62
     0
340
11
144
6.0
309
CONTENTFORMAT_END
171
     1
301
MARGIN
  1
CELLMARGIN_BEGIN
 40
1.5
 40
1.5
 40
1.5
 40
1.5
 40
1.5
 40
1.5
309
CELLMARGIN_END
 94
        6
 95
        1
302
GRIDFORMAT
  1
GRIDFORMAT_BEGIN
 90
        0
 91
        1
 62
     0
 92
       -2
340
14
 93
        0
 40
0.045
309
GRIDFORMAT_END
 95
        2
302
GRIDFORMAT
  1
GRIDFORMAT_BEGIN
 90
        0
 91
        1
 62
     0
 92
       -2
340
14
 93
        0
 40
0.045
309
GRIDFORMAT_END
 95
        4
302
GRIDFORMAT
  1
GRIDFORMAT_BEGIN
 90
        0
 91
        1
 62
     0
 92
       -2
340
14
 93
        0
 40
0.045
309
GRIDFORMAT_END
 95
        8
302
GRIDFORMAT
  1
GRIDFORMAT_BEGIN
 90
        0
 91
        1
 62
     0
 92
       -2
340
14
 93
        0
 40
0.045
309
GRIDFORMAT_END
 95
       16
302
GRIDFORMAT
  1
GRIDFORMAT_BEGIN
 90
        0
 91
        1
 62
     0
 92
       -2
340
14
 93
        0
 40
0.045
309
GRIDFORMAT_END
 95
       32
302
GRIDFORMAT
  1
GRIDFORMAT_BEGIN
 90
        0
 91
        1
 62
     0
 92
       -2
340
14
 93
        0
 40
0.045
309
GRIDFORMAT_END
309
TABLEFORMAT_END
  1
CELLSTYLE_BEGIN
 90
        1
 91
        1
300
_TITLE
309
CELLSTYLE_END
300
CELLSTYLE
  1
TABLEFORMAT_BEGIN
 90
        5
170
     1
 91
        0
 92
        0
 62
   257
 93
        1
300
CONTENTFORMAT
  1
CONTENTFORMAT_BEGIN
 90
        0
 91
        0
 92
        4
 93
        0
300

 40
0.0
140
1.0
 94
        5
 62
     0
340
11
144
4.5
309
CONTENTFORMAT_END
171
     1
301
MARGIN
  1
CELLMARGIN_BEGIN
 40
1.5
 40
1.5
 40
1.5
 40
1.5
 40
1.5
 40
1.5
309
CELLMARGIN_END
 94
        6
 95
        1
302
GRIDFORMAT
  1
GRIDFORMAT_BEGIN
 90
        0
 91
        1
 62
     0
 92
       -2
340
14
 93
        0
 40
0.045
309
GRIDFORMAT_END
 95
        2
302
GRIDFORMAT
  1
GRIDFORMAT_BEGIN
 90
        0
 91
        1
 62
     0
 92
       -2
340
14
 93
        0
 40
0.045
309
GRIDFORMAT_END
 95
        4
302
GRIDFORMAT
  1
GRIDFORMAT_BEGIN
 90
        0
 91
        1
 62
     0
 92
       -2
340
14
 93
        0
 40
0.045
309
GRIDFORMAT_END
 95
        8
302
GRIDFORMAT
  1
GRIDFORMAT_BEGIN
 90
        0
 91
        1
 62
     0
 92
       -2
340
14
 93
        0
 40
0.045
309
GRIDFORMAT_END
 95
       16
302
GRIDFORMAT
  1
GRIDFORMAT_BEGIN
 90
        0
 91
        1
 62
     0
 92
       -2
340
14
 93
        0
 40
0.045
309
GRIDFORMAT_END
 95
       32
302
GRIDFORMAT
  1
GRIDFORMAT_BEGIN
 90
        0
 91
        1
 62
     0
 92
       -2
340
14
 93
        0
 40
0.045
309
GRIDFORMAT_END
309
TABLEFORMAT_END
  1
CELLSTYLE_BEGIN
 90
        2
 91
        1
300
_HEADER
309
CELLSTYLE_END
300
CELLSTYLE
  1
TABLEFORMAT_BEGIN
 90
        5
170
     1
 91
        0
 92
        0
 62
   257
 93
        1
300
CONTENTFORMAT
  1
CONTENTFORMAT_BEGIN
 90
        0
 91
        0
 92
        4
 93
        0
300

 40
0.0
140
1.0
 94
        2
 62
     0
340
11
144
4.5
309
CONTENTFORMAT_END
171
     1
301
MARGIN
  1
CELLMARGIN_BEGIN
 40
1.5
 40
1.5
 40
1.5
 40
1.5
 40
1.5
 40
1.5
309
CELLMARGIN_END
 94
        6
 95
        1
302
GRIDFORMAT
  1
GRIDFORMAT_BEGIN
 90
        0
 91
        1
 62
     0
 92
       -2
340
14
 93
        0
 40
0.045
309
GRIDFORMAT_END
 95
        2
302
GRIDFORMAT
  1
GRIDFORMAT_BEGIN
 90
        0
 91
        1
 62
     0
 92
       -2
340
14
 93
        0
 40
0.045
309
GRIDFORMAT_END
 95
        4
302
GRIDFORMAT
  1
GRIDFORMAT_BEGIN
 90
        0
 91
        1
 62
     0
 92
       -2
340
14
 93
        0
 40
0.045
309
GRIDFORMAT_END
 95
        8
302
GRIDFORMAT
  1
GRIDFORMAT_BEGIN
 90
        0
 91
        1
 62
     0
 92
       -2
340
14
 93
        0
 40
0.045
309
GRIDFORMAT_END
 95
       16
302
GRIDFORMAT
  1
GRIDFORMAT_BEGIN
 90
        0
 91
        1
 62
     0
 92
       -2
340
14
 93
        0
 40
0.045
309
GRIDFORMAT_END
 95
       32
302
GRIDFORMAT
  1
GRIDFORMAT_BEGIN
 90
        0
 91
        1
 62
     0
 92
       -2
340
14
 93
        0
 40
0.045
309
GRIDFORMAT_END
309
TABLEFORMAT_END
  1
CELLSTYLE_BEGIN
 90
        3
 91
        2
300
_DATA
309
CELLSTYLE_END
  0
ENDSEC
  0
EOF