0
SECTION
  2
HEADER
  9
$ACADVER
  1
AC1027
  9
$ACADMAINTVER
 70
     8
  9
$DWGCODEPAGE
  3
ANSI_1252
  9
$REQUIREDVERSIONS
160
                 0
  9
$COMMENTS
  1
File was created by Cadenas
  9
$CUSTOMPROPERTYTAG
  1
NN
  9
$CUSTOMPROPERTY
  1
Set Screw Medium Duty Extreme Duty Wide Slot Take Up Inch Bore
  9
$CUSTOMPROPERTYTAG
  1
NT
  9
$CUSTOMPROPERTY
  1
SCMED Take-Up Bearings -Wide Slot -(Normal Duty)
  9
$CUSTOMPROPERTYTAG
  1
NB
  9
$CUSTOMPROPERTY
  1
076201
  9
$CUSTOMPROPERTYTAG
  1
NBSYN
  9
$CUSTOMPROPERTY
  1
$PN.
  9
$CUSTOMPROPERTYTAG
  1
LINA
  9
$CUSTOMPROPERTY
  1
076201
  9
$CUSTOMPROPERTYTAG
  1
SERIES
  9
$CUSTOMPROPERTY
  1
215
  9
$CUSTOMPROPERTYTAG
  1
SS
  9
$CUSTOMPROPERTY
  1
2-11/16
  9
$CUSTOMPROPERTYTAG
  1
PN
  9
$CUSTOMPROPERTY
  1
076201
  9
$CUSTOMPROPERTYTAG
  1
DESCRIPTION
  9
$CUSTOMPROPERTY
  1
WSTU-SCMED-211
  9
$CUSTOMPROPERTYTAG
  1
W
  9
$CUSTOMPROPERTY
  1
19.0
  9
$CUSTOMPROPERTYTAG
  1
FS
  9
$CUSTOMPROPERTY
  1
WS515
  9
$CUSTOMPROPERTYTAG
  1
A
  9
$CUSTOMPROPERTY
  1
2.33
  9
$CUSTOMPROPERTYTAG
  1
B
  9
$CUSTOMPROPERTY
  1
9.13
  9
$CUSTOMPROPERTYTAG
  1
C
  9
$CUSTOMPROPERTY
  1
1.063
  9
$CUSTOMPROPERTYTAG
  1
D
  9
$CUSTOMPROPERTY
  1
4.75
  9
$CUSTOMPROPERTYTAG
  1
E
  9
$CUSTOMPROPERTY
  1
5.50
  9
$CUSTOMPROPERTYTAG
  1
F
  9
$CUSTOMPROPERTY
  1
1-1/2
  9
$CUSTOMPROPERTYTAG
  1
G
  9
$CUSTOMPROPERTY
  1
0.81
  9
$CUSTOMPROPERTYTAG
  1
H
  9
$CUSTOMPROPERTY
  1
1.25
  9
$CUSTOMPROPERTYTAG
  1
J
  9
$CUSTOMPROPERTY
  1
4.38
  9
$CUSTOMPROPERTYTAG
  1
K
  9
$CUSTOMPROPERTY
  1
2.75
  9
$CUSTOMPROPERTYTAG
  1
L
  9
$CUSTOMPROPERTY
  1
3.62
  9
$CUSTOMPROPERTYTAG
  1
M
  9
$CUSTOMPROPERTY
  1
5.923 / 5.953
  9
$CUSTOMPROPERTYTAG
  1
N
  9
$CUSTOMPROPERTY
  1
6.69
  9
$CUSTOMPROPERTYTAG
  1
R
  9
$CUSTOMPROPERTY
  1
0.86
  9
$CUSTOMPROPERTYTAG
  1
S
  9
$CUSTOMPROPERTY
  1
1.47
  9
$CUSTOMPROPERTYTAG
  1
T
  9
$CUSTOMPROPERTY
  1
2.75
  9
$CUSTOMPROPERTYTAG
  1
COMPANY
  9
$CUSTOMPROPERTY
  1
baldor
  9
$INSBASE
 10
0.0
 20
0.0
 30
0.0
  9
$EXTMIN
 10
1.000000000000000E+20
 20
1.000000000000000E+20
 30
1.000000000000000E+20
  9
$EXTMAX
 10
-1.000000000000000E+20
 20
-1.000000000000000E+20
 30
-1.000000000000000E+20
  9
$LIMMIN
 10
0.0
 20
0.0
  9
$LIMMAX
 10
12.0
 20
9.0
  9
$ORTHOMODE
 70
     0
  9
$REGENMODE
 70
     1
  9
$FILLMODE
 70
     1
  9
$QTEXTMODE
 70
     0
  9
$MIRRTEXT
 70
     1
  9
$LTSCALE
 40
1.0
  9
$ATTMODE
 70
     1
  9
$TEXTSIZE
 40
0.2
  9
$TRACEWID
 40
0.05
  9
$TEXTSTYLE
  7
Standard
  9
$CLAYER
  8
0
  9
$CELTYPE
  6
ByLayer
  9
$CECOLOR
 62
   256
  9
$CELTSCALE
 40
1.0
  9
$DISPSILH
 70
     0
  9
$DIMSCALE
 40
1.0
  9
$DIMASZ
 40
0.18
  9
$DIMEXO
 40
0.0625
  9
$DIMDLI
 40
0.38
  9
$DIMRND
 40
0.0
  9
$DIMDLE
 40
0.0
  9
$DIMEXE
 40
0.18
  9
$DIMTP
 40
0.0
  9
$DIMTM
 40
0.0
  9
$DIMTXT
 40
0.18
  9
$DIMCEN
 40
0.09
  9
$DIMTSZ
 40
0.0
  9
$DIMTOL
 70
     0
  9
$DIMLIM
 70
     0
  9
$DIMTIH
 70
     1
  9
$DIMTOH
 70
     1
  9
$DIMSE1
 70
     0
  9
$DIMSE2
 70
     0
  9
$DIMTAD
 70
     0
  9
$DIMZIN
 70
     0
  9
$DIMBLK
  1

  9
$DIMASO
 70
     1
  9
$DIMSHO
 70
     1
  9
$DIMPOST
  1

  9
$DIMAPOST
  1

  9
$DIMALT
 70
     0
  9
$DIMALTD
 70
     2
  9
$DIMALTF
 40
25.4
  9
$DIMLFAC
 40
1.0
  9
$DIMTOFL
 70
     0
  9
$DIMTVP
 40
0.0
  9
$DIMTIX
 70
     0
  9
$DIMSOXD
 70
     0
  9
$DIMSAH
 70
     0
  9
$DIMBLK1
  1

  9
$DIMBLK2
  1

  9
$DIMSTYLE
  2
Standard
  9
$DIMCLRD
 70
     0
  9
$DIMCLRE
 70
     0
  9
$DIMCLRT
 70
     0
  9
$DIMTFAC
 40
1.0
  9
$DIMGAP
 40
0.09
  9
$DIMJUST
 70
     0
  9
$DIMSD1
 70
     0
  9
$DIMSD2
 70
     0
  9
$DIMTOLJ
 70
     1
  9
$DIMTZIN
 70
     0
  9
$DIMALTZ
 70
     0
  9
$DIMALTTZ
 70
     0
  9
$DIMUPT
 70
     0
  9
$DIMDEC
 70
     4
  9
$DIMTDEC
 70
     4
  9
$DIMALTU
 70
     2
  9
$DIMALTTD
 70
     2
  9
$DIMTXSTY
  7
Standard
  9
$DIMAUNIT
 70
     0
  9
$DIMADEC
 70
     0
  9
$DIMALTRND
 40
0.0
  9
$DIMAZIN
 70
     0
  9
$DIMDSEP
 70
    46
  9
$DIMATFIT
 70
     3
  9
$DIMFRAC
 70
     0
  9
$DIMLDRBLK
  1

  9
$DIMLUNIT
 70
     2
  9
$DIMLWD
 70
    -2
  9
$DIMLWE
 70
    -2
  9
$DIMTMOVE
 70
     0
  9
$DIMFXL
 40
1.0
  9
$DIMFXLON
 70
     0
  9
$DIMJOGANG
 40
0.7853981633974483
  9
$DIMTFILL
 70
     0
  9
$DIMTFILLCLR
 70
     0
  9
$DIMARCSYM
 70
     0
  9
$DIMLTYPE
  6

  9
$DIMLTEX1
  6

  9
$DIMLTEX2
  6

  9
$DIMTXTDIRECTION
 70
     0
  9
$LUNITS
 70
     2
  9
$LUPREC
 70
     4
  9
$SKETCHINC
 40
0.1
  9
$FILLETRAD
 40
0.5
  9
$AUNITS
 70
     0
  9
$AUPREC
 70
     0
  9
$MENU
  1
.
  9
$ELEVATION
 40
0.0
  9
$PELEVATION
 40
0.0
  9
$THICKNESS
 40
0.0
  9
$LIMCHECK
 70
     0
  9
$CHAMFERA
 40
0.0
  9
$CHAMFERB
 40
0.0
  9
$CHAMFERC
 40
0.0
  9
$CHAMFERD
 40
0.0
  9
$SKPOLY
 70
     0
  9
$TDCREATE
 40
2458168.889027801
  9
$TDUCREATE
 40
2458168.847361134
  9
$TDUPDATE
 40
2458168.889027801
  9
$TDUUPDATE
 40
2458168.847361134
  9
$TDINDWG
 40
0.0000000116
  9
$TDUSRTIMER
 40
0.0000000116
  9
$USRTIMER
 70
     1
  9
$ANGBASE
 50
0.0
  9
$ANGDIR
 70
     0
  9
$PDMODE
 70
     0
  9
$PDSIZE
 40
0.0
  9
$PLINEWID
 40
0.0
  9
$SPLFRAME
 70
     0
  9
$SPLINETYPE
 70
     6
  9
$SPLINESEGS
 70
     8
  9
$HANDSEED
  5
1E0
  9
$SURFTAB1
 70
     6
  9
$SURFTAB2
 70
     6
  9
$SURFTYPE
 70
     6
  9
$SURFU
 70
     6
  9
$SURFV
 70
     6
  9
$UCSBASE
  2

  9
$UCSNAME
  2

  9
$UCSORG
 10
0.0
 20
0.0
 30
0.0
  9
$UCSXDIR
 10
1.0
 20
0.0
 30
0.0
  9
$UCSYDIR
 10
0.0
 20
1.0
 30
0.0
  9
$UCSORTHOREF
  2

  9
$UCSORTHOVIEW
 70
     0
  9
$UCSORGTOP
 10
0.0
 20
0.0
 30
0.0
  9
$UCSORGBOTTOM
 10
0.0
 20
0.0
 30
0.0
  9
$UCSORGLEFT
 10
0.0
 20
0.0
 30
0.0
  9
$UCSORGRIGHT
 10
0.0
 20
0.0
 30
0.0
  9
$UCSORGFRONT
 10
0.0
 20
0.0
 30
0.0
  9
$UCSORGBACK
 10
0.0
 20
0.0
 30
0.0
  9
$PUCSBASE
  2

  9
$PUCSNAME
  2

  9
$PUCSORG
 10
0.0
 20
0.0
 30
0.0
  9
$PUCSXDIR
 10
1.0
 20
0.0
 30
0.0
  9
$PUCSYDIR
 10
0.0
 20
1.0
 30
0.0
  9
$PUCSORTHOREF
  2

  9
$PUCSORTHOVIEW
 70
     0
  9
$PUCSORGTOP
 10
0.0
 20
0.0
 30
0.0
  9
$PUCSORGBOTTOM
 10
0.0
 20
0.0
 30
0.0
  9
$PUCSORGLEFT
 10
0.0
 20
0.0
 30
0.0
  9
$PUCSORGRIGHT
 10
0.0
 20
0.0
 30
0.0
  9
$PUCSORGFRONT
 10
0.0
 20
0.0
 30
0.0
  9
$PUCSORGBACK
 10
0.0
 20
0.0
 30
0.0
  9
$USERI1
 70
     0
  9
$USERI2
 70
     0
  9
$USERI3
 70
     0
  9
$USERI4
 70
     0
  9
$USERI5
 70
     0
  9
$USERR1
 40
0.0
  9
$USERR2
 40
0.0
  9
$USERR3
 40
0.0
  9
$USERR4
 40
0.0
  9
$USERR5
 40
0.0
  9
$WORLDVIEW
 70
     1
  9
$SHADEDGE
 70
     3
  9
$SHADEDIF
 70
    70
  9
$TILEMODE
 70
     1
  9
$MAXACTVP
 70
    64
  9
$PINSBASE
 10
0.0
 20
0.0
 30
0.0
  9
$PLIMCHECK
 70
     0
  9
$PEXTMIN
 10
1.000000000000000E+20
 20
1.000000000000000E+20
 30
1.000000000000000E+20
  9
$PEXTMAX
 10
-1.000000000000000E+20
 20
-1.000000000000000E+20
 30
-1.000000000000000E+20
  9
$PLIMMIN
 10
0.0
 20
0.0
  9
$PLIMMAX
 10
12.0
 20
9.0
  9
$UNITMODE
 70
     0
  9
$VISRETAIN
 70
     1
  9
$PLINEGEN
 70
     0
  9
$PSLTSCALE
 70
     1
  9
$TREEDEPTH
 70
  3020
  9
$CMLSTYLE
  2
Standard
  9
$CMLJUST
 70
     0
  9
$CMLSCALE
 40
1.0
  9
$PROXYGRAPHICS
 70
     1
  9
$MEASUREMENT
 70
     0
  9
$CELWEIGHT
370
    -1
  9
$ENDCAPS
280
     0
  9
$JOINSTYLE
280
     0
  9
$LWDISPLAY
290
     0
  9
$INSUNITS
 70
     1
  9
$HYPERLINKBASE
  1

  9
$STYLESHEET
  1

  9
$XEDIT
290
     1
  9
$CEPSNTYPE
380
     0
  9
$PSTYLEMODE
290
     1
  9
$FINGERPRINTGUID
  2
{502D77FB-B9FA-4DA4-BA01-595940DEB7D3}
  9
$VERSIONGUID
  2
{FAEB1C32-E019-11D5-929B-00C0DF256EC4}
  9
$EXTNAMES
290
     1
  9
$PSVPSCALE
 40
0.0
  9
$OLESTARTUP
290
     0
  9
$SORTENTS
280
   127
  9
$INDEXCTL
280
     0
  9
$HIDETEXT
280
     1
  9
$XCLIPFRAME
280
     2
  9
$HALOGAP
280
     0
  9
$OBSCOLOR
 70
   257
  9
$OBSLTYPE
280
     0
  9
$INTERSECTIONDISPLAY
280
     0
  9
$INTERSECTIONCOLOR
 70
   257
  9
$DIMASSOC
280
     2
  9
$PROJECTNAME
  1

  9
$CAMERADISPLAY
290
     0
  9
$LENSLENGTH
 40
50.0
  9
$CAMERAHEIGHT
 40
0.0
  9
$STEPSPERSEC
 40
2.0
  9
$STEPSIZE
 40
6.0
  9
$3DDWFPREC
 40
2.0
  9
$PSOLWIDTH
 40
0.25
  9
$PSOLHEIGHT
 40
4.0
  9
$LOFTANG1
 40
1.570796326794897
  9
$LOFTANG2
 40
1.570796326794897
  9
$LOFTMAG1
 40
0.0
  9
$LOFTMAG2
 40
0.0
  9
$LOFTPARAM
 70
     7
  9
$LOFTNORMALS
280
     1
  9
$LATITUDE
 40
37.795
  9
$LONGITUDE
 40
-122.394
  9
$NORTHDIRECTION
 40
0.0
  9
$TIMEZONE
 70
 -8000
  9
$LIGHTGLYPHDISPLAY
280
     1
  9
$TILEMODELIGHTSYNCH
280
     1
  9
$CMATERIAL
347
44
  9
$SOLIDHIST
280
     0
  9
$SHOWHIST
280
     1
  9
$DWFFRAME
280
     2
  9
$DGNFRAME
280
     2
  9
$REALWORLDSCALE
290
     1
  9
$INTERFERECOLOR
 62
   256
  9
$CSHADOW
280
     0
  9
$SHADOWPLANELOCATION
 40
0.0
  0
ENDSEC
  0
SECTION
  2
CLASSES
  0
CLASS
  1
ACDBDICTIONARYWDFLT
  2
AcDbDictionaryWithDefault
  3
ObjectDBX Classes
 90
        0
 91
        4
280
     0
281
     0
  0
CLASS
  1
VISUALSTYLE
  2
AcDbVisualStyle
  3
ObjectDBX Classes
 90
     4095
 91
        4
280
     0
281
     0
  0
CLASS
  1
MATERIAL
  2
AcDbMaterial
  3
ObjectDBX Classes
 90
     1153
 91
        4
280
     0
281
     0
  0
CLASS
  1
SCALE
  2
AcDbScale
  3
ObjectDBX Classes
 90
     1153
 91
        4
280
     0
281
     0
  0
CLASS
  1
TABLESTYLE
  2
AcDbTableStyle
  3
ObjectDBX Classes
 90
     4095
 91
        4
280
     0
281
     0
  0
CLASS
  1
MLEADERSTYLE
  2
AcDbMLeaderStyle
  3
ACDB_MLEADERSTYLE_CLASS
 90
     4095
 91
        4
280
     0
281
     0
  0
CLASS
  1
SUN
  2
AcDbSun
  3
SCENEOE
 90
     1153
 91
        4
280
     0
281
     0
  0
CLASS
  1
DICTIONARYVAR
  2
AcDbDictionaryVar
  3
ObjectDBX Classes
 90
        0
 91
        4
280
     0
281
     0
  0
CLASS
  1
CELLSTYLEMAP
  2
AcDbCellStyleMap
  3
ObjectDBX Classes
 90
     1152
 91
        4
280
     0
281
     0
  0
ENDSEC
  0
SECTION
  2
TABLES
  0
TABLE
  2
VPORT
  5
8
330
0
100
AcDbSymbolTable
 70
     1
  0
VPORT
  5
29
330
8
100
AcDbSymbolTableRecord
100
AcDbViewportTableRecord
  2
*Active
 70
     0
 10
0.0
 20
0.0
 11
1.0
 21
1.0
 12
0.8743173208946491
 22
-0.1057500000000005
 13
0.0
 23
0.0
 14
0.5
 24
0.5
 15
0.5
 25
0.5
 16
0.0
 26
0.0
 36
1.0
 17
0.0
 27
0.0
 37
0.0
 40
3.02073
 41
3.151229227827351
 42
50.0
 43
0.0
 44
0.0
 50
0.0
 51
0.0
 71
     0
 72
   100
 73
     1
 74
     3
 75
     0
 76
     0
 77
     0
 78
     0
281
     0
 65
     1
110
0.0
120
0.0
130
0.0
111
1.0
121
0.0
131
0.0
112
0.0
122
1.0
132
0.0
 79
     0
146
0.0
348
2F
 60
     3
 61
     5
292
     1
282
     1
141
0.0
142
0.0
 63
   250
361
6D
  0
ENDTAB
  0
TABLE
  2
LTYPE
  5
5
330
0
100
AcDbSymbolTable
 70
     3
  0
LTYPE
  5
14
330
5
100
AcDbSymbolTableRecord
100
AcDbLinetypeTableRecord
  2
ByBlock
 70
     0
  3

 72
    65
 73
     0
 40
0.0
  0
LTYPE
  5
15
330
5
100
AcDbSymbolTableRecord
100
AcDbLinetypeTableRecord
  2
ByLayer
 70
     0
  3

 72
    65
 73
     0
 40
0.0
  0
LTYPE
  5
16
330
5
100
AcDbSymbolTableRecord
100
AcDbLinetypeTableRecord
  2
Continuous
 70
     0
  3
Solid line
 72
    65
 73
     0
 40
0.0
  0
LTYPE
  5
A6
330
5
100
AcDbSymbolTableRecord
100
AcDbLinetypeTableRecord
  2
Dashed
 70
     0
  3

 72
    65
 73
     2
 40
2.0
 49
1.0
 74
     0
 49
-1.0
 74
     0
  0
LTYPE
  5
DD
330
5
100
AcDbSymbolTableRecord
100
AcDbLinetypeTableRecord
  2
Center
 70
     0
  3

 72
    65
 73
     4
 40
1.5
 49
0.45
 74
     0
 49
-0.5
 74
     0
 49
0.05
 74
     0
 49
-0.5
 74
     0
  0
ENDTAB
  0
TABLE
  2
LAYER
  5
2
330
0
100
AcDbSymbolTable
 70
     7
  0
LAYER
  5
10
330
2
100
AcDbSymbolTableRecord
100
AcDbLayerTableRecord
  2
0
 70
     0
 62
     7
  6
Continuous
370
    -3
390
F
347
46
348
0
  0
LAYER
  5
72
330
2
100
AcDbSymbolTableRecord
100
AcDbLayerTableRecord
  2
AM_6
 70
     0
 62
    -2
  6
Continuous
370
    35
390
F
347
46
348
0
  0
LAYER
  5
A7
330
2
100
AcDbSymbolTableRecord
100
AcDbLayerTableRecord
  2
AM_9
 70
     0
 62
     6
  6
Dashed
370
    25
390
F
347
46
348
0
  0
LAYER
  5
DE
330
2
100
AcDbSymbolTableRecord
100
AcDbLayerTableRecord
  2
AM_7
 70
     0
 62
     7
  6
Center
370
    25
390
F
347
46
348
0
  0
LAYER
  5
E0
330
2
100
AcDbSymbolTableRecord
100
AcDbLayerTableRecord
  2
AM_4
 70
     0
 62
     7
  6
Continuous
370
    50
390
F
347
46
348
0
  0
LAYER
  5
EC
330
2
100
AcDbSymbolTableRecord
100
AcDbLayerTableRecord
  2
AM_5
 70
     0
 62
     3
  6
Continuous
370
    25
390
F
347
46
348
0
  0
LAYER
  5
1D3
330
2
100
AcDbSymbolTableRecord
100
AcDbLayerTableRecord
  2
ConnectionPoints
 70
     0
 62
     7
  6
Continuous
370
    50
390
F
347
46
348
0
  0
ENDTAB
  0
TABLE
  2
STYLE
  5
3
330
0
100
AcDbSymbolTable
 70
     1
  0
STYLE
  5
11
330
3
100
AcDbSymbolTableRecord
100
AcDbTextStyleTableRecord
  2
Standard
 70
     0
 40
0.0
 41
1.0
 50
0.0
 71
     0
 42
0.2
  3
txt
  4

  0
ENDTAB
  0
TABLE
  2
VIEW
  5
6
330
0
100
AcDbSymbolTable
 70
     0
  0
ENDTAB
  0
TABLE
  2
UCS
  5
7
330
0
100
AcDbSymbolTable
 70
     0
  0
ENDTAB
  0
TABLE
  2
APPID
  5
9
330
0
100
AcDbSymbolTable
 70
     1
  0
APPID
  5
12
330
9
100
AcDbSymbolTableRecord
100
AcDbRegAppTableRecord
  2
ACAD
 70
     0
  0
ENDTAB
  0
TABLE
  2
DIMSTYLE
  5
A
330
0
100
AcDbSymbolTable
 70
     1
100
AcDbDimStyleTable
  0
DIMSTYLE
105
27
330
A
100
AcDbSymbolTableRecord
100
AcDbDimStyleTableRecord
  2
Standard
 70
     0
178
     0
340
11
  0
ENDTAB
  0
TABLE
  2
BLOCK_RECORD
  5
1
330
0
100
AcDbSymbolTable
 70
     5
  0
BLOCK_RECORD
  5
1F
330
1
100
AcDbSymbolTableRecord
100
AcDbBlockTableRecord
  2
*Model_Space
340
22
 70
     0
280
     1
281
     0
  0
BLOCK_RECORD
  5
1B
330
1
100
AcDbSymbolTableRecord
100
AcDbBlockTableRecord
  2
*Paper_Space
340
1E
 70
     0
280
     1
281
     0
  0
BLOCK_RECORD
  5
23
330
1
100
AcDbSymbolTableRecord
100
AcDbBlockTableRecord
  2
*Paper_Space0
340
26
 70
     0
280
     1
281
     0
  0
BLOCK_RECORD
  5
6E
330
1
100
AcDbSymbolTableRecord
100
AcDbBlockTableRecord
  2
1_076201_4
340
0
102
{BLKREFS
331
6F
102
}
 70
     0
280
     1
281
     0
  0
BLOCK_RECORD
  5
8F
330
1
100
AcDbSymbolTableRecord
100
AcDbBlockTableRecord
  2
2_076215_0_in_076201_4
340
0
102
{BLKREFS
331
90
102
}
 70
     0
280
     1
281
     0
  0
BLOCK_RECORD
  5
EF
330
1
100
AcDbSymbolTableRecord
100
AcDbBlockTableRecord
  2
3_405016_Inch_0_in_076201_4
340
0
102
{BLKREFS
331
F0
102
}
 70
     0
280
     1
281
     0
  0
BLOCK_RECORD
  5
176
330
1
100
AcDbSymbolTableRecord
100
AcDbBlockTableRecord
  2
4_076201h_0_in_076201_4
340
0
102
{BLKREFS
331
177
102
}
 70
     0
280
     1
281
     0
  0
ENDTAB
  0
ENDSEC
  0
SECTION
  2
BLOCKS
  0
BLOCK
  5
20
330
1F
100
AcDbEntity
  8
0
100
AcDbBlockBegin
  2
*Model_Space
 70
     0
 10
0.0
 20
0.0
 30
0.0
  3
*Model_Space
  1

  0
ENDBLK
  5
21
330
1F
100
AcDbEntity
  8
0
100
AcDbBlockEnd
  0
BLOCK
  5
1C
330
1B
100
AcDbEntity
 67
     1
  8
0
100
AcDbBlockBegin
  2
*Paper_Space
 70
     0
 10
0.0
 20
0.0
 30
0.0
  3
*Paper_Space
  1

  0
ENDBLK
  5
1D
330
1B
100
AcDbEntity
 67
     1
  8
0
100
AcDbBlockEnd
  0
BLOCK
  5
24
330
23
100
AcDbEntity
  8
0
100
AcDbBlockBegin
  2
*Paper_Space0
 70
     0
 10
0.0
 20
0.0
 30
0.0
  3
*Paper_Space0
  1

  0
ENDBLK
  5
25
330
23
100
AcDbEntity
  8
0
100
AcDbBlockEnd
  0
BLOCK
  5
70
330
6E
100
AcDbEntity
  8
0
100
AcDbBlockBegin
  2
1_076201_4
 70
     2
 10
0.0
 20
0.0
 30
0.0
  3
1_076201_4
  1

  0
ATTDEF
  5
73
330
6E
100
AcDbEntity
  8
AM_6
100
AcDbText
 10
10.5405
 20
1.375
 30
0.0
 40
0.5
  1
Set Screw Medium Duty Extreme Duty Wide Slot Take Up Inch Bore
100
AcDbAttributeDefinition
  3

  2
NN
 70
     8
280
     0
  0
ATTDEF
  5
74
330
6E
100
AcDbEntity
  8
AM_6
100
AcDbText
 10
10.5405
 20
0.875
 30
0.0
 40
0.5
  1
SCMED Take-Up Bearings -Wide Slot -(Normal Duty)
100
AcDbAttributeDefinition
  3

  2
NT
 70
     8
280
     0
  0
ATTDEF
  5
75
330
6E
100
AcDbEntity
  8
AM_6
100
AcDbText
 10
10.5405
 20
0.375
 30
0.0
 40
0.5
  1
076201
100
AcDbAttributeDefinition
  3

  2
NB
 70
     8
280
     0
  0
ATTDEF
  5
76
330
6E
100
AcDbEntity
  8
AM_6
100
AcDbText
 10
10.5405
 20
-0.125
 30
0.0
 40
0.5
  1
$PN.
100
AcDbAttributeDefinition
  3

  2
NBSYN
 70
     8
280
     0
  0
ATTDEF
  5
77
330
6E
100
AcDbEntity
  8
AM_6
100
AcDbText
 10
10.5405
 20
-0.625
 30
0.0
 40
0.5
  1
076201
100
AcDbAttributeDefinition
  3

  2
LINA
 70
     8
280
     0
  0
ATTDEF
  5
78
330
6E
100
AcDbEntity
  8
AM_6
100
AcDbText
 10
10.5405
 20
-1.125
 30
0.0
 40
0.5
  1
215
100
AcDbAttributeDefinition
  3

  2
SERIES
 70
     8
280
     0
  0
ATTDEF
  5
79
330
6E
100
AcDbEntity
  8
AM_6
100
AcDbText
 10
10.5405
 20
-1.625
 30
0.0
 40
0.5
  1
2-11/16
100
AcDbAttributeDefinition
  3

  2
SS
 70
     8
280
     0
  0
ATTDEF
  5
7A
330
6E
100
AcDbEntity
  8
AM_6
100
AcDbText
 10
10.5405
 20
-2.125
 30
0.0
 40
0.5
  1
076201
100
AcDbAttributeDefinition
  3

  2
PN
 70
     8
280
     0
  0
ATTDEF
  5
7B
330
6E
100
AcDbEntity
  8
AM_6
100
AcDbText
 10
10.5405
 20
-2.625
 30
0.0
 40
0.5
  1
WSTU-SCMED-211
100
AcDbAttributeDefinition
  3

  2
DESCRIPTION
 70
     8
280
     0
  0
ATTDEF
  5
7C
330
6E
100
AcDbEntity
  8
AM_6
100
AcDbText
 10
10.5405
 20
-3.125
 30
0.0
 40
0.5
  1
19.0
100
AcDbAttributeDefinition
  3

  2
W
 70
     8
280
     0
  0
ATTDEF
  5
7D
330
6E
100
AcDbEntity
  8
AM_6
100
AcDbText
 10
10.5405
 20
-3.625
 30
0.0
 40
0.5
  1
WS515
100
AcDbAttributeDefinition
  3

  2
FS
 70
     8
280
     0
  0
ATTDEF
  5
7E
330
6E
100
AcDbEntity
  8
AM_6
100
AcDbText
 10
10.5405
 20
-4.125
 30
0.0
 40
0.5
  1
2.33
100
AcDbAttributeDefinition
  3

  2
A
 70
     8
280
     0
  0
ATTDEF
  5
7F
330
6E
100
AcDbEntity
  8
AM_6
100
AcDbText
 10
10.5405
 20
-4.625
 30
0.0
 40
0.5
  1
9.13
100
AcDbAttributeDefinition
  3

  2
B
 70
     8
280
     0
  0
ATTDEF
  5
80
330
6E
100
AcDbEntity
  8
AM_6
100
AcDbText
 10
10.5405
 20
-5.125
 30
0.0
 40
0.5
  1
1.063
100
AcDbAttributeDefinition
  3

  2
C
 70
     8
280
     0
  0
ATTDEF
  5
81
330
6E
100
AcDbEntity
  8
AM_6
100
AcDbText
 10
10.5405
 20
-5.625
 30
0.0
 40
0.5
  1
4.75
100
AcDbAttributeDefinition
  3

  2
D
 70
     8
280
     0
  0
ATTDEF
  5
82
330
6E
100
AcDbEntity
  8
AM_6
100
AcDbText
 10
10.5405
 20
-6.125
 30
0.0
 40
0.5
  1
5.50
100
AcDbAttributeDefinition
  3

  2
E
 70
     8
280
     0
  0
ATTDEF
  5
83
330
6E
100
AcDbEntity
  8
AM_6
100
AcDbText
 10
10.5405
 20
-6.625
 30
0.0
 40
0.5
  1
1-1/2
100
AcDbAttributeDefinition
  3

  2
F
 70
     8
280
     0
  0
ATTDEF
  5
84
330
6E
100
AcDbEntity
  8
AM_6
100
AcDbText
 10
10.5405
 20
-7.125
 30
0.0
 40
0.5
  1
0.81
100
AcDbAttributeDefinition
  3

  2
G
 70
     8
280
     0
  0
ATTDEF
  5
85
330
6E
100
AcDbEntity
  8
AM_6
100
AcDbText
 10
10.5405
 20
-7.625
 30
0.0
 40
0.5
  1
1.25
100
AcDbAttributeDefinition
  3

  2
H
 70
     8
280
     0
  0
ATTDEF
  5
86
330
6E
100
AcDbEntity
  8
AM_6
100
AcDbText
 10
10.5405
 20
-8.125
 30
0.0
 40
0.5
  1
4.38
100
AcDbAttributeDefinition
  3

  2
J
 70
     8
280
     0
  0
ATTDEF
  5
87
330
6E
100
AcDbEntity
  8
AM_6
100
AcDbText
 10
10.5405
 20
-8.625
 30
0.0
 40
0.5
  1
2.75
100
AcDbAttributeDefinition
  3

  2
K
 70
     8
280
     0
  0
ATTDEF
  5
88
330
6E
100
AcDbEntity
  8
AM_6
100
AcDbText
 10
10.5405
 20
-9.125
 30
0.0
 40
0.5
  1
3.62
100
AcDbAttributeDefinition
  3

  2
L
 70
     8
280
     0
  0
ATTDEF
  5
89
330
6E
100
AcDbEntity
  8
AM_6
100
AcDbText
 10
10.5405
 20
-9.625
 30
0.0
 40
0.5
  1
5.923 / 5.953
100
AcDbAttributeDefinition
  3

  2
M
 70
     8
280
     0
  0
ATTDEF
  5
8A
330
6E
100
AcDbEntity
  8
AM_6
100
AcDbText
 10
10.5405
 20
-10.125
 30
0.0
 40
0.5
  1
6.69
100
AcDbAttributeDefinition
  3

  2
N
 70
     8
280
     0
  0
ATTDEF
  5
8B
330
6E
100
AcDbEntity
  8
AM_6
100
AcDbText
 10
10.5405
 20
-10.625
 30
0.0
 40
0.5
  1
0.86
100
AcDbAttributeDefinition
  3

  2
R
 70
     8
280
     0
  0
ATTDEF
  5
8C
330
6E
100
AcDbEntity
  8
AM_6
100
AcDbText
 10
10.5405
 20
-11.125
 30
0.0
 40
0.5
  1
1.47
100
AcDbAttributeDefinition
  3

  2
S
 70
     8
280
     0
  0
ATTDEF
  5
8D
330
6E
100
AcDbEntity
  8
AM_6
100
AcDbText
 10
10.5405
 20
-11.625
 30
0.0
 40
0.5
  1
2.75
100
AcDbAttributeDefinition
  3

  2
T
 70
     8
280
     0
  0
ATTDEF
  5
8E
330
6E
100
AcDbEntity
  8
AM_6
100
AcDbText
 10
10.5405
 20
-12.125
 30
0.0
 40
0.5
  1
baldor
100
AcDbAttributeDefinition
  3

  2
COMPANY
 70
     8
280
     0
  0
INSERT
  5
90
330
6E
100
AcDbEntity
  8
0
100
AcDbBlockReference
  2
2_076215_0_in_076201_4
 10
0.0
 20
0.0
 30
0.0
  0
INSERT
  5
F0
330
6E
100
AcDbEntity
  8
0
100
AcDbBlockReference
  2
3_405016_Inch_0_in_076201_4
 10
0.0
 20
0.0
 30
0.0
  0
INSERT
  5
177
330
6E
100
AcDbEntity
  8
0
100
AcDbBlockReference
  2
4_076201h_0_in_076201_4
 10
0.0
 20
0.0
 30
0.0
  0
ENDBLK
  5
71
330
6E
100
AcDbEntity
  8
0
100
AcDbBlockEnd
  0
BLOCK
  5
91
330
8F
100
AcDbEntity
  8
0
100
AcDbBlockBegin
  2
2_076215_0_in_076201_4
 70
     2
 10
0.0
 20
0.0
 30
0.0
  3
2_076215_0_in_076201_4
  1

  0
ATTDEF
  5
93
330
8F
100
AcDbEntity
  8
AM_6
100
AcDbText
 10
7.558798202610224
 20
0.86
 30
0.0
 40
0.5
  1
Set Screw Medium Duty Extreme Duty Insert Inch Bore
100
AcDbAttributeDefinition
  3

  2
NN
 70
     8
280
     0
  0
ATTDEF
  5
94
330
8F
100
AcDbEntity
  8
AM_6
100
AcDbText
 10
7.558798202610224
 20
0.36
 30
0.0
 40
0.5
  1
SC Medium Duty Bearing Inserts
100
AcDbAttributeDefinition
  3

  2
NT
 70
     8
280
     0
  0
ATTDEF
  5
95
330
8F
100
AcDbEntity
  8
AM_6
100
AcDbText
 10
7.558798202610224
 20
-0.14
 30
0.0
 40
0.5
  1
076215
100
AcDbAttributeDefinition
  3

  2
NB
 70
     8
280
     0
  0
ATTDEF
  5
96
330
8F
100
AcDbEntity
  8
AM_6
100
AcDbText
 10
7.558798202610224
 20
-0.64
 30
0.0
 40
0.5
  1
$PN.
100
AcDbAttributeDefinition
  3

  2
NBSYN
 70
     8
280
     0
  0
ATTDEF
  5
97
330
8F
100
AcDbEntity
  8
AM_6
100
AcDbText
 10
7.558798202610224
 20
-1.14
 30
0.0
 40
0.5
  1
076215
100
AcDbAttributeDefinition
  3

  2
LINA
 70
     8
280
     0
  0
ATTDEF
  5
98
330
8F
100
AcDbEntity
  8
AM_6
100
AcDbText
 10
7.558798202610224
 20
-1.64
 30
0.0
 40
0.5
  1
215
100
AcDbAttributeDefinition
  3

  2
SERIES
 70
     8
280
     0
  0
ATTDEF
  5
99
330
8F
100
AcDbEntity
  8
AM_6
100
AcDbText
 10
7.558798202610224
 20
-2.14
 30
0.0
 40
0.5
  1
2-11/16
100
AcDbAttributeDefinition
  3

  2
SS
 70
     8
280
     0
  0
ATTDEF
  5
9A
330
8F
100
AcDbEntity
  8
AM_6
100
AcDbText
 10
7.558798202610224
 20
-2.64
 30
0.0
 40
0.5
  1
076215
100
AcDbAttributeDefinition
  3

  2
PN
 70
     8
280
     0
  0
ATTDEF
  5
9B
330
8F
100
AcDbEntity
  8
AM_6
100
AcDbText
 10
7.558798202610224
 20
-3.14
 30
0.0
 40
0.5
  1
INS-SCMED-211
100
AcDbAttributeDefinition
  3

  2
DESCRIPTION
 70
     8
280
     0
  0
ATTDEF
  5
9C
330
8F
100
AcDbEntity
  8
AM_6
100
AcDbText
 10
7.558798202610224
 20
-3.64
 30
0.0
 40
0.5
  1
4.49
100
AcDbAttributeDefinition
  3

  2
WEIGHT
 70
     8
280
     0
  0
ATTDEF
  5
9D
330
8F
100
AcDbEntity
  8
AM_6
100
AcDbText
 10
7.558798202610224
 20
-4.140000000000001
 30
0.0
 40
0.5
  1
2.33
100
AcDbAttributeDefinition
  3

  2
A
 70
     8
280
     0
  0
ATTDEF
  5
9E
330
8F
100
AcDbEntity
  8
AM_6
100
AcDbText
 10
7.558798202610224
 20
-4.640000000000001
 30
0.0
 40
0.5
  1
1.14
100
AcDbAttributeDefinition
  3

  2
C
 70
     8
280
     0
  0
ATTDEF
  5
9F
330
8F
100
AcDbEntity
  8
AM_6
100
AcDbText
 10
7.558798202610224
 20
-5.140000000000001
 30
0.0
 40
0.5
  1
5.1181
100
AcDbAttributeDefinition
  3

  2
D
 70
     8
280
     0
  0
ATTDEF
  5
A0
330
8F
100
AcDbEntity
  8
AM_6
100
AcDbText
 10
7.558798202610224
 20
-5.640000000000001
 30
0.0
 40
0.5
  1
0.28
100
AcDbAttributeDefinition
  3

  2
J
 70
     8
280
     0
  0
ATTDEF
  5
A1
330
8F
100
AcDbEntity
  8
AM_6
100
AcDbText
 10
7.558798202610224
 20
-6.140000000000001
 30
0.0
 40
0.5
  1
3.62
100
AcDbAttributeDefinition
  3

  2
L
 70
     8
280
     0
  0
ATTDEF
  5
A2
330
8F
100
AcDbEntity
  8
AM_6
100
AcDbText
 10
7.558798202610224
 20
-6.640000000000001
 30
0.0
 40
0.5
  1
3/8 - 24
100
AcDbAttributeDefinition
  3

  2
N
 70
     8
280
     0
  0
ATTDEF
  5
A3
330
8F
100
AcDbEntity
  8
AM_6
100
AcDbText
 10
7.558798202610224
 20
-7.140000000000001
 30
0.0
 40
0.5
  1
0.86
100
AcDbAttributeDefinition
  3

  2
W
 70
     8
280
     0
  0
ATTDEF
  5
A4
330
8F
100
AcDbEntity
  8
AM_6
100
AcDbText
 10
7.558798202610224
 20
-7.640000000000001
 30
0.0
 40
0.5
  1
1.47
100
AcDbAttributeDefinition
  3

  2
Y
 70
     8
280
     0
  0
ATTDEF
  5
A5
330
8F
100
AcDbEntity
  8
AM_6
100
AcDbText
 10
7.558798202610224
 20
-8.14
 30
0.0
 40
0.5
  1
baldor
100
AcDbAttributeDefinition
  3

  2
COMPANY
 70
     8
280
     0
  0
ELLIPSE
  5
A8
330
8F
100
AcDbEntity
  8
AM_9
100
AcDbEllipse
 10
1.21617831972252
 20
-1.02
 30
0.0
 11
-2.822504710334864E-17
 21
-0.1536500000000001
 31
0.0
210
0.0
220
0.0
230
1.0
 40
0.4226182617406989
 41
0.4851122464737783
 42
2.656480407116017
  0
LWPOLYLINE
  5
A9
330
8F
100
AcDbEntity
  8
AM_9
100
AcDbPolyline
 90
       12
 70
     0
 43
0.0
 10
1.27518106639186
 20
-1.063166499488107
 10
1.276001507611455
 20
-1.053867259215048
 10
1.277211682627776
 20
-1.028538587522667
 10
1.277019123201176
 20
-1.004402810287119
 10
1.27555225085001
 20
-0.9807155596081397
 10
1.272860169868585
 20
-0.9584349803539964
 10
1.268981838464524
 20
-0.937795418210416
 10
1.265155013077724
 20
-0.923154436354953
 10
1.260661865777083
 20
-0.9099829400557082
 10
1.254170163036529
 20
-0.895859971615598
 10
1.246771136494224
 20
-0.8844722987760275
 10
1.246410227273184
 20
-0.8840179677152697
  0
LWPOLYLINE
  5
AA
330
8F
100
AcDbEntity
  8
AM_9
100
AcDbPolyline
 90
        7
 70
     0
 43
0.0
 10
1.246410240084251
 20
-1.155982016305727
 10
1.246704890142678
 20
-1.155611723691074
 10
1.255639413243254
 20
-1.141324316694179
 10
1.263194875272649
 20
-1.123024873120146
 10
1.269031818488019
 20
-1.101947961241824
 10
1.273373200331842
 20
-1.078115414737105
 10
1.27518106639186
 20
-1.063166499488107
  0
ELLIPSE
  5
AB
330
8F
100
AcDbEntity
  8
AM_9
100
AcDbEllipse
 10
1.21617831972252
 20
-1.02
 30
0.0
 11
-2.822504710334855E-17
 21
-0.1536499999999996
 31
0.0
210
0.0
220
0.0
230
1.0
 40
0.4226182617406987
 41
3.61758253329176
 42
5.807195427477621
  0
LINE
  5
AC
330
8F
100
AcDbEntity
  8
AM_9
100
AcDbLine
 10
1.217822981591716
 20
-1.17365
 30
0.0
 11
1.621350312477433
 21
-1.17365
 31
0.0
  0
LINE
  5
AD
330
8F
100
AcDbEntity
  8
AM_9
100
AcDbLine
 10
1.621350312477433
 20
-0.8663500000000001
 30
0.0
 11
1.217822981591716
 21
-0.8663500000000001
 31
0.0
  0
LWPOLYLINE
  5
AE
330
8F
100
AcDbEntity
  8
AM_9
100
AcDbPolyline
 90
        5
 70
     0
 43
0.0
 10
1.217857719818783
 20
-1.17364999919886
 10
1.219491445355553
 20
-1.17360066104592
 10
1.230179543662448
 20
-1.170715789751472
 10
1.238311041804693
 20
-1.165133638484288
 10
1.245932874639433
 20
-1.156570200846154
  0
LWPOLYLINE
  5
AF
330
8F
100
AcDbEntity
  8
AM_9
100
AcDbPolyline
 90
        5
 70
     0
 43
0.0
 10
1.217844457676169
 20
-0.8663500008011399
 10
1.21620050783296
 20
-0.8663993389540798
 10
1.204920215900423
 20
-0.8692842102485281
 10
1.195674329873934
 20
-0.8748663615157126
 10
1.186423764805607
 20
-0.883429799153846
  0
ELLIPSE
  5
B0
330
8F
100
AcDbEntity
  8
AM_9
100
AcDbEllipse
 10
1.621350312477433
 20
-1.02
 30
0.0
 11
-2.822504710334859E-17
 21
-0.1536499999999998
 31
0.0
210
0.0
220
0.0
230
1.0
 40
0.4226182617406995
 41
1.287151362840828
 42
5.911093925454045
  0
LINE
  5
B1
330
8F
100
AcDbEntity
  8
AM_9
100
AcDbLine
 10
1.591070486707028
 20
-1.15592226453218
 30
0.0
 11
1.604515245489242
 21
-1.172691731809171
 31
0.0
  0
LINE
  5
B2
330
8F
100
AcDbEntity
  8
AM_9
100
AcDbLine
 10
1.604650772869468
 20
-0.8671392267074779
 30
0.0
 11
1.591070486707028
 21
-0.8840777354678204
 31
0.0
  0
LWPOLYLINE
  5
B3
330
8F
100
AcDbEntity
  8
AM_9
100
AcDbPolyline
 90
       10
 70
     0
 43
0.0
 10
1.565476157850867
 20
-1.063147582874622
 10
1.564112459165827
 20
-1.04985936430331
 10
1.562857803896871
 20
-1.020139280489551
 10
1.564145956660586
 20
-0.989754349714339
 10
1.567946736857339
 20
-0.9602219757416361
 10
1.574162740256915
 20
-0.9323904999481324
 10
1.582521159458656
 20
-0.9071063378593077
 10
1.592494187900726
 20
-0.8856649147879372
 10
1.603841085018087
 20
-0.8681648153005687
 10
1.604711990640823
 20
-0.8670628711684273
  0
LWPOLYLINE
  5
B4
330
8F
100
AcDbEntity
  8
AM_9
100
AcDbPolyline
 90
        4
 70
     0
 43
0.0
 10
1.604711990640823
 20
-0.8670628711684273
 10
1.615619826075503
 20
-0.8557545438505737
 10
1.627846410378478
 20
-0.8480159427104419
 10
1.643621971418137
 20
-0.8454943556580882
  0
LWPOLYLINE
  5
B5
330
8F
100
AcDbEntity
  8
AM_9
100
AcDbPolyline
 90
       16
 70
     0
 43
0.0
 10
-0.0704052749503978
 20
-0.8834297991538457
 10
-0.0758320925643123
 20
-0.8860269337881101
 10
-0.0958409289346737
 20
-0.8979039223189678
 10
-0.1139413647641777
 20
-0.9125075129669799
 10
-0.1296640923683409
 20
-0.9296008027148144
 10
-0.1426420393457498
 20
-0.948862553206612
 10
-0.1533763635331701
 20
-0.9724833831129549
 10
-0.1597799509823431
 20
-0.9976356959924859
 10
-0.1615181060635548
 20
-1.022033507195548
 10
-0.1590833336275017
 20
-1.046371110117553
 10
-0.1527471458784757
 20
-1.069285208907158
 10
-0.1427951777783018
 20
-1.09086635146945
 10
-0.129137076031515
 20
-1.111058731374352
 10
-0.1124722721993886
 20
-1.128850171918343
 10
-0.0925198500666347
 20
-1.144337251447741
 10
-0.0704052749503978
 20
-1.156570200846154
  0
LWPOLYLINE
  5
B6
330
8F
100
AcDbEntity
  8
AM_9
100
AcDbPolyline
 90
       15
 70
     0
 43
0.0
 10
0.0717154208128382
 20
-1.15596523938632
 10
0.0920477016333308
 20
-1.144659659422808
 10
0.1140769934507275
 20
-1.127340202877226
 10
0.1327126959681125
 20
-1.106427055528034
 10
0.1465879919994471
 20
-1.083636850790331
 10
0.1561807350857085
 20
-1.058730625945868
 10
0.1608174956596407
 20
-1.034222007794849
 10
0.1611453657395757
 20
-1.009276933120395
 10
0.1573451968047126
 20
-0.9857270286953488
 10
0.1497358448394049
 20
-0.9631267630875602
 10
0.1384288173374027
 20
-0.9418967775025848
 10
0.1239088541171253
 20
-0.9227266436550029
 10
0.1056049787536121
 20
-0.9052488494488744
 10
0.0847736693247396
 20
-0.8908573736952378
 10
0.0704052749503978
 20
-0.8834297991538457
  0
LINE
  5
B7
330
8F
100
AcDbEntity
  8
AM_9
100
AcDbLine
 10
0.0704052749503978
 20
-1.156570200846154
 30
0.0
 11
0.0717154208128382
 21
-1.15596523938632
 31
0.0
  0
LWPOLYLINE
  5
B8
330
8F
100
AcDbEntity
  8
AM_9
100
AcDbPolyline
 90
        4
 70
     0
 43
0.0
 10
1.245932874639433
 20
-0.8834297991538457
 10
1.236950579610889
 20
-0.8736998155087019
 10
1.226771796941094
 20
-0.8678583132894766
 10
1.217844457676169
 20
-0.8663500008011399
  0
LWPOLYLINE
  5
B9
330
8F
100
AcDbEntity
  8
AM_9
100
AcDbPolyline
 90
       15
 70
     0
 43
0.0
 10
1.186423764805607
 20
-0.883429799153846
 10
1.177610175553217
 20
-0.8933384246068541
 10
1.166590389775256
 20
-0.9101816125106902
 10
1.156925372826048
 20
-0.9306953158881189
 10
1.149459229824394
 20
-0.953242850957738
 10
1.144098958993033
 20
-0.978016252081003
 10
1.141330244967532
 20
-1.002513579609694
 10
1.14085042669726
 20
-1.027551245759895
 10
1.142594817207195
 20
-1.051212993026562
 10
1.146354768255816
 20
-1.074004993712296
 10
1.152002355682807
 20
-1.095423428854731
 10
1.159225412621641
 20
-1.114850769992042
 10
1.168190496019931
 20
-1.132633289424916
 10
1.178185598756057
 20
-1.147395272307145
 10
1.186423764805607
 20
-1.156570200846154
  0
LWPOLYLINE
  5
BA
330
8F
100
AcDbEntity
  8
AM_9
100
AcDbPolyline
 90
        4
 70
     0
 43
0.0
 10
1.186423764805607
 20
-1.156570200846154
 10
1.197264240349592
 20
-1.166300184491298
 10
1.208619279150211
 20
-1.172141686710523
 10
1.217857719818783
 20
-1.17364999919886
  0
LINE
  5
BB
330
8F
100
AcDbEntity
  8
AM_9
100
AcDbLine
 10
1.34375
 20
-1.3976
 30
0.0
 11
1.34375
 21
0.7875999999999995
 31
0.0
  0
LINE
  5
BC
330
8F
100
AcDbEntity
  8
AM_9
100
AcDbLine
 10
-1.34375
 20
0.7875999999999995
 30
0.0
 11
-1.34375
 21
-1.3976
 31
0.0
  0
LINE
  5
BD
330
8F
100
AcDbEntity
  8
AM_9
100
AcDbLine
 10
-1.34375
 20
-1.3976
 30
0.0
 11
-1.41615
 21
-1.47
 31
0.0
  0
LINE
  5
BE
330
8F
100
AcDbEntity
  8
AM_9
100
AcDbLine
 10
1.41615
 20
-1.47
 30
0.0
 11
1.34375
 21
-1.3976
 31
0.0
  0
LINE
  5
BF
330
8F
100
AcDbEntity
  8
AM_9
100
AcDbLine
 10
1.34375
 20
0.7875999999999995
 30
0.0
 11
1.41615
 21
0.86
 31
0.0
  0
LINE
  5
C0
330
8F
100
AcDbEntity
  8
AM_9
100
AcDbLine
 10
-1.41615
 20
0.86
 30
0.0
 11
-1.34375
 21
0.7875999999999995
 31
0.0
  0
ARC
  5
C1
330
8F
100
AcDbEntity
  8
AM_9
100
AcDbCircle
 10
0.0
 20
-1.02
 30
0.0
 40
0.1536500000000001
100
AcDbArc
 50
343.7483406852913
 51
196.2516593147087
  0
LINE
  5
C2
330
8F
100
AcDbEntity
  8
AM_9
100
AcDbLine
 10
-1.7376
 20
0.86
 30
0.0
 11
1.7376
 21
0.86
 31
0.0
  0
LINE
  5
C3
330
8F
100
AcDbEntity
  8
AM_9
100
AcDbLine
 10
-1.7376
 20
0.86
 30
0.0
 11
-1.81
 21
0.7876
 31
0.0
  0
LINE
  5
C4
330
8F
100
AcDbEntity
  8
AM_9
100
AcDbLine
 10
1.81
 20
0.7876
 30
0.0
 11
1.7376
 21
0.86
 31
0.0
  0
LWPOLYLINE
  5
C5
330
8F
100
AcDbEntity
  8
AM_9
100
AcDbPolyline
 90
        8
 70
     0
 43
0.0
 10
-0.1617983086984744
 20
-1.06310479086082
 10
-0.1633347760424355
 20
-1.0562227100079
 10
-0.1668472811860011
 20
-1.026691263053437
 10
-0.1654032160078388
 20
-0.9961455910076545
 10
-0.1589955061528815
 20
-0.9667016651753549
 10
-0.1473773551171189
 20
-0.9379503971788415
 10
-0.135135603898631
 20
-0.9174583121341963
 10
-0.1199084795418774
 20
-0.8984910347838315
  0
LWPOLYLINE
  5
C6
330
8F
100
AcDbEntity
  8
AM_9
100
AcDbPolyline
 90
       17
 70
     0
 43
0.0
 10
-0.1199084795418774
 20
-0.8984910347838315
 10
-0.1015920451716819
 20
-0.8814137044180046
 10
-0.0804439880678117
 20
-0.866954420059681
 10
-0.0550942787598861
 20
-0.8551116919416022
 10
-0.0272070738395431
 20
-0.8476508703260274
 10
-0.0004183609833572
 20
-0.8453126830086649
 10
0.0271852247956199
 20
-0.8476470902613207
 10
0.0527319537582113
 20
-0.854267214204852
 10
0.0775098858754831
 20
-0.8653043889236328
 10
0.0998992939502962
 20
-0.8800726061284774
 10
0.1201409211048606
 20
-0.898742599295447
 10
0.1373457607032848
 20
-0.9207226269584736
 10
0.1511539971326869
 20
-0.9458423260692603
 10
0.1608805247168522
 20
-0.9732914862735625
 10
0.1661528199877783
 20
-1.002753026920113
 10
0.1665282245830516
 20
-1.032688347454314
 10
0.1618232619235285
 20
-1.063002296984779
  0
LWPOLYLINE
  5
C7
330
8F
100
AcDbEntity
  8
AM_9
100
AcDbPolyline
 90
       12
 70
     0
 43
0.0
 10
1.643621971418137
 20
-0.8454943556580882
 10
1.65425335446132
 20
-0.8488654914567405
 10
1.664210249143278
 20
-0.8563299784670192
 10
1.673570874707879
 20
-0.8681663241295735
 10
1.681818030923301
 20
-0.883742167514028
 10
1.689031807543755
 20
-0.9033008911876611
 10
1.694865438911103
 20
-0.9257674267695568
 10
1.699429969464004
 20
-0.951704715807035
 10
1.702432226310802
 20
-0.9794207475988402
 10
1.703875131526152
 20
-1.009220321983331
 10
1.703639359325646
 20
-1.039315121398907
 10
1.70222866871707
 20
-1.06310562433366
  0
LINE
  5
C8
330
8F
100
AcDbEntity
  8
AM_9
100
AcDbLine
 10
1.81
 20
-1.063
 30
0.0
 11
1.81
 21
-0.5699999999999998
 31
0.0
  0
LINE
  5
C9
330
8F
100
AcDbEntity
  8
AM_9
100
AcDbLine
 10
-1.81
 20
-0.5699999999999998
 30
0.0
 11
-1.81
 21
-1.063000000000001
 31
0.0
  0
LINE
  5
CA
330
8F
100
AcDbEntity
  8
AM_9
100
AcDbLine
 10
-1.81
 20
0.7876
 30
0.0
 11
1.81
 21
0.7876
 31
0.0
  0
LINE
  5
CB
330
8F
100
AcDbEntity
  8
AM_9
100
AcDbLine
 10
1.81
 20
0.57
 30
0.0
 11
1.81
 21
0.7876
 31
0.0
  0
LINE
  5
CC
330
8F
100
AcDbEntity
  8
AM_9
100
AcDbLine
 10
-1.81
 20
0.7876
 30
0.0
 11
-1.81
 21
0.57
 31
0.0
  0
LINE
  5
CD
330
8F
100
AcDbEntity
  8
AM_9
100
AcDbLine
 10
2.465716666666666
 20
-0.3360000000000003
 30
0.0
 11
2.465716666666666
 21
-0.224
 31
0.0
  0
LINE
  5
CE
330
8F
100
AcDbEntity
  8
AM_9
100
AcDbLine
 10
-2.465716666666666
 20
-0.224
 30
0.0
 11
-2.465716666666666
 21
-0.3360000000000003
 31
0.0
  0
LINE
  5
CF
330
8F
100
AcDbEntity
  8
AM_9
100
AcDbLine
 10
-2.449706778881913
 20
-0.5700000000000001
 30
0.0
 11
2.449706778881804
 21
-0.5700000000000001
 31
0.0
  0
ARC
  5
D0
330
8F
100
AcDbEntity
  8
AM_9
100
AcDbCircle
 10
2.449706778881912
 20
-0.513999999999998
 30
0.0
 40
0.056000000000002
100
AcDbArc
 50
270.0
 51
348.1500423367624
  0
ARC
  5
D1
330
8F
100
AcDbEntity
  8
AM_9
100
AcDbCircle
 10
-2.449706778881912
 20
-0.513999999999998
 30
0.0
 40
0.056000000000002
100
AcDbArc
 50
191.8499576632375
 51
270.0
  0
LINE
  5
D2
330
8F
100
AcDbEntity
  8
AM_9
100
AcDbLine
 10
-2.449706778881914
 20
0.57
 30
0.0
 11
2.449706778881805
 21
0.57
 31
0.0
  0
ARC
  5
D3
330
8F
100
AcDbEntity
  8
AM_9
100
AcDbCircle
 10
2.449706778881912
 20
0.5139999999999979
 30
0.0
 40
0.0560000000000021
100
AcDbArc
 50
11.84995766323837
 51
90.0
  0
ARC
  5
D4
330
8F
100
AcDbEntity
  8
AM_9
100
AcDbCircle
 10
-2.449706778881912
 20
0.5139999999999979
 30
0.0
 40
0.056000000000002
100
AcDbArc
 50
90.0
 51
168.1500423367616
  0
LINE
  5
D5
330
8F
100
AcDbEntity
  8
AM_9
100
AcDbLine
 10
-2.504513346716111
 20
-0.52549957052396
 30
0.0
 11
2.504513346715906
 21
-0.52549957052396
 31
0.0
  0
LINE
  5
D6
330
8F
100
AcDbEntity
  8
AM_9
100
AcDbLine
 10
-2.536895918736124
 20
-0.3360000000000001
 30
0.0
 11
2.536895918735918
 21
-0.3360000000000001
 31
0.0
  0
ARC
  5
D7
330
8F
100
AcDbEntity
  8
AM_9
100
AcDbCircle
 10
-0.0000000002831086
 20
0.0000000000483398
 30
0.0
 40
2.559050000286801
100
AcDbArc
 50
348.1500423370047
 51
352.4553529446679
  0
ARC
  5
D8
330
8F
100
AcDbEntity
  8
AM_9
100
AcDbCircle
 10
0.0000000002832721
 20
0.0000000000483668
 30
0.0
 40
2.559050000286966
100
AcDbArc
 50
187.5446470553323
 51
191.8499576629951
  0
LINE
  5
D9
330
8F
100
AcDbEntity
  8
AM_9
100
AcDbLine
 10
-2.54922751093346
 20
-0.2239999999999998
 30
0.0
 11
2.549227510933454
 21
-0.2239999999999998
 31
0.0
  0
LINE
  5
DA
330
8F
100
AcDbEntity
  8
AM_9
100
AcDbLine
 10
-2.504513346716111
 20
0.5254995705239607
 30
0.0
 11
2.504513346716105
 21
0.5254995705239606
 31
0.0
  0
ARC
  5
DB
330
8F
100
AcDbEntity
  8
AM_9
100
AcDbCircle
 10
-0.0000000000002531
 20
-0.0000000000000161
 30
0.0
 40
2.559050000000246
100
AcDbArc
 50
354.9783315749556
 51
11.84995766323595
  0
ARC
  5
DC
330
8F
100
AcDbEntity
  8
AM_9
100
AcDbCircle
 10
-0.0000000000042779
 20
0.0000000000002543
 30
0.0
 40
2.559049999995756
100
AcDbArc
 50
168.1500423367492
 51
185.0216684250592
  0
LINE
  5
DF
330
8F
100
AcDbEntity
  8
AM_7
100
AcDbLine
 10
-0.1613325000000001
 20
-1.02
 30
0.0
 11
0.1613325
 21
-1.02
 31
0.0
  0
ELLIPSE
  5
E1
330
8F
100
AcDbEntity
  8
AM_4
100
AcDbEllipse
 10
1.621350312477433
 20
-1.02
 30
0.0
 11
-2.822504710334864E-17
 21
-0.1536500000000001
 31
0.0
210
0.0
220
0.0
230
1.0
 40
0.4226182617407003
 41
5.911093925454049
 42
7.570336670020414
  0
LWPOLYLINE
  5
E2
330
8F
100
AcDbEntity
  8
AM_4
100
AcDbPolyline
 90
        7
 70
     0
 43
0.0
 10
1.604707365326897
 20
-1.172931358313443
 10
1.600097641296682
 20
-1.166734450327686
 10
1.589969509275483
 20
-1.149546570226182
 10
1.58108767947997
 20
-1.129158301292693
 10
1.573472002060021
 20
-1.105056271645823
 10
1.567772893395678
 20
-1.078774223501866
 10
1.565476157850867
 20
-1.063147582874622
  0
ARC
  5
E3
330
8F
100
AcDbEntity
  8
AM_4
100
AcDbCircle
 10
0.0
 20
-1.02
 30
0.0
 40
0.1536500000000001
100
AcDbArc
 50
196.2516593147088
 51
343.7483406852912
  0
LINE
  5
E4
330
8F
100
AcDbEntity
  8
AM_4
100
AcDbLine
 10
-1.7376
 20
-1.47
 30
0.0
 11
1.7376
 21
-1.47
 31
0.0
  0
LINE
  5
E5
330
8F
100
AcDbEntity
  8
AM_4
100
AcDbLine
 10
1.7376
 20
-1.47
 30
0.0
 11
1.81
 21
-1.3976
 31
0.0
  0
LINE
  5
E6
330
8F
100
AcDbEntity
  8
AM_4
100
AcDbLine
 10
-1.81
 20
-1.3976
 30
0.0
 11
-1.7376
 21
-1.47
 31
0.0
  0
LINE
  5
E7
330
8F
100
AcDbEntity
  8
AM_4
100
AcDbLine
 10
-1.81
 20
-1.3976
 30
0.0
 11
1.81
 21
-1.3976
 31
0.0
  0
LWPOLYLINE
  5
E8
330
8F
100
AcDbEntity
  8
AM_4
100
AcDbPolyline
 90
       18
 70
     0
 43
0.0
 10
0.1618232619235285
 20
-1.063002296984779
 10
0.1617963254663265
 20
-1.063112925742944
 10
0.1522454666977593
 20
-1.091674998771383
 10
0.137545739247953
 20
-1.118974050572738
 10
0.1192250450392479
 20
-1.142242835227845
 10
0.0964317956202127
 20
-1.162566651230975
 10
0.0721487891652864
 20
-1.177511526756368
 10
0.0447610000544724
 20
-1.188283132683918
 10
0.0180692247321321
 20
-1.193660156712455
 10
-0.0099921037689208
 20
-1.194374233066943
 10
-0.0361616327222125
 20
-1.190534743698299
 10
-0.0620441666512866
 20
-1.182160016553038
 10
-0.085649176340447
 20
-1.169919271642619
 10
-0.1075321242450828
 20
-1.15358868530245
 10
-0.1266438919932964
 20
-1.133784970212112
 10
-0.1427455033313578
 20
-1.110563340112083
 10
-0.1551137692798457
 20
-1.08460269032795
 10
-0.1617983086984744
 20
-1.06310479086082
  0
LWPOLYLINE
  5
E9
330
8F
100
AcDbEntity
  8
AM_4
100
AcDbPolyline
 90
       13
 70
     0
 43
0.0
 10
1.70222866871707
 20
-1.06310562433366
 10
1.701665300247388
 20
-1.069328588338272
 10
1.697960499710608
 20
-1.097935454434257
 10
1.692552885857417
 20
-1.124100853259282
 10
1.685473243134478
 20
-1.147220816285759
 10
1.677037940805419
 20
-1.165966842027952
 10
1.66720841407351
 20
-1.180451448563927
 10
1.656674898123124
 20
-1.189726437139894
 10
1.645289805055986
 20
-1.19426433721806
 10
1.633830074819424
 20
-1.193919929221818
 10
1.622205185227829
 20
-1.189049142325291
 10
1.610880797056278
 20
-1.179871645129902
 10
1.604707365326897
 20
-1.172931358313443
  0
LINE
  5
EA
330
8F
100
AcDbEntity
  8
AM_4
100
AcDbLine
 10
1.81
 20
-1.3976
 30
0.0
 11
1.81
 21
-1.063
 31
0.0
  0
LINE
  5
EB
330
8F
100
AcDbEntity
  8
AM_4
100
AcDbLine
 10
-1.81
 20
-1.063000000000001
 30
0.0
 11
-1.81
 21
-1.3976
 31
0.0
  0
ARC
  5
ED
330
8F
100
AcDbEntity
  8
AM_5
100
AcDbCircle
 10
0.0
 20
-1.02
 30
0.0
 40
0.1875
100
AcDbArc
 50
75.0
 51
15.00000000000002
  0
ARC
  5
EE
330
8F
100
AcDbEntity
  8
AM_5
100
AcDbCircle
 10
-0.0000000000000002
 20
-1.095
 30
0.0
 40
0.1875000000000001
100
AcDbArc
 50
74.99999999999996
 51
15.00000000000002
  0
ENDBLK
  5
92
330
8F
100
AcDbEntity
  8
0
100
AcDbBlockEnd
  0
BLOCK
  5
F1
330
EF
100
AcDbEntity
  8
0
100
AcDbBlockBegin
  2
3_405016_Inch_0_in_076201_4
 70
     2
 10
0.0
 20
0.0
 30
0.0
  3
3_405016_Inch_0_in_076201_4
  1

  0
ATTDEF
  5
F3
330
EF
100
AcDbEntity
  8
AM_6
100
AcDbText
 10
2.040000163900501
 20
0.2187500000000002
 30
0.0
 40
0.5
  1
405016 -Inch
100
AcDbAttributeDefinition
  3

  2
NN
 70
     8
280
     0
  0
ATTDEF
  5
F4
330
EF
100
AcDbEntity
  8
AM_6
100
AcDbText
 10
2.040000163900501
 20
-0.2812499999999998
 30
0.0
 40
0.5
  1
Grease Fitting
100
AcDbAttributeDefinition
  3

  2
NT
 70
     8
280
     0
  0
ATTDEF
  5
F5
330
EF
100
AcDbEntity
  8
AM_6
100
AcDbText
 10
2.040000163900501
 20
-0.7812499999999998
 30
0.0
 40
0.5
  1
405016-Inch
100
AcDbAttributeDefinition
  3

  2
NB
 70
     8
280
     0
  0
ATTDEF
  5
F6
330
EF
100
AcDbEntity
  8
AM_6
100
AcDbText
 10
2.040000163900501
 20
-1.28125
 30
0.0
 40
0.5
  1
$MN.-Inch
100
AcDbAttributeDefinition
  3

  2
NBSYN
 70
     8
280
     0
  0
ATTDEF
  5
F7
330
EF
100
AcDbEntity
  8
AM_6
100
AcDbText
 10
2.040000163900501
 20
-1.78125
 30
0.0
 40
0.5
  1
405016
100
AcDbAttributeDefinition
  3

  2
LINA
 70
     8
280
     0
  0
ATTDEF
  5
F8
330
EF
100
AcDbEntity
  8
AM_6
100
AcDbText
 10
2.040000163900501
 20
-2.28125
 30
0.0
 40
0.5
  1
405016
100
AcDbAttributeDefinition
  3

  2
MN
 70
     8
280
     0
  0
ATTDEF
  5
F9
330
EF
100
AcDbEntity
  8
AM_6
100
AcDbText
 10
2.040000163900501
 20
-2.78125
 30
0.0
 40
0.5
  1
7/16 HEX
100
AcDbAttributeDefinition
  3

  2
H
 70
     8
280
     0
  0
ATTDEF
  5
FA
330
EF
100
AcDbEntity
  8
AM_6
100
AcDbText
 10
2.040000163900501
 20
-3.28125
 30
0.0
 40
0.5
  1
0.383
100
AcDbAttributeDefinition
  3

  2
NDR
 70
     8
280
     0
  0
ATTDEF
  5
FB
330
EF
100
AcDbEntity
  8
AM_6
100
AcDbText
 10
2.040000163900501
 20
-3.78125
 30
0.0
 40
0.5
  1
0.337
100
AcDbAttributeDefinition
  3

  2
KDR
 70
     8
280
     0
  0
ATTDEF
  5
FC
330
EF
100
AcDbEntity
  8
AM_6
100
AcDbText
 10
2.040000163900501
 20
-4.28125
 30
0.0
 40
0.5
  1
0.1575
100
AcDbAttributeDefinition
  3

  2
BZE
 70
     8
280
     0
  0
ATTDEF
  5
FD
330
EF
100
AcDbEntity
  8
AM_6
100
AcDbText
 10
2.040000163900501
 20
-4.78125
 30
0.0
 40
0.5
  1
0.4375
100
AcDbAttributeDefinition
  3

  2
HEX
 70
     8
280
     0
  0
ATTDEF
  5
FE
330
EF
100
AcDbEntity
  8
AM_6
100
AcDbText
 10
2.040000163900501
 20
-5.28125
 30
0.0
 40
0.5
  1
0.281250
100
AcDbAttributeDefinition
  3

  2
HEX2
 70
     8
280
     0
  0
ATTDEF
  5
FF
330
EF
100
AcDbEntity
  8
AM_6
100
AcDbText
 10
2.040000163900501
 20
-5.78125
 30
0.0
 40
0.5
  1
baldor
100
AcDbAttributeDefinition
  3

  2
COMPANY
 70
     8
280
     0
  0
LINE
  5
100
330
EF
100
AcDbEntity
  8
AM_9
100
AcDbLine
 10
-3.65714265393004
 20
-0.1510741298357571
 30
0.0
 11
-3.668464227153917
 21
-0.1791093260592887
 31
0.0
  0
LINE
  5
101
330
EF
100
AcDbEntity
  8
AM_9
100
AcDbLine
 10
-3.505967807891543
 20
-0.2099962668917054
 30
0.0
 11
-3.517655054111088
 21
-0.2389369657326277
 31
0.0
  0
LWPOLYLINE
  5
102
330
EF
100
AcDbEntity
  8
AM_9
100
AcDbPolyline
 90
        3
 70
     0
 43
0.0
 10
-3.289814002626137
 20
0.1093749999999998
 10
-3.271954352642214
 20
0.0546874999999999
 10
-3.250387388091213
 20
-0.0000000000000001
  0
LWPOLYLINE
  5
103
330
EF
100
AcDbEntity
  8
AM_9
100
AcDbPolyline
 90
        3
 70
     0
 43
0.0
 10
-3.250387388091213
 20
-0.0000000000000001
 10
-3.271865059008836
 20
-0.0544416102741497
 10
-3.289814002626137
 20
-0.109375
  0
LWPOLYLINE
  5
104
330
EF
100
AcDbEntity
  8
AM_9
100
AcDbPolyline
 90
        3
 70
     0
 43
0.0
 10
-3.448036959469452
 20
-0.2987675689889718
 10
-3.463924244032549
 20
-0.2912216284034025
 10
-3.479134245730564
 20
-0.2813919000363599
  0
LWPOLYLINE
  5
105
330
EF
100
AcDbEntity
  8
AM_9
100
AcDbPolyline
 90
        3
 70
     0
 43
0.0
 10
-3.179490391090002
 20
-0.0000000000000001
 10
-3.189444598519276
 20
0.0544416102741495
 10
-3.203211462247693
 20
0.1093749999999998
  0
LWPOLYLINE
  5
106
330
EF
100
AcDbEntity
  8
AM_9
100
AcDbPolyline
 90
        3
 70
     0
 43
0.0
 10
-3.203211462247693
 20
-0.1093750000000001
 10
-3.189497269385309
 20
-0.0546875000000001
 10
-3.179490391090002
 20
-0.0000000000000001
  0
LWPOLYLINE
  5
107
330
EF
100
AcDbEntity
  8
AM_9
100
AcDbPolyline
 90
        3
 70
     0
 43
0.0
 10
-3.460834338192029
 20
-0.2360765106845277
 10
-3.451669351615472
 20
-0.2462091938631852
 10
-3.435981310158474
 20
-0.2689146070947223
  0
LWPOLYLINE
  5
108
330
EF
100
AcDbEntity
  8
AM_9
100
AcDbPolyline
 90
        3
 70
     0
 43
0.0
 10
-3.289814002626137
 20
-0.109375
 10
-3.303528195488521
 20
-0.1640625000000001
 10
-3.313535073783829
 20
-0.2187500000000001
  0
LINE
  5
109
330
EF
100
AcDbEntity
  8
AM_9
100
AcDbLine
 10
-3.250387388091213
 20
-0.0000000000000001
 30
0.0
 11
-3.179490391090002
 21
-0.0000000000000001
 31
0.0
  0
LWPOLYLINE
  5
10A
330
EF
100
AcDbEntity
  8
AM_9
100
AcDbPolyline
 90
        3
 70
     0
 43
0.0
 10
-3.313535073783829
 20
0.2187499999999999
 10
-3.303580866354554
 20
0.1643083897258503
 10
-3.289814002626137
 20
0.1093749999999998
  0
LWPOLYLINE
  5
10B
330
EF
100
AcDbEntity
  8
AM_9
100
AcDbPolyline
 90
        3
 70
     0
 43
0.0
 10
-3.435981310158474
 20
-0.2689146070947223
 10
-3.448977198008086
 20
-0.2634308483997529
 10
-3.463191098122326
 20
-0.2602304684431306
  0
LWPOLYLINE
  5
10C
330
EF
100
AcDbEntity
  8
AM_9
100
AcDbPolyline
 90
        3
 70
     0
 43
0.0
 10
-3.481491005660859
 20
-0.3055458577949631
 10
-3.465109051041881
 20
-0.3030753670497809
 10
-3.448036959469452
 20
-0.2987675689889718
  0
LINE
  5
10D
330
EF
100
AcDbEntity
  8
AM_9
100
AcDbLine
 10
-3.435981310158474
 20
-0.2689146070947223
 30
0.0
 11
-3.448036959469452
 21
-0.2987675689889718
 31
0.0
  0
ELLIPSE
  5
10E
330
EF
100
AcDbEntity
  8
AM_9
100
AcDbEllipse
 10
-3.690318602318543
 20
-0.4687500000000002
 30
0.0
 11
-0.09595382955731765
 21
0.03874944547499697
 31
0.0
210
0.0
220
0.0
230
1.0
 40
0.2113091308703572
 41
2.332779363060353
 42
6.38416831107283
  0
LINE
  5
10F
330
EF
100
AcDbEntity
  8
AM_9
100
AcDbLine
 10
-3.595679060447198
 20
-0.509346083437832
 30
0.0
 11
-3.535067310179933
 21
-0.4540180898723598
 31
0.0
  0
ELLIPSE
  5
110
330
EF
100
AcDbEntity
  8
AM_9
100
AcDbEllipse
 10
-3.66232494012106
 20
-0.3994303217889761
 30
0.0
 11
-0.1290248947933268
 21
0.05210467522533572
 31
0.0
210
0.0
220
0.0
230
1.0
 40
0.2113091308703519
 41
1.908217316922292
 42
5.801105639492179
  0
LWPOLYLINE
  5
111
330
EF
100
AcDbEntity
  8
AM_9
100
AcDbPolyline
 90
        8
 70
     0
 43
0.0
 10
-3.535555508422563
 20
-0.4544546704669206
 10
-3.534766520122375
 20
-0.4537399643819756
 10
-3.530041391525945
 20
-0.4481388293136552
 10
-3.526740802091506
 20
-0.4414510088798312
 10
-3.525151195607491
 20
-0.4338927921777627
 10
-3.52538224554665
 20
-0.426785493911139
 10
-3.526998204481629
 20
-0.4202600957282671
 10
-3.529708740222663
 20
-0.4142519860401007
  0
LWPOLYLINE
  5
112
330
EF
100
AcDbEntity
  8
AM_9
100
AcDbPolyline
 90
        3
 70
     0
 43
0.0
 10
-3.529226841074244
 20
-0.2987675689889718
 10
-3.515693575573854
 20
-0.3030606061861223
 10
-3.502134290948868
 20
-0.305456396233367
  0
ELLIPSE
  5
113
330
EF
100
AcDbEntity
  8
AM_9
100
AcDbEllipse
 10
-3.60064905537973
 20
-0.2467045921760191
 30
0.0
 11
-0.1303939210191754
 21
0.05265753494273501
 31
0.0
210
0.0
220
0.0
230
1.0
 40
0.2113091308703577
 41
1.711945269609641
 42
2.518556725320404
  0
LWPOLYLINE
  5
114
330
EF
100
AcDbEntity
  8
AM_9
100
AcDbPolyline
 90
        5
 70
     0
 43
0.0
 10
-3.668464227153917
 20
-0.1791093260592887
 10
-3.690326615652542
 20
-0.1842540823997054
 10
-3.711222702582536
 20
-0.1862220679364951
 10
-3.731140322137446
 20
-0.1844124966919382
 10
-3.749654108758708
 20
-0.1791093260592887
  0
LWPOLYLINE
  5
115
330
EF
100
AcDbEntity
  8
AM_9
100
AcDbPolyline
 90
        5
 70
     0
 43
0.0
 10
-3.517655054111088
 20
-0.2389369657326277
 10
-3.556496342798517
 20
-0.2295338871417796
 10
-3.594631389510435
 20
-0.2166871171046321
 10
-3.632250183871619
 20
-0.1996402057054678
 10
-3.668464227153917
 20
-0.1791093260592887
  0
LWPOLYLINE
  5
116
330
EF
100
AcDbEntity
  8
AM_9
100
AcDbPolyline
 90
        3
 70
     0
 43
0.0
 10
-3.49115577591237
 20
-0.2711532636537957
 10
-3.504890953676943
 20
-0.2561815527589921
 10
-3.517655054111088
 20
-0.2389369657326277
  0
ELLIPSE
  5
117
330
EF
100
AcDbEntity
  8
AM_9
100
AcDbEllipse
 10
-3.600649055379693
 20
-0.2467045921760387
 30
0.0
 11
-0.1303939210192135
 21
0.05265753494275708
 31
0.0
210
0.0
220
0.0
230
1.0
 40
0.2113091308703285
 41
3.806340372003284
 42
6.919181903097226
  0
LWPOLYLINE
  5
118
330
EF
100
AcDbEntity
  8
AM_9
100
AcDbPolyline
 90
        3
 70
     0
 43
0.0
 10
-3.482947498075594
 20
-0.2602304684431209
 10
-3.492196133489488
 20
-0.2616913382589204
 10
-3.517171191763266
 20
-0.2689146070947223
  0
LWPOLYLINE
  5
119
330
EF
100
AcDbEntity
  8
AM_9
100
AcDbPolyline
 90
        3
 70
     0
 43
0.0
 10
-3.234898436693967
 20
-0.2000409996967265
 10
-3.221160405864995
 20
-0.1643083897258505
 10
-3.203211462247693
 20
-0.1093750000000001
  0
LINE
  5
11A
330
EF
100
AcDbEntity
  8
AM_9
100
AcDbLine
 10
-3.242638076782617
 20
-0.2187500000000001
 30
0.0
 11
-3.234898436693967
 21
-0.2000409996967265
 31
0.0
  0
LINE
  5
11B
330
EF
100
AcDbEntity
  8
AM_9
100
AcDbLine
 10
-3.234898558775932
 20
0.2000413016192557
 30
0.0
 11
-3.242638076782617
 21
0.2187499999999999
 31
0.0
  0
LWPOLYLINE
  5
11C
330
EF
100
AcDbEntity
  8
AM_9
100
AcDbPolyline
 90
        3
 70
     0
 43
0.0
 10
-3.203211462247693
 20
0.1093749999999998
 10
-3.221071112231617
 20
0.1640624999999999
 10
-3.234898558775932
 20
0.2000413016192557
  0
LINE
  5
11D
330
EF
100
AcDbEntity
  8
AM_9
100
AcDbLine
 10
-3.66827745478193
 20
-0.1204089378707287
 30
0.0
 11
-3.669362899771642
 21
-0.1230967854582223
 31
0.0
  0
LINE
  5
11E
330
EF
100
AcDbEntity
  8
AM_9
100
AcDbLine
 10
-3.480352125177309
 20
-0.2425790968238377
 30
0.0
 11
-3.460488747011351
 21
-0.193392142543456
 31
0.0
  0
ELLIPSE
  5
11F
330
EF
100
AcDbEntity
  8
AM_9
100
AcDbEllipse
 10
-3.582349147841206
 20
-0.2013892028241809
 30
0.0
 11
-0.1019970226638773
 21
0.04118989399964292
 31
0.0
210
0.0
220
0.0
230
1.0
 40
0.2113091308703423
 41
1.171739051712136
 42
6.283185307179586
  0
LWPOLYLINE
  5
120
330
EF
100
AcDbEntity
  8
AM_9
100
AcDbPolyline
 90
        4
 70
     0
 43
0.0
 10
-3.668282184436949
 20
-0.1204206514110939
 10
-3.668421350421478
 20
-0.1208367673933812
 10
-3.667843766464352
 20
-0.1245107513506023
 10
-3.665939989897925
 20
-0.1273585531662481
  0
LWPOLYLINE
  5
121
330
EF
100
AcDbEntity
  8
AM_9
100
AcDbPolyline
 90
        5
 70
     0
 43
0.0
 10
-3.460487802809863
 20
-0.1933898041312626
 10
-3.460581138941014
 20
-0.1936098952159724
 10
-3.463796675893653
 20
-0.1971856748420371
 10
-3.469815039136435
 20
-0.1994144431868155
 10
-3.476679009716878
 20
-0.1999999999699529
  0
LWPOLYLINE
  5
122
330
EF
100
AcDbEntity
  8
AM_9
100
AcDbPolyline
 90
        3
 70
     0
 43
0.0
 10
-3.569976140929316
 20
-0.1745741884610189
 10
-3.542587065555886
 20
-0.1876759562813858
 10
-3.505967807891543
 20
-0.2099962668917054
  0
LWPOLYLINE
  5
123
330
EF
100
AcDbEntity
  8
AM_9
100
AcDbPolyline
 90
        3
 70
     0
 43
0.0
 10
-3.65714265393004
 20
-0.1510741298357571
 10
-3.627938046430517
 20
-0.1564222384464443
 10
-3.599267547488222
 20
-0.1639312493177432
  0
LWPOLYLINE
  5
124
330
EF
100
AcDbEntity
  8
AM_9
100
AcDbPolyline
 90
        3
 70
     0
 43
0.0
 10
-3.505967807891543
 20
-0.2099962668917054
 10
-3.488994125558019
 20
-0.2163479371246913
 10
-3.472855868373837
 20
-0.2258378743019629
  0
LWPOLYLINE
  5
125
330
EF
100
AcDbEntity
  8
AM_9
100
AcDbPolyline
 90
        4
 70
     0
 43
0.0
 10
-3.694053534274535
 20
-0.1419585098156051
 10
-3.690178414828486
 20
-0.1420496512545707
 10
-3.675689499713735
 20
-0.1441228263802215
 10
-3.65714265393004
 20
-0.1510741298357571
  0
ELLIPSE
  5
126
330
EF
100
AcDbEntity
  8
AM_9
100
AcDbEllipse
 10
-3.582349147841197
 20
-0.2013892028241873
 30
0.0
 11
-0.1303939210191762
 21
0.05265753494273501
 31
0.0
210
0.0
220
0.0
230
1.0
 40
0.2113091308703421
 41
3.806340372002838
 42
4.69295467889707
  0
ELLIPSE
  5
127
330
EF
100
AcDbEntity
  8
AM_9
100
AcDbEllipse
 10
-3.582349147841199
 20
-0.2013892028241376
 30
0.0
 11
-0.1303939210191319
 21
0.05265753494270121
 31
0.0
210
0.0
220
0.0
230
1.0
 40
0.2113091308701124
 41
-1.273644906026536
 42
-0.6725714813800074
  0
ELLIPSE
  5
128
330
EF
100
AcDbEntity
  8
AM_9
100
AcDbEllipse
 10
-3.600649055379716
 20
-0.2467045921759707
 30
0.0
 11
-0.130393921019122
 21
0.05265753494270627
 31
0.0
210
0.0
220
0.0
230
1.0
 40
0.211309130870804
 41
1.429720514117363
 42
1.512685599801944
  0
LINE
  5
129
330
EF
100
AcDbEntity
  8
AM_9
100
AcDbLine
 10
-3.479134245730564
 20
-0.2813919000363599
 30
0.0
 11
-3.49115577591237
 21
-0.2711532636537957
 31
0.0
  0
ELLIPSE
  5
12A
330
EF
100
AcDbEntity
  8
AM_9
100
AcDbEllipse
 10
-3.600649055379725
 20
-0.246704592176023
 30
0.0
 11
-0.1303939210191704
 21
0.05265753494273174
 31
0.0
210
0.0
220
0.0
230
1.0
 40
0.2113091308703482
 41
2.800469246484361
 42
3.607080702195149
  0
LINE
  5
12B
330
EF
100
AcDbEntity
  8
AM_9
100
AcDbLine
 10
-3.501247405614129
 20
-0.3055458577949631
 30
0.0
 11
-3.481491005660859
 21
-0.3055458577949631
 31
0.0
  0
LWPOLYLINE
  5
12C
330
EF
100
AcDbEntity
  8
AM_9
100
AcDbPolyline
 90
       16
 70
     0
 43
0.0
 10
-3.529440713051838
 20
-0.4147372326913294
 10
-3.529500371094772
 20
-0.414620733831399
 10
-3.532338548067676
 20
-0.4082275458445679
 10
-3.534935708441307
 20
-0.3999507628575036
 10
-3.536717494192584
 20
-0.3899698677543896
 10
-3.537146653004617
 20
-0.3787875842712416
 10
-3.535884813640058
 20
-0.3670355124650392
 10
-3.532378319296057
 20
-0.3540682147987051
 10
-3.52698180609528
 20
-0.3422287815890195
 10
-3.520168513145486
 20
-0.3319378972693497
 10
-3.512431704106789
 20
-0.3233684929870063
 10
-3.50430937633373
 20
-0.3165947887177669
 10
-3.496409178904756
 20
-0.3116030047944535
 10
-3.489335699182091
 20
-0.3082404132563369
 10
-3.483528531567634
 20
-0.3062023215813079
 10
-3.479539689645961
 20
-0.3051901181899431
  0
ELLIPSE
  5
12D
330
EF
100
AcDbEntity
  8
AM_9
100
AcDbEllipse
 10
-3.651649958643715
 20
-0.3729962569746645
 30
0.0
 11
-0.1235034625625961
 21
0.04987493162723559
 31
0.0
210
0.0
220
0.0
230
1.0
 40
0.2113091308703474
 41
1.831488082208762
 42
6.030747580382748
  0
ELLIPSE
  5
12E
330
EF
100
AcDbEntity
  8
AM_9
100
AcDbEllipse
 10
-3.582349147841197
 20
-0.2013892028241927
 30
0.0
 11
-0.1303939210191793
 21
0.05265753494273668
 31
0.0
210
0.0
220
0.0
230
1.0
 40
0.2113091308703095
 41
1.28324224753883
 42
1.512685599801929
  0
ELLIPSE
  5
12F
330
EF
100
AcDbEntity
  8
AM_9
100
AcDbEllipse
 10
-3.582349147841199
 20
-0.2013892028241893
 30
0.0
 11
-0.1303939210191838
 21
0.05265753494272016
 31
0.0
210
0.0
220
0.0
230
1.0
 40
0.2113091308703482
 41
1.711945269609621
 42
2.51855672532034
  0
LINE
  5
130
330
EF
100
AcDbEntity
  8
AM_9
100
AcDbLine
 10
-3.463191098122326
 20
-0.2602304684431306
 30
0.0
 11
-3.482947498075594
 21
-0.2602304684431209
 31
0.0
  0
ELLIPSE
  5
131
330
EF
100
AcDbEntity
  8
AM_9
100
AcDbEllipse
 10
-3.582349147841201
 20
-0.2013892028241856
 30
0.0
 11
-0.1303939210191785
 21
0.05265753494273633
 31
0.0
210
0.0
220
0.0
230
1.0
 40
0.2113091308703509
 41
2.800469246484382
 42
3.607080702195109
  0
LINE
  5
132
330
EF
100
AcDbEntity
  8
AM_9
100
AcDbLine
 10
-3.472855868373837
 20
-0.2258378743019629
 30
0.0
 11
-3.460834338192029
 21
-0.2360765106845277
 31
0.0
  0
LWPOLYLINE
  5
133
330
EF
100
AcDbEntity
  8
AM_9
100
AcDbPolyline
 90
        3
 70
     0
 43
0.0
 10
-3.517171191763266
 20
-0.2689146070947223
 10
-3.54523349173211
 20
-0.251275593729576
 10
-3.575021596570096
 20
-0.2360765106845275
  0
LINE
  5
134
330
EF
100
AcDbEntity
  8
AM_9
100
AcDbLine
 10
-3.575021596570096
 20
-0.2360765106845275
 30
0.0
 11
-3.60103040559608
 21
-0.2258378743019627
 31
0.0
  0
LWPOLYLINE
  5
135
330
EF
100
AcDbEntity
  8
AM_9
100
AcDbPolyline
 90
        3
 70
     0
 43
0.0
 10
-3.60103040559608
 20
-0.2258378743019627
 10
-3.62402044028832
 20
-0.2189176876709015
 10
-3.62992819362633
 20
-0.2174229743811451
  0
LINE
  5
136
330
EF
100
AcDbEntity
  8
AM_9
100
AcDbLine
 10
-3.630138408984769
 20
-0.2662598381781459
 30
0.0
 11
-3.619330313134612
 21
-0.2711532636537957
 31
0.0
  0
LINE
  5
137
330
EF
100
AcDbEntity
  8
AM_9
100
AcDbLine
 10
-3.619330313134612
 20
-0.2711532636537957
 30
0.0
 11
-3.593321504108629
 21
-0.2813919000363599
 31
0.0
  0
LWPOLYLINE
  5
138
330
EF
100
AcDbEntity
  8
AM_9
100
AcDbPolyline
 90
        3
 70
     0
 43
0.0
 10
-3.593321504108629
 20
-0.2813919000363599
 10
-3.561670953254605
 20
-0.2911775952746243
 10
-3.529226841074244
 20
-0.2987675689889718
  0
LINE
  5
139
330
EF
100
AcDbEntity
  8
AM_9
100
AcDbLine
 10
-3.517171191763266
 20
-0.2689146070947223
 30
0.0
 11
-3.529226841074244
 21
-0.2987675689889718
 31
0.0
  0
LWPOLYLINE
  5
13A
330
EF
100
AcDbEntity
  8
AM_9
100
AcDbPolyline
 90
       17
 70
     0
 43
0.0
 10
-3.46716391216194
 20
-0.1790373738501779
 10
-3.475131377238132
 20
-0.1733931390117467
 10
-3.485887450672314
 20
-0.1670729780242511
 10
-3.498530502194757
 20
-0.1606047421316796
 10
-3.513420925340598
 20
-0.1538031670974777
 10
-3.529322802147479
 20
-0.1472336073736394
 10
-3.546683771969197
 20
-0.1407130262602577
 10
-3.564039249099443
 20
-0.1347930597680668
 10
-3.581896960683731
 20
-0.1293028157827817
 10
-3.598726722183805
 20
-0.1247141396218193
 10
-3.61504346608451
 20
-0.1208880884981782
 10
-3.629442516944344
 20
-0.1181545989145989
 10
-3.642374869810091
 20
-0.1164278875396128
 10
-3.652734597969792
 20
-0.1158549073091555
 10
-3.660844772786489
 20
-0.1164156227038168
 10
-3.66602141397733
 20
-0.1180609686233502
 10
-3.668282184436949
 20
-0.1204206514110939
  0
ARC
  5
13B
330
EF
100
AcDbEntity
  8
AM_9
100
AcDbCircle
 10
-3.511733012345898
 20
-0.0000000000000051
 30
0.0
 40
0.200000000000005
100
AcDbArc
 50
90.0
 51
126.2517968023877
  0
LWPOLYLINE
  5
13C
330
EF
100
AcDbEntity
  8
AM_9
100
AcDbPolyline
 90
        6
 70
     0
 43
0.0
 10
-3.630240431883515
 20
-0.1505069523982221
 10
-3.623799576022083
 20
-0.1535654953592165
 10
-3.608738086282601
 20
-0.1601799433259583
 10
-3.591944663462941
 20
-0.1668493358980661
 10
-3.574545327308946
 20
-0.1731116383367606
 10
-3.556302112529842
 20
-0.1790373738502115
  0
ELLIPSE
  5
13D
330
EF
100
AcDbEntity
  8
AM_9
100
AcDbEllipse
 10
-3.511733012345899
 20
-0.0000000000000001
 30
0.0
 11
1.224646799147355E-17
 21
0.2000000000000002
 31
0.0
210
0.0
220
0.0
230
1.0
 40
0.4999999999999999
 41
0.0
 42
2.679646633022825
  0
LWPOLYLINE
  5
13E
330
EF
100
AcDbEntity
  8
AM_9
100
AcDbPolyline
 90
        4
 70
     0
 43
0.0
 10
-3.46716391216194
 20
-0.1790373738501784
 10
-3.462209251689871
 20
-0.1842628795203941
 10
-3.460101367223128
 20
-0.1891729979031394
 10
-3.460487802809863
 20
-0.1933898041312626
  0
LINE
  5
13F
330
EF
100
AcDbEntity
  8
AM_9
100
AcDbLine
 10
-3.38453553116506
 20
0.1999999999999999
 30
0.0
 11
-3.511733012345899
 21
0.1999999999999999
 31
0.0
  0
LINE
  5
140
330
EF
100
AcDbEntity
  8
AM_9
100
AcDbLine
 10
-3.476826793943785
 20
-0.2000000000000001
 30
0.0
 11
-3.38453553116506
 21
-0.2000000000000001
 31
0.0
  0
LWPOLYLINE
  5
141
330
EF
100
AcDbEntity
  8
AM_9
100
AcDbPolyline
 90
        8
 70
     0
 43
0.0
 10
-3.476679009716878
 20
-0.1999999999699529
 10
-3.478166126956182
 20
-0.1999786710855128
 10
-3.489039727432931
 20
-0.1988321115509053
 10
-3.501438049146913
 20
-0.196164942998426
 10
-3.515861479512905
 20
-0.1920694300574958
 10
-3.531374459373723
 20
-0.1870948030566195
 10
-3.548467863160694
 20
-0.181500594761393
 10
-3.55630211252986
 20
-0.1790373738501784
  0
LINE
  5
142
330
EF
100
AcDbEntity
  8
AM_9
100
AcDbLine
 10
-3.230274756115957
 20
0.1999999999999998
 30
0.0
 11
-3.297932990786616
 21
0.1999999999999998
 31
0.0
  0
LINE
  5
143
330
EF
100
AcDbEntity
  8
AM_9
100
AcDbLine
 10
-3.297932990786616
 20
-0.2
 30
0.0
 11
-3.230274756115957
 21
-0.2
 31
0.0
  0
LINE
  5
144
330
EF
100
AcDbEntity
  8
AM_9
100
AcDbLine
 10
-3.439830445169059
 20
0.2187499999999999
 30
0.0
 11
-3.242638076782617
 21
0.2187499999999999
 31
0.0
  0
LWPOLYLINE
  5
145
330
EF
100
AcDbEntity
  8
AM_9
100
AcDbPolyline
 90
        3
 70
     0
 43
0.0
 10
-3.479257059703983
 20
0.1093749999999999
 10
-3.461397409720059
 20
0.1640624999999999
 10
-3.439830445169059
 20
0.2187499999999999
  0
LWPOLYLINE
  5
146
330
EF
100
AcDbEntity
  8
AM_9
100
AcDbPolyline
 90
        3
 70
     0
 43
0.0
 10
-3.502978130861674
 20
-0.0000000000000001
 10
-3.4930239234324
 20
0.0544416102741495
 10
-3.479257059703983
 20
0.1093749999999999
  0
LWPOLYLINE
  5
147
330
EF
100
AcDbEntity
  8
AM_9
100
AcDbPolyline
 90
        3
 70
     0
 43
0.0
 10
-3.37056240362808
 20
0.208537225675073
 10
-3.378887655597122
 20
0.1643083897258503
 10
-3.392654519325539
 20
0.1093749999999999
  0
LINE
  5
148
330
EF
100
AcDbEntity
  8
AM_9
100
AcDbLine
 10
-3.368933448167847
 20
0.2187499999999999
 30
0.0
 11
-3.37056240362808
 21
0.208537225675073
 31
0.0
  0
LINE
  5
149
330
EF
100
AcDbEntity
  8
AM_9
100
AcDbLine
 10
-3.417352808124549
 20
0.0364095215476239
 30
0.0
 11
-3.432081133860463
 21
-0.0000000000000001
 31
0.0
  0
LWPOLYLINE
  5
14A
330
EF
100
AcDbEntity
  8
AM_9
100
AcDbPolyline
 90
        3
 70
     0
 43
0.0
 10
-3.398343995289174
 20
0.0905336178923469
 10
-3.410514169309462
 20
0.0546874999999999
 10
-3.417352808124549
 20
0.0364095215476239
  0
LINE
  5
14B
330
EF
100
AcDbEntity
  8
AM_9
100
AcDbLine
 10
-3.392654519325539
 20
0.1093749999999999
 30
0.0
 11
-3.398343995289174
 21
0.0905336178923469
 31
0.0
  0
LINE
  5
14C
330
EF
100
AcDbEntity
  8
AM_9
100
AcDbLine
 10
-3.502978130861674
 20
-0.0000000000000001
 30
0.0
 11
-3.432081133860463
 21
-0.0000000000000001
 31
0.0
  0
LWPOLYLINE
  5
14D
330
EF
100
AcDbEntity
  8
AM_9
100
AcDbPolyline
 90
        3
 70
     0
 43
0.0
 10
-3.479257059703983
 20
-0.109375
 10
-3.492971252566367
 20
-0.0546875000000001
 10
-3.502978130861674
 20
-0.0000000000000001
  0
LWPOLYLINE
  5
14E
330
EF
100
AcDbEntity
  8
AM_9
100
AcDbPolyline
 90
        3
 70
     0
 43
0.0
 10
-3.439830445169059
 20
-0.2187500000000001
 10
-3.461308116086681
 20
-0.1643083897258505
 10
-3.479257059703983
 20
-0.109375
  0
LINE
  5
14F
330
EF
100
AcDbEntity
  8
AM_9
100
AcDbLine
 10
-3.439830445169059
 20
-0.2187500000000001
 30
0.0
 11
-3.242638076782617
 21
-0.2187500000000001
 31
0.0
  0
LINE
  5
150
330
EF
100
AcDbEntity
  8
AM_9
100
AcDbLine
 10
-3.370672922013661
 20
-0.2078663761809598
 30
0.0
 11
-3.368933448167847
 21
-0.2187500000000001
 31
0.0
  0
LWPOLYLINE
  5
151
330
EF
100
AcDbEntity
  8
AM_9
100
AcDbPolyline
 90
        3
 70
     0
 43
0.0
 10
-3.392654519325539
 20
-0.1093750000000001
 10
-3.378940326463154
 20
-0.1640625000000001
 10
-3.370672922013661
 20
-0.2078663761809598
  0
LINE
  5
152
330
EF
100
AcDbEntity
  8
AM_9
100
AcDbLine
 10
-3.398280999795431
 20
-0.0907335691207548
 30
0.0
 11
-3.392654519325539
 21
-0.1093750000000001
 31
0.0
  0
LWPOLYLINE
  5
153
330
EF
100
AcDbEntity
  8
AM_9
100
AcDbPolyline
 90
        3
 70
     0
 43
0.0
 10
-3.417366635063829
 20
-0.0363736076131435
 10
-3.410603462942841
 20
-0.0544416102741497
 10
-3.398280999795431
 20
-0.0907335691207548
  0
LINE
  5
154
330
EF
100
AcDbEntity
  8
AM_9
100
AcDbLine
 10
-3.432081133860463
 20
-0.0000000000000001
 30
0.0
 11
-3.417366635063829
 21
-0.0363736076131435
 31
0.0
  0
LINE
  5
155
330
EF
100
AcDbEntity
  8
AM_9
100
AcDbLine
 10
-3.059730138493554
 20
0.1853871066562611
 30
0.0
 11
-3.228547028177623
 21
0.1914800577488988
 31
0.0
  0
LINE
  5
156
330
EF
100
AcDbEntity
  8
AM_9
100
AcDbLine
 10
-3.228547028177623
 20
-0.191480057748899
 30
0.0
 11
-3.059730138493554
 21
-0.1853871066562613
 31
0.0
  0
LINE
  5
157
330
EF
100
AcDbEntity
  8
AM_9
100
AcDbLine
 10
-2.994163401211404
 20
0.1319978794387895
 30
0.0
 11
-3.007877528270472
 21
0.1513925839218323
 31
0.0
  0
LINE
  5
158
330
EF
100
AcDbEntity
  8
AM_9
100
AcDbLine
 10
-3.007877528270472
 20
-0.1513925839218325
 30
0.0
 11
-2.994163401211404
 21
-0.1319978794387898
 31
0.0
  0
ELLIPSE
  5
159
330
EF
100
AcDbEntity
  8
AM_9
100
AcDbEllipse
 10
-3.384535531165061
 20
-0.0000000000000001
 30
0.0
 11
1.339457436567415E-17
 21
0.2187499999999996
 31
0.0
210
0.0
220
0.0
230
1.0
 40
0.4999999999999949
 41
0.0
 42
6.283185307179586
  0
ELLIPSE
  5
15A
330
EF
100
AcDbEntity
  8
AM_9
100
AcDbEllipse
 10
-3.384535531165061
 20
-0.0000000000000001
 30
0.0
 11
1.224646799147355E-17
 21
0.2000000000000002
 31
0.0
210
0.0
220
0.0
230
1.0
 40
0.5000000000000022
 41
0.0
 42
6.283185307179586
  0
ELLIPSE
  5
15B
330
EF
100
AcDbEntity
  8
AM_9
100
AcDbEllipse
 10
-3.297932990786616
 20
0.0000000000000001
 30
0.0
 11
1.339457436567419E-17
 21
0.2187500000000002
 31
0.0
210
0.0
220
0.0
230
1.0
 40
0.4999999999999996
 41
0.0
 42
6.283185307179586
  0
ELLIPSE
  5
15C
330
EF
100
AcDbEntity
  8
AM_9
100
AcDbEllipse
 10
-3.297932990786616
 20
-0.0000000000000001
 30
0.0
 11
1.224646799147353E-17
 21
0.2
 31
0.0
210
0.0
220
0.0
230
1.0
 40
0.5000000000000006
 41
0.0
 42
6.283185307179586
  0
ELLIPSE
  5
15D
330
EF
100
AcDbEntity
  8
AM_9
100
AcDbEllipse
 10
-3.230274756115921
 20
-0.000000000000007
 30
0.0
 11
1.224646799147395E-17
 21
0.2000000000000069
 31
0.0
210
0.0
220
0.0
230
1.0
 40
0.4999999999999699
 41
0.0
 42
6.283185307179586
  0
ELLIPSE
  5
15E
330
EF
100
AcDbEntity
  8
AM_9
100
AcDbEllipse
 10
-3.230274756115958
 20
0.0
 30
0.0
 11
1.172668097677220E-17
 21
0.1915112338502296
 31
0.0
210
0.0
220
0.0
230
1.0
 40
0.5000000000000034
 41
0.0
 42
6.283185307179586
  0
ELLIPSE
  5
15F
330
EF
100
AcDbEntity
  8
AM_9
100
AcDbEllipse
 10
-3.061402889626712
 20
0.0000000000000004
 30
0.0
 11
1.135353457964646E-17
 21
0.1854172907249866
 31
0.0
210
0.0
220
0.0
230
1.0
 40
0.49999999999999
 41
0.0
 42
6.283185307179586
  0
ELLIPSE
  5
160
330
EF
100
AcDbEntity
  8
AM_9
100
AcDbEllipse
 10
-3.040831699038112
 20
0.0000000000000001
 30
0.0
 11
9.899048221688875E-18
 21
0.161663725877224
 31
0.0
210
0.0
220
0.0
230
1.0
 40
0.5000000000000028
 41
0.0
 42
6.283185307179586
  0
LINE
  5
161
330
EF
100
AcDbEntity
  8
AM_4
100
AcDbLine
 10
-3.791802477479808
 20
-0.3503396289636353
 30
0.0
 11
-3.786609055189079
 21
-0.4322420068738782
 31
0.0
  0
ELLIPSE
  5
162
330
EF
100
AcDbEntity
  8
AM_4
100
AcDbEllipse
 10
-3.690318602318543
 20
-0.4687500000000002
 30
0.0
 11
-0.09595382955731813
 21
0.03874944547499731
 31
0.0
210
0.0
220
0.0
230
1.0
 40
0.2113091308703496
 41
0.1009830038932513
 42
2.332779363060342
  0
LINE
  5
163
330
EF
100
AcDbEntity
  8
AM_4
100
AcDbLine
 10
-3.738332535534831
 20
-0.1510741298357571
 30
0.0
 11
-3.749654108758708
 21
-0.1791093260592887
 31
0.0
  0
LWPOLYLINE
  5
164
330
EF
100
AcDbEntity
  8
AM_4
100
AcDbPolyline
 90
        8
 70
     0
 43
0.0
 10
-3.768168910689659
 20
-0.3180427832448538
 10
-3.771550185402447
 20
-0.319256547739921
 10
-3.777829157907935
 20
-0.3225617940801234
 10
-3.783357294371622
 20
-0.3271631217934675
 10
-3.787786973265053
 20
-0.3330481823224282
 10
-3.790891780600663
 20
-0.3406260194838905
 10
-3.791865358210701
 20
-0.3481011683183224
 10
-3.791748142655993
 20
-0.3510658219602592
  0
ELLIPSE
  5
165
330
EF
100
AcDbEntity
  8
AM_4
100
AcDbEllipse
 10
-3.66232494012106
 20
-0.3994303217889761
 30
0.0
 11
-0.1290248947933277
 21
0.05210467522533601
 31
0.0
210
0.0
220
0.0
230
1.0
 40
0.2113091308703505
 41
0.1066109704923051
 42
1.908217316922285
  0
LWPOLYLINE
  5
166
330
EF
100
AcDbEntity
  8
AM_4
100
AcDbPolyline
 90
        4
 70
     0
 43
0.0
 10
-3.749654108758708
 20
-0.1791093260592888
 10
-3.734776990715632
 20
-0.1988355121406939
 10
-3.718347718472958
 20
-0.2156330920108725
 10
-3.712850699861615
 20
-0.2201680623457972
  0
LWPOLYLINE
  5
167
330
EF
100
AcDbEntity
  8
AM_4
100
AcDbPolyline
 90
        3
 70
     0
 43
0.0
 10
-3.712850699861615
 20
-0.2201680623457972
 10
-3.699910178262987
 20
-0.2290462109660021
 10
-3.680034817320671
 20
-0.2389369657326276
  0
LINE
  5
168
330
EF
100
AcDbEntity
  8
AM_4
100
AcDbLine
 10
-3.669362899771642
 20
-0.1230967854582223
 30
0.0
 11
-3.684346170505084
 21
-0.1601993088245385
 31
0.0
  0
ELLIPSE
  5
169
330
EF
100
AcDbEntity
  8
AM_4
100
AcDbEllipse
 10
-3.582349147841199
 20
-0.2013892028241874
 30
0.0
 11
-0.1019970226638854
 21
0.04118989399964852
 31
0.0
210
0.0
220
0.0
230
1.0
 40
0.211309130870352
 41
0.0
 42
1.171739051712006
  0
LWPOLYLINE
  5
16A
330
EF
100
AcDbEntity
  8
AM_4
100
AcDbPolyline
 90
        4
 70
     0
 43
0.0
 10
-3.738332535534831
 20
-0.1510741298357571
 10
-3.721716693547302
 20
-0.1458778226760521
 10
-3.70566208089217
 20
-0.1427138007556463
 10
-3.694053534274535
 20
-0.1419585098156051
  0
LWPOLYLINE
  5
16B
330
EF
100
AcDbEntity
  8
AM_4
100
AcDbPolyline
 90
        6
 70
     0
 43
0.0
 10
-3.668347571101125
 20
-0.2099962668917054
 10
-3.678656707458455
 20
-0.1943573015029059
 10
-3.690000534292664
 20
-0.1805491420332304
 10
-3.702714508869471
 20
-0.1688997677199809
 10
-3.716610435059164
 20
-0.1598729403210871
 10
-3.738332535534831
 20
-0.1510741298357571
  0
LINE
  5
16C
330
EF
100
AcDbEntity
  8
AM_4
100
AcDbLine
 10
-3.692723680731705
 20
-0.1419585097669024
 30
0.0
 11
-3.694162157379859
 21
-0.1419585097669024
 31
0.0
  0
ELLIPSE
  5
16D
330
EF
100
AcDbEntity
  8
AM_4
100
AcDbEllipse
 10
-3.582349147841264
 20
-0.2013892028240958
 30
0.0
 11
-0.1303939210190826
 21
0.05265753494265241
 31
0.0
210
0.0
220
0.0
230
1.0
 40
0.2113091308701652
 41
5.61061382579917
 42
7.566427554719718
  0
ELLIPSE
  5
16E
330
EF
100
AcDbEntity
  8
AM_4
100
AcDbEllipse
 10
-3.600649055379729
 20
-0.2467045921760202
 30
0.0
 11
-0.1303939210191767
 21
0.0526575349427342
 31
0.0
210
0.0
220
0.0
230
1.0
 40
0.2113091308703513
 41
0.6359965959176934
 42
1.429720514117388
  0
LWPOLYLINE
  5
16F
330
EF
100
AcDbEntity
  8
AM_4
100
AcDbPolyline
 90
       16
 70
     0
 43
0.0
 10
-3.728239862352154
 20
-0.2049397654728484
 10
-3.727353933082609
 20
-0.2063147608084003
 10
-3.724694142423641
 20
-0.2110972240297248
 10
-3.721857182204029
 20
-0.2176884764119949
 10
-3.719318050537793
 20
-0.2261602193344535
 10
-3.717656493461237
 20
-0.2362963490489037
 10
-3.717394326698748
 20
-0.2475688203566656
 10
-3.718845430314647
 20
-0.2593455408886464
 10
-3.722545574313657
 20
-0.2722285253223551
 10
-3.728094959125747
 20
-0.2839339447858396
 10
-3.735015884273273
 20
-0.2940686700439601
 10
-3.742812738662503
 20
-0.3024719610201164
 10
-3.75094093712959
 20
-0.3090764704927551
 10
-3.758788088230557
 20
-0.313906649091436
 10
-3.76575788404445
 20
-0.3171303521896206
 10
-3.768931781201295
 20
-0.3182880507257078
  0
ELLIPSE
  5
170
330
EF
100
AcDbEntity
  8
AM_4
100
AcDbEllipse
 10
-3.651649958643715
 20
-0.3729962569746644
 30
0.0
 11
-0.1235034625625952
 21
0.04987493162723586
 31
0.0
210
0.0
220
0.0
230
1.0
 40
0.2113091308703486
 41
6.039878787465796
 42
8.114673389388347
  0
LINE
  5
171
330
EF
100
AcDbEntity
  8
AM_4
100
AcDbLine
 10
-3.62992819362633
 20
-0.2174229743811451
 30
0.0
 11
-3.668347571101125
 21
-0.2099962668917054
 31
0.0
  0
LINE
  5
172
330
EF
100
AcDbEntity
  8
AM_4
100
AcDbLine
 10
-3.668347571101125
 20
-0.2099962668917054
 30
0.0
 11
-3.68003481732067
 21
-0.2389369657326277
 31
0.0
  0
LWPOLYLINE
  5
173
330
EF
100
AcDbEntity
  8
AM_4
100
AcDbPolyline
 90
        3
 70
     0
 43
0.0
 10
-3.68003481732067
 20
-0.2389369657326277
 10
-3.650354996086868
 20
-0.2560939713202353
 10
-3.630138408984769
 20
-0.2662598381781459
  0
ARC
  5
174
330
EF
100
AcDbEntity
  8
AM_4
100
AcDbCircle
 10
-3.511733012345901
 20
-0.0000000000000001
 30
0.0
 40
0.1999999999999988
100
AcDbArc
 50
126.2517968023877
 51
219.6363607961786
  0
LWPOLYLINE
  5
175
330
EF
100
AcDbEntity
  8
AM_4
100
AcDbPolyline
 90
        6
 70
     0
 43
0.0
 10
-3.665939989897925
 20
-0.1273585531662481
 10
-3.664272062655228
 20
-0.1291842652280563
 10
-3.657994515387565
 20
-0.134472979061152
 10
-3.648836916324844
 20
-0.140518627090196
 10
-3.637540727162833
 20
-0.1468270783017121
 10
-3.630240431883515
 20
-0.1505069523982221
  0
ENDBLK
  5
F2
330
EF
100
AcDbEntity
  8
0
100
AcDbBlockEnd
  0
BLOCK
  5
178
330
176
100
AcDbEntity
  8
0
100
AcDbBlockBegin
  2
4_076201h_0_in_076201_4
 70
     2
 10
0.0
 20
0.0
 30
0.0
  3
4_076201h_0_in_076201_4
  1

  0
ATTDEF
  5
17A
330
176
100
AcDbEntity
  8
AM_6
100
AcDbText
 10
10.5405
 20
1.375
 30
0.0
 40
0.5
  1
WSTU-SCMED - Inch - Housing
100
AcDbAttributeDefinition
  3

  2
NN
 70
     8
280
     0
  0
ATTDEF
  5
17B
330
176
100
AcDbEntity
  8
AM_6
100
AcDbText
 10
10.5405
 20
0.875
 30
0.0
 40
0.5
  1
SCMED Take-Up Bearings -Wide Slot -(Normal Duty)
100
AcDbAttributeDefinition
  3

  2
NT
 70
     8
280
     0
  0
ATTDEF
  5
17C
330
176
100
AcDbEntity
  8
AM_6
100
AcDbText
 10
10.5405
 20
0.375
 30
0.0
 40
0.5
  1
076201h
100
AcDbAttributeDefinition
  3

  2
NB
 70
     8
280
     0
  0
ATTDEF
  5
17D
330
176
100
AcDbEntity
  8
AM_6
100
AcDbText
 10
10.5405
 20
-0.125
 30
0.0
 40
0.5
  1
$PN.h
100
AcDbAttributeDefinition
  3

  2
NBSYN
 70
     8
280
     0
  0
ATTDEF
  5
17E
330
176
100
AcDbEntity
  8
AM_6
100
AcDbText
 10
10.5405
 20
-0.625
 30
0.0
 40
0.5
  1
076201
100
AcDbAttributeDefinition
  3

  2
LINA
 70
     8
280
     0
  0
ATTDEF
  5
17F
330
176
100
AcDbEntity
  8
AM_6
100
AcDbText
 10
10.5405
 20
-1.125
 30
0.0
 40
0.5
  1
215
100
AcDbAttributeDefinition
  3

  2
SERIES
 70
     8
280
     0
  0
ATTDEF
  5
180
330
176
100
AcDbEntity
  8
AM_6
100
AcDbText
 10
10.5405
 20
-1.625
 30
0.0
 40
0.5
  1
2-11/16
100
AcDbAttributeDefinition
  3

  2
SS
 70
     8
280
     0
  0
ATTDEF
  5
181
330
176
100
AcDbEntity
  8
AM_6
100
AcDbText
 10
10.5405
 20
-2.125
 30
0.0
 40
0.5
  1
076201
100
AcDbAttributeDefinition
  3

  2
PN
 70
     8
280
     0
  0
ATTDEF
  5
182
330
176
100
AcDbEntity
  8
AM_6
100
AcDbText
 10
10.5405
 20
-2.625
 30
0.0
 40
0.5
  1
WSTU-SCMED-211
100
AcDbAttributeDefinition
  3

  2
DESCRIPTION
 70
     8
280
     0
  0
ATTDEF
  5
183
330
176
100
AcDbEntity
  8
AM_6
100
AcDbText
 10
10.5405
 20
-3.125
 30
0.0
 40
0.5
  1
19.0
100
AcDbAttributeDefinition
  3

  2
W
 70
     8
280
     0
  0
ATTDEF
  5
184
330
176
100
AcDbEntity
  8
AM_6
100
AcDbText
 10
10.5405
 20
-3.625
 30
0.0
 40
0.5
  1
WS515
100
AcDbAttributeDefinition
  3

  2
FS
 70
     8
280
     0
  0
ATTDEF
  5
185
330
176
100
AcDbEntity
  8
AM_6
100
AcDbText
 10
10.5405
 20
-4.125
 30
0.0
 40
0.5
  1
2.33
100
AcDbAttributeDefinition
  3

  2
A
 70
     8
280
     0
  0
ATTDEF
  5
186
330
176
100
AcDbEntity
  8
AM_6
100
AcDbText
 10
10.5405
 20
-4.625
 30
0.0
 40
0.5
  1
9.13
100
AcDbAttributeDefinition
  3

  2
B
 70
     8
280
     0
  0
ATTDEF
  5
187
330
176
100
AcDbEntity
  8
AM_6
100
AcDbText
 10
10.5405
 20
-5.125
 30
0.0
 40
0.5
  1
1.063
100
AcDbAttributeDefinition
  3

  2
C
 70
     8
280
     0
  0
ATTDEF
  5
188
330
176
100
AcDbEntity
  8
AM_6
100
AcDbText
 10
10.5405
 20
-5.625
 30
0.0
 40
0.5
  1
4.75
100
AcDbAttributeDefinition
  3

  2
D
 70
     8
280
     0
  0
ATTDEF
  5
189
330
176
100
AcDbEntity
  8
AM_6
100
AcDbText
 10
10.5405
 20
-6.125
 30
0.0
 40
0.5
  1
5.50
100
AcDbAttributeDefinition
  3

  2
E
 70
     8
280
     0
  0
ATTDEF
  5
18A
330
176
100
AcDbEntity
  8
AM_6
100
AcDbText
 10
10.5405
 20
-6.625
 30
0.0
 40
0.5
  1
1-1/2
100
AcDbAttributeDefinition
  3

  2
F
 70
     8
280
     0
  0
ATTDEF
  5
18B
330
176
100
AcDbEntity
  8
AM_6
100
AcDbText
 10
10.5405
 20
-7.125
 30
0.0
 40
0.5
  1
0.81
100
AcDbAttributeDefinition
  3

  2
G
 70
     8
280
     0
  0
ATTDEF
  5
18C
330
176
100
AcDbEntity
  8
AM_6
100
AcDbText
 10
10.5405
 20
-7.625
 30
0.0
 40
0.5
  1
1.25
100
AcDbAttributeDefinition
  3

  2
H
 70
     8
280
     0
  0
ATTDEF
  5
18D
330
176
100
AcDbEntity
  8
AM_6
100
AcDbText
 10
10.5405
 20
-8.125
 30
0.0
 40
0.5
  1
4.38
100
AcDbAttributeDefinition
  3

  2
J
 70
     8
280
     0
  0
ATTDEF
  5
18E
330
176
100
AcDbEntity
  8
AM_6
100
AcDbText
 10
10.5405
 20
-8.625
 30
0.0
 40
0.5
  1
2.75
100
AcDbAttributeDefinition
  3

  2
K
 70
     8
280
     0
  0
ATTDEF
  5
18F
330
176
100
AcDbEntity
  8
AM_6
100
AcDbText
 10
10.5405
 20
-9.125
 30
0.0
 40
0.5
  1
3.62
100
AcDbAttributeDefinition
  3

  2
L
 70
     8
280
     0
  0
ATTDEF
  5
190
330
176
100
AcDbEntity
  8
AM_6
100
AcDbText
 10
10.5405
 20
-9.625
 30
0.0
 40
0.5
  1
5.923 / 5.953
100
AcDbAttributeDefinition
  3

  2
M
 70
     8
280
     0
  0
ATTDEF
  5
191
330
176
100
AcDbEntity
  8
AM_6
100
AcDbText
 10
10.5405
 20
-10.125
 30
0.0
 40
0.5
  1
6.69
100
AcDbAttributeDefinition
  3

  2
N
 70
     8
280
     0
  0
ATTDEF
  5
192
330
176
100
AcDbEntity
  8
AM_6
100
AcDbText
 10
10.5405
 20
-10.625
 30
0.0
 40
0.5
  1
0.86
100
AcDbAttributeDefinition
  3

  2
R
 70
     8
280
     0
  0
ATTDEF
  5
193
330
176
100
AcDbEntity
  8
AM_6
100
AcDbText
 10
10.5405
 20
-11.125
 30
0.0
 40
0.5
  1
1.47
100
AcDbAttributeDefinition
  3

  2
S
 70
     8
280
     0
  0
ATTDEF
  5
194
330
176
100
AcDbEntity
  8
AM_6
100
AcDbText
 10
10.5405
 20
-11.625
 30
0.0
 40
0.5
  1
2.75
100
AcDbAttributeDefinition
  3

  2
T
 70
     8
280
     0
  0
ATTDEF
  5
195
330
176
100
AcDbEntity
  8
AM_6
100
AcDbText
 10
10.5405
 20
-12.125
 30
0.0
 40
0.5
  1
9255
100
AcDbAttributeDefinition
  3

  2
CAPS
 70
     8
280
     0
  0
ATTDEF
  5
196
330
176
100
AcDbEntity
  8
AM_6
100
AcDbText
 10
10.5405
 20
-12.625
 30
0.0
 40
0.5
  1
14875
100
AcDbAttributeDefinition
  3

  2
CAPD
 70
     8
280
     0
  0
ATTDEF
  5
197
330
176
100
AcDbEntity
  8
AM_6
100
AcDbText
 10
10.5405
 20
-13.125
 30
0.0
 40
0.5
  1
baldor
100
AcDbAttributeDefinition
  3

  2
COMPANY
 70
     8
280
     0
  0
ELLIPSE
  5
198
330
176
100
AcDbEntity
  8
AM_9
100
AcDbEllipse
 10
-3.230274756115957
 20
-0.0000000000000001
 30
0.0
 11
2.143131898507870E-17
 21
0.3500000000000003
 31
0.0
210
0.0
220
0.0
230
1.0
 40
0.5000000000000004
 41
0.0
 42
6.283185307179586
  0
LINE
  5
199
330
176
100
AcDbEntity
  8
AM_9
100
AcDbLine
 10
-3.144426647223868
 20
-0.4499984822176936
 30
0.0
 11
-3.142230722202456
 21
-0.4499944588704824
 31
0.0
  0
LINE
  5
19A
330
176
100
AcDbEntity
  8
AM_9
100
AcDbLine
 10
-3.147539974491159
 20
-0.4499601050872758
 30
0.0
 11
-3.144426647223868
 21
-0.4499984822176936
 31
0.0
  0
LWPOLYLINE
  5
19B
330
176
100
AcDbEntity
  8
AM_9
100
AcDbPolyline
 90
       24
 70
     0
 43
0.0
 10
-3.418672215737513
 20
-0.0000000000000001
 10
-3.418509911978986
 20
-0.0161118132842547
 10
-3.417338416026219
 20
-0.0461262779068107
 10
-3.415036146410051
 20
-0.075959492259788
 10
-3.41160313852856
 20
-0.105497950733982
 10
-3.407037673058806
 20
-0.1346349548641241
 10
-3.401335481655124
 20
-0.1632663980445366
 10
-3.394488591003139
 20
-0.1912907576270189
 10
-3.386484002305028
 20
-0.2186083562481129
 10
-3.377302474709899
 20
-0.2451194340987295
 10
-3.366918006848193
 20
-0.2707203910546646
 10
-3.355299186588195
 20
-0.2952974466689561
 10
-3.342414410416111
 20
-0.3187172647650356
 10
-3.32824364059566
 20
-0.3408155633813222
 10
-3.312829622444255
 20
-0.3613500028229552
 10
-3.296261970573437
 20
-0.3800759631974556
 10
-3.278691755640863
 20
-0.3967608703617186
 10
-3.26031247920108
 20
-0.4112271443330344
 10
-3.241323411413136
 20
-0.4233799166301552
 10
-3.22190252323337
 20
-0.4332001876329042
 10
-3.202201044699005
 20
-0.4407172260537341
 10
-3.182351325030726
 20
-0.4459826246947953
 10
-3.162475338221129
 20
-0.4490556360754639
 10
-3.147539974491159
 20
-0.4499601050872758
  0
LWPOLYLINE
  5
19C
330
176
100
AcDbEntity
  8
AM_9
100
AcDbPolyline
 90
       25
 70
     0
 43
0.0
 10
-3.145184181333086
 20
0.4499939038290182
 10
-3.15071787472525
 20
0.4498675927882034
 10
-3.170231167548139
 20
0.4481128324828909
 10
-3.189395998601668
 20
0.4443703141186058
 10
-3.208139918881916
 20
0.4386985770089081
 10
-3.226415688999451
 20
0.4311393227785337
 10
-3.244192217965448
 20
0.4217124984839879
 10
-3.261448154268173
 20
0.4104139266670113
 10
-3.278161575855133
 20
0.3972188305173265
 10
-3.294296943622975
 20
0.3820945280810963
 10
-3.309792745581936
 20
0.3650236512320248
 10
-3.324556046904081
 20
0.346033332946496
 10
-3.338470337489097
 20
0.3252172616071421
 10
-3.351416552034394
 20
0.3027352066743205
 10
-3.363296688593483
 20
0.278787517104852
 10
-3.374035844078964
 20
0.2536083106791096
 10
-3.383608581445497
 20
0.2273821205150334
 10
-3.392012439633392
 20
0.2002598960809172
 10
-3.399253407427901
 20
0.1723733623744756
 10
-3.40533976542107
 20
0.1438421749315901
 10
-3.410279093639206
 20
0.1147796856141953
 10
-3.414077251352477
 20
0.085296697185561
 10
-3.416738347141382
 20
0.0555035291312361
 10
-3.418265086685096
 20
0.0255108939180207
 10
-3.418672215737513
 20
-0.0000000000000001
  0
LINE
  5
19D
330
176
100
AcDbEntity
  8
AM_9
100
AcDbLine
 10
-3.143773529135314
 20
0.449999972628253
 30
0.0
 11
-3.145184181333086
 21
0.4499939038290182
 31
0.0
  0
LINE
  5
19E
330
176
100
AcDbEntity
  8
AM_9
100
AcDbLine
 10
4.69
 20
-0.7499999999999999
 30
0.0
 11
5.5
 21
-0.7499999999999999
 31
0.0
  0
LINE
  5
19F
330
176
100
AcDbEntity
  8
AM_9
100
AcDbLine
 10
5.5
 20
0.7499999999999999
 30
0.0
 11
4.69
 21
0.7499999999999999
 31
0.0
  0
LINE
  5
1A0
330
176
100
AcDbEntity
  8
AM_9
100
AcDbLine
 10
3.5463
 20
-0.9035499999999999
 30
0.0
 11
3.546299999999999
 21
0.90355
 31
0.0
  0
LINE
  5
1A1
330
176
100
AcDbEntity
  8
AM_9
100
AcDbLine
 10
3.44
 20
-0.9035499999999999
 30
0.0
 11
3.44
 21
0.90355
 31
0.0
  0
LINE
  5
1A2
330
176
100
AcDbEntity
  8
AM_9
100
AcDbLine
 10
4.69
 20
-0.9035499999999999
 30
0.0
 11
4.69
 21
0.90355
 31
0.0
  0
LINE
  5
1A3
330
176
100
AcDbEntity
  8
AM_9
100
AcDbLine
 10
4.583699999999999
 20
-0.90355
 30
0.0
 11
4.583699999999999
 21
0.90355
 31
0.0
  0
LINE
  5
1A4
330
176
100
AcDbEntity
  8
AM_9
100
AcDbLine
 10
-0.8958333333333334
 20
-0.4783499999999997
 30
0.0
 11
-0.8958333333333334
 21
0.9035499999999999
 31
0.0
  0
LINE
  5
1A5
330
176
100
AcDbEntity
  8
AM_9
100
AcDbLine
 10
0.8958333333333334
 20
-0.4783499999999997
 30
0.0
 11
0.8958333333333334
 21
0.9035499999999999
 31
0.0
  0
LINE
  5
1A6
330
176
100
AcDbEntity
  8
AM_9
100
AcDbLine
 10
2.55905
 20
-0.9035500000000001
 30
0.0
 11
2.55905
 21
0.9035499999999999
 31
0.0
  0
LINE
  5
1A7
330
176
100
AcDbEntity
  8
AM_9
100
AcDbLine
 10
-2.55905
 20
0.9035499999999999
 30
0.0
 11
-2.55905
 21
-0.9035500000000001
 31
0.0
  0
LINE
  5
1A8
330
176
100
AcDbEntity
  8
AM_9
100
AcDbLine
 10
0.8958333333333334
 20
-0.4783499999999997
 30
0.0
 11
-0.8958333333333334
 21
-0.4783499999999997
 31
0.0
  0
LWPOLYLINE
  5
1A9
330
176
100
AcDbEntity
  8
AM_9
100
AcDbPolyline
 90
       29
 70
     0
 43
0.0
 10
-3.143672215737511
 20
0.4500000000000001
 10
-3.118251284068905
 20
0.4471521166738653
 10
-3.092485547966966
 20
0.4387172298082888
 10
-3.066893355391247
 20
0.4248584840725115
 10
-3.041772116192437
 20
0.405643269574384
 10
-3.017419983102133
 20
0.3813279600516285
 10
-2.994370325516818
 20
0.3523682427356888
 10
-2.97284932777639
 20
0.3188049358415361
 10
-2.953249022746993
 20
0.2811368084308355
 10
-2.936034039077442
 20
0.2400616529320402
 10
-2.92145943797818
 20
0.1957644832788196
 10
-2.909772615725058
 20
0.1488326613836408
 10
-2.901271864319629
 20
0.1001523244702553
 10
-2.8961721579479
 20
0.0504287099879627
 10
-2.894449103762576
 20
-0.0000942483612771
 10
-2.896147863775898
 20
-0.0504560139432996
 10
-2.901260349863803
 20
-0.0998895161894511
 10
-2.909644314156633
 20
-0.1482236036053738
 10
-2.921086558034764
 20
-0.1945583174984079
 10
-2.935496030198344
 20
-0.2385484283697212
 10
-2.952578048461041
 20
-0.2796942781199522
 10
-2.971921618432241
 20
-0.3172400735284463
 10
-2.993428647361939
 20
-0.3510030551568834
 10
-3.016647460387626
 20
-0.3804544272129304
 10
-3.041050006047565
 20
-0.4050406835124994
 10
-3.066336963651447
 20
-0.4244600122235671
 10
-3.092185114359222
 20
-0.4385853968219305
 10
-3.118049492725379
 20
-0.4471422837543678
 10
-3.143672215737511
 20
-0.4500000000000004
  0
LWPOLYLINE
  5
1AA
330
176
100
AcDbEntity
  8
AM_9
100
AcDbPolyline
 90
       29
 70
     0
 43
0.0
 10
-3.143672215737511
 20
-0.4500000000000004
 10
-3.168433746701364
 20
-0.4471904564465798
 10
-3.192299024705396
 20
-0.438834248379924
 10
-3.214961450269969
 20
-0.4249971855393675
 10
-3.23630394816688
 20
-0.4058587001842817
 10
-3.256001308218824
 20
-0.3817797101693008
 10
-3.274014381649529
 20
-0.3527638145323316
 10
-3.290196220108035
 20
-0.3192575801331073
 10
-3.304347872103797
 20
-0.2818808416706821
 10
-3.316474056486227
 20
-0.2406890758635581
 10
-3.326498288685832
 20
-0.1963127222426915
 10
-3.334317231292482
 20
-0.1495835544937775
 10
-3.339893359662945
 20
-0.101042821814049
 10
-3.343272437060375
 20
-0.0510588453779709
 10
-3.344422875559325
 20
-0.0005830914087321
 10
-3.343339092424225
 20
0.0495564000714245
 10
-3.340057075227494
 20
0.0992286751721643
 10
-3.334607070085353
 20
0.1475008476373198
 10
-3.326970334251027
 20
0.1938794975931501
 10
-3.317170037243613
 20
0.2379798969992165
 10
-3.305304958173877
 20
0.278991161364762
 10
-3.291265944867348
 20
0.3167300646242024
 10
-3.275181183493446
 20
0.3506120674372679
 10
-3.257248383848353
 20
0.3800075912798146
 10
-3.237439621755487
 20
0.4046478883197961
 10
-3.215939667584694
 20
0.4242570838783914
 10
-3.193082082267982
 20
0.4384575680630323
 10
-3.168842793130118
 20
0.4470950443962475
 10
-3.143672215737511
 20
0.4500000000000001
  0
LINE
  5
1AB
330
176
100
AcDbEntity
  8
AM_9
100
AcDbLine
 10
2.375
 20
-0.9035499999999999
 30
0.0
 11
-2.375
 21
-0.9035499999999999
 31
0.0
  0
LINE
  5
1AC
330
176
100
AcDbEntity
  8
AM_9
100
AcDbLine
 10
2.375
 20
0.9035500000000001
 30
0.0
 11
-2.375
 21
0.9035500000000001
 31
0.0
  0
ELLIPSE
  5
1AD
330
176
100
AcDbEntity
  8
AM_9
100
AcDbEllipse
 10
-3.143672215737513
 20
-0.0000000000000001
 30
0.0
 11
-8.266365894244639E-17
 21
-0.4500000000000003
 31
0.0
210
0.0
220
0.0
230
1.0
 40
0.5000000000000009
 41
0.0
 42
6.283185307179586
  0
LINE
  5
1AE
330
176
100
AcDbEntity
  8
AM_7
100
AcDbLine
 10
5.5405
 20
0.0
 30
0.0
 11
4.6495
 21
0.0
 31
0.0
  0
LINE
  5
1AF
330
176
100
AcDbEntity
  8
AM_7
100
AcDbLine
 10
0.0
 20
1.1693
 30
0.0
 11
0.0
 21
-1.5865
 31
0.0
  0
LINE
  5
1B0
330
176
100
AcDbEntity
  8
AM_4
100
AcDbLine
 10
4.69
 20
-0.9035500000000001
 30
0.0
 11
4.69
 21
-1.375
 31
0.0
  0
LINE
  5
1B1
330
176
100
AcDbEntity
  8
AM_4
100
AcDbLine
 10
4.69
 20
-1.375
 30
0.0
 11
5.5
 21
-1.375
 31
0.0
  0
LINE
  5
1B2
330
176
100
AcDbEntity
  8
AM_4
100
AcDbLine
 10
5.5
 20
1.375
 30
0.0
 11
4.69
 21
1.375
 31
0.0
  0
LINE
  5
1B3
330
176
100
AcDbEntity
  8
AM_4
100
AcDbLine
 10
4.69
 20
1.375
 30
0.0
 11
4.69
 21
0.90355
 31
0.0
  0
LINE
  5
1B4
330
176
100
AcDbEntity
  8
AM_4
100
AcDbLine
 10
5.5
 20
1.375
 30
0.0
 11
5.5
 21
-1.375
 31
0.0
  0
LINE
  5
1B5
330
176
100
AcDbEntity
  8
AM_4
100
AcDbLine
 10
5.5
 20
-0.9035499999999997
 30
0.0
 11
2.375
 21
-0.9035499999999997
 31
0.0
  0
LINE
  5
1B6
330
176
100
AcDbEntity
  8
AM_4
100
AcDbLine
 10
5.5
 20
-0.9035499999999997
 30
0.0
 11
5.393700001583993
 21
-0.7972500015839934
 31
0.0
  0
LINE
  5
1B7
330
176
100
AcDbEntity
  8
AM_4
100
AcDbLine
 10
5.3937
 20
-0.7972499999999998
 30
0.0
 11
2.375
 21
-0.7972499999999996
 31
0.0
  0
LINE
  5
1B8
330
176
100
AcDbEntity
  8
AM_4
100
AcDbLine
 10
5.3937
 20
-0.7972499999999998
 30
0.0
 11
5.3937
 21
0.7972500000000005
 31
0.0
  0
LINE
  5
1B9
330
176
100
AcDbEntity
  8
AM_4
100
AcDbLine
 10
5.5
 20
0.9035500000000001
 30
0.0
 11
2.375
 21
0.9035500000000001
 31
0.0
  0
LINE
  5
1BA
330
176
100
AcDbEntity
  8
AM_4
100
AcDbLine
 10
5.3937
 20
0.7972500000000005
 30
0.0
 11
2.375
 21
0.7972500000000003
 31
0.0
  0
LINE
  5
1BB
330
176
100
AcDbEntity
  8
AM_4
100
AcDbLine
 10
5.3937
 20
0.7972500000000005
 30
0.0
 11
5.5
 21
0.9035500000000003
 31
0.0
  0
LINE
  5
1BC
330
176
100
AcDbEntity
  8
AM_4
100
AcDbLine
 10
-3.630000000000001
 20
-0.8485499999999992
 30
0.0
 11
-3.575000000000001
 21
-0.9035499999999995
 31
0.0
  0
LINE
  5
1BD
330
176
100
AcDbEntity
  8
AM_4
100
AcDbLine
 10
-3.575000000000001
 20
-0.9035499999999995
 30
0.0
 11
-2.375
 21
-0.9035499999999995
 31
0.0
  0
LINE
  5
1BE
330
176
100
AcDbEntity
  8
AM_4
100
AcDbLine
 10
-3.630000000000001
 20
0.8485500000000002
 30
0.0
 11
-3.630000000000001
 21
-0.848549999999999
 31
0.0
  0
LINE
  5
1BF
330
176
100
AcDbEntity
  8
AM_4
100
AcDbLine
 10
-3.630000000000001
 20
-0.848549999999999
 30
0.0
 11
-2.375
 21
-0.8485499999999992
 31
0.0
  0
LINE
  5
1C0
330
176
100
AcDbEntity
  8
AM_4
100
AcDbLine
 10
-3.575000000000001
 20
0.9035500000000005
 30
0.0
 11
-3.630000000000001
 21
0.8485500000000002
 31
0.0
  0
LINE
  5
1C1
330
176
100
AcDbEntity
  8
AM_4
100
AcDbLine
 10
-3.630000000000001
 20
0.8485500000000002
 30
0.0
 11
-2.375
 21
0.8485500000000002
 31
0.0
  0
LINE
  5
1C2
330
176
100
AcDbEntity
  8
AM_4
100
AcDbLine
 10
-3.575000000000001
 20
0.9035500000000005
 30
0.0
 11
-2.375
 21
0.90355
 31
0.0
  0
LINE
  5
1C3
330
176
100
AcDbEntity
  8
AM_4
100
AcDbLine
 10
2.375
 20
-1.063
 30
0.0
 11
-2.375
 21
-1.063000000000001
 31
0.0
  0
LINE
  5
1C4
330
176
100
AcDbEntity
  8
AM_4
100
AcDbLine
 10
-2.2687
 20
-0.9567000000000001
 30
0.0
 11
-2.375
 21
-1.063000000000001
 31
0.0
  0
LINE
  5
1C5
330
176
100
AcDbEntity
  8
AM_4
100
AcDbLine
 10
-2.2687
 20
-0.9567000000000001
 30
0.0
 11
-2.268699999999999
 21
-0.5314999999999999
 31
0.0
  0
LINE
  5
1C6
330
176
100
AcDbEntity
  8
AM_4
100
AcDbLine
 10
2.268699999999999
 20
-0.9566999999999998
 30
0.0
 11
-2.2687
 21
-0.9567000000000001
 31
0.0
  0
LINE
  5
1C7
330
176
100
AcDbEntity
  8
AM_4
100
AcDbLine
 10
2.375
 20
1.062999999999999
 30
0.0
 11
-2.375
 21
1.063
 31
0.0
  0
LINE
  5
1C8
330
176
100
AcDbEntity
  8
AM_4
100
AcDbLine
 10
2.268699999999999
 20
0.9566999999999979
 30
0.0
 11
-2.2687
 21
0.9566999999999979
 31
0.0
  0
LINE
  5
1C9
330
176
100
AcDbEntity
  8
AM_4
100
AcDbLine
 10
2.375
 20
1.062999999999999
 30
0.0
 11
2.375
 21
-1.063
 31
0.0
  0
LINE
  5
1CA
330
176
100
AcDbEntity
  8
AM_4
100
AcDbLine
 10
2.268699999999999
 20
0.9566999999999986
 30
0.0
 11
2.375
 21
1.062999999999999
 31
0.0
  0
LINE
  5
1CB
330
176
100
AcDbEntity
  8
AM_4
100
AcDbLine
 10
2.268699999999999
 20
0.5315000000000002
 30
0.0
 11
2.268699999999999
 21
0.9566999999999979
 31
0.0
  0
LINE
  5
1CC
330
176
100
AcDbEntity
  8
AM_4
100
AcDbLine
 10
-2.375
 20
-0.5314999999999998
 30
0.0
 11
2.375
 21
-0.5314999999999998
 31
0.0
  0
LINE
  5
1CD
330
176
100
AcDbEntity
  8
AM_4
100
AcDbLine
 10
2.268699999999999
 20
-0.9566999999999998
 30
0.0
 11
2.268699999999999
 21
-0.5314999999999999
 31
0.0
  0
LINE
  5
1CE
330
176
100
AcDbEntity
  8
AM_4
100
AcDbLine
 10
2.375
 20
-1.063
 30
0.0
 11
2.268700005253511
 21
-0.956700005253512
 31
0.0
  0
LINE
  5
1CF
330
176
100
AcDbEntity
  8
AM_4
100
AcDbLine
 10
2.375
 20
0.5315000000000002
 30
0.0
 11
-2.375
 21
0.5315000000000002
 31
0.0
  0
LINE
  5
1D0
330
176
100
AcDbEntity
  8
AM_4
100
AcDbLine
 10
-2.268699999999999
 20
0.5315000000000002
 30
0.0
 11
-2.2687
 21
0.9566999999999979
 31
0.0
  0
LINE
  5
1D1
330
176
100
AcDbEntity
  8
AM_4
100
AcDbLine
 10
-2.375
 20
1.063
 30
0.0
 11
-2.268699999999999
 21
0.9566999999999989
 31
0.0
  0
LINE
  5
1D2
330
176
100
AcDbEntity
  8
AM_4
100
AcDbLine
 10
-2.375
 20
1.063
 30
0.0
 11
-2.375
 21
-1.063000000000001
 31
0.0
  0
ENDBLK
  5
179
330
176
100
AcDbEntity
  8
0
100
AcDbBlockEnd
  0
ENDSEC
  0
SECTION
  2
ENTITIES
  0
INSERT
  5
6F
330
1F
100
AcDbEntity
  8
0
100
AcDbBlockReference
  2
1_076201_4
 10
0.0
 20
0.0
 30
0.0
  0
POINT
  5
1D4
330
1F
100
AcDbEntity
  8
ConnectionPoints
100
AcDbPoint
 10
-3.230274756115957
 20
-0.0000000000000001
 30
-1.865
  0
POINT
  5
1D5
330
1F
100
AcDbEntity
  8
ConnectionPoints
100
AcDbPoint
 10
-3.230274756115957
 20
-0.0000000000000001
 30
-1.865
  0
POINT
  5
1D6
330
1F
100
AcDbEntity
  8
ConnectionPoints
100
AcDbPoint
 10
0.0
 20
-1.47
 30
0.0000000000000001
  0
ENDSEC
  0
SECTION
  2
OBJECTS
  0
DICTIONARY
  5
C
330
0
100
AcDbDictionary
281
     1
  3
ACAD_DETAILVIEWSTYLE
350
1DE
  3
ACAD_GROUP
350
D
  3
ACAD_LAYOUT
350
1A
  3
ACAD_MATERIAL
350
43
  3
ACAD_MLEADERSTYLE
350
6B
  3
ACAD_MLINESTYLE
350
17
  3
ACAD_PLOTSETTINGS
350
19
  3
ACAD_PLOTSTYLENAME
350
E
  3
ACAD_SCALELIST
350
47
  3
ACAD_SECTIONVIEWSTYLE
350
1DF
  3
ACAD_TABLESTYLE
350
69
  3
ACAD_VISUALSTYLE
350
2A
  3
ACDB_RECOMPOSE_DATA
350
1DB
  3
AcDbVariableDictionary
350
1D7
  0
SUN
  5
6D
330
29
100
AcDbSun
 90
        1
290
     0
 63
     7
421
 16777215
 40
1.0
291
     1
 91
  2455826
 92
 54000000
292
     0
 70
     2
 71
   256
280
     1
  0
DICTIONARY
  5
1DE
102
{ACAD_REACTORS
330
C
102
}
330
C
100
AcDbDictionary
281
     1
  0
DICTIONARY
  5
D
102
{ACAD_REACTORS
330
C
102
}
330
C
100
AcDbDictionary
281
     1
  0
DICTIONARY
  5
1A
102
{ACAD_REACTORS
330
C
102
}
330
C
100
AcDbDictionary
281
     1
  3
Layout1
350
1E
  3
Layout2
350
26
  3
Model
350
22
  0
DICTIONARY
  5
43
102
{ACAD_REACTORS
330
C
102
}
330
C
100
AcDbDictionary
281
     1
  3
ByBlock
350
45
  3
ByLayer
350
44
  3
Global
350
46
  0
DICTIONARY
  5
6B
102
{ACAD_REACTORS
330
C
102
}
330
C
100
AcDbDictionary
281
     1
  3
Standard
350
6C
  0
DICTIONARY
  5
17
102
{ACAD_REACTORS
330
C
102
}
330
C
100
AcDbDictionary
281
     1
  3
Standard
350
18
  0
DICTIONARY
  5
19
102
{ACAD_REACTORS
330
C
102
}
330
C
100
AcDbDictionary
281
     1
  0
ACDBDICTIONARYWDFLT
  5
E
102
{ACAD_REACTORS
330
C
102
}
330
C
100
AcDbDictionary
281
     1
  3
Normal
350
F
100
AcDbDictionaryWithDefault
340
F
  0
DICTIONARY
  5
47
102
{ACAD_REACTORS
330
C
102
}
330
C
100
AcDbDictionary
281
     1
  3
A0
350
48
  3
A1
350
49
  3
A2
350
4A
  3
A3
350
4B
  3
A4
350
4C
  3
A5
350
4D
  3
A6
350
4E
  3
A7
350
4F
  3
A8
350
50
  3
A9
350
51
  3
B0
350
52
  3
B1
350
53
  3
B2
350
54
  3
B3
350
55
  3
B4
350
56
  3
B5
350
57
  3
B6
350
58
  3
B7
350
59
  3
B8
350
5A
  3
B9
350
5B
  3
C0
350
5C
  3
C1
350
5D
  3
C2
350
5E
  3
C3
350
5F
  3
C4
350
60
  3
C5
350
61
  3
C6
350
62
  3
C7
350
63
  3
C8
350
64
  3
C9
350
65
  3
D0
350
66
  3
D1
350
67
  3
D2
350
68
  0
DICTIONARY
  5
1DF
102
{ACAD_REACTORS
330
C
102
}
330
C
100
AcDbDictionary
281
     1
  0
DICTIONARY
  5
69
102
{ACAD_REACTORS
330
C
102
}
330
C
100
AcDbDictionary
281
     1
  3
Standard
350
6A
  0
DICTIONARY
  5
2A
102
{ACAD_REACTORS
330
C
102
}
330
C
100
AcDbDictionary
281
     1
  3
2dWireframe
350
2F
  3
Basic
350
32
  3
Brighten
350
36
  3
ColorChange
350
3A
  3
Conceptual
350
34
  3
Dim
350
35
  3
EdgeColorOff
350
3D
  3
Facepattern
350
39
  3
Flat
350
2B
  3
FlatWithEdges
350
2C
  3
Gouraud
350
2D
  3
GouraudWithEdges
350
2E
  3
Hidden
350
31
  3
JitterOff
350
3B
  3
Linepattern
350
38
  3
OverhangOff
350
3C
  3
Realistic
350
33
  3
Shaded
350
42
  3
Shaded with edges
350
41
  3
Shades of Gray
350
3E
  3
Sketchy
350
3F
  3
Thicken
350
37
  3
Wireframe
350
30
  3
X-Ray
350
40
  0
XRECORD
  5
1DB
102
{ACAD_REACTORS
330
C
102
}
330
C
100
AcDbXrecord
280
     1
 90
        1
330
6A
  0
DICTIONARY
  5
1D7
102
{ACAD_REACTORS
330
C
102
}
330
C
100
AcDbDictionary
281
     1
  3
CANNOSCALE
350
1D8
  3
CMLEADERSTYLE
350
1DD
  3
CTABLESTYLE
350
1DC
  0
LAYOUT
  5
1E
102
{ACAD_REACTORS
330
1A
102
}
330
1A
100
AcDbPlotSettings
  1

  2
none_device
  4

  6

 40
0.0
 41
0.0
 42
0.0
 43
0.0
 44
0.0
 45
0.0
 46
0.0
 47
0.0
 48
0.0
 49
0.0
140
0.0
141
0.0
142
1.0
143
1.0
 70
   688
 72
     0
 73
     0
 74
     5
  7

 75
    16
 76
     0
 77
     2
 78
   300
147
1.0
148
0.0
149
0.0
100
AcDbLayout
  1
Layout1
 70
     1
 71
     1
 10
0.0
 20
0.0
 11
12.0
 21
9.0
 12
0.0
 22
0.0
 32
0.0
 14
1.000000000000000E+20
 24
1.000000000000000E+20
 34
1.000000000000000E+20
 15
-1.000000000000000E+20
 25
-1.000000000000000E+20
 35
-1.000000000000000E+20
146
0.0
 13
0.0
 23
0.0
 33
0.0
 16
1.0
 26
0.0
 36
0.0
 17
0.0
 27
1.0
 37
0.0
 76
     0
330
1B
  0
LAYOUT
  5
26
102
{ACAD_REACTORS
330
1A
102
}
330
1A
100
AcDbPlotSettings
  1

  2
none_device
  4

  6

 40
0.0
 41
0.0
 42
0.0
 43
0.0
 44
0.0
 45
0.0
 46
0.0
 47
0.0
 48
0.0
 49
0.0
140
0.0
141
0.0
142
1.0
143
1.0
 70
   688
 72
     0
 73
     0
 74
     5
  7

 75
    16
 76
     0
 77
     2
 78
   300
147
1.0
148
0.0
149
0.0
100
AcDbLayout
  1
Layout2
 70
     1
 71
     2
 10
0.0
 20
0.0
 11
0.0
 21
0.0
 12
0.0
 22
0.0
 32
0.0
 14
0.0
 24
0.0
 34
0.0
 15
0.0
 25
0.0
 35
0.0
146
0.0
 13
0.0
 23
0.0
 33
0.0
 16
1.0
 26
0.0
 36
0.0
 17
0.0
 27
1.0
 37
0.0
 76
     0
330
23
  0
LAYOUT
  5
22
102
{ACAD_REACTORS
330
1A
102
}
330
1A
100
AcDbPlotSettings
  1

  2
none_device
  4
Letter_(8.50_x_11.00_Inches)
  6

 40
6.35
 41
6.35
 42
6.35000508
 43
6.35000508
 44
215.9
 45
279.4
 46
0.0
 47
0.0
 48
0.0
 49
0.0
140
0.0
141
0.0
142
1.0
143
1.0
 70
  1712
 72
     0
 73
     0
 74
     0
  7

 75
     0
 76
     0
 77
     2
 78
   300
147
1.0
148
0.0
149
0.0
100
AcDbLayout
  1
Model
 70
     1
 71
     0
 10
0.0
 20
0.0
 11
12.0
 21
9.0
 12
0.0
 22
0.0
 32
0.0
 14
1.000000000000000E+20
 24
1.000000000000000E+20
 34
1.000000000000000E+20
 15
-1.000000000000000E+20
 25
-1.000000000000000E+20
 35
-1.000000000000000E+20
146
0.0
 13
0.0
 23
0.0
 33
0.0
 16
1.0
 26
0.0
 36
0.0
 17
0.0
 27
1.0
 37
0.0
 76
     0
330
1F
331
29
  0
MATERIAL
  5
45
102
{ACAD_REACTORS
330
43
102
}
330
43
100
AcDbMaterial
  1
ByBlock
 72
     1
 94
      127
  0
MATERIAL
  5
44
102
{ACAD_REACTORS
330
43
102
}
330
43
100
AcDbMaterial
  1
ByLayer
 72
     1
 94
      127
  0
MATERIAL
  5
46
102
{ACAD_REACTORS
330
43
102
}
330
43
100
AcDbMaterial
  1
Global
 72
     1
 94
      127
  0
MLEADERSTYLE
  5
6C
102
{ACAD_REACTORS
330
6B
102
}
330
6B
100
AcDbMLeaderStyle
179
     2
170
     2
171
     1
172
     0
 90
        2
 40
0.0
 41
0.0
173
     1
 91
-1056964608
340
14
 92
       -2
290
     1
 42
0.09
291
     1
 43
0.36
  3
Standard
341
0
 44
0.18
300

342
11
174
     1
178
     6
175
     1
176
     0
 93
-1056964608
 45
0.18
292
     0
297
     0
 46
0.18
343
0
 94
-1056964608
 47
1.0
 49
1.0
140
1.0
293
     1
141
0.0
294
     1
177
     0
142
1.0
295
     0
296
     0
143
0.125
271
     0
272
     9
273
     9
298
     0
  0
MLINESTYLE
  5
18
102
{ACAD_REACTORS
330
17
102
}
330
17
100
AcDbMlineStyle
  2
Standard
 70
     0
  3

 62
   256
 51
90.0
 52
90.0
 71
     2
 49
0.5
 62
   256
  6
BYLAYER
 49
-0.5
 62
   256
  6
BYLAYER
  0
ACDBPLACEHOLDER
  5
F
102
{ACAD_REACTORS
330
E
102
}
330
E
  0
SCALE
  5
48
102
{ACAD_REACTORS
330
47
102
}
330
47
100
AcDbScale
 70
     0
300
1:1
140
1.0
141
1.0
290
     1
  0
SCALE
  5
49
102
{ACAD_REACTORS
330
47
102
}
330
47
100
AcDbScale
 70
     0
300
1:2
140
1.0
141
2.0
290
     0
  0
SCALE
  5
4A
102
{ACAD_REACTORS
330
47
102
}
330
47
100
AcDbScale
 70
     0
300
1:4
140
1.0
141
4.0
290
     0
  0
SCALE
  5
4B
102
{ACAD_REACTORS
330
47
102
}
330
47
100
AcDbScale
 70
     0
300
1:5
140
1.0
141
5.0
290
     0
  0
SCALE
  5
4C
102
{ACAD_REACTORS
330
47
102
}
330
47
100
AcDbScale
 70
     0
300
1:8
140
1.0
141
8.0
290
     0
  0
SCALE
  5
4D
102
{ACAD_REACTORS
330
47
102
}
330
47
100
AcDbScale
 70
     0
300
1:10
140
1.0
141
10.0
290
     0
  0
SCALE
  5
4E
102
{ACAD_REACTORS
330
47
102
}
330
47
100
AcDbScale
 70
     0
300
1:16
140
1.0
141
16.0
290
     0
  0
SCALE
  5
4F
102
{ACAD_REACTORS
330
47
102
}
330
47
100
AcDbScale
 70
     0
300
1:20
140
1.0
141
20.0
290
     0
  0
SCALE
  5
50
102
{ACAD_REACTORS
330
47
102
}
330
47
100
AcDbScale
 70
     0
300
1:30
140
1.0
141
30.0
290
     0
  0
SCALE
  5
51
102
{ACAD_REACTORS
330
47
102
}
330
47
100
AcDbScale
 70
     0
300
1:40
140
1.0
141
40.0
290
     0
  0
SCALE
  5
52
102
{ACAD_REACTORS
330
47
102
}
330
47
100
AcDbScale
 70
     0
300
1:50
140
1.0
141
50.0
290
     0
  0
SCALE
  5
53
102
{ACAD_REACTORS
330
47
102
}
330
47
100
AcDbScale
 70
     0
300
1:100
140
1.0
141
100.0
290
     0
  0
SCALE
  5
54
102
{ACAD_REACTORS
330
47
102
}
330
47
100
AcDbScale
 70
     0
300
2:1
140
2.0
141
1.0
290
     0
  0
SCALE
  5
55
102
{ACAD_REACTORS
330
47
102
}
330
47
100
AcDbScale
 70
     0
300
4:1
140
4.0
141
1.0
290
     0
  0
SCALE
  5
56
102
{ACAD_REACTORS
330
47
102
}
330
47
100
AcDbScale
 70
     0
300
8:1
140
8.0
141
1.0
290
     0
  0
SCALE
  5
57
102
{ACAD_REACTORS
330
47
102
}
330
47
100
AcDbScale
 70
     0
300
10:1
140
10.0
141
1.0
290
     0
  0
SCALE
  5
58
102
{ACAD_REACTORS
330
47
102
}
330
47
100
AcDbScale
 70
     0
300
100:1
140
100.0
141
1.0
290
     0
  0
SCALE
  5
59
102
{ACAD_REACTORS
330
47
102
}
330
47
100
AcDbScale
 70
     0
300
1/128" = 1'-0"
140
0.0078125
141
12.0
290
     0
  0
SCALE
  5
5A
102
{ACAD_REACTORS
330
47
102
}
330
47
100
AcDbScale
 70
     0
300
1/64" = 1'-0"
140
0.015625
141
12.0
290
     0
  0
SCALE
  5
5B
102
{ACAD_REACTORS
330
47
102
}
330
47
100
AcDbScale
 70
     0
300
1/32" = 1'-0"
140
0.03125
141
12.0
290
     0
  0
SCALE
  5
5C
102
{ACAD_REACTORS
330
47
102
}
330
47
100
AcDbScale
 70
     0
300
1/16" = 1'-0"
140
0.0625
141
12.0
290
     0
  0
SCALE
  5
5D
102
{ACAD_REACTORS
330
47
102
}
330
47
100
AcDbScale
 70
     0
300
3/32" = 1'-0"
140
0.09375
141
12.0
290
     0
  0
SCALE
  5
5E
102
{ACAD_REACTORS
330
47
102
}
330
47
100
AcDbScale
 70
     0
300
1/8" = 1'-0"
140
0.125
141
12.0
290
     0
  0
SCALE
  5
5F
102
{ACAD_REACTORS
330
47
102
}
330
47
100
AcDbScale
 70
     0
300
3/16" = 1'-0"
140
0.1875
141
12.0
290
     0
  0
SCALE
  5
60
102
{ACAD_REACTORS
330
47
102
}
330
47
100
AcDbScale
 70
     0
300
1/4" = 1'-0"
140
0.25
141
12.0
290
     0
  0
SCALE
  5
61
102
{ACAD_REACTORS
330
47
102
}
330
47
100
AcDbScale
 70
     0
300
3/8" = 1'-0"
140
0.375
141
12.0
290
     0
  0
SCALE
  5
62
102
{ACAD_REACTORS
330
47
102
}
330
47
100
AcDbScale
 70
     0
300
1/2" = 1'-0"
140
0.5
141
12.0
290
     0
  0
SCALE
  5
63
102
{ACAD_REACTORS
330
47
102
}
330
47
100
AcDbScale
 70
     0
300
3/4" = 1'-0"
140
0.75
141
12.0
290
     0
  0
SCALE
  5
64
102
{ACAD_REACTORS
330
47
102
}
330
47
100
AcDbScale
 70
     0
300
1" = 1'-0"
140
1.0
141
12.0
290
     0
  0
SCALE
  5
65
102
{ACAD_REACTORS
330
47
102
}
330
47
100
AcDbScale
 70
     0
300
1-1/2" = 1'-0"
140
1.5
141
12.0
290
     0
  0
SCALE
  5
66
102
{ACAD_REACTORS
330
47
102
}
330
47
100
AcDbScale
 70
     0
300
3" = 1'-0"
140
3.0
141
12.0
290
     0
  0
SCALE
  5
67
102
{ACAD_REACTORS
330
47
102
}
330
47
100
AcDbScale
 70
     0
300
6" = 1'-0"
140
6.0
141
12.0
290
     0
  0
SCALE
  5
68
102
{ACAD_REACTORS
330
47
102
}
330
47
100
AcDbScale
 70
     0
300
1'-0" = 1'-0"
140
12.0
141
12.0
290
     0
  0
TABLESTYLE
  5
6A
102
{ACAD_REACTORS
330
69
102
}
102
{ACAD_XDICTIONARY
360
1D9
102
}
330
69
100
AcDbTableStyle
  3
Standard
 70
     0
 71
     0
 40
0.06
 41
0.06
280
     0
281
     0
  7
Standard
140
0.18
170
     2
 62
     0
 63
   257
283
     0
 90
        4
 91
        0
  1

274
    -2
284
     1
 64
     0
275
    -2
285
     1
 65
     0
276
    -2
286
     1
 66
     0
277
    -2
287
     1
 67
     0
278
    -2
288
     1
 68
     0
279
    -2
289
     1
 69
     0
  7
Standard
140
0.25
170
     5
 62
     0
 63
   257
283
     0
 90
        4
 91
        0
  1

274
    -2
284
     1
 64
     0
275
    -2
285
     1
 65
     0
276
    -2
286
     1
 66
     0
277
    -2
287
     1
 67
     0
278
    -2
288
     1
 68
     0
279
    -2
289
     1
 69
     0
  7
Standard
140
0.18
170
     5
 62
     0
 63
   257
283
     0
 90
        4
 91
        0
  1

274
    -2
284
     1
 64
     0
275
    -2
285
     1
 65
     0
276
    -2
286
     1
 66
     0
277
    -2
287
     1
 67
     0
278
    -2
288
     1
 68
     0
279
    -2
289
     1
 69
     0
  0
VISUALSTYLE
  5
2F
102
{ACAD_REACTORS
330
2A
102
}
330
2A
100
AcDbVisualStyle
  2
2dWireframe
 70
     4
177
     3
291
     0
 70
    58
 90
        0
176
     1
 90
        2
176
     1
 90
        0
176
     1
 90
        0
176
     1
 40
0.6
176
     1
 40
30.0
176
     1
 62
     7
420
 16777215
176
     1
 90
        1
176
     1
 90
        4
176
     1
 62
     7
176
     1
 62
   257
176
     1
 90
        1
176
     1
 90
        1
176
     1
 40
1.0
176
     1
 90
        0
176
     1
 62
   257
176
     1
 40
1.0
176
     1
 90
        1
176
     1
 90
        6
176
     1
 90
        2
176
     1
 62
     7
176
     1
 90
        5
176
     1
 90
        0
176
     1
 90
        0
176
     1
290
     0
176
     1
 90
        1
176
     1
 40
0.0
176
     1
 90
        0
176
     1
290
     1
176
     1
290
     1
176
     1
290
     0
176
     1
290
     0
176
     1
290
     0
176
     1
290
     0
176
     1
290
     0
176
     1
290
     0
176
     1
290
     0
176
     1
 90
       50
176
     1
 40
0.0
176
     1
 40
1.0
176
     1
 90
        0
176
     1
 62
    18
420
        0
176
     1
 90
       50
176
     1
 90
        3
176
     1
 62
     5
420
      255
176
     1
290
     0
176
     1
 90
       50
176
     1
 90
       50
176
     1
 90
       50
176
     1
290
     0
176
     1
 90
       50
176
     1
 62
   256
176
     0
 40
1.0
176
     0
 90
        2
176
     1
  1
strokes_ogs.tif
176
     1
290
     0
176
     1
 40
1.0
176
     1
 40
1.0
176
     1
  0
VISUALSTYLE
  5
32
102
{ACAD_REACTORS
330
2A
102
}
330
2A
100
AcDbVisualStyle
  2
Basic
 70
     7
177
     3
291
     1
 70
    58
 90
        1
176
     1
 90
        0
176
     1
 90
        1
176
     1
 90
        0
176
     1
 40
0.6
176
     1
 40
30.0
176
     1
 62
     7
420
 16777215
176
     1
 90
        0
176
     1
 90
        4
176
     1
 62
     7
176
     1
 62
   257
176
     1
 90
        1
176
     1
 90
        1
176
     1
 40
1.0
176
     1
 90
        8
176
     1
 62
     7
176
     1
 40
1.0
176
     1
 90
        1
176
     1
 90
        6
176
     1
 90
        2
176
     1
 62
     7
176
     1
 90
        5
176
     1
 90
        0
176
     1
 90
        0
176
     1
290
     0
176
     1
 90
        1
176
     1
 40
0.0
176
     1
 90
        0
176
     1
290
     0
176
     1
290
     1
176
     1
290
     1
176
     1
290
     0
176
     1
290
     0
176
     1
290
     0
176
     1
290
     0
176
     1
290
     0
176
     1
290
     0
176
     1
 90
       50
176
     1
 40
0.0
176
     1
 40
1.0
176
     1
 90
        0
176
     1
 62
    18
420
        0
176
     1
 90
       50
176
     1
 90
        3
176
     1
 62
     5
420
      255
176
     1
290
     0
176
     1
 90
       50
176
     1
 90
       50
176
     1
 90
       50
176
     1
290
     0
176
     1
 90
       50
176
     1
 62
   256
176
     0
 40
1.0
176
     0
 90
        2
176
     1
  1
strokes_ogs.tif
176
     1
290
     0
176
     1
 40
1.0
176
     1
 40
1.0
176
     1
  0
VISUALSTYLE
  5
36
102
{ACAD_REACTORS
330
2A
102
}
330
2A
100
AcDbVisualStyle
  2
Brighten
 70
    12
177
     3
291
     1
 70
    58
 90
        2
176
     1
 90
        2
176
     1
 90
        0
176
     1
 90
        0
176
     1
 40
0.6
176
     1
 40
30.0
176
     1
 62
     7
420
 16777215
176
     1
 90
        1
176
     1
 90
        4
176
     1
 62
     7
176
     1
 62
   257
176
     1
 90
        1
176
     1
 90
        1
176
     1
 40
1.0
176
     1
 90
        8
176
     1
 62
     7
176
     1
 40
1.0
176
     1
 90
        1
176
     1
 90
        6
176
     1
 90
        2
176
     1
 62
     7
176
     1
 90
        5
176
     1
 90
        0
176
     1
 90
        0
176
     1
290
     0
176
     1
 90
        1
176
     1
 40
50.0
176
     1
 90
        0
176
     1
290
     0
176
     1
290
     1
176
     1
290
     1
176
     1
290
     0
176
     1
290
     0
176
     1
290
     0
176
     1
290
     0
176
     1
290
     0
176
     1
290
     0
176
     1
 90
       50
176
     1
 40
0.0
176
     1
 40
1.0
176
     1
 90
        0
176
     1
 62
    18
420
        0
176
     1
 90
       50
176
     1
 90
        3
176
     1
 62
     5
420
      255
176
     1
290
     0
176
     1
 90
       50
176
     1
 90
       50
176
     1
 90
       50
176
     1
290
     0
176
     1
 90
       50
176
     1
 62
   256
176
     0
 40
1.0
176
     0
 90
        2
176
     1
  1
strokes_ogs.tif
176
     1
290
     0
176
     1
 40
1.0
176
     1
 40
1.0
176
     1
  0
VISUALSTYLE
  5
3A
102
{ACAD_REACTORS
330
2A
102
}
330
2A
100
AcDbVisualStyle
  2
ColorChange
 70
    16
177
     3
291
     1
 70
    58
 90
        2
176
     1
 90
        2
176
     1
 90
        3
176
     1
 90
        0
176
     1
 40
0.6
176
     1
 40
30.0
176
     1
 62
     8
420
  8421504
176
     1
 90
        1
176
     1
 90
        4
176
     1
 62
     7
176
     1
 62
   257
176
     1
 90
        1
176
     1
 90
        1
176
     1
 40
1.0
176
     1
 90
        8
176
     1
 62
     8
420
  8421504
176
     1
 40
1.0
176
     1
 90
        1
176
     1
 90
        6
176
     1
 90
        2
176
     1
 62
     7
176
     1
 90
        5
176
     1
 90
        0
176
     1
 90
        0
176
     1
290
     0
176
     1
 90
        1
176
     1
 40
0.0
176
     1
 90
        0
176
     1
290
     0
176
     1
290
     1
176
     1
290
     1
176
     1
290
     0
176
     1
290
     0
176
     1
290
     0
176
     1
290
     0
176
     1
290
     0
176
     1
290
     0
176
     1
 90
       50
176
     1
 40
0.0
176
     1
 40
1.0
176
     1
 90
        0
176
     1
 62
    18
420
        0
176
     1
 90
       50
176
     1
 90
        3
176
     1
 62
     5
420
      255
176
     1
290
     0
176
     1
 90
       50
176
     1
 90
       50
176
     1
 90
       50
176
     1
290
     0
176
     1
 90
       50
176
     1
 62
   256
176
     0
 40
1.0
176
     0
 90
        2
176
     1
  1
strokes_ogs.tif
176
     1
290
     0
176
     1
 40
1.0
176
     1
 40
1.0
176
     1
  0
VISUALSTYLE
  5
34
102
{ACAD_REACTORS
330
2A
102
}
330
2A
100
AcDbVisualStyle
  2
Conceptual
 70
     9
177
     3
291
     0
 70
    58
 90
        3
176
     1
 90
        2
176
     1
 90
        0
176
     1
 90
        0
176
     1
 40
0.6
176
     1
 40
30.0
176
     1
 62
     7
420
 16777215
176
     1
 90
        2
176
     1
 90
        2
176
     1
 62
     7
176
     1
 62
   257
176
     1
 90
        1
176
     1
 90
        1
176
     1
 40
179.0
176
     1
 90
        8
176
     1
 62
     7
176
     1
 40
1.0
176
     1
 90
        1
176
     1
 90
        6
176
     1
 90
        2
176
     1
 62
     7
176
     1
 90
        3
176
     1
 90
        0
176
     1
 90
        0
176
     1
290
     0
176
     1
 90
        1
176
     1
 40
0.0
176
     1
 90
        0
176
     1
290
     0
176
     1
290
     1
176
     1
290
     1
176
     1
290
     0
176
     1
290
     0
176
     1
290
     0
176
     1
290
     0
176
     1
290
     0
176
     1
290
     0
176
     1
 90
       50
176
     1
 40
0.0
176
     1
 40
1.0
176
     1
 90
        0
176
     1
 62
    18
420
        0
176
     1
 90
       50
176
     1
 90
        3
176
     1
 62
     5
420
      255
176
     1
290
     0
176
     1
 90
       50
176
     1
 90
       50
176
     1
 90
       50
176
     1
290
     0
176
     1
 90
       50
176
     1
 62
   256
176
     0
 40
1.0
176
     0
 90
        2
176
     1
  1
strokes_ogs.tif
176
     1
290
     0
176
     1
 40
1.0
176
     1
 40
1.0
176
     1
  0
VISUALSTYLE
  5
35
102
{ACAD_REACTORS
330
2A
102
}
330
2A
100
AcDbVisualStyle
  2
Dim
 70
    11
177
     3
291
     1
 70
    58
 90
        2
176
     1
 90
        2
176
     1
 90
        0
176
     1
 90
        0
176
     1
 40
0.6
176
     1
 40
30.0
176
     1
 62
     7
420
 16777215
176
     1
 90
        1
176
     1
 90
        4
176
     1
 62
     7
176
     1
 62
   257
176
     1
 90
        1
176
     1
 90
        1
176
     1
 40
1.0
176
     1
 90
        8
176
     1
 62
     7
176
     1
 40
1.0
176
     1
 90
        1
176
     1
 90
        6
176
     1
 90
        2
176
     1
 62
     7
176
     1
 90
        5
176
     1
 90
        0
176
     1
 90
        0
176
     1
290
     0
176
     1
 90
        1
176
     1
 40
-50.0
176
     1
 90
        0
176
     1
290
     0
176
     1
290
     1
176
     1
290
     1
176
     1
290
     0
176
     1
290
     0
176
     1
290
     0
176
     1
290
     0
176
     1
290
     0
176
     1
290
     0
176
     1
 90
       50
176
     1
 40
0.0
176
     1
 40
1.0
176
     1
 90
        0
176
     1
 62
    18
420
        0
176
     1
 90
       50
176
     1
 90
        3
176
     1
 62
     5
420
      255
176
     1
290
     0
176
     1
 90
       50
176
     1
 90
       50
176
     1
 90
       50
176
     1
290
     0
176
     1
 90
       50
176
     1
 62
   256
176
     0
 40
1.0
176
     0
 90
        2
176
     1
  1
strokes_ogs.tif
176
     1
290
     0
176
     1
 40
1.0
176
     1
 40
1.0
176
     1
  0
VISUALSTYLE
  5
3D
102
{ACAD_REACTORS
330
2A
102
}
330
2A
100
AcDbVisualStyle
  2
EdgeColorOff
 70
    22
177
     3
291
     1
 70
    58
 90
        2
176
     0
 90
        2
176
     0
 90
        0
176
     0
 90
        0
176
     0
 40
0.6
176
     0
 40
30.0
176
     0
 62
     7
420
 16777215
176
     0
 90
        1
176
     0
 90
        4
176
     0
 62
     7
176
     0
 62
   257
176
     0
 90
        1
176
     0
 90
        1
176
     0
 40
1.0
176
     0
 90
        8
176
     2
 62
     7
176
     0
 40
1.0
176
     0
 90
        1
176
     0
 90
        6
176
     0
 90
        2
176
     0
 62
     7
176
     0
 90
        5
176
     0
 90
        0
176
     0
 90
        0
176
     0
290
     0
176
     0
 90
        1
176
     0
 40
0.0
176
     0
 90
        0
176
     0
290
     0
176
     0
290
     1
176
     0
290
     1
176
     0
290
     0
176
     0
290
     0
176
     0
290
     0
176
     0
290
     0
176
     0
290
     0
176
     0
290
     0
176
     0
 90
       50
176
     0
 40
0.0
176
     0
 40
1.0
176
     0
 90
        0
176
     0
 62
    18
420
        0
176
     0
 90
       50
176
     0
 90
        3
176
     0
 62
     5
420
      255
176
     0
290
     0
176
     0
 90
       50
176
     0
 90
       50
176
     0
 90
       50
176
     0
290
     0
176
     0
 90
       50
176
     0
 62
   256
176
     0
 40
1.0
176
     0
 90
        2
176
     0
  1
strokes_ogs.tif
176
     0
290
     0
176
     0
 40
1.0
176
     0
 40
1.0
176
     0
  0
VISUALSTYLE
  5
39
102
{ACAD_REACTORS
330
2A
102
}
330
2A
100
AcDbVisualStyle
  2
Facepattern
 70
    15
177
     3
291
     1
 70
    58
 90
        2
176
     1
 90
        2
176
     1
 90
        0
176
     1
 90
        0
176
     1
 40
0.6
176
     1
 40
30.0
176
     1
 62
     7
420
 16777215
176
     1
 90
        1
176
     1
 90
        4
176
     1
 62
     7
176
     1
 62
   257
176
     1
 90
        1
176
     1
 90
        1
176
     1
 40
1.0
176
     1
 90
        8
176
     1
 62
     7
176
     1
 40
1.0
176
     1
 90
        1
176
     1
 90
        6
176
     1
 90
        2
176
     1
 62
     7
176
     1
 90
        5
176
     1
 90
        0
176
     1
 90
        0
176
     1
290
     0
176
     1
 90
        1
176
     1
 40
0.0
176
     1
 90
        0
176
     1
290
     0
176
     1
290
     1
176
     1
290
     1
176
     1
290
     0
176
     1
290
     0
176
     1
290
     0
176
     1
290
     0
176
     1
290
     0
176
     1
290
     0
176
     1
 90
       50
176
     1
 40
0.0
176
     1
 40
1.0
176
     1
 90
        0
176
     1
 62
    18
420
        0
176
     1
 90
       50
176
     1
 90
        3
176
     1
 62
     5
420
      255
176
     1
290
     0
176
     1
 90
       50
176
     1
 90
       50
176
     1
 90
       50
176
     1
290
     0
176
     1
 90
       50
176
     1
 62
   256
176
     0
 40
1.0
176
     0
 90
        2
176
     1
  1
strokes_ogs.tif
176
     1
290
     0
176
     1
 40
1.0
176
     1
 40
1.0
176
     1
  0
VISUALSTYLE
  5
2B
102
{ACAD_REACTORS
330
2A
102
}
330
2A
100
AcDbVisualStyle
  2
Flat
 70
     0
177
     3
291
     1
 70
    58
 90
        2
176
     1
 90
        1
176
     1
 90
        1
176
     1
 90
        2
176
     1
 40
0.6
176
     1
 40
30.0
176
     1
 62
     7
420
 16777215
176
     1
 90
        0
176
     1
 90
        0
176
     1
 62
     7
176
     1
 62
   257
176
     1
 90
        1
176
     1
 90
        1
176
     1
 40
1.0
176
     1
 90
        8
176
     1
 62
     7
176
     1
 40
1.0
176
     1
 90
        1
176
     1
 90
        6
176
     1
 90
        2
176
     1
 62
     7
176
     1
 90
        5
176
     1
 90
        0
176
     1
 90
        0
176
     1
290
     0
176
     1
 90
       13
176
     1
 40
0.0
176
     1
 90
        0
176
     1
290
     0
176
     1
290
     1
176
     1
290
     1
176
     1
290
     0
176
     1
290
     0
176
     1
290
     0
176
     1
290
     0
176
     1
290
     0
176
     1
290
     0
176
     1
 90
       50
176
     1
 40
0.0
176
     1
 40
1.0
176
     1
 90
        0
176
     1
 62
    18
420
        0
176
     1
 90
       50
176
     1
 90
        3
176
     1
 62
     5
420
      255
176
     1
290
     0
176
     1
 90
       50
176
     1
 90
       50
176
     1
 90
       50
176
     1
290
     0
176
     1
 90
       50
176
     1
 62
   256
176
     0
 40
1.0
176
     0
 90
        2
176
     1
  1
strokes_ogs.tif
176
     1
290
     0
176
     1
 40
1.0
176
     1
 40
1.0
176
     1
  0
VISUALSTYLE
  5
2C
102
{ACAD_REACTORS
330
2A
102
}
330
2A
100
AcDbVisualStyle
  2
FlatWithEdges
 70
     1
177
     3
291
     1
 70
    58
 90
        2
176
     1
 90
        1
176
     1
 90
        1
176
     1
 90
        2
176
     1
 40
0.6
176
     1
 40
30.0
176
     1
 62
     7
420
 16777215
176
     1
 90
        1
176
     1
 90
        0
176
     1
 62
     7
176
     1
 62
   257
176
     1
 90
        1
176
     1
 90
        1
176
     1
 40
1.0
176
     1
 90
        0
176
     1
 62
   257
176
     1
 40
1.0
176
     1
 90
        1
176
     1
 90
        6
176
     1
 90
        2
176
     1
 62
     7
176
     1
 90
        5
176
     1
 90
        0
176
     1
 90
        0
176
     1
290
     0
176
     1
 90
       13
176
     1
 40
0.0
176
     1
 90
        0
176
     1
290
     0
176
     1
290
     1
176
     1
290
     1
176
     1
290
     0
176
     1
290
     0
176
     1
290
     0
176
     1
290
     0
176
     1
290
     0
176
     1
290
     0
176
     1
 90
       50
176
     1
 40
0.0
176
     1
 40
1.0
176
     1
 90
        0
176
     1
 62
    18
420
        0
176
     1
 90
       50
176
     1
 90
        3
176
     1
 62
     5
420
      255
176
     1
290
     0
176
     1
 90
       50
176
     1
 90
       50
176
     1
 90
       50
176
     1
290
     0
176
     1
 90
       50
176
     1
 62
   256
176
     0
 40
1.0
176
     0
 90
        2
176
     1
  1
strokes_ogs.tif
176
     1
290
     0
176
     1
 40
1.0
176
     1
 40
1.0
176
     1
  0
VISUALSTYLE
  5
2D
102
{ACAD_REACTORS
330
2A
102
}
330
2A
100
AcDbVisualStyle
  2
Gouraud
 70
     2
177
     3
291
     1
 70
    58
 90
        2
176
     1
 90
        2
176
     1
 90
        1
176
     1
 90
        2
176
     1
 40
0.6
176
     1
 40
30.0
176
     1
 62
     7
420
 16777215
176
     1
 90
        0
176
     1
 90
        0
176
     1
 62
     7
176
     1
 62
   257
176
     1
 90
        1
176
     1
 90
        1
176
     1
 40
1.0
176
     1
 90
        0
176
     1
 62
     7
176
     1
 40
1.0
176
     1
 90
        1
176
     1
 90
        6
176
     1
 90
        2
176
     1
 62
     7
176
     1
 90
        5
176
     1
 90
        0
176
     1
 90
        0
176
     1
290
     0
176
     1
 90
       13
176
     1
 40
0.0
176
     1
 90
        0
176
     1
290
     0
176
     1
290
     1
176
     1
290
     1
176
     1
290
     0
176
     1
290
     0
176
     1
290
     0
176
     1
290
     0
176
     1
290
     0
176
     1
290
     0
176
     1
 90
       50
176
     1
 40
0.0
176
     1
 40
1.0
176
     1
 90
        0
176
     1
 62
    18
420
        0
176
     1
 90
       50
176
     1
 90
        3
176
     1
 62
     5
420
      255
176
     1
290
     0
176
     1
 90
       50
176
     1
 90
       50
176
     1
 90
       50
176
     1
290
     0
176
     1
 90
       50
176
     1
 62
   256
176
     0
 40
1.0
176
     0
 90
        2
176
     1
  1
strokes_ogs.tif
176
     1
290
     0
176
     1
 40
1.0
176
     1
 40
1.0
176
     1
  0
VISUALSTYLE
  5
2E
102
{ACAD_REACTORS
330
2A
102
}
330
2A
100
AcDbVisualStyle
  2
GouraudWithEdges
 70
     3
177
     3
291
     1
 70
    58
 90
        2
176
     1
 90
        2
176
     1
 90
        1
176
     1
 90
        2
176
     1
 40
0.6
176
     1
 40
30.0
176
     1
 62
     7
420
 16777215
176
     1
 90
        1
176
     1
 90
        0
176
     1
 62
     7
176
     1
 62
   257
176
     1
 90
        1
176
     1
 90
        1
176
     1
 40
1.0
176
     1
 90
        0
176
     1
 62
   257
176
     1
 40
1.0
176
     1
 90
        1
176
     1
 90
        6
176
     1
 90
        2
176
     1
 62
     7
176
     1
 90
        5
176
     1
 90
        0
176
     1
 90
        0
176
     1
290
     0
176
     1
 90
       13
176
     1
 40
0.0
176
     1
 90
        0
176
     1
290
     0
176
     1
290
     1
176
     1
290
     1
176
     1
290
     0
176
     1
290
     0
176
     1
290
     0
176
     1
290
     0
176
     1
290
     0
176
     1
290
     0
176
     1
 90
       50
176
     1
 40
0.0
176
     1
 40
1.0
176
     1
 90
        0
176
     1
 62
    18
420
        0
176
     1
 90
       50
176
     1
 90
        3
176
     1
 62
     5
420
      255
176
     1
290
     0
176
     1
 90
       50
176
     1
 90
       50
176
     1
 90
       50
176
     1
290
     0
176
     1
 90
       50
176
     1
 62
   256
176
     0
 40
1.0
176
     0
 90
        2
176
     1
  1
strokes_ogs.tif
176
     1
290
     0
176
     1
 40
1.0
176
     1
 40
1.0
176
     1
  0
VISUALSTYLE
  5
31
102
{ACAD_REACTORS
330
2A
102
}
330
2A
100
AcDbVisualStyle
  2
Hidden
 70
     6
177
     3
291
     0
 70
    58
 90
        1
176
     1
 90
        2
176
     1
 90
        2
176
     1
 90
        0
176
     1
 40
0.6
176
     1
 40
30.0
176
     1
 62
     7
420
 16777215
176
     1
 90
        2
176
     1
 90
        2
176
     1
 62
     7
176
     1
 62
   257
176
     1
 90
        2
176
     1
 90
        1
176
     1
 40
40.0
176
     1
 90
        0
176
     1
 62
   257
176
     1
 40
1.0
176
     1
 90
        1
176
     1
 90
        6
176
     1
 90
        2
176
     1
 62
     7
176
     1
 90
        3
176
     1
 90
        0
176
     1
 90
        0
176
     1
290
     0
176
     1
 90
        1
176
     1
 40
0.0
176
     1
 90
        0
176
     1
290
     0
176
     1
290
     1
176
     1
290
     1
176
     1
290
     0
176
     1
290
     0
176
     1
290
     0
176
     1
290
     0
176
     1
290
     0
176
     1
290
     0
176
     1
 90
       50
176
     1
 40
0.0
176
     1
 40
1.0
176
     1
 90
        0
176
     1
 62
    18
420
        0
176
     1
 90
       50
176
     1
 90
        3
176
     1
 62
     5
420
      255
176
     1
290
     0
176
     1
 90
       50
176
     1
 90
       50
176
     1
 90
       50
176
     1
290
     0
176
     1
 90
       50
176
     1
 62
   256
176
     0
 40
1.0
176
     0
 90
        2
176
     1
  1
strokes_ogs.tif
176
     1
290
     0
176
     1
 40
1.0
176
     1
 40
1.0
176
     1
  0
VISUALSTYLE
  5
3B
102
{ACAD_REACTORS
330
2A
102
}
330
2A
100
AcDbVisualStyle
  2
JitterOff
 70
    20
177
     3
291
     1
 70
    58
 90
        2
176
     0
 90
        2
176
     0
 90
        0
176
     0
 90
        0
176
     0
 40
0.6
176
     0
 40
30.0
176
     0
 62
     7
420
 16777215
176
     0
 90
        1
176
     0
 90
        4
176
     0
 62
     7
176
     0
 62
   257
176
     0
 90
        1
176
     0
 90
        1
176
     0
 40
1.0
176
     0
 90
       10
176
     2
 62
     7
176
     0
 40
1.0
176
     0
 90
        1
176
     0
 90
        6
176
     0
 90
        2
176
     0
 62
     7
176
     0
 90
        5
176
     0
 90
        0
176
     0
 90
        0
176
     0
290
     0
176
     0
 90
        1
176
     0
 40
0.0
176
     0
 90
        0
176
     0
290
     0
176
     0
290
     1
176
     0
290
     1
176
     0
290
     0
176
     0
290
     0
176
     0
290
     0
176
     0
290
     0
176
     0
290
     0
176
     0
290
     0
176
     0
 90
       50
176
     0
 40
0.0
176
     0
 40
1.0
176
     0
 90
        0
176
     0
 62
    18
420
        0
176
     0
 90
       50
176
     0
 90
        3
176
     0
 62
     5
420
      255
176
     0
290
     0
176
     0
 90
       50
176
     0
 90
       50
176
     0
 90
       50
176
     0
290
     0
176
     0
 90
       50
176
     0
 62
   256
176
     0
 40
1.0
176
     0
 90
        2
176
     0
  1
strokes_ogs.tif
176
     0
290
     0
176
     0
 40
1.0
176
     0
 40
1.0
176
     0
  0
VISUALSTYLE
  5
38
102
{ACAD_REACTORS
330
2A
102
}
330
2A
100
AcDbVisualStyle
  2
Linepattern
 70
    14
177
     3
291
     1
 70
    58
 90
        2
176
     1
 90
        2
176
     1
 90
        0
176
     1
 90
        0
176
     1
 40
0.6
176
     1
 40
30.0
176
     1
 62
     7
420
 16777215
176
     1
 90
        1
176
     1
 90
        4
176
     1
 62
     7
176
     1
 62
   257
176
     1
 90
        7
176
     1
 90
        7
176
     1
 40
1.0
176
     1
 90
        8
176
     1
 62
     7
176
     1
 40
1.0
176
     1
 90
        1
176
     1
 90
        6
176
     1
 90
        2
176
     1
 62
     7
176
     1
 90
        5
176
     1
 90
        0
176
     1
 90
        0
176
     1
290
     0
176
     1
 90
        1
176
     1
 40
0.0
176
     1
 90
        0
176
     1
290
     0
176
     1
290
     1
176
     1
290
     1
176
     1
290
     0
176
     1
290
     0
176
     1
290
     0
176
     1
290
     0
176
     1
290
     0
176
     1
290
     0
176
     1
 90
       50
176
     1
 40
0.0
176
     1
 40
1.0
176
     1
 90
        0
176
     1
 62
    18
420
        0
176
     1
 90
       50
176
     1
 90
        3
176
     1
 62
     5
420
      255
176
     1
290
     0
176
     1
 90
       50
176
     1
 90
       50
176
     1
 90
       50
176
     1
290
     0
176
     1
 90
       50
176
     1
 62
   256
176
     0
 40
1.0
176
     0
 90
        2
176
     1
  1
strokes_ogs.tif
176
     1
290
     0
176
     1
 40
1.0
176
     1
 40
1.0
176
     1
  0
VISUALSTYLE
  5
3C
102
{ACAD_REACTORS
330
2A
102
}
330
2A
100
AcDbVisualStyle
  2
OverhangOff
 70
    21
177
     3
291
     1
 70
    58
 90
        2
176
     0
 90
        2
176
     0
 90
        0
176
     0
 90
        0
176
     0
 40
0.6
176
     0
 40
30.0
176
     0
 62
     7
420
 16777215
176
     0
 90
        1
176
     0
 90
        4
176
     0
 62
     7
176
     0
 62
   257
176
     0
 90
        1
176
     0
 90
        1
176
     0
 40
1.0
176
     0
 90
        9
176
     2
 62
     7
176
     0
 40
1.0
176
     0
 90
        1
176
     0
 90
        6
176
     0
 90
        2
176
     0
 62
     7
176
     0
 90
        5
176
     0
 90
        0
176
     0
 90
        0
176
     0
290
     0
176
     0
 90
        1
176
     0
 40
0.0
176
     0
 90
        0
176
     0
290
     0
176
     0
290
     1
176
     0
290
     1
176
     0
290
     0
176
     0
290
     0
176
     0
290
     0
176
     0
290
     0
176
     0
290
     0
176
     0
290
     0
176
     0
 90
       50
176
     0
 40
0.0
176
     0
 40
1.0
176
     0
 90
        0
176
     0
 62
    18
420
        0
176
     0
 90
       50
176
     0
 90
        3
176
     0
 62
     5
420
      255
176
     0
290
     0
176
     0
 90
       50
176
     0
 90
       50
176
     0
 90
       50
176
     0
290
     0
176
     0
 90
       50
176
     0
 62
   256
176
     0
 40
1.0
176
     0
 90
        2
176
     0
  1
strokes_ogs.tif
176
     0
290
     0
176
     0
 40
1.0
176
     0
 40
1.0
176
     0
  0
VISUALSTYLE
  5
33
102
{ACAD_REACTORS
330
2A
102
}
330
2A
100
AcDbVisualStyle
  2
Realistic
 70
     8
177
     3
291
     0
 70
    58
 90
        2
176
     1
 90
        3
176
     1
 90
        0
176
     1
 90
        2
176
     1
 40
0.6
176
     1
 40
30.0
176
     1
 62
     7
420
 16777215
176
     1
 90
        0
176
     1
 90
        0
176
     1
 62
     7
176
     1
 62
   257
176
     1
 90
        1
176
     1
 90
        1
176
     1
 40
1.0
176
     1
 90
        8
176
     1
 62
   257
176
     1
 40
1.0
176
     1
 90
        1
176
     1
 90
        6
176
     1
 90
        2
176
     1
 62
     7
176
     1
 90
        3
176
     1
 90
        0
176
     1
 90
        0
176
     1
290
     0
176
     1
 90
       13
176
     1
 40
0.0
176
     1
 90
        0
176
     1
290
     0
176
     1
290
     1
176
     1
290
     1
176
     1
290
     0
176
     1
290
     0
176
     1
290
     0
176
     1
290
     0
176
     1
290
     0
176
     1
290
     0
176
     1
 90
       50
176
     1
 40
0.0
176
     1
 40
1.0
176
     1
 90
        0
176
     1
 62
    18
420
        0
176
     1
 90
       50
176
     1
 90
        3
176
     1
 62
     5
420
      255
176
     1
290
     0
176
     1
 90
       50
176
     1
 90
       50
176
     1
 90
       50
176
     1
290
     0
176
     1
 90
       50
176
     1
 62
   256
176
     0
 40
1.0
176
     0
 90
        2
176
     1
  1
strokes_ogs.tif
176
     1
290
     0
176
     1
 40
1.0
176
     1
 40
1.0
176
     1
  0
VISUALSTYLE
  5
42
102
{ACAD_REACTORS
330
2A
102
}
330
2A
100
AcDbVisualStyle
  2
Shaded
 70
    27
177
     3
291
     0
 70
    58
 90
        2
176
     1
 90
        2
176
     1
 90
        1
176
     1
 90
        2
176
     1
 40
0.6
176
     1
 40
30.0
176
     1
 62
     7
420
 16777215
176
     1
 90
        0
176
     1
 90
        4
176
     1
 62
     7
176
     1
 62
   257
176
     1
 90
        1
176
     1
 90
        1
176
     1
 40
1.0
176
     1
 90
        8
176
     1
 62
   257
176
     1
 40
1.0
176
     1
 90
        1
176
     1
 90
        6
176
     1
 90
        2
176
     1
 62
     8
420
  7895160
176
     1
 90
        3
176
     1
 90
        0
176
     1
 90
        0
176
     1
290
     0
176
     1
 90
        5
176
     1
 40
0.0
176
     1
 90
        0
176
     1
290
     0
176
     1
290
     1
176
     1
290
     1
176
     1
290
     0
176
     1
290
     0
176
     1
290
     0
176
     1
290
     0
176
     1
290
     0
176
     1
290
     0
176
     1
 90
       50
176
     1
 40
0.0
176
     1
 40
1.0
176
     1
 90
        0
176
     1
 62
    18
420
        0
176
     1
 90
       50
176
     1
 90
        3
176
     1
 62
     5
420
      255
176
     1
290
     0
176
     1
 90
       50
176
     1
 90
       50
176
     1
 90
       50
176
     1
290
     0
176
     1
 90
       50
176
     1
 62
   256
176
     0
 40
1.0
176
     0
 90
        2
176
     1
  1
strokes_ogs.tif
176
     1
290
     0
176
     1
 40
1.0
176
     1
 40
1.0
176
     1
  0
VISUALSTYLE
  5
41
102
{ACAD_REACTORS
330
2A
102
}
330
2A
100
AcDbVisualStyle
  2
Shaded with edges
 70
    26
177
     3
291
     0
 70
    58
 90
        2
176
     1
 90
        2
176
     1
 90
        1
176
     1
 90
        2
176
     1
 40
0.6
176
     1
 40
30.0
176
     1
 62
     7
420
 16777215
176
     1
 90
        1
176
     1
 90
       10
176
     1
 62
     7
176
     1
 62
   257
176
     1
 90
        2
176
     1
 90
        1
176
     1
 40
1.0
176
     1
 90
        8
176
     1
 62
   257
176
     1
 40
1.0
176
     1
 90
        1
176
     1
 90
        6
176
     1
 90
        2
176
     1
 62
     7
176
     1
 90
        3
176
     1
 90
        0
176
     1
 90
        0
176
     1
290
     0
176
     1
 90
        5
176
     1
 40
0.0
176
     1
 90
        0
176
     1
290
     0
176
     1
290
     1
176
     1
290
     1
176
     1
290
     0
176
     1
290
     0
176
     1
290
     0
176
     1
290
     0
176
     1
290
     0
176
     1
290
     0
176
     1
 90
       50
176
     1
 40
0.0
176
     1
 40
1.0
176
     1
 90
        0
176
     1
 62
    18
420
        0
176
     1
 90
       50
176
     1
 90
        3
176
     1
 62
     5
420
      255
176
     1
290
     0
176
     1
 90
       50
176
     1
 90
       50
176
     1
 90
       50
176
     1
290
     0
176
     1
 90
       50
176
     1
 62
   256
176
     0
 40
1.0
176
     0
 90
        2
176
     1
  1
strokes_ogs.tif
176
     1
290
     0
176
     1
 40
1.0
176
     1
 40
1.0
176
     1
  0
VISUALSTYLE
  5
3E
102
{ACAD_REACTORS
330
2A
102
}
330
2A
100
AcDbVisualStyle
  2
Shades of Gray
 70
    23
177
     3
291
     0
 70
    58
 90
        2
176
     1
 90
        2
176
     1
 90
        3
176
     1
 90
        0
176
     1
 40
0.6
176
     1
 40
30.0
176
     1
 62
     7
420
 16777215
176
     1
 90
        2
176
     1
 90
        2
176
     1
 62
     7
176
     1
 62
     7
176
     1
 90
        1
176
     1
 90
        1
176
     1
 40
40.0
176
     1
 90
        8
176
     1
 62
     7
176
     1
 40
1.0
176
     1
 90
        1
176
     1
 90
        6
176
     1
 90
        2
176
     1
 62
     7
176
     1
 90
        3
176
     1
 90
        0
176
     1
 90
        0
176
     1
290
     0
176
     1
 90
        1
176
     1
 40
0.0
176
     1
 90
        0
176
     1
290
     0
176
     1
290
     1
176
     1
290
     1
176
     1
290
     0
176
     1
290
     0
176
     1
290
     0
176
     1
290
     0
176
     1
290
     0
176
     1
290
     0
176
     1
 90
       50
176
     1
 40
0.0
176
     1
 40
1.0
176
     1
 90
        0
176
     1
 62
    18
420
        0
176
     1
 90
       50
176
     1
 90
        3
176
     1
 62
     5
420
      255
176
     1
290
     0
176
     1
 90
       50
176
     1
 90
       50
176
     1
 90
       50
176
     1
290
     0
176
     1
 90
       50
176
     1
 62
   256
176
     0
 40
1.0
176
     0
 90
        2
176
     1
  1
strokes_ogs.tif
176
     1
290
     0
176
     1
 40
1.0
176
     1
 40
1.0
176
     1
  0
VISUALSTYLE
  5
3F
102
{ACAD_REACTORS
330
2A
102
}
330
2A
100
AcDbVisualStyle
  2
Sketchy
 70
    24
177
     3
291
     0
 70
    58
 90
        1
176
     1
 90
        2
176
     1
 90
        2
176
     1
 90
        0
176
     1
 40
0.6
176
     1
 40
30.0
176
     1
 62
     7
420
 16777215
176
     1
 90
        2
176
     1
 90
        2
176
     1
 62
     7
176
     1
 62
     7
176
     1
 90
        1
176
     1
 90
        1
176
     1
 40
40.0
176
     1
 90
       11
176
     1
 62
     7
176
     1
 40
1.0
176
     1
 90
        1
176
     1
 90
        6
176
     1
 90
        2
176
     1
 62
     7
176
     1
 90
        6
176
     1
 90
        0
176
     1
 90
        0
176
     1
290
     0
176
     1
 90
        1
176
     1
 40
0.0
176
     1
 90
        0
176
     1
290
     0
176
     1
290
     1
176
     1
290
     1
176
     1
290
     0
176
     1
290
     0
176
     1
290
     0
176
     1
290
     0
176
     1
290
     0
176
     1
290
     0
176
     1
 90
       50
176
     1
 40
0.0
176
     1
 40
1.0
176
     1
 90
        0
176
     1
 62
    18
420
        0
176
     1
 90
       50
176
     1
 90
        3
176
     1
 62
     5
420
      255
176
     1
290
     0
176
     1
 90
       50
176
     1
 90
       50
176
     1
 90
       50
176
     1
290
     0
176
     1
 90
       50
176
     1
 62
   256
176
     0
 40
1.0
176
     0
 90
        2
176
     1
  1
strokes_ogs.tif
176
     1
290
     0
176
     1
 40
1.0
176
     1
 40
1.0
176
     1
  0
VISUALSTYLE
  5
37
102
{ACAD_REACTORS
330
2A
102
}
330
2A
100
AcDbVisualStyle
  2
Thicken
 70
    13
177
     3
291
     1
 70
    58
 90
        2
176
     1
 90
        2
176
     1
 90
        0
176
     1
 90
        0
176
     1
 40
0.6
176
     1
 40
30.0
176
     1
 62
     7
420
 16777215
176
     1
 90
        1
176
     1
 90
        4
176
     1
 62
     7
176
     1
 62
   257
176
     1
 90
        1
176
     1
 90
        1
176
     1
 40
1.0
176
     1
 90
       12
176
     1
 62
     7
176
     1
 40
1.0
176
     1
 90
        1
176
     1
 90
        6
176
     1
 90
        2
176
     1
 62
     7
176
     1
 90
        5
176
     1
 90
        0
176
     1
 90
        0
176
     1
290
     0
176
     1
 90
        1
176
     1
 40
0.0
176
     1
 90
        0
176
     1
290
     0
176
     1
290
     1
176
     1
290
     1
176
     1
290
     0
176
     1
290
     0
176
     1
290
     0
176
     1
290
     0
176
     1
290
     0
176
     1
290
     0
176
     1
 90
       50
176
     1
 40
0.0
176
     1
 40
1.0
176
     1
 90
        0
176
     1
 62
    18
420
        0
176
     1
 90
       50
176
     1
 90
        3
176
     1
 62
     5
420
      255
176
     1
290
     0
176
     1
 90
       50
176
     1
 90
       50
176
     1
 90
       50
176
     1
290
     0
176
     1
 90
       50
176
     1
 62
   256
176
     0
 40
1.0
176
     0
 90
        2
176
     1
  1
strokes_ogs.tif
176
     1
290
     0
176
     1
 40
1.0
176
     1
 40
1.0
176
     1
  0
VISUALSTYLE
  5
30
102
{ACAD_REACTORS
330
2A
102
}
330
2A
100
AcDbVisualStyle
  2
Wireframe
 70
     5
177
     3
291
     0
 70
    58
 90
        0
176
     1
 90
        2
176
     1
 90
        0
176
     1
 90
        0
176
     1
 40
0.6
176
     1
 40
30.0
176
     1
 62
     7
420
 16777215
176
     1
 90
        1
176
     1
 90
        4
176
     1
 62
     7
176
     1
 62
   257
176
     1
 90
        1
176
     1
 90
        1
176
     1
 40
1.0
176
     1
 90
        0
176
     1
 62
   257
176
     1
 40
1.0
176
     1
 90
        1
176
     1
 90
        6
176
     1
 90
        2
176
     1
 62
     7
176
     1
 90
        3
176
     1
 90
        0
176
     1
 90
        0
176
     1
290
     0
176
     1
 90
        1
176
     1
 40
0.0
176
     1
 90
        0
176
     1
290
     0
176
     1
290
     1
176
     1
290
     1
176
     1
290
     0
176
     1
290
     0
176
     1
290
     0
176
     1
290
     0
176
     1
290
     0
176
     1
290
     0
176
     1
 90
       50
176
     1
 40
0.0
176
     1
 40
1.0
176
     1
 90
        0
176
     1
 62
    18
420
        0
176
     1
 90
       50
176
     1
 90
        3
176
     1
 62
     5
420
      255
176
     1
290
     0
176
     1
 90
       50
176
     1
 90
       50
176
     1
 90
       50
176
     1
290
     0
176
     1
 90
       50
176
     1
 62
   256
176
     0
 40
1.0
176
     0
 90
        2
176
     1
  1
strokes_ogs.tif
176
     1
290
     0
176
     1
 40
1.0
176
     1
 40
1.0
176
     1
  0
VISUALSTYLE
  5
40
102
{ACAD_REACTORS
330
2A
102
}
330
2A
100
AcDbVisualStyle
  2
X-Ray
 70
    25
177
     3
291
     0
 70
    58
 90
        2
176
     1
 90
        2
176
     1
 90
        1
176
     1
 90
        1
176
     1
 40
0.5
176
     1
 40
30.0
176
     1
 62
     7
420
 16777215
176
     1
 90
        1
176
     1
 90
        0
176
     1
 62
     7
176
     1
 62
   257
176
     1
 90
        1
176
     1
 90
        1
176
     1
 40
1.0
176
     1
 90
        8
176
     1
 62
     7
176
     1
 40
1.0
176
     1
 90
        1
176
     1
 90
        6
176
     1
 90
        2
176
     1
 62
     7
176
     1
 90
        3
176
     1
 90
        0
176
     1
 90
        0
176
     1
290
     0
176
     1
 90
       13
176
     1
 40
0.0
176
     1
 90
        0
176
     1
290
     0
176
     1
290
     1
176
     1
290
     1
176
     1
290
     0
176
     1
290
     0
176
     1
290
     0
176
     1
290
     0
176
     1
290
     0
176
     1
290
     0
176
     1
 90
       50
176
     1
 40
0.0
176
     1
 40
1.0
176
     1
 90
        0
176
     1
 62
    18
420
        0
176
     1
 90
       50
176
     1
 90
        3
176
     1
 62
     5
420
      255
176
     1
290
     0
176
     1
 90
       50
176
     1
 90
       50
176
     1
 90
       50
176
     1
290
     0
176
     1
 90
       50
176
     1
 62
   256
176
     0
 40
1.0
176
     0
 90
        2
176
     1
  1
strokes_ogs.tif
176
     1
290
     0
176
     1
 40
1.0
176
     1
 40
1.0
176
     1
  0
DICTIONARYVAR
  5
1D8
102
{ACAD_REACTORS
330
1D7
102
}
330
1D7
100
DictionaryVariables
280
     0
  1
1:1
  0
DICTIONARYVAR
  5
1DD
102
{ACAD_REACTORS
330
1D7
102
}
330
1D7
100
DictionaryVariables
280
     0
  1
Standard
  0
DICTIONARYVAR
  5
1DC
102
{ACAD_REACTORS
330
1D7
102
}
330
1D7
100
DictionaryVariables
280
     0
  1
Standard
  0
DICTIONARY
  5
1D9
330
6A
100
AcDbDictionary
280
     1
281
     1
  3
ACAD_ROUNDTRIP_2008_TABLESTYLE_CELLSTYLEMAP
360
1DA
  0
CELLSTYLEMAP
  5
1DA
102
{ACAD_REACTORS
330
1D9
102
}
330
1D9
100
AcDbCellStyleMap
 90
        3
300
CELLSTYLE
  1
TABLEFORMAT_BEGIN
 90
        5
170
     1
 91
        0
 92
    32768
 62
   257
 93
        1
300
CONTENTFORMAT
  1
CONTENTFORMAT_BEGIN
 90
        0
 91
        0
 92
        4
 93
        0
300

 40
0.0
140
1.0
 94
        5
 62
     0
340
11
144
0.25
309
CONTENTFORMAT_END
171
     1
301
MARGIN
  1
CELLMARGIN_BEGIN
 40
0.06
 40
0.06
 40
0.06
 40
0.06
 40
0.06
 40
0.06
309
CELLMARGIN_END
 94
        6
 95
        1
302
GRIDFORMAT
  1
GRIDFORMAT_BEGIN
 90
        0
 91
        1
 62
     0
 92
       -2
340
14
 93
        0
 40
0.045
309
GRIDFORMAT_END
 95
        2
302
GRIDFORMAT
  1
GRIDFORMAT_BEGIN
 90
        0
 91
        1
 62
     0
 92
       -2
340
14
 93
        0
 40
0.045
309
GRIDFORMAT_END
 95
        4
302
GRIDFORMAT
  1
GRIDFORMAT_BEGIN
 90
        0
 91
        1
 62
     0
 92
       -2
340
14
 93
        0
 40
0.045
309
GRIDFORMAT_END
 95
        8
302
GRIDFORMAT
  1
GRIDFORMAT_BEGIN
 90
        0
 91
        1
 62
     0
 92
       -2
340
14
 93
        0
 40
0.045
309
GRIDFORMAT_END
 95
       16
302
GRIDFORMAT
  1
GRIDFORMAT_BEGIN
 90
        0
 91
        1
 62
     0
 92
       -2
340
14
 93
        0
 40
0.045
309
GRIDFORMAT_END
 95
       32
302
GRIDFORMAT
  1
GRIDFORMAT_BEGIN
 90
        0
 91
        1
 62
     0
 92
       -2
340
14
 93
        0
 40
0.045
309
GRIDFORMAT_END
309
TABLEFORMAT_END
  1
CELLSTYLE_BEGIN
 90
        1
 91
        1
300
_TITLE
309
CELLSTYLE_END
300
CELLSTYLE
  1
TABLEFORMAT_BEGIN
 90
        5
170
     1
 91
        0
 92
        0
 62
   257
 93
        1
300
CONTENTFORMAT
  1
CONTENTFORMAT_BEGIN
 90
        0
 91
        0
 92
        4
 93
        0
300

 40
0.0
140
1.0
 94
        5
 62
     0
340
11
144
0.18
309
CONTENTFORMAT_END
171
     1
301
MARGIN
  1
CELLMARGIN_BEGIN
 40
0.06
 40
0.06
 40
0.06
 40
0.06
 40
0.06
 40
0.06
309
CELLMARGIN_END
 94
        6
 95
        1
302
GRIDFORMAT
  1
GRIDFORMAT_BEGIN
 90
        0
 91
        1
 62
     0
 92
       -2
340
14
 93
        0
 40
0.045
309
GRIDFORMAT_END
 95
        2
302
GRIDFORMAT
  1
GRIDFORMAT_BEGIN
 90
        0
 91
        1
 62
     0
 92
       -2
340
14
 93
        0
 40
0.045
309
GRIDFORMAT_END
 95
        4
302
GRIDFORMAT
  1
GRIDFORMAT_BEGIN
 90
        0
 91
        1
 62
     0
 92
       -2
340
14
 93
        0
 40
0.045
309
GRIDFORMAT_END
 95
        8
302
GRIDFORMAT
  1
GRIDFORMAT_BEGIN
 90
        0
 91
        1
 62
     0
 92
       -2
340
14
 93
        0
 40
0.045
309
GRIDFORMAT_END
 95
       16
302
GRIDFORMAT
  1
GRIDFORMAT_BEGIN
 90
        0
 91
        1
 62
     0
 92
       -2
340
14
 93
        0
 40
0.045
309
GRIDFORMAT_END
 95
       32
302
GRIDFORMAT
  1
GRIDFORMAT_BEGIN
 90
        0
 91
        1
 62
     0
 92
       -2
340
14
 93
        0
 40
0.045
309
GRIDFORMAT_END
309
TABLEFORMAT_END
  1
CELLSTYLE_BEGIN
 90
        2
 91
        1
300
_HEADER
309
CELLSTYLE_END
300
CELLSTYLE
  1
TABLEFORMAT_BEGIN
 90
        5
170
     1
 91
        0
 92
        0
 62
   257
 93
        1
300
CONTENTFORMAT
  1
CONTENTFORMAT_BEGIN
 90
        0
 91
        0
 92
        4
 93
        0
300

 40
0.0
140
1.0
 94
        2
 62
     0
340
11
144
0.18
309
CONTENTFORMAT_END
171
     1
301
MARGIN
  1
CELLMARGIN_BEGIN
 40
0.06
 40
0.06
 40
0.06
 40
0.06
 40
0.06
 40
0.06
309
CELLMARGIN_END
 94
        6
 95
        1
302
GRIDFORMAT
  1
GRIDFORMAT_BEGIN
 90
        0
 91
        1
 62
     0
 92
       -2
340
14
 93
        0
 40
0.045
309
GRIDFORMAT_END
 95
        2
302
GRIDFORMAT
  1
GRIDFORMAT_BEGIN
 90
        0
 91
        1
 62
     0
 92
       -2
340
14
 93
        0
 40
0.045
309
GRIDFORMAT_END
 95
        4
302
GRIDFORMAT
  1
GRIDFORMAT_BEGIN
 90
        0
 91
        1
 62
     0
 92
       -2
340
14
 93
        0
 40
0.045
309
GRIDFORMAT_END
 95
        8
302
GRIDFORMAT
  1
GRIDFORMAT_BEGIN
 90
        0
 91
        1
 62
     0
 92
       -2
340
14
 93
        0
 40
0.045
309
GRIDFORMAT_END
 95
       16
302
GRIDFORMAT
  1
GRIDFORMAT_BEGIN
 90
        0
 91
        1
 62
     0
 92
       -2
340
14
 93
        0
 40
0.045
309
GRIDFORMAT_END
 95
       32
302
GRIDFORMAT
  1
GRIDFORMAT_BEGIN
 90
        0
 91
        1
 62
     0
 92
       -2
340
14
 93
        0
 40
0.045
309
GRIDFORMAT_END
309
TABLEFORMAT_END
  1
CELLSTYLE_BEGIN
 90
        3
 91
        2
300
_DATA
309
CELLSTYLE_END
  0
ENDSEC
  0
EOF