0
SECTION
  2
HEADER
  9
$ACADVER
  1
AC1027
  9
$ACADMAINTVER
 70
     8
  9
$DWGCODEPAGE
  3
ANSI_1252
  9
$REQUIREDVERSIONS
160
                 0
  9
$COMMENTS
  1
File was created by Cadenas
  9
$CUSTOMPROPERTYTAG
  1
NN
  9
$CUSTOMPROPERTY
  1
Set Screw Medium Duty Extreme Duty Wide Slot Take Up Inch Bore
  9
$CUSTOMPROPERTYTAG
  1
NT
  9
$CUSTOMPROPERTY
  1
SCMED Take-Up Bearings -Wide Slot -(Normal Duty)
  9
$CUSTOMPROPERTYTAG
  1
NB
  9
$CUSTOMPROPERTY
  1
076201
  9
$CUSTOMPROPERTYTAG
  1
NBSYN
  9
$CUSTOMPROPERTY
  1
$PN.
  9
$CUSTOMPROPERTYTAG
  1
LINA
  9
$CUSTOMPROPERTY
  1
076201
  9
$CUSTOMPROPERTYTAG
  1
SERIES
  9
$CUSTOMPROPERTY
  1
215
  9
$CUSTOMPROPERTYTAG
  1
SS
  9
$CUSTOMPROPERTY
  1
2-11/16
  9
$CUSTOMPROPERTYTAG
  1
PN
  9
$CUSTOMPROPERTY
  1
076201
  9
$CUSTOMPROPERTYTAG
  1
DESCRIPTION
  9
$CUSTOMPROPERTY
  1
WSTU-SCMED-211
  9
$CUSTOMPROPERTYTAG
  1
W
  9
$CUSTOMPROPERTY
  1
19.0
  9
$CUSTOMPROPERTYTAG
  1
FS
  9
$CUSTOMPROPERTY
  1
WS515
  9
$CUSTOMPROPERTYTAG
  1
A
  9
$CUSTOMPROPERTY
  1
2.33
  9
$CUSTOMPROPERTYTAG
  1
B
  9
$CUSTOMPROPERTY
  1
9.13
  9
$CUSTOMPROPERTYTAG
  1
C
  9
$CUSTOMPROPERTY
  1
1.063
  9
$CUSTOMPROPERTYTAG
  1
D
  9
$CUSTOMPROPERTY
  1
4.75
  9
$CUSTOMPROPERTYTAG
  1
E
  9
$CUSTOMPROPERTY
  1
5.50
  9
$CUSTOMPROPERTYTAG
  1
F
  9
$CUSTOMPROPERTY
  1
1-1/2
  9
$CUSTOMPROPERTYTAG
  1
G
  9
$CUSTOMPROPERTY
  1
0.81
  9
$CUSTOMPROPERTYTAG
  1
H
  9
$CUSTOMPROPERTY
  1
1.25
  9
$CUSTOMPROPERTYTAG
  1
J
  9
$CUSTOMPROPERTY
  1
4.38
  9
$CUSTOMPROPERTYTAG
  1
K
  9
$CUSTOMPROPERTY
  1
2.75
  9
$CUSTOMPROPERTYTAG
  1
L
  9
$CUSTOMPROPERTY
  1
3.62
  9
$CUSTOMPROPERTYTAG
  1
M
  9
$CUSTOMPROPERTY
  1
5.923 / 5.953
  9
$CUSTOMPROPERTYTAG
  1
N
  9
$CUSTOMPROPERTY
  1
6.69
  9
$CUSTOMPROPERTYTAG
  1
R
  9
$CUSTOMPROPERTY
  1
0.86
  9
$CUSTOMPROPERTYTAG
  1
S
  9
$CUSTOMPROPERTY
  1
1.47
  9
$CUSTOMPROPERTYTAG
  1
T
  9
$CUSTOMPROPERTY
  1
2.75
  9
$CUSTOMPROPERTYTAG
  1
COMPANY
  9
$CUSTOMPROPERTY
  1
baldor
  9
$INSBASE
 10
0.0
 20
0.0
 30
0.0
  9
$EXTMIN
 10
1.000000000000000E+20
 20
1.000000000000000E+20
 30
1.000000000000000E+20
  9
$EXTMAX
 10
-1.000000000000000E+20
 20
-1.000000000000000E+20
 30
-1.000000000000000E+20
  9
$LIMMIN
 10
0.0
 20
0.0
  9
$LIMMAX
 10
12.0
 20
9.0
  9
$ORTHOMODE
 70
     0
  9
$REGENMODE
 70
     1
  9
$FILLMODE
 70
     1
  9
$QTEXTMODE
 70
     0
  9
$MIRRTEXT
 70
     1
  9
$LTSCALE
 40
1.0
  9
$ATTMODE
 70
     1
  9
$TEXTSIZE
 40
0.2
  9
$TRACEWID
 40
0.05
  9
$TEXTSTYLE
  7
Standard
  9
$CLAYER
  8
0
  9
$CELTYPE
  6
ByLayer
  9
$CECOLOR
 62
   256
  9
$CELTSCALE
 40
1.0
  9
$DISPSILH
 70
     0
  9
$DIMSCALE
 40
1.0
  9
$DIMASZ
 40
0.18
  9
$DIMEXO
 40
0.0625
  9
$DIMDLI
 40
0.38
  9
$DIMRND
 40
0.0
  9
$DIMDLE
 40
0.0
  9
$DIMEXE
 40
0.18
  9
$DIMTP
 40
0.0
  9
$DIMTM
 40
0.0
  9
$DIMTXT
 40
0.18
  9
$DIMCEN
 40
0.09
  9
$DIMTSZ
 40
0.0
  9
$DIMTOL
 70
     0
  9
$DIMLIM
 70
     0
  9
$DIMTIH
 70
     1
  9
$DIMTOH
 70
     1
  9
$DIMSE1
 70
     0
  9
$DIMSE2
 70
     0
  9
$DIMTAD
 70
     0
  9
$DIMZIN
 70
     0
  9
$DIMBLK
  1

  9
$DIMASO
 70
     1
  9
$DIMSHO
 70
     1
  9
$DIMPOST
  1

  9
$DIMAPOST
  1

  9
$DIMALT
 70
     0
  9
$DIMALTD
 70
     2
  9
$DIMALTF
 40
25.4
  9
$DIMLFAC
 40
1.0
  9
$DIMTOFL
 70
     0
  9
$DIMTVP
 40
0.0
  9
$DIMTIX
 70
     0
  9
$DIMSOXD
 70
     0
  9
$DIMSAH
 70
     0
  9
$DIMBLK1
  1

  9
$DIMBLK2
  1

  9
$DIMSTYLE
  2
Standard
  9
$DIMCLRD
 70
     0
  9
$DIMCLRE
 70
     0
  9
$DIMCLRT
 70
     0
  9
$DIMTFAC
 40
1.0
  9
$DIMGAP
 40
0.09
  9
$DIMJUST
 70
     0
  9
$DIMSD1
 70
     0
  9
$DIMSD2
 70
     0
  9
$DIMTOLJ
 70
     1
  9
$DIMTZIN
 70
     0
  9
$DIMALTZ
 70
     0
  9
$DIMALTTZ
 70
     0
  9
$DIMUPT
 70
     0
  9
$DIMDEC
 70
     4
  9
$DIMTDEC
 70
     4
  9
$DIMALTU
 70
     2
  9
$DIMALTTD
 70
     2
  9
$DIMTXSTY
  7
Standard
  9
$DIMAUNIT
 70
     0
  9
$DIMADEC
 70
     0
  9
$DIMALTRND
 40
0.0
  9
$DIMAZIN
 70
     0
  9
$DIMDSEP
 70
    46
  9
$DIMATFIT
 70
     3
  9
$DIMFRAC
 70
     0
  9
$DIMLDRBLK
  1

  9
$DIMLUNIT
 70
     2
  9
$DIMLWD
 70
    -2
  9
$DIMLWE
 70
    -2
  9
$DIMTMOVE
 70
     0
  9
$DIMFXL
 40
1.0
  9
$DIMFXLON
 70
     0
  9
$DIMJOGANG
 40
0.7853981633974483
  9
$DIMTFILL
 70
     0
  9
$DIMTFILLCLR
 70
     0
  9
$DIMARCSYM
 70
     0
  9
$DIMLTYPE
  6

  9
$DIMLTEX1
  6

  9
$DIMLTEX2
  6

  9
$DIMTXTDIRECTION
 70
     0
  9
$LUNITS
 70
     2
  9
$LUPREC
 70
     4
  9
$SKETCHINC
 40
0.1
  9
$FILLETRAD
 40
0.5
  9
$AUNITS
 70
     0
  9
$AUPREC
 70
     0
  9
$MENU
  1
.
  9
$ELEVATION
 40
0.0
  9
$PELEVATION
 40
0.0
  9
$THICKNESS
 40
0.0
  9
$LIMCHECK
 70
     0
  9
$CHAMFERA
 40
0.0
  9
$CHAMFERB
 40
0.0
  9
$CHAMFERC
 40
0.0
  9
$CHAMFERD
 40
0.0
  9
$SKPOLY
 70
     0
  9
$TDCREATE
 40
2458168.889017488
  9
$TDUCREATE
 40
2458168.847350822
  9
$TDUPDATE
 40
2458168.889017674
  9
$TDUUPDATE
 40
2458168.847351007
  9
$TDINDWG
 40
0.0000000116
  9
$TDUSRTIMER
 40
0.0000000116
  9
$USRTIMER
 70
     1
  9
$ANGBASE
 50
0.0
  9
$ANGDIR
 70
     0
  9
$PDMODE
 70
     0
  9
$PDSIZE
 40
0.0
  9
$PLINEWID
 40
0.0
  9
$SPLFRAME
 70
     0
  9
$SPLINETYPE
 70
     6
  9
$SPLINESEGS
 70
     8
  9
$HANDSEED
  5
1A9
  9
$SURFTAB1
 70
     6
  9
$SURFTAB2
 70
     6
  9
$SURFTYPE
 70
     6
  9
$SURFU
 70
     6
  9
$SURFV
 70
     6
  9
$UCSBASE
  2

  9
$UCSNAME
  2

  9
$UCSORG
 10
0.0
 20
0.0
 30
0.0
  9
$UCSXDIR
 10
1.0
 20
0.0
 30
0.0
  9
$UCSYDIR
 10
0.0
 20
1.0
 30
0.0
  9
$UCSORTHOREF
  2

  9
$UCSORTHOVIEW
 70
     0
  9
$UCSORGTOP
 10
0.0
 20
0.0
 30
0.0
  9
$UCSORGBOTTOM
 10
0.0
 20
0.0
 30
0.0
  9
$UCSORGLEFT
 10
0.0
 20
0.0
 30
0.0
  9
$UCSORGRIGHT
 10
0.0
 20
0.0
 30
0.0
  9
$UCSORGFRONT
 10
0.0
 20
0.0
 30
0.0
  9
$UCSORGBACK
 10
0.0
 20
0.0
 30
0.0
  9
$PUCSBASE
  2

  9
$PUCSNAME
  2

  9
$PUCSORG
 10
0.0
 20
0.0
 30
0.0
  9
$PUCSXDIR
 10
1.0
 20
0.0
 30
0.0
  9
$PUCSYDIR
 10
0.0
 20
1.0
 30
0.0
  9
$PUCSORTHOREF
  2

  9
$PUCSORTHOVIEW
 70
     0
  9
$PUCSORGTOP
 10
0.0
 20
0.0
 30
0.0
  9
$PUCSORGBOTTOM
 10
0.0
 20
0.0
 30
0.0
  9
$PUCSORGLEFT
 10
0.0
 20
0.0
 30
0.0
  9
$PUCSORGRIGHT
 10
0.0
 20
0.0
 30
0.0
  9
$PUCSORGFRONT
 10
0.0
 20
0.0
 30
0.0
  9
$PUCSORGBACK
 10
0.0
 20
0.0
 30
0.0
  9
$USERI1
 70
     0
  9
$USERI2
 70
     0
  9
$USERI3
 70
     0
  9
$USERI4
 70
     0
  9
$USERI5
 70
     0
  9
$USERR1
 40
0.0
  9
$USERR2
 40
0.0
  9
$USERR3
 40
0.0
  9
$USERR4
 40
0.0
  9
$USERR5
 40
0.0
  9
$WORLDVIEW
 70
     1
  9
$SHADEDGE
 70
     3
  9
$SHADEDIF
 70
    70
  9
$TILEMODE
 70
     1
  9
$MAXACTVP
 70
    64
  9
$PINSBASE
 10
0.0
 20
0.0
 30
0.0
  9
$PLIMCHECK
 70
     0
  9
$PEXTMIN
 10
1.000000000000000E+20
 20
1.000000000000000E+20
 30
1.000000000000000E+20
  9
$PEXTMAX
 10
-1.000000000000000E+20
 20
-1.000000000000000E+20
 30
-1.000000000000000E+20
  9
$PLIMMIN
 10
0.0
 20
0.0
  9
$PLIMMAX
 10
12.0
 20
9.0
  9
$UNITMODE
 70
     0
  9
$VISRETAIN
 70
     1
  9
$PLINEGEN
 70
     0
  9
$PSLTSCALE
 70
     1
  9
$TREEDEPTH
 70
  3020
  9
$CMLSTYLE
  2
Standard
  9
$CMLJUST
 70
     0
  9
$CMLSCALE
 40
1.0
  9
$PROXYGRAPHICS
 70
     1
  9
$MEASUREMENT
 70
     0
  9
$CELWEIGHT
370
    -1
  9
$ENDCAPS
280
     0
  9
$JOINSTYLE
280
     0
  9
$LWDISPLAY
290
     0
  9
$INSUNITS
 70
     1
  9
$HYPERLINKBASE
  1

  9
$STYLESHEET
  1

  9
$XEDIT
290
     1
  9
$CEPSNTYPE
380
     0
  9
$PSTYLEMODE
290
     1
  9
$FINGERPRINTGUID
  2
{A0DEAF01-0B43-4815-B8A7-5685E968CE01}
  9
$VERSIONGUID
  2
{FAEB1C32-E019-11D5-929B-00C0DF256EC4}
  9
$EXTNAMES
290
     1
  9
$PSVPSCALE
 40
0.0
  9
$OLESTARTUP
290
     0
  9
$SORTENTS
280
   127
  9
$INDEXCTL
280
     0
  9
$HIDETEXT
280
     1
  9
$XCLIPFRAME
280
     2
  9
$HALOGAP
280
     0
  9
$OBSCOLOR
 70
   257
  9
$OBSLTYPE
280
     0
  9
$INTERSECTIONDISPLAY
280
     0
  9
$INTERSECTIONCOLOR
 70
   257
  9
$DIMASSOC
280
     2
  9
$PROJECTNAME
  1

  9
$CAMERADISPLAY
290
     0
  9
$LENSLENGTH
 40
50.0
  9
$CAMERAHEIGHT
 40
0.0
  9
$STEPSPERSEC
 40
2.0
  9
$STEPSIZE
 40
6.0
  9
$3DDWFPREC
 40
2.0
  9
$PSOLWIDTH
 40
0.25
  9
$PSOLHEIGHT
 40
4.0
  9
$LOFTANG1
 40
1.570796326794897
  9
$LOFTANG2
 40
1.570796326794897
  9
$LOFTMAG1
 40
0.0
  9
$LOFTMAG2
 40
0.0
  9
$LOFTPARAM
 70
     7
  9
$LOFTNORMALS
280
     1
  9
$LATITUDE
 40
37.795
  9
$LONGITUDE
 40
-122.394
  9
$NORTHDIRECTION
 40
0.0
  9
$TIMEZONE
 70
 -8000
  9
$LIGHTGLYPHDISPLAY
280
     1
  9
$TILEMODELIGHTSYNCH
280
     1
  9
$CMATERIAL
347
44
  9
$SOLIDHIST
280
     0
  9
$SHOWHIST
280
     1
  9
$DWFFRAME
280
     2
  9
$DGNFRAME
280
     2
  9
$REALWORLDSCALE
290
     1
  9
$INTERFERECOLOR
 62
   256
  9
$CSHADOW
280
     0
  9
$SHADOWPLANELOCATION
 40
0.0
  0
ENDSEC
  0
SECTION
  2
CLASSES
  0
CLASS
  1
ACDBDICTIONARYWDFLT
  2
AcDbDictionaryWithDefault
  3
ObjectDBX Classes
 90
        0
 91
        4
280
     0
281
     0
  0
CLASS
  1
VISUALSTYLE
  2
AcDbVisualStyle
  3
ObjectDBX Classes
 90
     4095
 91
        4
280
     0
281
     0
  0
CLASS
  1
MATERIAL
  2
AcDbMaterial
  3
ObjectDBX Classes
 90
     1153
 91
        4
280
     0
281
     0
  0
CLASS
  1
SCALE
  2
AcDbScale
  3
ObjectDBX Classes
 90
     1153
 91
        4
280
     0
281
     0
  0
CLASS
  1
TABLESTYLE
  2
AcDbTableStyle
  3
ObjectDBX Classes
 90
     4095
 91
        4
280
     0
281
     0
  0
CLASS
  1
MLEADERSTYLE
  2
AcDbMLeaderStyle
  3
ACDB_MLEADERSTYLE_CLASS
 90
     4095
 91
        4
280
     0
281
     0
  0
CLASS
  1
SUN
  2
AcDbSun
  3
SCENEOE
 90
     1153
 91
        4
280
     0
281
     0
  0
CLASS
  1
DICTIONARYVAR
  2
AcDbDictionaryVar
  3
ObjectDBX Classes
 90
        0
 91
        4
280
     0
281
     0
  0
CLASS
  1
CELLSTYLEMAP
  2
AcDbCellStyleMap
  3
ObjectDBX Classes
 90
     1152
 91
        4
280
     0
281
     0
  0
ENDSEC
  0
SECTION
  2
TABLES
  0
TABLE
  2
VPORT
  5
8
330
0
100
AcDbSymbolTable
 70
     1
  0
VPORT
  5
29
330
8
100
AcDbSymbolTableRecord
100
AcDbViewportTableRecord
  2
*Active
 70
     0
 10
0.0
 20
0.0
 11
1.0
 21
1.0
 12
0.8743406229856721
 22
0.0
 13
0.0
 23
0.0
 14
0.5
 24
0.5
 15
0.5
 25
0.5
 16
0.0
 26
0.0
 36
1.0
 17
0.0
 27
0.0
 37
0.0
 40
6.823799999999999
 41
1.394965434085001
 42
50.0
 43
0.0
 44
0.0
 50
0.0
 51
0.0
 71
     0
 72
   100
 73
     1
 74
     3
 75
     0
 76
     0
 77
     0
 78
     0
281
     0
 65
     1
110
0.0
120
0.0
130
0.0
111
1.0
121
0.0
131
0.0
112
0.0
122
1.0
132
0.0
 79
     0
146
0.0
348
2F
 60
     3
 61
     5
292
     1
282
     1
141
0.0
142
0.0
 63
   250
361
6D
  0
ENDTAB
  0
TABLE
  2
LTYPE
  5
5
330
0
100
AcDbSymbolTable
 70
     3
  0
LTYPE
  5
14
330
5
100
AcDbSymbolTableRecord
100
AcDbLinetypeTableRecord
  2
ByBlock
 70
     0
  3

 72
    65
 73
     0
 40
0.0
  0
LTYPE
  5
15
330
5
100
AcDbSymbolTableRecord
100
AcDbLinetypeTableRecord
  2
ByLayer
 70
     0
  3

 72
    65
 73
     0
 40
0.0
  0
LTYPE
  5
16
330
5
100
AcDbSymbolTableRecord
100
AcDbLinetypeTableRecord
  2
Continuous
 70
     0
  3
Solid line
 72
    65
 73
     0
 40
0.0
  0
LTYPE
  5
A6
330
5
100
AcDbSymbolTableRecord
100
AcDbLinetypeTableRecord
  2
Dashed
 70
     0
  3

 72
    65
 73
     2
 40
2.0
 49
1.0
 74
     0
 49
-1.0
 74
     0
  0
LTYPE
  5
C0
330
5
100
AcDbSymbolTableRecord
100
AcDbLinetypeTableRecord
  2
Center
 70
     0
  3

 72
    65
 73
     4
 40
1.5
 49
0.45
 74
     0
 49
-0.5
 74
     0
 49
0.05
 74
     0
 49
-0.5
 74
     0
  0
ENDTAB
  0
TABLE
  2
LAYER
  5
2
330
0
100
AcDbSymbolTable
 70
     7
  0
LAYER
  5
10
330
2
100
AcDbSymbolTableRecord
100
AcDbLayerTableRecord
  2
0
 70
     0
 62
     7
  6
Continuous
370
    -3
390
F
347
46
348
0
  0
LAYER
  5
72
330
2
100
AcDbSymbolTableRecord
100
AcDbLayerTableRecord
  2
AM_6
 70
     0
 62
    -2
  6
Continuous
370
    35
390
F
347
46
348
0
  0
LAYER
  5
A7
330
2
100
AcDbSymbolTableRecord
100
AcDbLayerTableRecord
  2
AM_9
 70
     0
 62
     6
  6
Dashed
370
    25
390
F
347
46
348
0
  0
LAYER
  5
BB
330
2
100
AcDbSymbolTableRecord
100
AcDbLayerTableRecord
  2
AM_5
 70
     0
 62
     3
  6
Continuous
370
    25
390
F
347
46
348
0
  0
LAYER
  5
C1
330
2
100
AcDbSymbolTableRecord
100
AcDbLayerTableRecord
  2
AM_7
 70
     0
 62
     7
  6
Center
370
    25
390
F
347
46
348
0
  0
LAYER
  5
C3
330
2
100
AcDbSymbolTableRecord
100
AcDbLayerTableRecord
  2
AM_4
 70
     0
 62
     7
  6
Continuous
370
    50
390
F
347
46
348
0
  0
LAYER
  5
19C
330
2
100
AcDbSymbolTableRecord
100
AcDbLayerTableRecord
  2
ConnectionPoints
 70
     0
 62
     7
  6
Continuous
370
    50
390
F
347
46
348
0
  0
ENDTAB
  0
TABLE
  2
STYLE
  5
3
330
0
100
AcDbSymbolTable
 70
     1
  0
STYLE
  5
11
330
3
100
AcDbSymbolTableRecord
100
AcDbTextStyleTableRecord
  2
Standard
 70
     0
 40
0.0
 41
1.0
 50
0.0
 71
     0
 42
0.2
  3
txt
  4

  0
ENDTAB
  0
TABLE
  2
VIEW
  5
6
330
0
100
AcDbSymbolTable
 70
     0
  0
ENDTAB
  0
TABLE
  2
UCS
  5
7
330
0
100
AcDbSymbolTable
 70
     0
  0
ENDTAB
  0
TABLE
  2
APPID
  5
9
330
0
100
AcDbSymbolTable
 70
     1
  0
APPID
  5
12
330
9
100
AcDbSymbolTableRecord
100
AcDbRegAppTableRecord
  2
ACAD
 70
     0
  0
ENDTAB
  0
TABLE
  2
DIMSTYLE
  5
A
330
0
100
AcDbSymbolTable
 70
     1
100
AcDbDimStyleTable
  0
DIMSTYLE
105
27
330
A
100
AcDbSymbolTableRecord
100
AcDbDimStyleTableRecord
  2
Standard
 70
     0
178
     0
340
11
  0
ENDTAB
  0
TABLE
  2
BLOCK_RECORD
  5
1
330
0
100
AcDbSymbolTable
 70
     5
  0
BLOCK_RECORD
  5
1F
330
1
100
AcDbSymbolTableRecord
100
AcDbBlockTableRecord
  2
*Model_Space
340
22
 70
     0
280
     1
281
     0
  0
BLOCK_RECORD
  5
1B
330
1
100
AcDbSymbolTableRecord
100
AcDbBlockTableRecord
  2
*Paper_Space
340
1E
 70
     0
280
     1
281
     0
  0
BLOCK_RECORD
  5
23
330
1
100
AcDbSymbolTableRecord
100
AcDbBlockTableRecord
  2
*Paper_Space0
340
26
 70
     0
280
     1
281
     0
  0
BLOCK_RECORD
  5
6E
330
1
100
AcDbSymbolTableRecord
100
AcDbBlockTableRecord
  2
1_076201_0
340
0
102
{BLKREFS
331
6F
102
}
 70
     0
280
     1
281
     0
  0
BLOCK_RECORD
  5
8F
330
1
100
AcDbSymbolTableRecord
100
AcDbBlockTableRecord
  2
2_076215_0_in_076201_0
340
0
102
{BLKREFS
331
90
102
}
 70
     0
280
     1
281
     0
  0
BLOCK_RECORD
  5
CC
330
1
100
AcDbSymbolTableRecord
100
AcDbBlockTableRecord
  2
3_405016_Inch_0_in_076201_0
340
0
102
{BLKREFS
331
CD
102
}
 70
     0
280
     1
281
     0
  0
BLOCK_RECORD
  5
142
330
1
100
AcDbSymbolTableRecord
100
AcDbBlockTableRecord
  2
4_076201h_0_in_076201_0
340
0
102
{BLKREFS
331
143
102
}
 70
     0
280
     1
281
     0
  0
ENDTAB
  0
ENDSEC
  0
SECTION
  2
BLOCKS
  0
BLOCK
  5
20
330
1F
100
AcDbEntity
  8
0
100
AcDbBlockBegin
  2
*Model_Space
 70
     0
 10
0.0
 20
0.0
 30
0.0
  3
*Model_Space
  1

  0
ENDBLK
  5
21
330
1F
100
AcDbEntity
  8
0
100
AcDbBlockEnd
  0
BLOCK
  5
1C
330
1B
100
AcDbEntity
 67
     1
  8
0
100
AcDbBlockBegin
  2
*Paper_Space
 70
     0
 10
0.0
 20
0.0
 30
0.0
  3
*Paper_Space
  1

  0
ENDBLK
  5
1D
330
1B
100
AcDbEntity
 67
     1
  8
0
100
AcDbBlockEnd
  0
BLOCK
  5
24
330
23
100
AcDbEntity
  8
0
100
AcDbBlockBegin
  2
*Paper_Space0
 70
     0
 10
0.0
 20
0.0
 30
0.0
  3
*Paper_Space0
  1

  0
ENDBLK
  5
25
330
23
100
AcDbEntity
  8
0
100
AcDbBlockEnd
  0
BLOCK
  5
70
330
6E
100
AcDbEntity
  8
0
100
AcDbBlockBegin
  2
1_076201_0
 70
     2
 10
0.0
 20
0.0
 30
0.0
  3
1_076201_0
  1

  0
ATTDEF
  5
73
330
6E
100
AcDbEntity
  8
AM_6
100
AcDbText
 10
10.5405
 20
3.345
 30
0.0
 40
0.5
  1
Set Screw Medium Duty Extreme Duty Wide Slot Take Up Inch Bore
100
AcDbAttributeDefinition
  3

  2
NN
 70
     8
280
     0
  0
ATTDEF
  5
74
330
6E
100
AcDbEntity
  8
AM_6
100
AcDbText
 10
10.5405
 20
2.845
 30
0.0
 40
0.5
  1
SCMED Take-Up Bearings -Wide Slot -(Normal Duty)
100
AcDbAttributeDefinition
  3

  2
NT
 70
     8
280
     0
  0
ATTDEF
  5
75
330
6E
100
AcDbEntity
  8
AM_6
100
AcDbText
 10
10.5405
 20
2.345
 30
0.0
 40
0.5
  1
076201
100
AcDbAttributeDefinition
  3

  2
NB
 70
     8
280
     0
  0
ATTDEF
  5
76
330
6E
100
AcDbEntity
  8
AM_6
100
AcDbText
 10
10.5405
 20
1.845
 30
0.0
 40
0.5
  1
$PN.
100
AcDbAttributeDefinition
  3

  2
NBSYN
 70
     8
280
     0
  0
ATTDEF
  5
77
330
6E
100
AcDbEntity
  8
AM_6
100
AcDbText
 10
10.5405
 20
1.345
 30
0.0
 40
0.5
  1
076201
100
AcDbAttributeDefinition
  3

  2
LINA
 70
     8
280
     0
  0
ATTDEF
  5
78
330
6E
100
AcDbEntity
  8
AM_6
100
AcDbText
 10
10.5405
 20
0.8449999999999998
 30
0.0
 40
0.5
  1
215
100
AcDbAttributeDefinition
  3

  2
SERIES
 70
     8
280
     0
  0
ATTDEF
  5
79
330
6E
100
AcDbEntity
  8
AM_6
100
AcDbText
 10
10.5405
 20
0.3449999999999998
 30
0.0
 40
0.5
  1
2-11/16
100
AcDbAttributeDefinition
  3

  2
SS
 70
     8
280
     0
  0
ATTDEF
  5
7A
330
6E
100
AcDbEntity
  8
AM_6
100
AcDbText
 10
10.5405
 20
-0.1550000000000002
 30
0.0
 40
0.5
  1
076201
100
AcDbAttributeDefinition
  3

  2
PN
 70
     8
280
     0
  0
ATTDEF
  5
7B
330
6E
100
AcDbEntity
  8
AM_6
100
AcDbText
 10
10.5405
 20
-0.6550000000000002
 30
0.0
 40
0.5
  1
WSTU-SCMED-211
100
AcDbAttributeDefinition
  3

  2
DESCRIPTION
 70
     8
280
     0
  0
ATTDEF
  5
7C
330
6E
100
AcDbEntity
  8
AM_6
100
AcDbText
 10
10.5405
 20
-1.155
 30
0.0
 40
0.5
  1
19.0
100
AcDbAttributeDefinition
  3

  2
W
 70
     8
280
     0
  0
ATTDEF
  5
7D
330
6E
100
AcDbEntity
  8
AM_6
100
AcDbText
 10
10.5405
 20
-1.655
 30
0.0
 40
0.5
  1
WS515
100
AcDbAttributeDefinition
  3

  2
FS
 70
     8
280
     0
  0
ATTDEF
  5
7E
330
6E
100
AcDbEntity
  8
AM_6
100
AcDbText
 10
10.5405
 20
-2.155
 30
0.0
 40
0.5
  1
2.33
100
AcDbAttributeDefinition
  3

  2
A
 70
     8
280
     0
  0
ATTDEF
  5
7F
330
6E
100
AcDbEntity
  8
AM_6
100
AcDbText
 10
10.5405
 20
-2.655
 30
0.0
 40
0.5
  1
9.13
100
AcDbAttributeDefinition
  3

  2
B
 70
     8
280
     0
  0
ATTDEF
  5
80
330
6E
100
AcDbEntity
  8
AM_6
100
AcDbText
 10
10.5405
 20
-3.155
 30
0.0
 40
0.5
  1
1.063
100
AcDbAttributeDefinition
  3

  2
C
 70
     8
280
     0
  0
ATTDEF
  5
81
330
6E
100
AcDbEntity
  8
AM_6
100
AcDbText
 10
10.5405
 20
-3.655
 30
0.0
 40
0.5
  1
4.75
100
AcDbAttributeDefinition
  3

  2
D
 70
     8
280
     0
  0
ATTDEF
  5
82
330
6E
100
AcDbEntity
  8
AM_6
100
AcDbText
 10
10.5405
 20
-4.155
 30
0.0
 40
0.5
  1
5.50
100
AcDbAttributeDefinition
  3

  2
E
 70
     8
280
     0
  0
ATTDEF
  5
83
330
6E
100
AcDbEntity
  8
AM_6
100
AcDbText
 10
10.5405
 20
-4.655
 30
0.0
 40
0.5
  1
1-1/2
100
AcDbAttributeDefinition
  3

  2
F
 70
     8
280
     0
  0
ATTDEF
  5
84
330
6E
100
AcDbEntity
  8
AM_6
100
AcDbText
 10
10.5405
 20
-5.155
 30
0.0
 40
0.5
  1
0.81
100
AcDbAttributeDefinition
  3

  2
G
 70
     8
280
     0
  0
ATTDEF
  5
85
330
6E
100
AcDbEntity
  8
AM_6
100
AcDbText
 10
10.5405
 20
-5.655
 30
0.0
 40
0.5
  1
1.25
100
AcDbAttributeDefinition
  3

  2
H
 70
     8
280
     0
  0
ATTDEF
  5
86
330
6E
100
AcDbEntity
  8
AM_6
100
AcDbText
 10
10.5405
 20
-6.155
 30
0.0
 40
0.5
  1
4.38
100
AcDbAttributeDefinition
  3

  2
J
 70
     8
280
     0
  0
ATTDEF
  5
87
330
6E
100
AcDbEntity
  8
AM_6
100
AcDbText
 10
10.5405
 20
-6.655
 30
0.0
 40
0.5
  1
2.75
100
AcDbAttributeDefinition
  3

  2
K
 70
     8
280
     0
  0
ATTDEF
  5
88
330
6E
100
AcDbEntity
  8
AM_6
100
AcDbText
 10
10.5405
 20
-7.155
 30
0.0
 40
0.5
  1
3.62
100
AcDbAttributeDefinition
  3

  2
L
 70
     8
280
     0
  0
ATTDEF
  5
89
330
6E
100
AcDbEntity
  8
AM_6
100
AcDbText
 10
10.5405
 20
-7.655
 30
0.0
 40
0.5
  1
5.923 / 5.953
100
AcDbAttributeDefinition
  3

  2
M
 70
     8
280
     0
  0
ATTDEF
  5
8A
330
6E
100
AcDbEntity
  8
AM_6
100
AcDbText
 10
10.5405
 20
-8.155000000000001
 30
0.0
 40
0.5
  1
6.69
100
AcDbAttributeDefinition
  3

  2
N
 70
     8
280
     0
  0
ATTDEF
  5
8B
330
6E
100
AcDbEntity
  8
AM_6
100
AcDbText
 10
10.5405
 20
-8.655000000000001
 30
0.0
 40
0.5
  1
0.86
100
AcDbAttributeDefinition
  3

  2
R
 70
     8
280
     0
  0
ATTDEF
  5
8C
330
6E
100
AcDbEntity
  8
AM_6
100
AcDbText
 10
10.5405
 20
-9.155000000000001
 30
0.0
 40
0.5
  1
1.47
100
AcDbAttributeDefinition
  3

  2
S
 70
     8
280
     0
  0
ATTDEF
  5
8D
330
6E
100
AcDbEntity
  8
AM_6
100
AcDbText
 10
10.5405
 20
-9.655000000000001
 30
0.0
 40
0.5
  1
2.75
100
AcDbAttributeDefinition
  3

  2
T
 70
     8
280
     0
  0
ATTDEF
  5
8E
330
6E
100
AcDbEntity
  8
AM_6
100
AcDbText
 10
10.5405
 20
-10.155
 30
0.0
 40
0.5
  1
baldor
100
AcDbAttributeDefinition
  3

  2
COMPANY
 70
     8
280
     0
  0
INSERT
  5
90
330
6E
100
AcDbEntity
  8
0
100
AcDbBlockReference
  2
2_076215_0_in_076201_0
 10
0.0
 20
0.0
 30
0.0
  0
INSERT
  5
CD
330
6E
100
AcDbEntity
  8
0
100
AcDbBlockReference
  2
3_405016_Inch_0_in_076201_0
 10
0.0
 20
0.0
 30
0.0
  0
INSERT
  5
143
330
6E
100
AcDbEntity
  8
0
100
AcDbBlockReference
  2
4_076201h_0_in_076201_0
 10
0.0
 20
0.0
 30
0.0
  0
ENDBLK
  5
71
330
6E
100
AcDbEntity
  8
0
100
AcDbBlockEnd
  0
BLOCK
  5
91
330
8F
100
AcDbEntity
  8
0
100
AcDbBlockBegin
  2
2_076215_0_in_076201_0
 70
     2
 10
0.0
 20
0.0
 30
0.0
  3
2_076215_0_in_076201_0
  1

  0
ATTDEF
  5
93
330
8F
100
AcDbEntity
  8
AM_6
100
AcDbText
 10
7.54922751093346
 20
2.54922751093346
 30
0.0
 40
0.5
  1
Set Screw Medium Duty Extreme Duty Insert Inch Bore
100
AcDbAttributeDefinition
  3

  2
NN
 70
     8
280
     0
  0
ATTDEF
  5
94
330
8F
100
AcDbEntity
  8
AM_6
100
AcDbText
 10
7.54922751093346
 20
2.04922751093346
 30
0.0
 40
0.5
  1
SC Medium Duty Bearing Inserts
100
AcDbAttributeDefinition
  3

  2
NT
 70
     8
280
     0
  0
ATTDEF
  5
95
330
8F
100
AcDbEntity
  8
AM_6
100
AcDbText
 10
7.54922751093346
 20
1.54922751093346
 30
0.0
 40
0.5
  1
076215
100
AcDbAttributeDefinition
  3

  2
NB
 70
     8
280
     0
  0
ATTDEF
  5
96
330
8F
100
AcDbEntity
  8
AM_6
100
AcDbText
 10
7.54922751093346
 20
1.04922751093346
 30
0.0
 40
0.5
  1
$PN.
100
AcDbAttributeDefinition
  3

  2
NBSYN
 70
     8
280
     0
  0
ATTDEF
  5
97
330
8F
100
AcDbEntity
  8
AM_6
100
AcDbText
 10
7.54922751093346
 20
0.5492275109334601
 30
0.0
 40
0.5
  1
076215
100
AcDbAttributeDefinition
  3

  2
LINA
 70
     8
280
     0
  0
ATTDEF
  5
98
330
8F
100
AcDbEntity
  8
AM_6
100
AcDbText
 10
7.54922751093346
 20
0.0492275109334601
 30
0.0
 40
0.5
  1
215
100
AcDbAttributeDefinition
  3

  2
SERIES
 70
     8
280
     0
  0
ATTDEF
  5
99
330
8F
100
AcDbEntity
  8
AM_6
100
AcDbText
 10
7.54922751093346
 20
-0.4507724890665399
 30
0.0
 40
0.5
  1
2-11/16
100
AcDbAttributeDefinition
  3

  2
SS
 70
     8
280
     0
  0
ATTDEF
  5
9A
330
8F
100
AcDbEntity
  8
AM_6
100
AcDbText
 10
7.54922751093346
 20
-0.9507724890665399
 30
0.0
 40
0.5
  1
076215
100
AcDbAttributeDefinition
  3

  2
PN
 70
     8
280
     0
  0
ATTDEF
  5
9B
330
8F
100
AcDbEntity
  8
AM_6
100
AcDbText
 10
7.54922751093346
 20
-1.45077248906654
 30
0.0
 40
0.5
  1
INS-SCMED-211
100
AcDbAttributeDefinition
  3

  2
DESCRIPTION
 70
     8
280
     0
  0
ATTDEF
  5
9C
330
8F
100
AcDbEntity
  8
AM_6
100
AcDbText
 10
7.54922751093346
 20
-1.95077248906654
 30
0.0
 40
0.5
  1
4.49
100
AcDbAttributeDefinition
  3

  2
WEIGHT
 70
     8
280
     0
  0
ATTDEF
  5
9D
330
8F
100
AcDbEntity
  8
AM_6
100
AcDbText
 10
7.54922751093346
 20
-2.45077248906654
 30
0.0
 40
0.5
  1
2.33
100
AcDbAttributeDefinition
  3

  2
A
 70
     8
280
     0
  0
ATTDEF
  5
9E
330
8F
100
AcDbEntity
  8
AM_6
100
AcDbText
 10
7.54922751093346
 20
-2.95077248906654
 30
0.0
 40
0.5
  1
1.14
100
AcDbAttributeDefinition
  3

  2
C
 70
     8
280
     0
  0
ATTDEF
  5
9F
330
8F
100
AcDbEntity
  8
AM_6
100
AcDbText
 10
7.54922751093346
 20
-3.45077248906654
 30
0.0
 40
0.5
  1
5.1181
100
AcDbAttributeDefinition
  3

  2
D
 70
     8
280
     0
  0
ATTDEF
  5
A0
330
8F
100
AcDbEntity
  8
AM_6
100
AcDbText
 10
7.54922751093346
 20
-3.95077248906654
 30
0.0
 40
0.5
  1
0.28
100
AcDbAttributeDefinition
  3

  2
J
 70
     8
280
     0
  0
ATTDEF
  5
A1
330
8F
100
AcDbEntity
  8
AM_6
100
AcDbText
 10
7.54922751093346
 20
-4.45077248906654
 30
0.0
 40
0.5
  1
3.62
100
AcDbAttributeDefinition
  3

  2
L
 70
     8
280
     0
  0
ATTDEF
  5
A2
330
8F
100
AcDbEntity
  8
AM_6
100
AcDbText
 10
7.54922751093346
 20
-4.95077248906654
 30
0.0
 40
0.5
  1
3/8 - 24
100
AcDbAttributeDefinition
  3

  2
N
 70
     8
280
     0
  0
ATTDEF
  5
A3
330
8F
100
AcDbEntity
  8
AM_6
100
AcDbText
 10
7.54922751093346
 20
-5.45077248906654
 30
0.0
 40
0.5
  1
0.86
100
AcDbAttributeDefinition
  3

  2
W
 70
     8
280
     0
  0
ATTDEF
  5
A4
330
8F
100
AcDbEntity
  8
AM_6
100
AcDbText
 10
7.54922751093346
 20
-5.95077248906654
 30
0.0
 40
0.5
  1
1.47
100
AcDbAttributeDefinition
  3

  2
Y
 70
     8
280
     0
  0
ATTDEF
  5
A5
330
8F
100
AcDbEntity
  8
AM_6
100
AcDbText
 10
7.54922751093346
 20
-6.45077248906654
 30
0.0
 40
0.5
  1
baldor
100
AcDbAttributeDefinition
  3

  2
COMPANY
 70
     8
280
     0
  0
CIRCLE
  5
A8
330
8F
100
AcDbEntity
  8
AM_9
100
AcDbCircle
 10
0.0
 20
0.0
 30
0.0
 40
2.465716666666666
  0
LINE
  5
A9
330
8F
100
AcDbEntity
  8
AM_9
100
AcDbLine
 10
1.151243023806062
 20
0.7063674556468709
 30
0.0
 11
1.14158248966378
 21
0.7098836025217738
 31
0.0
  0
LINE
  5
AA
330
8F
100
AcDbEntity
  8
AM_9
100
AcDbLine
 10
0.1607245408098405
 20
1.334829762692894
 30
0.0
 11
0.15365
 21
1.341904303502734
 31
0.0
  0
LINE
  5
AB
330
8F
100
AcDbEntity
  8
AM_9
100
AcDbLine
 10
-0.15365
 20
1.341904303502734
 30
0.0
 11
-0.1603798921486465
 21
1.335174411354088
 31
0.0
  0
LINE
  5
AC
330
8F
100
AcDbEntity
  8
AM_9
100
AcDbLine
 10
1.27761487150138
 20
0.4182463521760057
 30
0.0
 11
1.281113615638979
 21
0.4278590726905082
 31
0.0
  0
LINE
  5
AD
330
8F
100
AcDbEntity
  8
AM_9
100
AcDbLine
 10
0.0704052749503978
 20
1.341904303502734
 30
0.0
 11
0.15365
 21
1.341904303502734
 31
0.0
  0
LINE
  5
AE
330
8F
100
AcDbEntity
  8
AM_9
100
AcDbLine
 10
0.15365
 20
1.341904303502734
 30
0.0
 11
0.15365
 21
1.788962133690536
 31
0.0
  0
LINE
  5
AF
330
8F
100
AcDbEntity
  8
AM_9
100
AcDbLine
 10
-0.15365
 20
1.788962133690536
 30
0.0
 11
-0.15365
 21
1.341904303502734
 31
0.0
  0
LINE
  5
B0
330
8F
100
AcDbEntity
  8
AM_9
100
AcDbLine
 10
-0.15365
 20
1.341904303502734
 30
0.0
 11
-0.0704052749503978
 21
1.341904303502734
 31
0.0
  0
LINE
  5
B1
330
8F
100
AcDbEntity
  8
AM_9
100
AcDbLine
 10
1.245932874639433
 20
0.503304415232688
 30
0.0
 11
1.281113615638979
 21
0.4278590726905084
 31
0.0
  0
LINE
  5
B2
330
8F
100
AcDbEntity
  8
AM_9
100
AcDbLine
 10
1.281113615638979
 20
0.4278590726905084
 30
0.0
 11
1.686285608393892
 21
0.6167938757820459
 31
0.0
  0
LINE
  5
B3
330
8F
100
AcDbEntity
  8
AM_9
100
AcDbLine
 10
1.556415016560975
 20
0.8953022587384083
 30
0.0
 11
1.151243023806062
 21
0.7063674556468709
 31
0.0
  0
LINE
  5
B4
330
8F
100
AcDbEntity
  8
AM_9
100
AcDbLine
 10
1.151243023806062
 20
0.7063674556468709
 30
0.0
 11
1.186423764805607
 21
0.6309221131046917
 31
0.0
  0
LINE
  5
B5
330
8F
100
AcDbEntity
  8
AM_9
100
AcDbLine
 10
1.556415016560975
 20
0.8953022587384083
 30
0.0
 11
1.686285608393892
 21
0.6167938757820459
 31
0.0
  0
LINE
  5
B6
330
8F
100
AcDbEntity
  8
AM_9
100
AcDbLine
 10
1.686285608393892
 20
0.6167938757820459
 30
0.0
 11
1.7026798160733
 21
0.6108268721723628
 31
0.0
  0
LINE
  5
B7
330
8F
100
AcDbEntity
  8
AM_9
100
AcDbLine
 10
1.562852684877667
 20
0.9129896070724592
 30
0.0
 11
1.556415016560975
 21
0.8953022587384083
 31
0.0
  0
LINE
  5
B8
330
8F
100
AcDbEntity
  8
AM_9
100
AcDbLine
 10
-0.15365
 20
1.788962133690536
 30
0.0
 11
0.15365
 21
1.788962133690536
 31
0.0
  0
LINE
  5
B9
330
8F
100
AcDbEntity
  8
AM_9
100
AcDbLine
 10
0.15365
 20
1.788962133690536
 30
0.0
 11
0.1660363016193476
 21
1.801348435309883
 31
0.0
  0
LINE
  5
BA
330
8F
100
AcDbEntity
  8
AM_9
100
AcDbLine
 10
-0.16588642059051
 20
1.801198554281046
 30
0.0
 11
-0.15365
 21
1.788962133690536
 31
0.0
  0
LINE
  5
BC
330
8F
100
AcDbEntity
  8
AM_5
100
AcDbLine
 10
-0.1875
 20
1.330604303502736
 30
0.0
 11
-0.1875
 21
1.800262133690536
 31
0.0
  0
LINE
  5
BD
330
8F
100
AcDbEntity
  8
AM_5
100
AcDbLine
 10
0.1875
 20
1.330604303502736
 30
0.0
 11
0.1875
 21
1.800262133690536
 31
0.0
  0
LINE
  5
BE
330
8F
100
AcDbEntity
  8
AM_5
100
AcDbLine
 10
1.126696117652626
 20
0.7322703878803921
 30
0.0
 11
1.552350666394566
 21
0.9307563636872687
 31
0.0
  0
LINE
  5
BF
330
8F
100
AcDbEntity
  8
AM_5
100
AcDbLine
 10
1.285177965805389
 20
0.3924049677416483
 30
0.0
 11
1.710832514547328
 21
0.5908909435485249
 31
0.0
  0
LINE
  5
C2
330
8F
100
AcDbEntity
  8
AM_7
100
AcDbLine
 10
1.09057654509543
 20
0.5085441947822191
 30
0.0
 11
1.746952087104523
 21
0.8146171366466974
 31
0.0
  0
CIRCLE
  5
C4
330
8F
100
AcDbEntity
  8
AM_4
100
AcDbCircle
 10
0.0
 20
0.0
 30
0.0
 40
2.54922751093346
  0
CIRCLE
  5
C5
330
8F
100
AcDbEntity
  8
AM_4
100
AcDbCircle
 10
0.0
 20
0.0
 30
0.0
 40
2.536895918736124
  0
CIRCLE
  5
C6
330
8F
100
AcDbEntity
  8
AM_4
100
AcDbCircle
 10
0.0
 20
0.0
 30
0.0
 40
2.449706778881913
  0
CIRCLE
  5
C7
330
8F
100
AcDbEntity
  8
AM_4
100
AcDbCircle
 10
0.0
 20
0.0
 30
0.0
 40
2.504513346716111
  0
CIRCLE
  5
C8
330
8F
100
AcDbEntity
  8
AM_4
100
AcDbCircle
 10
0.0
 20
0.0
 30
0.0
 40
1.34375
  0
CIRCLE
  5
C9
330
8F
100
AcDbEntity
  8
AM_4
100
AcDbCircle
 10
0.0
 20
0.0
 30
0.0
 40
1.81
  0
CIRCLE
  5
CA
330
8F
100
AcDbEntity
  8
AM_4
100
AcDbCircle
 10
0.0
 20
0.0
 30
0.0
 40
1.41615
  0
CIRCLE
  5
CB
330
8F
100
AcDbEntity
  8
AM_4
100
AcDbCircle
 10
0.0
 20
0.0
 30
0.0
 40
1.7376
  0
ENDBLK
  5
92
330
8F
100
AcDbEntity
  8
0
100
AcDbBlockEnd
  0
BLOCK
  5
CE
330
CC
100
AcDbEntity
  8
0
100
AcDbBlockBegin
  2
3_405016_Inch_0_in_076201_0
 70
     2
 10
0.0
 20
0.0
 30
0.0
  3
3_405016_Inch_0_in_076201_0
  1

  0
ATTDEF
  5
D0
330
CC
100
AcDbEntity
  8
AM_6
100
AcDbText
 10
2.040000163900502
 20
-1.606925698355159
 30
0.0
 40
0.5
  1
405016 -Inch
100
AcDbAttributeDefinition
  3

  2
NN
 70
     8
280
     0
  0
ATTDEF
  5
D1
330
CC
100
AcDbEntity
  8
AM_6
100
AcDbText
 10
2.040000163900502
 20
-2.106925698355159
 30
0.0
 40
0.5
  1
Grease Fitting
100
AcDbAttributeDefinition
  3

  2
NT
 70
     8
280
     0
  0
ATTDEF
  5
D2
330
CC
100
AcDbEntity
  8
AM_6
100
AcDbText
 10
2.040000163900502
 20
-2.606925698355159
 30
0.0
 40
0.5
  1
405016-Inch
100
AcDbAttributeDefinition
  3

  2
NB
 70
     8
280
     0
  0
ATTDEF
  5
D3
330
CC
100
AcDbEntity
  8
AM_6
100
AcDbText
 10
2.040000163900502
 20
-3.106925698355159
 30
0.0
 40
0.5
  1
$MN.-Inch
100
AcDbAttributeDefinition
  3

  2
NBSYN
 70
     8
280
     0
  0
ATTDEF
  5
D4
330
CC
100
AcDbEntity
  8
AM_6
100
AcDbText
 10
2.040000163900502
 20
-3.606925698355159
 30
0.0
 40
0.5
  1
405016
100
AcDbAttributeDefinition
  3

  2
LINA
 70
     8
280
     0
  0
ATTDEF
  5
D5
330
CC
100
AcDbEntity
  8
AM_6
100
AcDbText
 10
2.040000163900502
 20
-4.106925698355159
 30
0.0
 40
0.5
  1
405016
100
AcDbAttributeDefinition
  3

  2
MN
 70
     8
280
     0
  0
ATTDEF
  5
D6
330
CC
100
AcDbEntity
  8
AM_6
100
AcDbText
 10
2.040000163900502
 20
-4.606925698355159
 30
0.0
 40
0.5
  1
7/16 HEX
100
AcDbAttributeDefinition
  3

  2
H
 70
     8
280
     0
  0
ATTDEF
  5
D7
330
CC
100
AcDbEntity
  8
AM_6
100
AcDbText
 10
2.040000163900502
 20
-5.106925698355159
 30
0.0
 40
0.5
  1
0.383
100
AcDbAttributeDefinition
  3

  2
NDR
 70
     8
280
     0
  0
ATTDEF
  5
D8
330
CC
100
AcDbEntity
  8
AM_6
100
AcDbText
 10
2.040000163900502
 20
-5.606925698355159
 30
0.0
 40
0.5
  1
0.337
100
AcDbAttributeDefinition
  3

  2
KDR
 70
     8
280
     0
  0
ATTDEF
  5
D9
330
CC
100
AcDbEntity
  8
AM_6
100
AcDbText
 10
2.040000163900502
 20
-6.106925698355159
 30
0.0
 40
0.5
  1
0.1575
100
AcDbAttributeDefinition
  3

  2
BZE
 70
     8
280
     0
  0
ATTDEF
  5
DA
330
CC
100
AcDbEntity
  8
AM_6
100
AcDbText
 10
2.040000163900502
 20
-6.606925698355159
 30
0.0
 40
0.5
  1
0.4375
100
AcDbAttributeDefinition
  3

  2
HEX
 70
     8
280
     0
  0
ATTDEF
  5
DB
330
CC
100
AcDbEntity
  8
AM_6
100
AcDbText
 10
2.040000163900502
 20
-7.106925698355159
 30
0.0
 40
0.5
  1
0.281250
100
AcDbAttributeDefinition
  3

  2
HEX2
 70
     8
280
     0
  0
ATTDEF
  5
DC
330
CC
100
AcDbEntity
  8
AM_6
100
AcDbText
 10
2.040000163900502
 20
-7.606925698355159
 30
0.0
 40
0.5
  1
baldor
100
AcDbAttributeDefinition
  3

  2
COMPANY
 70
     8
280
     0
  0
LINE
  5
DD
330
CC
100
AcDbEntity
  8
AM_9
100
AcDbLine
 10
-2.959999836099499
 20
-1.89562989348012
 30
0.0
 11
-3.121663561976723
 21
-1.615620106519881
 31
0.0
  0
LINE
  5
DE
330
CC
100
AcDbEntity
  8
AM_9
100
AcDbLine
 10
-3.121663561976723
 20
-1.615620106519881
 30
0.0
 11
-3.154111534989207
 21
-1.606925698355159
 31
0.0
  0
LINE
  5
DF
330
CC
100
AcDbEntity
  8
AM_9
100
AcDbLine
 10
-2.968694244264221
 20
-1.928077866492604
 30
0.0
 11
-2.959999836099499
 21
-1.89562989348012
 31
0.0
  0
ARC
  5
E0
330
CC
100
AcDbEntity
  8
AM_9
100
AcDbCircle
 10
-3.511733012346022
 20
-2.027500000000071
 30
0.0
 40
0.1999999999998979
100
AcDbArc
 50
165.7984073005882
 51
254.2015226991637
  0
LINE
  5
E1
330
CC
100
AcDbEntity
  8
AM_9
100
AcDbLine
 10
-2.968694244264221
 20
-1.928077866492604
 30
0.0
 11
-3.154111534989207
 21
-1.606925698355159
 31
0.0
  0
LINE
  5
E2
330
CC
100
AcDbEntity
  8
AM_9
100
AcDbLine
 10
-3.154111534989207
 20
-1.606925698355159
 30
0.0
 11
-3.326030373041072
 21
-1.699146406375599
 31
0.0
  0
LINE
  5
E3
330
CC
100
AcDbEntity
  8
AM_9
100
AcDbLine
 10
-3.134519139190842
 20
-2.030853593624401
 30
0.0
 11
-2.968694244264221
 21
-1.928077866492604
 31
0.0
  0
LINE
  5
E4
330
CC
100
AcDbEntity
  8
AM_9
100
AcDbLine
 10
-3.738332535534831
 20
-2.06457729571137
 30
0.0
 11
-3.749654108758708
 21
-2.071113809059826
 31
0.0
  0
LINE
  5
E5
330
CC
100
AcDbEntity
  8
AM_9
100
AcDbLine
 10
-3.65714265393004
 20
-2.205202295711371
 30
0.0
 11
-3.668464227153917
 21
-2.211738809059826
 31
0.0
  0
LWPOLYLINE
  5
E6
330
CC
100
AcDbEntity
  8
AM_9
100
AcDbPolyline
 90
        4
 70
     0
 43
0.0
 10
-3.738332535534831
 20
-2.06457729571137
 10
-3.70566208089217
 20
-2.113367212109332
 10
-3.675689499713735
 20
-2.166595324422914
 10
-3.65714265393004
 20
-2.205202295711371
  0
LINE
  5
E7
330
CC
100
AcDbEntity
  8
AM_9
100
AcDbLine
 10
-3.457019525109391
 20
-2.122266539752903
 30
0.0
 11
-3.567080259312891
 21
-1.93163575619411
 31
0.0
  0
ELLIPSE
  5
E8
330
CC
100
AcDbEntity
  8
AM_9
100
AcDbEllipse
 10
-3.582349147841197
 20
-2.068270244837341
 30
0.0
 11
-0.07031250000000003
 21
0.1217848224071867
 31
0.0
210
0.0
220
0.0
230
1.0
 40
0.9063077870366496
 41
5.859216366485138
 42
9.848746901463826
  0
LWPOLYLINE
  5
E9
330
CC
100
AcDbEntity
  8
AM_9
100
AcDbPolyline
 90
        4
 70
     0
 43
0.0
 10
-3.668347571101125
 20
-1.930421457656344
 10
-3.690000534292664
 20
-1.976456884363538
 10
-3.716610435059164
 20
-2.026768689712644
 10
-3.738332535534831
 20
-2.06457729571137
  0
LWPOLYLINE
  5
EA
330
CC
100
AcDbEntity
  8
AM_9
100
AcDbPolyline
 90
        4
 70
     0
 43
0.0
 10
-3.65714265393004
 20
-2.205202295711371
 10
-3.599064277716385
 20
-2.205585121917566
 10
-3.542587065555886
 20
-2.208363121169831
 10
-3.505967807891543
 20
-2.211671457656344
  0
LWPOLYLINE
  5
EB
330
CC
100
AcDbEntity
  8
AM_9
100
AcDbPolyline
 90
        3
 70
     0
 43
0.0
 10
-3.46716391216194
 20
-2.104695945966246
 10
-3.485887450672314
 20
-2.13435797563067
 10
-3.509006372187393
 20
-2.152942786561161
  0
LWPOLYLINE
  5
EC
330
CC
100
AcDbEntity
  8
AM_9
100
AcDbPolyline
 90
        8
 70
     0
 43
0.0
 10
-3.46716391216194
 20
-2.104695945966246
 10
-3.462209251689871
 20
-2.088701216295605
 10
-3.460581138941014
 20
-2.055877825105296
 10
-3.469815039136435
 20
-2.020957633207593
 10
-3.489039727432931
 20
-1.989477046299116
 10
-3.515861479512905
 20
-1.965495849846332
 10
-3.548467863160694
 20
-1.951703487144152
 10
-3.55630211252986
 20
-1.950304054033754
  0
LINE
  5
ED
330
CC
100
AcDbEntity
  8
AM_9
100
AcDbLine
 10
-3.618931847174106
 20
-1.962374216923162
 30
0.0
 11
-3.637349147841197
 21
-1.973007450421053
 31
0.0
  0
LINE
  5
EE
330
CC
100
AcDbEntity
  8
AM_9
100
AcDbLine
 10
-3.527349147841196
 20
-2.163533039253629
 30
0.0
 11
-3.508931831248007
 21
-2.152899796560801
 31
0.0
  0
LWPOLYLINE
  5
EF
330
CC
100
AcDbEntity
  8
AM_9
100
AcDbPolyline
 90
       12
 70
     0
 43
0.0
 10
-3.509006372187393
 20
-2.152942786561161
 10
-3.513420925340598
 20
-2.155334802540261
 10
-3.546683771969197
 20
-2.165261709638181
 10
-3.581896960683731
 20
-2.162990967168628
 10
-3.61504346608451
 20
-2.148797239076489
 10
-3.642374869810091
 20
-2.124336212655024
 10
-3.660844772786489
 20
-2.092408286749774
 10
-3.668421350421478
 20
-2.056607393511457
 10
-3.664272062655228
 20
-2.020922481606625
 10
-3.648836916324844
 20
-1.989328872764631
 10
-3.623799576022083
 20
-1.965381372029879
 10
-3.619009671573741
 20
-1.96241919924803
  0
LWPOLYLINE
  5
F0
330
CC
100
AcDbEntity
  8
AM_9
100
AcDbPolyline
 90
        3
 70
     0
 43
0.0
 10
-3.619009671573741
 20
-1.96241919924803
 10
-3.591944663462941
 20
-1.951820477436415
 10
-3.556302112529842
 20
-1.950304054033761
  0
ELLIPSE
  5
F1
330
CC
100
AcDbEntity
  8
AM_9
100
AcDbEllipse
 10
-3.582349147841201
 20
-2.068270244837341
 30
0.0
 11
-0.07031250000000175
 21
0.1217848224071911
 31
0.0
210
0.0
220
0.0
230
1.0
 40
0.9063077870366472
 41
3.764821264091969
 42
4.571432719802699
  0
ELLIPSE
  5
F2
330
CC
100
AcDbEntity
  8
AM_9
100
AcDbEllipse
 10
-3.582349147841198
 20
-2.068270244837344
 30
0.0
 11
-0.0703125000000169
 21
0.1217848224071805
 31
0.0
210
0.0
220
0.0
230
1.0
 40
0.9063077870366919
 41
4.8533452409666
 42
5.659956696677316
  0
LWPOLYLINE
  5
F3
330
CC
100
AcDbEntity
  8
AM_9
100
AcDbPolyline
 90
        3
 70
     0
 43
0.0
 10
-3.668464227153917
 20
-2.211738809059826
 10
-3.711222702582536
 20
-2.144312409178915
 10
-3.749654108758708
 20
-2.071113809059826
  0
LWPOLYLINE
  5
F4
330
CC
100
AcDbEntity
  8
AM_9
100
AcDbPolyline
 90
        3
 70
     0
 43
0.0
 10
-3.565284701531796
 20
-2.217800197442696
 10
-3.594631389510435
 20
-2.216802555641743
 10
-3.668464227153917
 20
-2.211738809059826
  0
LWPOLYLINE
  5
F5
330
CC
100
AcDbEntity
  8
AM_9
100
AcDbPolyline
 90
        3
 70
     0
 43
0.0
 10
-3.749654108758708
 20
-2.071113809059826
 10
-3.718347718472958
 20
-2.006997724328328
 10
-3.70371372404063
 20
-1.979462164644253
  0
ELLIPSE
  5
F6
330
CC
100
AcDbEntity
  8
AM_9
100
AcDbEllipse
 10
-3.600649055379729
 20
-2.078835701380858
 30
0.0
 11
-0.07031250000000001
 21
0.1217848224071869
 31
0.0
210
0.0
220
0.0
230
1.0
 40
0.9063077870366526
 41
0.2238150991449457
 42
2.915894013336034
  0
LWPOLYLINE
  5
F7
330
CC
100
AcDbEntity
  8
AM_9
100
AcDbPolyline
 90
       15
 70
     0
 43
0.0
 10
-3.539392788189282
 20
-2.088280012814439
 10
-3.53819471792747
 20
-2.095434028549307
 10
-3.537321718727589
 20
-2.115540985049415
 10
-3.540090144307331
 20
-2.1344844020305
 10
-3.546212650859308
 20
-2.151563902902023
 10
-3.555385941404018
 20
-2.16629242619823
 10
-3.567462757032136
 20
-2.178342412676892
 10
-3.582530433631668
 20
-2.18731609365243
 10
-3.600487993247088
 20
-2.192437646566428
 10
-3.617638205431825
 20
-2.193085768750886
 10
-3.63702130439059
 20
-2.189495150867636
 10
-3.655772831218802
 20
-2.181660952254693
 10
-3.673132487813335
 20
-2.169995544789171
 10
-3.688389100828925
 20
-2.155011836540226
 10
-3.701172414185384
 20
-2.136872889647148
  0
LWPOLYLINE
  5
F8
330
CC
100
AcDbEntity
  8
AM_9
100
AcDbPolyline
 90
       15
 70
     0
 43
0.0
 10
-3.701172414185384
 20
-2.136872889647148
 10
-3.705502732456748
 20
-2.12867578451407
 10
-3.713031699851298
 20
-2.108730896520097
 10
-3.716825712346504
 20
-2.088313555002477
 10
-3.716850803772248
 20
-2.068399906405843
 10
-3.713290769746026
 20
-2.049826505900415
 10
-3.706450125201003
 20
-2.033246807655449
 10
-3.696612055872431
 20
-2.019101661467815
 10
-3.683867996764218
 20
-2.007707094847503
 10
-3.668107710005742
 20
-1.999526268337529
 10
-3.649686191799839
 20
-1.995424000146682
 10
-3.632420322722314
 20
-1.995723288257336
 10
-3.613126302543434
 20
-2.000308043364575
 10
-3.594628920936504
 20
-2.00905025005318
 10
-3.579482721633131
 20
-2.019953395153527
  0
ELLIPSE
  5
F9
330
CC
100
AcDbEntity
  8
AM_9
100
AcDbEllipse
 10
-3.651649958643715
 20
-2.108281086609234
 30
0.0
 11
0.06659694825923297
 21
-0.1153492980140274
 31
0.0
210
0.0
220
0.0
230
1.0
 40
0.9063077870366507
 41
0.0
 42
6.283185307179586
  0
LINE
  5
FA
330
CC
100
AcDbEntity
  8
AM_5
100
AcDbLine
 10
-3.110191047970416
 20
-1.988716103579453
 30
0.0
 11
-2.959999836099498
 21
-1.895629893480119
 31
0.0
  0
LINE
  5
FB
330
CC
100
AcDbEntity
  8
AM_5
100
AcDbLine
 10
-3.134519139190842
 20
-2.030853593624401
 30
0.0
 11
-3.110191047970416
 21
-1.988716103579453
 31
0.0
  0
LINE
  5
FC
330
CC
100
AcDbEntity
  8
AM_5
100
AcDbLine
 10
-3.098685433545303
 20
-2.008644412336045
 30
0.0
 11
-3.288879805025331
 21
-1.679218097619008
 31
0.0
  0
LINE
  5
FD
330
CC
100
AcDbEntity
  8
AM_5
100
AcDbLine
 10
-3.27737419060022
 20
-1.699146406375599
 30
0.0
 11
-3.121663561976721
 21
-1.61562010651988
 31
0.0
  0
LINE
  5
FE
330
CC
100
AcDbEntity
  8
AM_5
100
AcDbLine
 10
-3.326030373041071
 20
-1.699146406375599
 30
0.0
 11
-3.27737419060022
 21
-1.699146406375599
 31
0.0
  0
ELLIPSE
  5
FF
330
CC
100
AcDbEntity
  8
AM_9
100
AcDbEllipse
 10
-3.582349147841196
 20
-2.068270244837341
 30
0.0
 11
-0.05500000000000059
 21
0.09526279441628827
 31
0.0
210
0.0
220
0.0
230
1.0
 40
0.9063077870366504
 41
0.0
 42
6.283185307179586
  0
LINE
  5
100
330
CC
100
AcDbEntity
  8
AM_7
100
AcDbLine
 10
-3.721733012345897
 20
-2.027500000000002
 30
0.0
 11
-3.3017330123459
 21
-2.027500000000002
 31
0.0
  0
LINE
  5
101
330
CC
100
AcDbEntity
  8
AM_7
100
AcDbLine
 10
-3.511733012345899
 20
-2.2375
 30
0.0
 11
-3.511733012345899
 21
-1.817500000000003
 31
0.0
  0
LINE
  5
102
330
CC
100
AcDbEntity
  8
AM_4
100
AcDbLine
 10
-3.27516053116506
 20
-2.143505557077846
 30
0.0
 11
-3.49391053116506
 21
-1.764619442922154
 31
0.0
  0
LINE
  5
103
330
CC
100
AcDbEntity
  8
AM_4
100
AcDbLine
 10
-3.502978130861674
 20
-1.730778700151693
 30
0.0
 11
-3.49391053116506
 21
-1.764619442922154
 31
0.0
  0
LINE
  5
104
330
CC
100
AcDbEntity
  8
AM_4
100
AcDbLine
 10
-3.27516053116506
 20
-2.143505557077846
 30
0.0
 11
-3.250387388091213
 21
-2.168278700151693
 31
0.0
  0
LINE
  5
105
330
CC
100
AcDbEntity
  8
AM_4
100
AcDbLine
 10
-3.188557990786616
 20
-2.093505557077846
 30
0.0
 11
-3.407307990786616
 21
-1.714619442922154
 31
0.0
  0
LINE
  5
106
330
CC
100
AcDbEntity
  8
AM_4
100
AcDbLine
 10
-3.407307990786616
 20
-1.714619442922154
 30
0.0
 11
-3.432081133860463
 21
-1.689846299848307
 31
0.0
  0
LINE
  5
107
330
CC
100
AcDbEntity
  8
AM_4
100
AcDbLine
 10
-3.179490391090002
 20
-2.127346299848307
 30
0.0
 11
-3.188557990786616
 21
-2.093505557077846
 31
0.0
  0
ARC
  5
108
330
CC
100
AcDbEntity
  8
AM_4
100
AcDbCircle
 10
-3.511733012345899
 20
-2.027500000000002
 30
0.0
 40
0.1999999999999986
100
AcDbArc
 50
254.201522699135
 51
300.0
  0
ARC
  5
109
330
CC
100
AcDbEntity
  8
AM_4
100
AcDbCircle
 10
-3.511733012345899
 20
-2.027499999999999
 30
0.0
 40
0.1999999999999994
100
AcDbArc
 50
120.0000000000001
 51
165.7984073006168
  0
LINE
  5
10A
330
CC
100
AcDbEntity
  8
AM_4
100
AcDbLine
 10
-3.330274756115957
 20
-1.691794919243113
 30
0.0
 11
-3.397932990786616
 21
-1.730857419243112
 31
0.0
  0
LINE
  5
10B
330
CC
100
AcDbEntity
  8
AM_4
100
AcDbLine
 10
-3.197932990786616
 20
-2.077267580756888
 30
0.0
 11
-3.130274756115957
 21
-2.038205080756888
 31
0.0
  0
LINE
  5
10C
330
CC
100
AcDbEntity
  8
AM_4
100
AcDbLine
 10
-3.567080259312891
 20
-1.93163575619411
 30
0.0
 11
-3.611733012345899
 21
-1.854294919243112
 31
0.0
  0
LINE
  5
10D
330
CC
100
AcDbEntity
  8
AM_4
100
AcDbLine
 10
-3.48453553116506
 20
-1.780857419243112
 30
0.0
 11
-3.611733012345899
 21
-1.854294919243112
 31
0.0
  0
LINE
  5
10E
330
CC
100
AcDbEntity
  8
AM_4
100
AcDbLine
 10
-3.411733012345899
 20
-2.200705080756888
 30
0.0
 11
-3.28453553116506
 21
-2.127267580756888
 31
0.0
  0
LINE
  5
10F
330
CC
100
AcDbEntity
  8
AM_4
100
AcDbLine
 10
-3.411733012345899
 20
-2.200705080756888
 30
0.0
 11
-3.457019525109391
 21
-2.122266539752903
 31
0.0
  0
LINE
  5
110
330
CC
100
AcDbEntity
  8
AM_4
100
AcDbLine
 10
-3.313535073783829
 20
-2.058903700151693
 30
0.0
 11
-3.38453553116506
 21
-1.9540625
 31
0.0
  0
LINE
  5
111
330
CC
100
AcDbEntity
  8
AM_4
100
AcDbLine
 10
-3.313535073783829
 20
-2.058903700151693
 30
0.0
 11
-3.242638076782617
 21
-2.017971299848307
 31
0.0
  0
LINE
  5
112
330
CC
100
AcDbEntity
  8
AM_4
100
AcDbLine
 10
-3.289814002626137
 20
-2.118125
 30
0.0
 11
-3.313535073783829
 21
-2.058903700151693
 31
0.0
  0
LINE
  5
113
330
CC
100
AcDbEntity
  8
AM_4
100
AcDbLine
 10
-3.250387388091213
 20
-2.168278700151693
 30
0.0
 11
-3.289814002626137
 21
-2.118125
 31
0.0
  0
LINE
  5
114
330
CC
100
AcDbEntity
  8
AM_4
100
AcDbLine
 10
-3.250387388091213
 20
-2.168278700151693
 30
0.0
 11
-3.179490391090002
 21
-2.127346299848307
 31
0.0
  0
LINE
  5
115
330
CC
100
AcDbEntity
  8
AM_4
100
AcDbLine
 10
-3.203211462247693
 20
-2.068125
 30
0.0
 11
-3.179490391090002
 21
-2.127346299848307
 31
0.0
  0
LWPOLYLINE
  5
116
330
CC
100
AcDbEntity
  8
AM_4
100
AcDbPolyline
 90
        3
 70
     0
 43
0.0
 10
-3.368933448167847
 20
-1.799221299848307
 10
-3.351080715356993
 20
-1.822972765773117
 10
-3.297932990786616
 20
-1.9040625
  0
LINE
  5
117
330
CC
100
AcDbEntity
  8
AM_4
100
AcDbLine
 10
-3.502978130861674
 20
-1.730778700151693
 30
0.0
 11
-3.432081133860463
 21
-1.689846299848307
 31
0.0
  0
LINE
  5
118
330
CC
100
AcDbEntity
  8
AM_4
100
AcDbLine
 10
-3.479257059703983
 20
-1.79
 30
0.0
 11
-3.502978130861674
 21
-1.730778700151693
 31
0.0
  0
LINE
  5
119
330
CC
100
AcDbEntity
  8
AM_4
100
AcDbLine
 10
-3.439830445169059
 20
-1.840153700151693
 30
0.0
 11
-3.368933448167847
 21
-1.799221299848307
 31
0.0
  0
LINE
  5
11A
330
CC
100
AcDbEntity
  8
AM_4
100
AcDbLine
 10
-3.392654519325539
 20
-1.74
 30
0.0
 11
-3.368933448167847
 21
-1.799221299848307
 31
0.0
  0
LINE
  5
11B
330
CC
100
AcDbEntity
  8
AM_4
100
AcDbLine
 10
-3.432081133860463
 20
-1.689846299848307
 30
0.0
 11
-3.392654519325539
 21
-1.74
 31
0.0
  0
LINE
  5
11C
330
CC
100
AcDbEntity
  8
AM_4
100
AcDbLine
 10
-3.297932990786616
 20
-1.9040625
 30
0.0
 11
-3.242638076782617
 21
-2.017971299848307
 31
0.0
  0
LINE
  5
11D
330
CC
100
AcDbEntity
  8
AM_4
100
AcDbLine
 10
-3.242638076782617
 20
-2.017971299848307
 30
0.0
 11
-3.203211462247693
 21
-2.068125
 31
0.0
  0
LWPOLYLINE
  5
11E
330
CC
100
AcDbEntity
  8
AM_4
100
AcDbPolyline
 90
        3
 70
     0
 43
0.0
 10
-3.38453553116506
 20
-1.9540625
 10
-3.42818743870648
 20
-1.867490353255274
 10
-3.439830445169059
 20
-1.840153700151693
  0
LINE
  5
11F
330
CC
100
AcDbEntity
  8
AM_4
100
AcDbLine
 10
-3.439830445169059
 20
-1.840153700151693
 30
0.0
 11
-3.479257059703983
 21
-1.79
 31
0.0
  0
LINE
  5
120
330
CC
100
AcDbEntity
  8
AM_4
100
AcDbLine
 10
-3.517655054111088
 20
-2.218419092407284
 30
0.0
 11
-3.565284701531796
 21
-2.217800197442696
 31
0.0
  0
LINE
  5
121
330
CC
100
AcDbEntity
  8
AM_4
100
AcDbLine
 10
-3.70371372404063
 20
-1.979462164644253
 30
0.0
 11
-3.68003481732067
 21
-1.937169092407284
 31
0.0
  0
LINE
  5
122
330
CC
100
AcDbEntity
  8
AM_4
100
AcDbLine
 10
-3.505967807891543
 20
-2.211671457656344
 30
0.0
 11
-3.472855868373837
 21
-2.153057477599441
 31
0.0
  0
LINE
  5
123
330
CC
100
AcDbEntity
  8
AM_4
100
AcDbLine
 10
-3.472855868373837
 20
-2.153057477599441
 30
0.0
 11
-3.460834338192029
 21
-2.129965725501072
 31
0.0
  0
LWPOLYLINE
  5
124
330
CC
100
AcDbEntity
  8
AM_4
100
AcDbPolyline
 90
        3
 70
     0
 43
0.0
 10
-3.460834338192029
 20
-2.129965725501072
 10
-3.451669351615472
 20
-2.111421611213502
 10
-3.435981310158474
 20
-2.077514734350518
  0
LINE
  5
125
330
CC
100
AcDbEntity
  8
AM_4
100
AcDbLine
 10
-3.49115577591237
 20
-2.163622934142958
 30
0.0
 11
-3.517655054111088
 21
-2.218419092407284
 31
0.0
  0
LINE
  5
126
330
CC
100
AcDbEntity
  8
AM_4
100
AcDbLine
 10
-3.505967807891543
 20
-2.211671457656344
 30
0.0
 11
-3.517655054111088
 21
-2.218419092407284
 31
0.0
  0
LINE
  5
127
330
CC
100
AcDbEntity
  8
AM_4
100
AcDbLine
 10
-3.517171191763266
 20
-1.936889734350518
 30
0.0
 11
-3.575021596570096
 21
-1.932187592413267
 31
0.0
  0
LINE
  5
128
330
CC
100
AcDbEntity
  8
AM_4
100
AcDbLine
 10
-3.575021596570096
 20
-1.932187592413267
 30
0.0
 11
-3.60103040559608
 21
-1.931052666893889
 31
0.0
  0
LWPOLYLINE
  5
129
330
CC
100
AcDbEntity
  8
AM_4
100
AcDbPolyline
 90
        3
 70
     0
 43
0.0
 10
-3.60103040559608
 20
-1.931052666893889
 10
-3.62402044028832
 20
-1.930510369847584
 10
-3.668347571101125
 20
-1.930421457656344
  0
LINE
  5
12A
330
CC
100
AcDbEntity
  8
AM_4
100
AcDbLine
 10
-3.668347571101125
 20
-1.930421457656344
 30
0.0
 11
-3.68003481732067
 21
-1.937169092407284
 31
0.0
  0
LINE
  5
12B
330
CC
100
AcDbEntity
  8
AM_4
100
AcDbLine
 10
-3.68003481732067
 20
-1.937169092407284
 30
0.0
 11
-3.619330313134612
 21
-1.941618123437406
 31
0.0
  0
LINE
  5
12C
330
CC
100
AcDbEntity
  8
AM_4
100
AcDbLine
 10
-3.448036959469452
 20
-2.084475066725467
 30
0.0
 11
-3.479134245730564
 21
-2.14053118204459
 31
0.0
  0
LINE
  5
12D
330
CC
100
AcDbEntity
  8
AM_4
100
AcDbLine
 10
-3.593321504108629
 20
-1.942753048956784
 30
0.0
 11
-3.529226841074244
 21
-1.943850066725467
 31
0.0
  0
LINE
  5
12E
330
CC
100
AcDbEntity
  8
AM_4
100
AcDbLine
 10
-3.435981310158474
 20
-2.077514734350518
 30
0.0
 11
-3.463191098122326
 21
-2.022287038418517
 31
0.0
  0
LINE
  5
12F
330
CC
100
AcDbEntity
  8
AM_4
100
AcDbLine
 10
-3.463191098122326
 20
-2.022287038418517
 30
0.0
 11
-3.482947498075594
 21
-1.988067949924796
 31
0.0
  0
LWPOLYLINE
  5
130
330
CC
100
AcDbEntity
  8
AM_4
100
AcDbPolyline
 90
        3
 70
     0
 43
0.0
 10
-3.482947498075594
 20
-1.988067949924796
 10
-3.492196133489488
 20
-1.973411273052601
 10
-3.517171191763266
 20
-1.936889734350518
  0
LINE
  5
131
330
CC
100
AcDbEntity
  8
AM_4
100
AcDbLine
 10
-3.517171191763266
 20
-1.936889734350518
 30
0.0
 11
-3.529226841074244
 21
-1.943850066725467
 31
0.0
  0
LINE
  5
132
330
CC
100
AcDbEntity
  8
AM_4
100
AcDbLine
 10
-3.529226841074244
 20
-1.943850066725467
 30
0.0
 11
-3.501247405614129
 21
-1.99863340646832
 31
0.0
  0
LINE
  5
133
330
CC
100
AcDbEntity
  8
AM_4
100
AcDbLine
 10
-3.481491005660859
 20
-2.032852494962034
 30
0.0
 11
-3.448036959469452
 21
-2.084475066725467
 31
0.0
  0
LINE
  5
134
330
CC
100
AcDbEntity
  8
AM_4
100
AcDbLine
 10
-3.435981310158474
 20
-2.077514734350518
 30
0.0
 11
-3.448036959469452
 21
-2.084475066725467
 31
0.0
  0
LINE
  5
135
330
CC
100
AcDbEntity
  8
AM_4
100
AcDbLine
 10
-3.619330313134612
 20
-1.941618123437406
 30
0.0
 11
-3.593321504108629
 21
-1.942753048956784
 31
0.0
  0
ELLIPSE
  5
136
330
CC
100
AcDbEntity
  8
AM_4
100
AcDbEllipse
 10
-3.600649055379731
 20
-2.078835701380858
 30
0.0
 11
-0.07031250000000309
 21
0.1217848224071862
 31
0.0
210
0.0
220
0.0
230
1.0
 40
0.9063077870366504
 41
2.915894013336019
 42
3.565561594284219
  0
ELLIPSE
  5
137
330
CC
100
AcDbEntity
  8
AM_4
100
AcDbEllipse
 10
-3.600649055379729
 20
-2.078835701380862
 30
0.0
 11
-0.07031250000000089
 21
0.1217848224071898
 31
0.0
210
0.0
220
0.0
230
1.0
 40
0.9063077870366516
 41
5.859216366485144
 42
6.507000406324522
  0
LINE
  5
138
330
CC
100
AcDbEntity
  8
AM_4
100
AcDbLine
 10
-3.479134245730564
 20
-2.14053118204459
 30
0.0
 11
-3.49115577591237
 21
-2.163622934142958
 31
0.0
  0
ELLIPSE
  5
139
330
CC
100
AcDbEntity
  8
AM_4
100
AcDbEllipse
 10
-3.600649055379725
 20
-2.078835701380859
 30
0.0
 11
-0.07031249999999732
 21
0.1217848224071827
 31
0.0
210
0.0
220
0.0
230
1.0
 40
0.9063077870366507
 41
3.764821264091928
 42
4.571432719802722
  0
LINE
  5
13A
330
CC
100
AcDbEntity
  8
AM_4
100
AcDbLine
 10
-3.501247405614129
 20
-1.99863340646832
 30
0.0
 11
-3.481491005660859
 21
-2.032852494962034
 31
0.0
  0
ELLIPSE
  5
13B
330
CC
100
AcDbEntity
  8
AM_4
100
AcDbEllipse
 10
-3.600649055379731
 20
-2.07883570138086
 30
0.0
 11
-0.0703125
 21
0.1217848224071883
 31
0.0
210
0.0
220
0.0
230
1.0
 40
0.9063077870366516
 41
4.85334524096668
 42
5.65995669667744
  0
LWPOLYLINE
  5
13C
330
CC
100
AcDbEntity
  8
AM_4
100
AcDbPolyline
 90
        4
 70
     0
 43
0.0
 10
-3.788900420554719
 20
-2.073714020539505
 10
-3.79170204874314
 20
-2.095675604697365
 10
-3.79064972702865
 20
-2.121277443517096
 10
-3.789851423906974
 20
-2.126653892691931
  0
LWPOLYLINE
  5
13D
330
CC
100
AcDbEntity
  8
AM_4
100
AcDbPolyline
 90
       28
 70
     0
 43
0.0
 10
-3.688578709454183
 20
-2.244991030456764
 10
-3.679804855813212
 20
-2.247416742078678
 10
-3.654954894402897
 20
-2.250944360044974
 10
-3.630257693827302
 20
-2.249637326527653
 10
-3.606598727223211
 20
-2.243573394972449
 10
-3.584801082909475
 20
-2.233010477178742
 10
-3.56559107388154
 20
-2.218354746974272
 10
-3.549592100950826
 20
-2.200135981399861
 10
-3.537307188850578
 20
-2.178972569887886
 10
-3.529124311879064
 20
-2.155553594049572
 10
-3.525317431043576
 20
-2.130639600031787
 10
-3.526031398321169
 20
-2.105053573371842
 10
-3.531265745611427
 20
-2.079658593178798
 10
-3.540866430374769
 20
-2.055325459001393
 10
-3.554528083294128
 20
-2.032898268373489
 10
-3.571803030001677
 20
-2.013164154033828
 10
-3.59211028243656
 20
-1.996828331005797
 10
-3.614755540753364
 20
-1.984481832634025
 10
-3.638945849961136
 20
-1.976579060791093
 10
-3.663815536492614
 20
-1.97340963478789
 10
-3.688465470418572
 20
-1.975075731605211
 10
-3.712013218442646
 20
-1.981485418845232
 10
-3.733641973216506
 20
-1.992368518256186
 10
-3.752633386782919
 20
-2.007309270955047
 10
-3.76837167562978
 20
-2.025769338513757
 10
-3.780363278703857
 20
-2.047125272690915
 10
-3.788228386934141
 20
-2.070682579697308
 10
-3.788900420554719
 20
-2.073714020539505
  0
LWPOLYLINE
  5
13E
330
CC
100
AcDbEntity
  8
AM_4
100
AcDbPolyline
 90
        6
 70
     0
 43
0.0
 10
-3.771540633481231
 20
-2.1775
 10
-3.763520370403046
 20
-2.189960640104866
 10
-3.746510856377658
 20
-2.209899658362251
 10
-3.726406770462077
 20
-2.226510187959311
 10
-3.703909294573446
 20
-2.239171087946988
 10
-3.688578709454183
 20
-2.244991030456764
  0
ELLIPSE
  5
13F
330
CC
100
AcDbEntity
  8
AM_4
100
AcDbEllipse
 10
-3.662324940121064
 20
-2.114444290038775
 30
0.0
 11
-0.06957427803571781
 21
0.1205061844577846
 31
0.0
210
0.0
220
0.0
230
1.0
 40
0.9063077870366629
 41
1.179180160114048
 42
1.570796326794897
  0
ELLIPSE
  5
140
330
CC
100
AcDbEntity
  8
AM_4
100
AcDbEllipse
 10
-3.690318602318543
 20
-2.130606438444094
 30
0.0
 11
0.05174132036229519
 21
-0.08961859571819317
 31
0.0
210
0.0
220
0.0
230
1.0
 40
0.90630778703665
 41
0.0
 42
6.283185307179586
  0
ELLIPSE
  5
141
330
CC
100
AcDbEntity
  8
AM_4
100
AcDbEllipse
 10
-3.662324940121059
 20
-2.114444290038772
 30
0.0
 11
-0.06957427803572268
 21
0.1205061844577931
 31
0.0
210
0.0
220
0.0
230
1.0
 40
0.9063077870366464
 41
1.570796326794897
 42
7.462365467293655
  0
ENDBLK
  5
CF
330
CC
100
AcDbEntity
  8
0
100
AcDbBlockEnd
  0
BLOCK
  5
144
330
142
100
AcDbEntity
  8
0
100
AcDbBlockBegin
  2
4_076201h_0_in_076201_0
 70
     2
 10
0.0
 20
0.0
 30
0.0
  3
4_076201h_0_in_076201_0
  1

  0
ATTDEF
  5
146
330
142
100
AcDbEntity
  8
AM_6
100
AcDbText
 10
10.5405
 20
3.345
 30
0.0
 40
0.5
  1
WSTU-SCMED - Inch - Housing
100
AcDbAttributeDefinition
  3

  2
NN
 70
     8
280
     0
  0
ATTDEF
  5
147
330
142
100
AcDbEntity
  8
AM_6
100
AcDbText
 10
10.5405
 20
2.845
 30
0.0
 40
0.5
  1
SCMED Take-Up Bearings -Wide Slot -(Normal Duty)
100
AcDbAttributeDefinition
  3

  2
NT
 70
     8
280
     0
  0
ATTDEF
  5
148
330
142
100
AcDbEntity
  8
AM_6
100
AcDbText
 10
10.5405
 20
2.345
 30
0.0
 40
0.5
  1
076201h
100
AcDbAttributeDefinition
  3

  2
NB
 70
     8
280
     0
  0
ATTDEF
  5
149
330
142
100
AcDbEntity
  8
AM_6
100
AcDbText
 10
10.5405
 20
1.845
 30
0.0
 40
0.5
  1
$PN.h
100
AcDbAttributeDefinition
  3

  2
NBSYN
 70
     8
280
     0
  0
ATTDEF
  5
14A
330
142
100
AcDbEntity
  8
AM_6
100
AcDbText
 10
10.5405
 20
1.345
 30
0.0
 40
0.5
  1
076201
100
AcDbAttributeDefinition
  3

  2
LINA
 70
     8
280
     0
  0
ATTDEF
  5
14B
330
142
100
AcDbEntity
  8
AM_6
100
AcDbText
 10
10.5405
 20
0.8449999999999998
 30
0.0
 40
0.5
  1
215
100
AcDbAttributeDefinition
  3

  2
SERIES
 70
     8
280
     0
  0
ATTDEF
  5
14C
330
142
100
AcDbEntity
  8
AM_6
100
AcDbText
 10
10.5405
 20
0.3449999999999998
 30
0.0
 40
0.5
  1
2-11/16
100
AcDbAttributeDefinition
  3

  2
SS
 70
     8
280
     0
  0
ATTDEF
  5
14D
330
142
100
AcDbEntity
  8
AM_6
100
AcDbText
 10
10.5405
 20
-0.1550000000000002
 30
0.0
 40
0.5
  1
076201
100
AcDbAttributeDefinition
  3

  2
PN
 70
     8
280
     0
  0
ATTDEF
  5
14E
330
142
100
AcDbEntity
  8
AM_6
100
AcDbText
 10
10.5405
 20
-0.6550000000000002
 30
0.0
 40
0.5
  1
WSTU-SCMED-211
100
AcDbAttributeDefinition
  3

  2
DESCRIPTION
 70
     8
280
     0
  0
ATTDEF
  5
14F
330
142
100
AcDbEntity
  8
AM_6
100
AcDbText
 10
10.5405
 20
-1.155
 30
0.0
 40
0.5
  1
19.0
100
AcDbAttributeDefinition
  3

  2
W
 70
     8
280
     0
  0
ATTDEF
  5
150
330
142
100
AcDbEntity
  8
AM_6
100
AcDbText
 10
10.5405
 20
-1.655
 30
0.0
 40
0.5
  1
WS515
100
AcDbAttributeDefinition
  3

  2
FS
 70
     8
280
     0
  0
ATTDEF
  5
151
330
142
100
AcDbEntity
  8
AM_6
100
AcDbText
 10
10.5405
 20
-2.155
 30
0.0
 40
0.5
  1
2.33
100
AcDbAttributeDefinition
  3

  2
A
 70
     8
280
     0
  0
ATTDEF
  5
152
330
142
100
AcDbEntity
  8
AM_6
100
AcDbText
 10
10.5405
 20
-2.655
 30
0.0
 40
0.5
  1
9.13
100
AcDbAttributeDefinition
  3

  2
B
 70
     8
280
     0
  0
ATTDEF
  5
153
330
142
100
AcDbEntity
  8
AM_6
100
AcDbText
 10
10.5405
 20
-3.155
 30
0.0
 40
0.5
  1
1.063
100
AcDbAttributeDefinition
  3

  2
C
 70
     8
280
     0
  0
ATTDEF
  5
154
330
142
100
AcDbEntity
  8
AM_6
100
AcDbText
 10
10.5405
 20
-3.655
 30
0.0
 40
0.5
  1
4.75
100
AcDbAttributeDefinition
  3

  2
D
 70
     8
280
     0
  0
ATTDEF
  5
155
330
142
100
AcDbEntity
  8
AM_6
100
AcDbText
 10
10.5405
 20
-4.155
 30
0.0
 40
0.5
  1
5.50
100
AcDbAttributeDefinition
  3

  2
E
 70
     8
280
     0
  0
ATTDEF
  5
156
330
142
100
AcDbEntity
  8
AM_6
100
AcDbText
 10
10.5405
 20
-4.655
 30
0.0
 40
0.5
  1
1-1/2
100
AcDbAttributeDefinition
  3

  2
F
 70
     8
280
     0
  0
ATTDEF
  5
157
330
142
100
AcDbEntity
  8
AM_6
100
AcDbText
 10
10.5405
 20
-5.155
 30
0.0
 40
0.5
  1
0.81
100
AcDbAttributeDefinition
  3

  2
G
 70
     8
280
     0
  0
ATTDEF
  5
158
330
142
100
AcDbEntity
  8
AM_6
100
AcDbText
 10
10.5405
 20
-5.655
 30
0.0
 40
0.5
  1
1.25
100
AcDbAttributeDefinition
  3

  2
H
 70
     8
280
     0
  0
ATTDEF
  5
159
330
142
100
AcDbEntity
  8
AM_6
100
AcDbText
 10
10.5405
 20
-6.155
 30
0.0
 40
0.5
  1
4.38
100
AcDbAttributeDefinition
  3

  2
J
 70
     8
280
     0
  0
ATTDEF
  5
15A
330
142
100
AcDbEntity
  8
AM_6
100
AcDbText
 10
10.5405
 20
-6.655
 30
0.0
 40
0.5
  1
2.75
100
AcDbAttributeDefinition
  3

  2
K
 70
     8
280
     0
  0
ATTDEF
  5
15B
330
142
100
AcDbEntity
  8
AM_6
100
AcDbText
 10
10.5405
 20
-7.155
 30
0.0
 40
0.5
  1
3.62
100
AcDbAttributeDefinition
  3

  2
L
 70
     8
280
     0
  0
ATTDEF
  5
15C
330
142
100
AcDbEntity
  8
AM_6
100
AcDbText
 10
10.5405
 20
-7.655
 30
0.0
 40
0.5
  1
5.923 / 5.953
100
AcDbAttributeDefinition
  3

  2
M
 70
     8
280
     0
  0
ATTDEF
  5
15D
330
142
100
AcDbEntity
  8
AM_6
100
AcDbText
 10
10.5405
 20
-8.155000000000001
 30
0.0
 40
0.5
  1
6.69
100
AcDbAttributeDefinition
  3

  2
N
 70
     8
280
     0
  0
ATTDEF
  5
15E
330
142
100
AcDbEntity
  8
AM_6
100
AcDbText
 10
10.5405
 20
-8.655000000000001
 30
0.0
 40
0.5
  1
0.86
100
AcDbAttributeDefinition
  3

  2
R
 70
     8
280
     0
  0
ATTDEF
  5
15F
330
142
100
AcDbEntity
  8
AM_6
100
AcDbText
 10
10.5405
 20
-9.155000000000001
 30
0.0
 40
0.5
  1
1.47
100
AcDbAttributeDefinition
  3

  2
S
 70
     8
280
     0
  0
ATTDEF
  5
160
330
142
100
AcDbEntity
  8
AM_6
100
AcDbText
 10
10.5405
 20
-9.655000000000001
 30
0.0
 40
0.5
  1
2.75
100
AcDbAttributeDefinition
  3

  2
T
 70
     8
280
     0
  0
ATTDEF
  5
161
330
142
100
AcDbEntity
  8
AM_6
100
AcDbText
 10
10.5405
 20
-10.155
 30
0.0
 40
0.5
  1
9255
100
AcDbAttributeDefinition
  3

  2
CAPS
 70
     8
280
     0
  0
ATTDEF
  5
162
330
142
100
AcDbEntity
  8
AM_6
100
AcDbText
 10
10.5405
 20
-10.655
 30
0.0
 40
0.5
  1
14875
100
AcDbAttributeDefinition
  3

  2
CAPD
 70
     8
280
     0
  0
ATTDEF
  5
163
330
142
100
AcDbEntity
  8
AM_6
100
AcDbText
 10
10.5405
 20
-11.155
 30
0.0
 40
0.5
  1
baldor
100
AcDbAttributeDefinition
  3

  2
COMPANY
 70
     8
280
     0
  0
ARC
  5
164
330
142
100
AcDbEntity
  8
AM_9
100
AcDbCircle
 10
0.0000000000000007
 20
0.0000000000000115
 30
0.0
 40
2.693425000000011
100
AcDbArc
 50
250.5733348789528
 51
289.4266651210471
  0
LINE
  5
165
330
142
100
AcDbEntity
  8
AM_9
100
AcDbLine
 10
-0.8958333333333334
 20
-2.397127351933745
 30
0.0
 11
-0.8958333333333334
 21
-2.540082846978399
 31
0.0
  0
LINE
  5
166
330
142
100
AcDbEntity
  8
AM_9
100
AcDbLine
 10
0.8958333333333334
 20
2.397127351933745
 30
0.0
 11
0.8958333333333334
 21
2.540082846978399
 31
0.0
  0
LINE
  5
167
330
142
100
AcDbEntity
  8
AM_9
100
AcDbLine
 10
-0.8958333333333334
 20
2.540082846978399
 30
0.0
 11
-0.8958333333333334
 21
2.397127351933745
 31
0.0
  0
ARC
  5
168
330
142
100
AcDbEntity
  8
AM_9
100
AcDbCircle
 10
-0.0000000000000001
 20
0.0000000000000084
 30
0.0
 40
2.693424999999992
100
AcDbArc
 50
70.57333487895266
 51
109.4266651210473
  0
LINE
  5
169
330
142
100
AcDbEntity
  8
AM_9
100
AcDbLine
 10
0.8958333333333311
 20
-2.5400828469784
 30
0.0
 11
0.8958333333333334
 21
-2.397127351933745
 31
0.0
  0
LINE
  5
16A
330
142
100
AcDbEntity
  8
AM_9
100
AcDbLine
 10
2.375
 20
2.9615
 30
0.0
 11
-2.375
 21
2.9615
 31
0.0
  0
LINE
  5
16B
330
142
100
AcDbEntity
  8
AM_9
100
AcDbLine
 10
2.375
 20
-2.9615
 30
0.0
 11
-2.375
 21
-2.9615
 31
0.0
  0
LINE
  5
16C
330
142
100
AcDbEntity
  8
AM_9
100
AcDbLine
 10
4.69
 20
-0.7499999999999999
 30
0.0
 11
5.5
 21
-0.7499999999999999
 31
0.0
  0
LINE
  5
16D
330
142
100
AcDbEntity
  8
AM_9
100
AcDbLine
 10
5.5
 20
0.7499999999999999
 30
0.0
 11
4.69
 21
0.7499999999999999
 31
0.0
  0
LINE
  5
16E
330
142
100
AcDbEntity
  8
AM_7
100
AcDbLine
 10
-2.6870025
 20
0.0
 30
0.0
 11
2.6870025
 21
0.0
 31
0.0
  0
LINE
  5
16F
330
142
100
AcDbEntity
  8
AM_7
100
AcDbLine
 10
0.0
 20
-2.6870025
 30
0.0
 11
0.0
 21
2.6870025
 31
0.0
  0
LINE
  5
170
330
142
100
AcDbEntity
  8
AM_7
100
AcDbLine
 10
-3.717143412806021
 20
-2.14609375
 30
0.0
 11
-2.682291681790685
 21
-1.548621824526945
 31
0.0
  0
LINE
  5
171
330
142
100
AcDbEntity
  8
AM_7
100
AcDbLine
 10
5.5405
 20
0.0
 30
0.0
 11
4.6495
 21
0.0
 31
0.0
  0
LINE
  5
172
330
142
100
AcDbEntity
  8
AM_4
100
AcDbLine
 10
-2.918672215737512
 20
-2.204711431702997
 30
0.0
 11
-2.894582356942428
 21
-2.190803145242916
 31
0.0
  0
LINE
  5
173
330
142
100
AcDbEntity
  8
AM_4
100
AcDbLine
 10
-3.405274756115957
 20
-1.561891108675447
 30
0.0
 11
-3.055274757070538
 21
-2.168108889671171
 31
0.0
  0
LINE
  5
174
330
142
100
AcDbEntity
  8
AM_4
100
AcDbLine
 10
-3.368672215737513
 20
-1.425288568297002
 30
0.0
 11
-2.918672215737512
 21
-2.204711431702997
 31
0.0
  0
ARC
  5
175
330
142
100
AcDbEntity
  8
AM_4
100
AcDbCircle
 10
-2.968672215737512
 20
-2.118108891324553
 30
0.0
 40
0.1000000000000005
100
AcDbArc
 50
210.0
 51
299.9999999999998
  0
ARC
  5
176
330
142
100
AcDbEntity
  8
AM_4
100
AcDbCircle
 10
-3.318672215737513
 20
-1.511891108675446
 30
0.0
 40
0.0999999999999993
100
AcDbArc
 50
119.9999999999996
 51
210.0000000000006
  0
LINE
  5
177
330
142
100
AcDbEntity
  8
AM_4
100
AcDbLine
 10
-3.344428281216822
 20
-1.411291326175266
 30
0.0
 11
-3.368672215737513
 21
-1.425288568297002
 31
0.0
  0
ARC
  5
178
330
142
100
AcDbEntity
  8
AM_4
100
AcDbCircle
 10
-0.0000000000000004
 20
-0.0000000000000002
 30
0.0
 40
3.63
100
AcDbArc
 50
130.8643185541842
 51
229.1356814458158
  0
LWPOLYLINE
  5
179
330
142
100
AcDbEntity
  8
AM_4
100
AcDbPolyline
 90
       19
 70
     0
 43
0.0
 10
5.5
 20
2.083699998416007
 10
5.499595496545206
 20
2.09296465387611
 10
5.498385064420255
 20
2.102158799726066
 10
5.496377915744495
 20
2.111212462964378
 10
5.493589326131299
 20
2.120056739747052
 10
5.49004051843142
 20
2.128624319787451
 10
5.485758501214283
 20
2.136849998628221
 10
5.48077586321646
 20
2.144671173886584
 10
5.475130525321719
 20
2.15202832169627
 10
5.468865451960182
 20
2.158865449720077
 10
5.462028324123088
 20
2.165130523285375
 10
5.454671176481648
 20
2.170775861399378
 10
5.446850001371778
 20
2.175758499630289
 10
5.438624322658622
 20
2.180040517092571
 10
5.430056742723986
 20
2.183589325047784
 10
5.421212466024419
 20
2.18637791492456
 10
5.412158802845924
 20
2.18838506387014
 10
5.402964657032042
 20
2.189595496269098
 10
5.393700001583993
 20
2.19
  0
LINE
  5
17A
330
142
100
AcDbEntity
  8
AM_4
100
AcDbLine
 10
5.3937
 20
2.19
 30
0.0
 11
2.375
 21
2.19
 31
0.0
  0
LWPOLYLINE
  5
17B
330
142
100
AcDbEntity
  8
AM_4
100
AcDbPolyline
 90
       19
 70
     0
 43
0.0
 10
5.3937
 20
-2.19
 10
5.402964655454076
 20
-2.189595496407152
 10
5.412158801285995
 20
-2.188385064145197
 10
5.421212464494398
 20
-2.186377915334528
 10
5.430056741235519
 20
-2.183589325589542
 10
5.438624321223037
 20
-2.180040517761996
 10
5.44685
 20
-2.175758500422286
 10
5.454671175184116
 20
-2.17077586230792
 10
5.462028322909679
 20
-2.165130524303547
 10
5.46886545084013
 20
-2.15886545084013
 10
5.475130524303547
 20
-2.152028322909679
 10
5.48077586230792
 20
-2.144671175184116
 10
5.485758500422286
 20
-2.13685
 10
5.490040517761996
 20
-2.128624321223036
 10
5.493589325589542
 20
-2.120056741235519
 10
5.496377915334528
 20
-2.111212464494398
 10
5.498385064145198
 20
-2.102158801285995
 10
5.499595496407152
 20
-2.092964655454076
 10
5.5
 20
-2.083700001583993
  0
LINE
  5
17C
330
142
100
AcDbEntity
  8
AM_4
100
AcDbLine
 10
5.3937
 20
-2.19
 30
0.0
 11
2.375
 21
-2.19
 31
0.0
  0
LINE
  5
17D
330
142
100
AcDbEntity
  8
AM_4
100
AcDbLine
 10
4.69
 20
-1.2687
 30
0.0
 11
4.69
 21
1.268699999999999
 31
0.0
  0
LINE
  5
17E
330
142
100
AcDbEntity
  8
AM_4
100
AcDbLine
 10
5.5
 20
2.0837
 30
0.0
 11
5.5
 21
-2.0837
 31
0.0
  0
LINE
  5
17F
330
142
100
AcDbEntity
  8
AM_4
100
AcDbLine
 10
3.5463
 20
-1.375
 30
0.0
 11
4.583699999999999
 21
-1.375
 31
0.0
  0
LINE
  5
180
330
142
100
AcDbEntity
  8
AM_4
100
AcDbLine
 10
3.44
 20
1.268699999999999
 30
0.0
 11
3.44
 21
-1.268699999999999
 31
0.0
  0
ARC
  5
181
330
142
100
AcDbEntity
  8
AM_4
100
AcDbCircle
 10
3.546299999999999
 20
-1.268700000000001
 30
0.0
 40
0.1062999999999992
100
AcDbArc
 50
180.0
 51
270.0
  0
ARC
  5
182
330
142
100
AcDbEntity
  8
AM_4
100
AcDbCircle
 10
4.583699999999999
 20
-1.268699999999999
 30
0.0
 40
0.1063000000000014
100
AcDbArc
 50
270.0
 51
0.0000008537736463
  0
CIRCLE
  5
183
330
142
100
AcDbEntity
  8
AM_4
100
AcDbCircle
 10
0.0
 20
0.0
 30
0.0
 40
2.55905
  0
LINE
  5
184
330
142
100
AcDbEntity
  8
AM_4
100
AcDbLine
 10
5.5
 20
2.0837
 30
0.0
 11
2.375
 21
2.0837
 31
0.0
  0
ARC
  5
185
330
142
100
AcDbEntity
  8
AM_4
100
AcDbCircle
 10
0.0000000000000004
 20
0.0000000000000002
 30
0.0
 40
3.575000000000001
100
AcDbArc
 50
131.631379539353
 51
228.368620460647
  0
LINE
  5
186
330
142
100
AcDbEntity
  8
AM_4
100
AcDbLine
 10
5.5
 20
-2.0837
 30
0.0
 11
2.375
 21
-2.083699998416006
 31
0.0
  0
ARC
  5
187
330
142
100
AcDbEntity
  8
AM_4
100
AcDbCircle
 10
3.5463
 20
1.268699999999999
 30
0.0
 40
0.1063000000000007
100
AcDbArc
 50
90.0
 51
179.9999991462263
  0
LINE
  5
188
330
142
100
AcDbEntity
  8
AM_4
100
AcDbLine
 10
4.583699999999999
 20
1.375
 30
0.0
 11
3.5463
 21
1.375
 31
0.0
  0
ARC
  5
189
330
142
100
AcDbEntity
  8
AM_4
100
AcDbCircle
 10
4.583699999999999
 20
1.2687
 30
0.0
 40
0.1063000000000001
100
AcDbArc
 50
0.0
 51
90.0
  0
LINE
  5
18A
330
142
100
AcDbEntity
  8
AM_4
100
AcDbLine
 10
2.375
 20
2.76975
 30
0.0
 11
-2.375
 21
2.76975
 31
0.0
  0
LINE
  5
18B
330
142
100
AcDbEntity
  8
AM_4
100
AcDbLine
 10
-2.375
 20
3.238699999999999
 30
0.0
 11
-2.375
 21
2.672077843177478
 31
0.0
  0
LINE
  5
18C
330
142
100
AcDbEntity
  8
AM_4
100
AcDbLine
 10
2.375
 20
2.9292
 30
0.0
 11
-2.375
 21
2.9292
 31
0.0
  0
LINE
  5
18D
330
142
100
AcDbEntity
  8
AM_4
100
AcDbLine
 10
2.375
 20
3.2387
 30
0.0
 11
2.375
 21
2.0837
 31
0.0
  0
LWPOLYLINE
  5
18E
330
142
100
AcDbEntity
  8
AM_4
100
AcDbPolyline
 90
       19
 70
     0
 43
0.0
 10
-2.2687
 20
3.345
 10
-2.277964655454076
 20
3.344595496407153
 10
-2.287158801285995
 20
3.343385064145198
 10
-2.296212464494398
 20
3.341377915334528
 10
-2.305056741235519
 20
3.338589325589542
 10
-2.313624321223037
 20
3.335040517761996
 10
-2.32185
 20
3.330758500422286
 10
-2.329671175184117
 20
3.325775862307919
 10
-2.33702832290968
 20
3.320130524303547
 10
-2.34386545084013
 20
3.31386545084013
 10
-2.350130524303548
 20
3.307028322909679
 10
-2.355775862307921
 20
3.299671175184116
 10
-2.360758500422286
 20
3.29185
 10
-2.365040517761996
 20
3.283624321223036
 10
-2.368589325589542
 20
3.275056741235518
 10
-2.371377915334528
 20
3.266212464494398
 10
-2.373385064145198
 20
3.257158801285994
 10
-2.374595496407153
 20
3.247964655454076
 10
-2.375
 20
3.2387
  0
LWPOLYLINE
  5
18F
330
142
100
AcDbEntity
  8
AM_4
100
AcDbPolyline
 90
       19
 70
     0
 43
0.0
 10
2.375
 20
3.238699994746487
 10
2.374595496865026
 20
3.247964650220555
 10
2.37338506505746
 20
3.257158796112295
 10
2.371377916694237
 20
3.266212459419895
 10
2.368589327386349
 20
3.275056736298831
 10
2.365040519982226
 20
3.283624316461737
 10
2.360758503049042
 20
3.291849995450325
 10
2.35577586532121
 20
3.299671170880691
 10
2.350130527680439
 20
3.307028318885255
 10
2.343865454554924
 20
3.313865447125336
 10
2.337028326934103
 20
3.320130520926655
 10
2.329671179487541
 20
3.325775859294629
 10
2.321850004549674
 20
3.33075849779553
 10
2.313624325984335
 20
3.335040515541766
 10
2.305056746172204
 20
3.338589323792735
 10
2.2962124695689
 20
3.341377913974819
 10
2.287158806459693
 20
3.343385063232935
 10
2.277964660687597
 20
3.344595495949279
 10
2.268700005253511
 20
3.345
  0
LINE
  5
190
330
142
100
AcDbEntity
  8
AM_4
100
AcDbLine
 10
2.268699999999999
 20
3.345
 30
0.0
 11
-2.2687
 21
3.345
 31
0.0
  0
LINE
  5
191
330
142
100
AcDbEntity
  8
AM_4
100
AcDbLine
 10
2.375
 20
3.2387
 30
0.0
 11
-2.375
 21
3.238699999999999
 31
0.0
  0
LINE
  5
192
330
142
100
AcDbEntity
  8
AM_4
100
AcDbLine
 10
2.375
 20
-2.76975
 30
0.0
 11
-2.375
 21
-2.76975
 31
0.0
  0
LINE
  5
193
330
142
100
AcDbEntity
  8
AM_4
100
AcDbLine
 10
2.375
 20
-2.083699998416006
 30
0.0
 11
2.375
 21
-3.238700000000001
 31
0.0
  0
LINE
  5
194
330
142
100
AcDbEntity
  8
AM_4
100
AcDbLine
 10
-2.375000000000001
 20
-2.672077843177478
 30
0.0
 11
-2.375
 21
-3.2387
 31
0.0
  0
LINE
  5
195
330
142
100
AcDbEntity
  8
AM_4
100
AcDbLine
 10
2.375
 20
-2.9292
 30
0.0
 11
-2.375
 21
-2.9292
 31
0.0
  0
LWPOLYLINE
  5
196
330
142
100
AcDbEntity
  8
AM_4
100
AcDbPolyline
 90
       19
 70
     0
 43
0.0
 10
-2.374999999999999
 20
-3.238699989734549
 10
-2.374595497301845
 20
-3.247964645227689
 10
-2.373385065927774
 20
-3.257158791176499
 10
-2.371377917991421
 20
-3.266212454578735
 10
-2.368589329100532
 20
-3.275056731589151
 10
-2.365040522100362
 20
-3.283624311919379
 10
-2.36075850555501
 20
-3.291849991109859
 10
-2.35577586819594
 20
-3.299671166775151
 10
-2.350130530902052
 20
-3.307028315045887
 10
-2.343865458098899
 20
-3.31386544358136
 10
-2.33702833077347
 20
-3.320130517705043
 10
-2.329671183593081
 20
-3.325775856419899
 10
-2.321850008890141
 20
-3.33075849528956
 10
-2.313624330526694
 20
-3.335040513423629
 10
-2.305056750881887
 20
-3.338589322078551
 10
-2.296212474410062
 20
-3.341377912677634
 10
-2.28715881139549
 20
-3.34338506236262
 10
-2.277964665680464
 20
-3.344595495512459
 10
-2.268700010265451
 20
-3.345
  0
LWPOLYLINE
  5
197
330
142
100
AcDbEntity
  8
AM_4
100
AcDbPolyline
 90
       19
 70
     0
 43
0.0
 10
2.2687
 20
-3.345
 10
2.277964655454077
 20
-3.344595496407153
 10
2.287158801285995
 20
-3.343385064145198
 10
2.296212464494398
 20
-3.341377915334528
 10
2.305056741235519
 20
-3.338589325589542
 10
2.313624321223037
 20
-3.335040517761996
 10
2.32185
 20
-3.330758500422286
 10
2.329671175184116
 20
-3.32577586230792
 10
2.337028322909679
 20
-3.320130524303548
 10
2.34386545084013
 20
-3.31386545084013
 10
2.350130524303547
 20
-3.30702832290968
 10
2.35577586230792
 20
-3.299671175184117
 10
2.360758500422286
 20
-3.291850000000001
 10
2.365040517761996
 20
-3.283624321223037
 10
2.368589325589542
 20
-3.27505674123552
 10
2.371377915334527
 20
-3.266212464494398
 10
2.373385064145197
 20
-3.257158801285996
 10
2.374595496407152
 20
-3.247964655454077
 10
2.375
 20
-3.238700000000001
  0
LINE
  5
198
330
142
100
AcDbEntity
  8
AM_4
100
AcDbLine
 10
2.2687
 20
-3.345
 30
0.0
 11
-2.268699999999999
 21
-3.345
 31
0.0
  0
LINE
  5
199
330
142
100
AcDbEntity
  8
AM_4
100
AcDbLine
 10
2.375
 20
-3.238700000000001
 30
0.0
 11
-2.375
 21
-3.2387
 31
0.0
  0
LINE
  5
19A
330
142
100
AcDbEntity
  8
AM_4
100
AcDbLine
 10
4.69
 20
1.036447006604776
 30
0.0
 11
5.5
 21
1.036447006604776
 31
0.0
  0
LINE
  5
19B
330
142
100
AcDbEntity
  8
AM_4
100
AcDbLine
 10
5.5
 20
-1.036447006604776
 30
0.0
 11
4.69
 21
-1.036447006604776
 31
0.0
  0
ENDBLK
  5
145
330
142
100
AcDbEntity
  8
0
100
AcDbBlockEnd
  0
ENDSEC
  0
SECTION
  2
ENTITIES
  0
INSERT
  5
6F
330
1F
100
AcDbEntity
  8
0
100
AcDbBlockReference
  2
1_076201_0
 10
0.0
 20
0.0
 30
0.0
  0
POINT
  5
19D
330
1F
100
AcDbEntity
  8
ConnectionPoints
100
AcDbPoint
 10
-3.230274756115957
 20
-1.865
 30
0.0
  0
POINT
  5
19E
330
1F
100
AcDbEntity
  8
ConnectionPoints
100
AcDbPoint
 10
-3.230274756115957
 20
-1.865
 30
0.0
  0
POINT
  5
19F
330
1F
100
AcDbEntity
  8
ConnectionPoints
100
AcDbPoint
 10
0.0
 20
0.0
 30
1.47
  0
ENDSEC
  0
SECTION
  2
OBJECTS
  0
DICTIONARY
  5
C
330
0
100
AcDbDictionary
281
     1
  3
ACAD_DETAILVIEWSTYLE
350
1A7
  3
ACAD_GROUP
350
D
  3
ACAD_LAYOUT
350
1A
  3
ACAD_MATERIAL
350
43
  3
ACAD_MLEADERSTYLE
350
6B
  3
ACAD_MLINESTYLE
350
17
  3
ACAD_PLOTSETTINGS
350
19
  3
ACAD_PLOTSTYLENAME
350
E
  3
ACAD_SCALELIST
350
47
  3
ACAD_SECTIONVIEWSTYLE
350
1A8
  3
ACAD_TABLESTYLE
350
69
  3
ACAD_VISUALSTYLE
350
2A
  3
ACDB_RECOMPOSE_DATA
350
1A4
  3
AcDbVariableDictionary
350
1A0
  0
SUN
  5
6D
330
29
100
AcDbSun
 90
        1
290
     0
 63
     7
421
 16777215
 40
1.0
291
     1
 91
  2455826
 92
 54000000
292
     0
 70
     2
 71
   256
280
     1
  0
DICTIONARY
  5
1A7
102
{ACAD_REACTORS
330
C
102
}
330
C
100
AcDbDictionary
281
     1
  0
DICTIONARY
  5
D
102
{ACAD_REACTORS
330
C
102
}
330
C
100
AcDbDictionary
281
     1
  0
DICTIONARY
  5
1A
102
{ACAD_REACTORS
330
C
102
}
330
C
100
AcDbDictionary
281
     1
  3
Layout1
350
1E
  3
Layout2
350
26
  3
Model
350
22
  0
DICTIONARY
  5
43
102
{ACAD_REACTORS
330
C
102
}
330
C
100
AcDbDictionary
281
     1
  3
ByBlock
350
45
  3
ByLayer
350
44
  3
Global
350
46
  0
DICTIONARY
  5
6B
102
{ACAD_REACTORS
330
C
102
}
330
C
100
AcDbDictionary
281
     1
  3
Standard
350
6C
  0
DICTIONARY
  5
17
102
{ACAD_REACTORS
330
C
102
}
330
C
100
AcDbDictionary
281
     1
  3
Standard
350
18
  0
DICTIONARY
  5
19
102
{ACAD_REACTORS
330
C
102
}
330
C
100
AcDbDictionary
281
     1
  0
ACDBDICTIONARYWDFLT
  5
E
102
{ACAD_REACTORS
330
C
102
}
330
C
100
AcDbDictionary
281
     1
  3
Normal
350
F
100
AcDbDictionaryWithDefault
340
F
  0
DICTIONARY
  5
47
102
{ACAD_REACTORS
330
C
102
}
330
C
100
AcDbDictionary
281
     1
  3
A0
350
48
  3
A1
350
49
  3
A2
350
4A
  3
A3
350
4B
  3
A4
350
4C
  3
A5
350
4D
  3
A6
350
4E
  3
A7
350
4F
  3
A8
350
50
  3
A9
350
51
  3
B0
350
52
  3
B1
350
53
  3
B2
350
54
  3
B3
350
55
  3
B4
350
56
  3
B5
350
57
  3
B6
350
58
  3
B7
350
59
  3
B8
350
5A
  3
B9
350
5B
  3
C0
350
5C
  3
C1
350
5D
  3
C2
350
5E
  3
C3
350
5F
  3
C4
350
60
  3
C5
350
61
  3
C6
350
62
  3
C7
350
63
  3
C8
350
64
  3
C9
350
65
  3
D0
350
66
  3
D1
350
67
  3
D2
350
68
  0
DICTIONARY
  5
1A8
102
{ACAD_REACTORS
330
C
102
}
330
C
100
AcDbDictionary
281
     1
  0
DICTIONARY
  5
69
102
{ACAD_REACTORS
330
C
102
}
330
C
100
AcDbDictionary
281
     1
  3
Standard
350
6A
  0
DICTIONARY
  5
2A
102
{ACAD_REACTORS
330
C
102
}
330
C
100
AcDbDictionary
281
     1
  3
2dWireframe
350
2F
  3
Basic
350
32
  3
Brighten
350
36
  3
ColorChange
350
3A
  3
Conceptual
350
34
  3
Dim
350
35
  3
EdgeColorOff
350
3D
  3
Facepattern
350
39
  3
Flat
350
2B
  3
FlatWithEdges
350
2C
  3
Gouraud
350
2D
  3
GouraudWithEdges
350
2E
  3
Hidden
350
31
  3
JitterOff
350
3B
  3
Linepattern
350
38
  3
OverhangOff
350
3C
  3
Realistic
350
33
  3
Shaded
350
42
  3
Shaded with edges
350
41
  3
Shades of Gray
350
3E
  3
Sketchy
350
3F
  3
Thicken
350
37
  3
Wireframe
350
30
  3
X-Ray
350
40
  0
XRECORD
  5
1A4
102
{ACAD_REACTORS
330
C
102
}
330
C
100
AcDbXrecord
280
     1
 90
        1
330
6A
  0
DICTIONARY
  5
1A0
102
{ACAD_REACTORS
330
C
102
}
330
C
100
AcDbDictionary
281
     1
  3
CANNOSCALE
350
1A1
  3
CMLEADERSTYLE
350
1A6
  3
CTABLESTYLE
350
1A5
  0
LAYOUT
  5
1E
102
{ACAD_REACTORS
330
1A
102
}
330
1A
100
AcDbPlotSettings
  1

  2
none_device
  4

  6

 40
0.0
 41
0.0
 42
0.0
 43
0.0
 44
0.0
 45
0.0
 46
0.0
 47
0.0
 48
0.0
 49
0.0
140
0.0
141
0.0
142
1.0
143
1.0
 70
   688
 72
     0
 73
     0
 74
     5
  7

 75
    16
 76
     0
 77
     2
 78
   300
147
1.0
148
0.0
149
0.0
100
AcDbLayout
  1
Layout1
 70
     1
 71
     1
 10
0.0
 20
0.0
 11
12.0
 21
9.0
 12
0.0
 22
0.0
 32
0.0
 14
1.000000000000000E+20
 24
1.000000000000000E+20
 34
1.000000000000000E+20
 15
-1.000000000000000E+20
 25
-1.000000000000000E+20
 35
-1.000000000000000E+20
146
0.0
 13
0.0
 23
0.0
 33
0.0
 16
1.0
 26
0.0
 36
0.0
 17
0.0
 27
1.0
 37
0.0
 76
     0
330
1B
  0
LAYOUT
  5
26
102
{ACAD_REACTORS
330
1A
102
}
330
1A
100
AcDbPlotSettings
  1

  2
none_device
  4

  6

 40
0.0
 41
0.0
 42
0.0
 43
0.0
 44
0.0
 45
0.0
 46
0.0
 47
0.0
 48
0.0
 49
0.0
140
0.0
141
0.0
142
1.0
143
1.0
 70
   688
 72
     0
 73
     0
 74
     5
  7

 75
    16
 76
     0
 77
     2
 78
   300
147
1.0
148
0.0
149
0.0
100
AcDbLayout
  1
Layout2
 70
     1
 71
     2
 10
0.0
 20
0.0
 11
0.0
 21
0.0
 12
0.0
 22
0.0
 32
0.0
 14
0.0
 24
0.0
 34
0.0
 15
0.0
 25
0.0
 35
0.0
146
0.0
 13
0.0
 23
0.0
 33
0.0
 16
1.0
 26
0.0
 36
0.0
 17
0.0
 27
1.0
 37
0.0
 76
     0
330
23
  0
LAYOUT
  5
22
102
{ACAD_REACTORS
330
1A
102
}
330
1A
100
AcDbPlotSettings
  1

  2
none_device
  4
Letter_(8.50_x_11.00_Inches)
  6

 40
6.35
 41
6.35
 42
6.35000508
 43
6.35000508
 44
215.9
 45
279.4
 46
0.0
 47
0.0
 48
0.0
 49
0.0
140
0.0
141
0.0
142
1.0
143
1.0
 70
  1712
 72
     0
 73
     0
 74
     0
  7

 75
     0
 76
     0
 77
     2
 78
   300
147
1.0
148
0.0
149
0.0
100
AcDbLayout
  1
Model
 70
     1
 71
     0
 10
0.0
 20
0.0
 11
12.0
 21
9.0
 12
0.0
 22
0.0
 32
0.0
 14
1.000000000000000E+20
 24
1.000000000000000E+20
 34
1.000000000000000E+20
 15
-1.000000000000000E+20
 25
-1.000000000000000E+20
 35
-1.000000000000000E+20
146
0.0
 13
0.0
 23
0.0
 33
0.0
 16
1.0
 26
0.0
 36
0.0
 17
0.0
 27
1.0
 37
0.0
 76
     0
330
1F
331
29
  0
MATERIAL
  5
45
102
{ACAD_REACTORS
330
43
102
}
330
43
100
AcDbMaterial
  1
ByBlock
 72
     1
 94
      127
  0
MATERIAL
  5
44
102
{ACAD_REACTORS
330
43
102
}
330
43
100
AcDbMaterial
  1
ByLayer
 72
     1
 94
      127
  0
MATERIAL
  5
46
102
{ACAD_REACTORS
330
43
102
}
330
43
100
AcDbMaterial
  1
Global
 72
     1
 94
      127
  0
MLEADERSTYLE
  5
6C
102
{ACAD_REACTORS
330
6B
102
}
330
6B
100
AcDbMLeaderStyle
179
     2
170
     2
171
     1
172
     0
 90
        2
 40
0.0
 41
0.0
173
     1
 91
-1056964608
340
14
 92
       -2
290
     1
 42
0.09
291
     1
 43
0.36
  3
Standard
341
0
 44
0.18
300

342
11
174
     1
178
     6
175
     1
176
     0
 93
-1056964608
 45
0.18
292
     0
297
     0
 46
0.18
343
0
 94
-1056964608
 47
1.0
 49
1.0
140
1.0
293
     1
141
0.0
294
     1
177
     0
142
1.0
295
     0
296
     0
143
0.125
271
     0
272
     9
273
     9
298
     0
  0
MLINESTYLE
  5
18
102
{ACAD_REACTORS
330
17
102
}
330
17
100
AcDbMlineStyle
  2
Standard
 70
     0
  3

 62
   256
 51
90.0
 52
90.0
 71
     2
 49
0.5
 62
   256
  6
BYLAYER
 49
-0.5
 62
   256
  6
BYLAYER
  0
ACDBPLACEHOLDER
  5
F
102
{ACAD_REACTORS
330
E
102
}
330
E
  0
SCALE
  5
48
102
{ACAD_REACTORS
330
47
102
}
330
47
100
AcDbScale
 70
     0
300
1:1
140
1.0
141
1.0
290
     1
  0
SCALE
  5
49
102
{ACAD_REACTORS
330
47
102
}
330
47
100
AcDbScale
 70
     0
300
1:2
140
1.0
141
2.0
290
     0
  0
SCALE
  5
4A
102
{ACAD_REACTORS
330
47
102
}
330
47
100
AcDbScale
 70
     0
300
1:4
140
1.0
141
4.0
290
     0
  0
SCALE
  5
4B
102
{ACAD_REACTORS
330
47
102
}
330
47
100
AcDbScale
 70
     0
300
1:5
140
1.0
141
5.0
290
     0
  0
SCALE
  5
4C
102
{ACAD_REACTORS
330
47
102
}
330
47
100
AcDbScale
 70
     0
300
1:8
140
1.0
141
8.0
290
     0
  0
SCALE
  5
4D
102
{ACAD_REACTORS
330
47
102
}
330
47
100
AcDbScale
 70
     0
300
1:10
140
1.0
141
10.0
290
     0
  0
SCALE
  5
4E
102
{ACAD_REACTORS
330
47
102
}
330
47
100
AcDbScale
 70
     0
300
1:16
140
1.0
141
16.0
290
     0
  0
SCALE
  5
4F
102
{ACAD_REACTORS
330
47
102
}
330
47
100
AcDbScale
 70
     0
300
1:20
140
1.0
141
20.0
290
     0
  0
SCALE
  5
50
102
{ACAD_REACTORS
330
47
102
}
330
47
100
AcDbScale
 70
     0
300
1:30
140
1.0
141
30.0
290
     0
  0
SCALE
  5
51
102
{ACAD_REACTORS
330
47
102
}
330
47
100
AcDbScale
 70
     0
300
1:40
140
1.0
141
40.0
290
     0
  0
SCALE
  5
52
102
{ACAD_REACTORS
330
47
102
}
330
47
100
AcDbScale
 70
     0
300
1:50
140
1.0
141
50.0
290
     0
  0
SCALE
  5
53
102
{ACAD_REACTORS
330
47
102
}
330
47
100
AcDbScale
 70
     0
300
1:100
140
1.0
141
100.0
290
     0
  0
SCALE
  5
54
102
{ACAD_REACTORS
330
47
102
}
330
47
100
AcDbScale
 70
     0
300
2:1
140
2.0
141
1.0
290
     0
  0
SCALE
  5
55
102
{ACAD_REACTORS
330
47
102
}
330
47
100
AcDbScale
 70
     0
300
4:1
140
4.0
141
1.0
290
     0
  0
SCALE
  5
56
102
{ACAD_REACTORS
330
47
102
}
330
47
100
AcDbScale
 70
     0
300
8:1
140
8.0
141
1.0
290
     0
  0
SCALE
  5
57
102
{ACAD_REACTORS
330
47
102
}
330
47
100
AcDbScale
 70
     0
300
10:1
140
10.0
141
1.0
290
     0
  0
SCALE
  5
58
102
{ACAD_REACTORS
330
47
102
}
330
47
100
AcDbScale
 70
     0
300
100:1
140
100.0
141
1.0
290
     0
  0
SCALE
  5
59
102
{ACAD_REACTORS
330
47
102
}
330
47
100
AcDbScale
 70
     0
300
1/128" = 1'-0"
140
0.0078125
141
12.0
290
     0
  0
SCALE
  5
5A
102
{ACAD_REACTORS
330
47
102
}
330
47
100
AcDbScale
 70
     0
300
1/64" = 1'-0"
140
0.015625
141
12.0
290
     0
  0
SCALE
  5
5B
102
{ACAD_REACTORS
330
47
102
}
330
47
100
AcDbScale
 70
     0
300
1/32" = 1'-0"
140
0.03125
141
12.0
290
     0
  0
SCALE
  5
5C
102
{ACAD_REACTORS
330
47
102
}
330
47
100
AcDbScale
 70
     0
300
1/16" = 1'-0"
140
0.0625
141
12.0
290
     0
  0
SCALE
  5
5D
102
{ACAD_REACTORS
330
47
102
}
330
47
100
AcDbScale
 70
     0
300
3/32" = 1'-0"
140
0.09375
141
12.0
290
     0
  0
SCALE
  5
5E
102
{ACAD_REACTORS
330
47
102
}
330
47
100
AcDbScale
 70
     0
300
1/8" = 1'-0"
140
0.125
141
12.0
290
     0
  0
SCALE
  5
5F
102
{ACAD_REACTORS
330
47
102
}
330
47
100
AcDbScale
 70
     0
300
3/16" = 1'-0"
140
0.1875
141
12.0
290
     0
  0
SCALE
  5
60
102
{ACAD_REACTORS
330
47
102
}
330
47
100
AcDbScale
 70
     0
300
1/4" = 1'-0"
140
0.25
141
12.0
290
     0
  0
SCALE
  5
61
102
{ACAD_REACTORS
330
47
102
}
330
47
100
AcDbScale
 70
     0
300
3/8" = 1'-0"
140
0.375
141
12.0
290
     0
  0
SCALE
  5
62
102
{ACAD_REACTORS
330
47
102
}
330
47
100
AcDbScale
 70
     0
300
1/2" = 1'-0"
140
0.5
141
12.0
290
     0
  0
SCALE
  5
63
102
{ACAD_REACTORS
330
47
102
}
330
47
100
AcDbScale
 70
     0
300
3/4" = 1'-0"
140
0.75
141
12.0
290
     0
  0
SCALE
  5
64
102
{ACAD_REACTORS
330
47
102
}
330
47
100
AcDbScale
 70
     0
300
1" = 1'-0"
140
1.0
141
12.0
290
     0
  0
SCALE
  5
65
102
{ACAD_REACTORS
330
47
102
}
330
47
100
AcDbScale
 70
     0
300
1-1/2" = 1'-0"
140
1.5
141
12.0
290
     0
  0
SCALE
  5
66
102
{ACAD_REACTORS
330
47
102
}
330
47
100
AcDbScale
 70
     0
300
3" = 1'-0"
140
3.0
141
12.0
290
     0
  0
SCALE
  5
67
102
{ACAD_REACTORS
330
47
102
}
330
47
100
AcDbScale
 70
     0
300
6" = 1'-0"
140
6.0
141
12.0
290
     0
  0
SCALE
  5
68
102
{ACAD_REACTORS
330
47
102
}
330
47
100
AcDbScale
 70
     0
300
1'-0" = 1'-0"
140
12.0
141
12.0
290
     0
  0
TABLESTYLE
  5
6A
102
{ACAD_REACTORS
330
69
102
}
102
{ACAD_XDICTIONARY
360
1A2
102
}
330
69
100
AcDbTableStyle
  3
Standard
 70
     0
 71
     0
 40
0.06
 41
0.06
280
     0
281
     0
  7
Standard
140
0.18
170
     2
 62
     0
 63
   257
283
     0
 90
        4
 91
        0
  1

274
    -2
284
     1
 64
     0
275
    -2
285
     1
 65
     0
276
    -2
286
     1
 66
     0
277
    -2
287
     1
 67
     0
278
    -2
288
     1
 68
     0
279
    -2
289
     1
 69
     0
  7
Standard
140
0.25
170
     5
 62
     0
 63
   257
283
     0
 90
        4
 91
        0
  1

274
    -2
284
     1
 64
     0
275
    -2
285
     1
 65
     0
276
    -2
286
     1
 66
     0
277
    -2
287
     1
 67
     0
278
    -2
288
     1
 68
     0
279
    -2
289
     1
 69
     0
  7
Standard
140
0.18
170
     5
 62
     0
 63
   257
283
     0
 90
        4
 91
        0
  1

274
    -2
284
     1
 64
     0
275
    -2
285
     1
 65
     0
276
    -2
286
     1
 66
     0
277
    -2
287
     1
 67
     0
278
    -2
288
     1
 68
     0
279
    -2
289
     1
 69
     0
  0
VISUALSTYLE
  5
2F
102
{ACAD_REACTORS
330
2A
102
}
330
2A
100
AcDbVisualStyle
  2
2dWireframe
 70
     4
177
     3
291
     0
 70
    58
 90
        0
176
     1
 90
        2
176
     1
 90
        0
176
     1
 90
        0
176
     1
 40
0.6
176
     1
 40
30.0
176
     1
 62
     7
420
 16777215
176
     1
 90
        1
176
     1
 90
        4
176
     1
 62
     7
176
     1
 62
   257
176
     1
 90
        1
176
     1
 90
        1
176
     1
 40
1.0
176
     1
 90
        0
176
     1
 62
   257
176
     1
 40
1.0
176
     1
 90
        1
176
     1
 90
        6
176
     1
 90
        2
176
     1
 62
     7
176
     1
 90
        5
176
     1
 90
        0
176
     1
 90
        0
176
     1
290
     0
176
     1
 90
        1
176
     1
 40
0.0
176
     1
 90
        0
176
     1
290
     1
176
     1
290
     1
176
     1
290
     0
176
     1
290
     0
176
     1
290
     0
176
     1
290
     0
176
     1
290
     0
176
     1
290
     0
176
     1
290
     0
176
     1
 90
       50
176
     1
 40
0.0
176
     1
 40
1.0
176
     1
 90
        0
176
     1
 62
    18
420
        0
176
     1
 90
       50
176
     1
 90
        3
176
     1
 62
     5
420
      255
176
     1
290
     0
176
     1
 90
       50
176
     1
 90
       50
176
     1
 90
       50
176
     1
290
     0
176
     1
 90
       50
176
     1
 62
   256
176
     0
 40
1.0
176
     0
 90
        2
176
     1
  1
strokes_ogs.tif
176
     1
290
     0
176
     1
 40
1.0
176
     1
 40
1.0
176
     1
  0
VISUALSTYLE
  5
32
102
{ACAD_REACTORS
330
2A
102
}
330
2A
100
AcDbVisualStyle
  2
Basic
 70
     7
177
     3
291
     1
 70
    58
 90
        1
176
     1
 90
        0
176
     1
 90
        1
176
     1
 90
        0
176
     1
 40
0.6
176
     1
 40
30.0
176
     1
 62
     7
420
 16777215
176
     1
 90
        0
176
     1
 90
        4
176
     1
 62
     7
176
     1
 62
   257
176
     1
 90
        1
176
     1
 90
        1
176
     1
 40
1.0
176
     1
 90
        8
176
     1
 62
     7
176
     1
 40
1.0
176
     1
 90
        1
176
     1
 90
        6
176
     1
 90
        2
176
     1
 62
     7
176
     1
 90
        5
176
     1
 90
        0
176
     1
 90
        0
176
     1
290
     0
176
     1
 90
        1
176
     1
 40
0.0
176
     1
 90
        0
176
     1
290
     0
176
     1
290
     1
176
     1
290
     1
176
     1
290
     0
176
     1
290
     0
176
     1
290
     0
176
     1
290
     0
176
     1
290
     0
176
     1
290
     0
176
     1
 90
       50
176
     1
 40
0.0
176
     1
 40
1.0
176
     1
 90
        0
176
     1
 62
    18
420
        0
176
     1
 90
       50
176
     1
 90
        3
176
     1
 62
     5
420
      255
176
     1
290
     0
176
     1
 90
       50
176
     1
 90
       50
176
     1
 90
       50
176
     1
290
     0
176
     1
 90
       50
176
     1
 62
   256
176
     0
 40
1.0
176
     0
 90
        2
176
     1
  1
strokes_ogs.tif
176
     1
290
     0
176
     1
 40
1.0
176
     1
 40
1.0
176
     1
  0
VISUALSTYLE
  5
36
102
{ACAD_REACTORS
330
2A
102
}
330
2A
100
AcDbVisualStyle
  2
Brighten
 70
    12
177
     3
291
     1
 70
    58
 90
        2
176
     1
 90
        2
176
     1
 90
        0
176
     1
 90
        0
176
     1
 40
0.6
176
     1
 40
30.0
176
     1
 62
     7
420
 16777215
176
     1
 90
        1
176
     1
 90
        4
176
     1
 62
     7
176
     1
 62
   257
176
     1
 90
        1
176
     1
 90
        1
176
     1
 40
1.0
176
     1
 90
        8
176
     1
 62
     7
176
     1
 40
1.0
176
     1
 90
        1
176
     1
 90
        6
176
     1
 90
        2
176
     1
 62
     7
176
     1
 90
        5
176
     1
 90
        0
176
     1
 90
        0
176
     1
290
     0
176
     1
 90
        1
176
     1
 40
50.0
176
     1
 90
        0
176
     1
290
     0
176
     1
290
     1
176
     1
290
     1
176
     1
290
     0
176
     1
290
     0
176
     1
290
     0
176
     1
290
     0
176
     1
290
     0
176
     1
290
     0
176
     1
 90
       50
176
     1
 40
0.0
176
     1
 40
1.0
176
     1
 90
        0
176
     1
 62
    18
420
        0
176
     1
 90
       50
176
     1
 90
        3
176
     1
 62
     5
420
      255
176
     1
290
     0
176
     1
 90
       50
176
     1
 90
       50
176
     1
 90
       50
176
     1
290
     0
176
     1
 90
       50
176
     1
 62
   256
176
     0
 40
1.0
176
     0
 90
        2
176
     1
  1
strokes_ogs.tif
176
     1
290
     0
176
     1
 40
1.0
176
     1
 40
1.0
176
     1
  0
VISUALSTYLE
  5
3A
102
{ACAD_REACTORS
330
2A
102
}
330
2A
100
AcDbVisualStyle
  2
ColorChange
 70
    16
177
     3
291
     1
 70
    58
 90
        2
176
     1
 90
        2
176
     1
 90
        3
176
     1
 90
        0
176
     1
 40
0.6
176
     1
 40
30.0
176
     1
 62
     8
420
  8421504
176
     1
 90
        1
176
     1
 90
        4
176
     1
 62
     7
176
     1
 62
   257
176
     1
 90
        1
176
     1
 90
        1
176
     1
 40
1.0
176
     1
 90
        8
176
     1
 62
     8
420
  8421504
176
     1
 40
1.0
176
     1
 90
        1
176
     1
 90
        6
176
     1
 90
        2
176
     1
 62
     7
176
     1
 90
        5
176
     1
 90
        0
176
     1
 90
        0
176
     1
290
     0
176
     1
 90
        1
176
     1
 40
0.0
176
     1
 90
        0
176
     1
290
     0
176
     1
290
     1
176
     1
290
     1
176
     1
290
     0
176
     1
290
     0
176
     1
290
     0
176
     1
290
     0
176
     1
290
     0
176
     1
290
     0
176
     1
 90
       50
176
     1
 40
0.0
176
     1
 40
1.0
176
     1
 90
        0
176
     1
 62
    18
420
        0
176
     1
 90
       50
176
     1
 90
        3
176
     1
 62
     5
420
      255
176
     1
290
     0
176
     1
 90
       50
176
     1
 90
       50
176
     1
 90
       50
176
     1
290
     0
176
     1
 90
       50
176
     1
 62
   256
176
     0
 40
1.0
176
     0
 90
        2
176
     1
  1
strokes_ogs.tif
176
     1
290
     0
176
     1
 40
1.0
176
     1
 40
1.0
176
     1
  0
VISUALSTYLE
  5
34
102
{ACAD_REACTORS
330
2A
102
}
330
2A
100
AcDbVisualStyle
  2
Conceptual
 70
     9
177
     3
291
     0
 70
    58
 90
        3
176
     1
 90
        2
176
     1
 90
        0
176
     1
 90
        0
176
     1
 40
0.6
176
     1
 40
30.0
176
     1
 62
     7
420
 16777215
176
     1
 90
        2
176
     1
 90
        2
176
     1
 62
     7
176
     1
 62
   257
176
     1
 90
        1
176
     1
 90
        1
176
     1
 40
179.0
176
     1
 90
        8
176
     1
 62
     7
176
     1
 40
1.0
176
     1
 90
        1
176
     1
 90
        6
176
     1
 90
        2
176
     1
 62
     7
176
     1
 90
        3
176
     1
 90
        0
176
     1
 90
        0
176
     1
290
     0
176
     1
 90
        1
176
     1
 40
0.0
176
     1
 90
        0
176
     1
290
     0
176
     1
290
     1
176
     1
290
     1
176
     1
290
     0
176
     1
290
     0
176
     1
290
     0
176
     1
290
     0
176
     1
290
     0
176
     1
290
     0
176
     1
 90
       50
176
     1
 40
0.0
176
     1
 40
1.0
176
     1
 90
        0
176
     1
 62
    18
420
        0
176
     1
 90
       50
176
     1
 90
        3
176
     1
 62
     5
420
      255
176
     1
290
     0
176
     1
 90
       50
176
     1
 90
       50
176
     1
 90
       50
176
     1
290
     0
176
     1
 90
       50
176
     1
 62
   256
176
     0
 40
1.0
176
     0
 90
        2
176
     1
  1
strokes_ogs.tif
176
     1
290
     0
176
     1
 40
1.0
176
     1
 40
1.0
176
     1
  0
VISUALSTYLE
  5
35
102
{ACAD_REACTORS
330
2A
102
}
330
2A
100
AcDbVisualStyle
  2
Dim
 70
    11
177
     3
291
     1
 70
    58
 90
        2
176
     1
 90
        2
176
     1
 90
        0
176
     1
 90
        0
176
     1
 40
0.6
176
     1
 40
30.0
176
     1
 62
     7
420
 16777215
176
     1
 90
        1
176
     1
 90
        4
176
     1
 62
     7
176
     1
 62
   257
176
     1
 90
        1
176
     1
 90
        1
176
     1
 40
1.0
176
     1
 90
        8
176
     1
 62
     7
176
     1
 40
1.0
176
     1
 90
        1
176
     1
 90
        6
176
     1
 90
        2
176
     1
 62
     7
176
     1
 90
        5
176
     1
 90
        0
176
     1
 90
        0
176
     1
290
     0
176
     1
 90
        1
176
     1
 40
-50.0
176
     1
 90
        0
176
     1
290
     0
176
     1
290
     1
176
     1
290
     1
176
     1
290
     0
176
     1
290
     0
176
     1
290
     0
176
     1
290
     0
176
     1
290
     0
176
     1
290
     0
176
     1
 90
       50
176
     1
 40
0.0
176
     1
 40
1.0
176
     1
 90
        0
176
     1
 62
    18
420
        0
176
     1
 90
       50
176
     1
 90
        3
176
     1
 62
     5
420
      255
176
     1
290
     0
176
     1
 90
       50
176
     1
 90
       50
176
     1
 90
       50
176
     1
290
     0
176
     1
 90
       50
176
     1
 62
   256
176
     0
 40
1.0
176
     0
 90
        2
176
     1
  1
strokes_ogs.tif
176
     1
290
     0
176
     1
 40
1.0
176
     1
 40
1.0
176
     1
  0
VISUALSTYLE
  5
3D
102
{ACAD_REACTORS
330
2A
102
}
330
2A
100
AcDbVisualStyle
  2
EdgeColorOff
 70
    22
177
     3
291
     1
 70
    58
 90
        2
176
     0
 90
        2
176
     0
 90
        0
176
     0
 90
        0
176
     0
 40
0.6
176
     0
 40
30.0
176
     0
 62
     7
420
 16777215
176
     0
 90
        1
176
     0
 90
        4
176
     0
 62
     7
176
     0
 62
   257
176
     0
 90
        1
176
     0
 90
        1
176
     0
 40
1.0
176
     0
 90
        8
176
     2
 62
     7
176
     0
 40
1.0
176
     0
 90
        1
176
     0
 90
        6
176
     0
 90
        2
176
     0
 62
     7
176
     0
 90
        5
176
     0
 90
        0
176
     0
 90
        0
176
     0
290
     0
176
     0
 90
        1
176
     0
 40
0.0
176
     0
 90
        0
176
     0
290
     0
176
     0
290
     1
176
     0
290
     1
176
     0
290
     0
176
     0
290
     0
176
     0
290
     0
176
     0
290
     0
176
     0
290
     0
176
     0
290
     0
176
     0
 90
       50
176
     0
 40
0.0
176
     0
 40
1.0
176
     0
 90
        0
176
     0
 62
    18
420
        0
176
     0
 90
       50
176
     0
 90
        3
176
     0
 62
     5
420
      255
176
     0
290
     0
176
     0
 90
       50
176
     0
 90
       50
176
     0
 90
       50
176
     0
290
     0
176
     0
 90
       50
176
     0
 62
   256
176
     0
 40
1.0
176
     0
 90
        2
176
     0
  1
strokes_ogs.tif
176
     0
290
     0
176
     0
 40
1.0
176
     0
 40
1.0
176
     0
  0
VISUALSTYLE
  5
39
102
{ACAD_REACTORS
330
2A
102
}
330
2A
100
AcDbVisualStyle
  2
Facepattern
 70
    15
177
     3
291
     1
 70
    58
 90
        2
176
     1
 90
        2
176
     1
 90
        0
176
     1
 90
        0
176
     1
 40
0.6
176
     1
 40
30.0
176
     1
 62
     7
420
 16777215
176
     1
 90
        1
176
     1
 90
        4
176
     1
 62
     7
176
     1
 62
   257
176
     1
 90
        1
176
     1
 90
        1
176
     1
 40
1.0
176
     1
 90
        8
176
     1
 62
     7
176
     1
 40
1.0
176
     1
 90
        1
176
     1
 90
        6
176
     1
 90
        2
176
     1
 62
     7
176
     1
 90
        5
176
     1
 90
        0
176
     1
 90
        0
176
     1
290
     0
176
     1
 90
        1
176
     1
 40
0.0
176
     1
 90
        0
176
     1
290
     0
176
     1
290
     1
176
     1
290
     1
176
     1
290
     0
176
     1
290
     0
176
     1
290
     0
176
     1
290
     0
176
     1
290
     0
176
     1
290
     0
176
     1
 90
       50
176
     1
 40
0.0
176
     1
 40
1.0
176
     1
 90
        0
176
     1
 62
    18
420
        0
176
     1
 90
       50
176
     1
 90
        3
176
     1
 62
     5
420
      255
176
     1
290
     0
176
     1
 90
       50
176
     1
 90
       50
176
     1
 90
       50
176
     1
290
     0
176
     1
 90
       50
176
     1
 62
   256
176
     0
 40
1.0
176
     0
 90
        2
176
     1
  1
strokes_ogs.tif
176
     1
290
     0
176
     1
 40
1.0
176
     1
 40
1.0
176
     1
  0
VISUALSTYLE
  5
2B
102
{ACAD_REACTORS
330
2A
102
}
330
2A
100
AcDbVisualStyle
  2
Flat
 70
     0
177
     3
291
     1
 70
    58
 90
        2
176
     1
 90
        1
176
     1
 90
        1
176
     1
 90
        2
176
     1
 40
0.6
176
     1
 40
30.0
176
     1
 62
     7
420
 16777215
176
     1
 90
        0
176
     1
 90
        0
176
     1
 62
     7
176
     1
 62
   257
176
     1
 90
        1
176
     1
 90
        1
176
     1
 40
1.0
176
     1
 90
        8
176
     1
 62
     7
176
     1
 40
1.0
176
     1
 90
        1
176
     1
 90
        6
176
     1
 90
        2
176
     1
 62
     7
176
     1
 90
        5
176
     1
 90
        0
176
     1
 90
        0
176
     1
290
     0
176
     1
 90
       13
176
     1
 40
0.0
176
     1
 90
        0
176
     1
290
     0
176
     1
290
     1
176
     1
290
     1
176
     1
290
     0
176
     1
290
     0
176
     1
290
     0
176
     1
290
     0
176
     1
290
     0
176
     1
290
     0
176
     1
 90
       50
176
     1
 40
0.0
176
     1
 40
1.0
176
     1
 90
        0
176
     1
 62
    18
420
        0
176
     1
 90
       50
176
     1
 90
        3
176
     1
 62
     5
420
      255
176
     1
290
     0
176
     1
 90
       50
176
     1
 90
       50
176
     1
 90
       50
176
     1
290
     0
176
     1
 90
       50
176
     1
 62
   256
176
     0
 40
1.0
176
     0
 90
        2
176
     1
  1
strokes_ogs.tif
176
     1
290
     0
176
     1
 40
1.0
176
     1
 40
1.0
176
     1
  0
VISUALSTYLE
  5
2C
102
{ACAD_REACTORS
330
2A
102
}
330
2A
100
AcDbVisualStyle
  2
FlatWithEdges
 70
     1
177
     3
291
     1
 70
    58
 90
        2
176
     1
 90
        1
176
     1
 90
        1
176
     1
 90
        2
176
     1
 40
0.6
176
     1
 40
30.0
176
     1
 62
     7
420
 16777215
176
     1
 90
        1
176
     1
 90
        0
176
     1
 62
     7
176
     1
 62
   257
176
     1
 90
        1
176
     1
 90
        1
176
     1
 40
1.0
176
     1
 90
        0
176
     1
 62
   257
176
     1
 40
1.0
176
     1
 90
        1
176
     1
 90
        6
176
     1
 90
        2
176
     1
 62
     7
176
     1
 90
        5
176
     1
 90
        0
176
     1
 90
        0
176
     1
290
     0
176
     1
 90
       13
176
     1
 40
0.0
176
     1
 90
        0
176
     1
290
     0
176
     1
290
     1
176
     1
290
     1
176
     1
290
     0
176
     1
290
     0
176
     1
290
     0
176
     1
290
     0
176
     1
290
     0
176
     1
290
     0
176
     1
 90
       50
176
     1
 40
0.0
176
     1
 40
1.0
176
     1
 90
        0
176
     1
 62
    18
420
        0
176
     1
 90
       50
176
     1
 90
        3
176
     1
 62
     5
420
      255
176
     1
290
     0
176
     1
 90
       50
176
     1
 90
       50
176
     1
 90
       50
176
     1
290
     0
176
     1
 90
       50
176
     1
 62
   256
176
     0
 40
1.0
176
     0
 90
        2
176
     1
  1
strokes_ogs.tif
176
     1
290
     0
176
     1
 40
1.0
176
     1
 40
1.0
176
     1
  0
VISUALSTYLE
  5
2D
102
{ACAD_REACTORS
330
2A
102
}
330
2A
100
AcDbVisualStyle
  2
Gouraud
 70
     2
177
     3
291
     1
 70
    58
 90
        2
176
     1
 90
        2
176
     1
 90
        1
176
     1
 90
        2
176
     1
 40
0.6
176
     1
 40
30.0
176
     1
 62
     7
420
 16777215
176
     1
 90
        0
176
     1
 90
        0
176
     1
 62
     7
176
     1
 62
   257
176
     1
 90
        1
176
     1
 90
        1
176
     1
 40
1.0
176
     1
 90
        0
176
     1
 62
     7
176
     1
 40
1.0
176
     1
 90
        1
176
     1
 90
        6
176
     1
 90
        2
176
     1
 62
     7
176
     1
 90
        5
176
     1
 90
        0
176
     1
 90
        0
176
     1
290
     0
176
     1
 90
       13
176
     1
 40
0.0
176
     1
 90
        0
176
     1
290
     0
176
     1
290
     1
176
     1
290
     1
176
     1
290
     0
176
     1
290
     0
176
     1
290
     0
176
     1
290
     0
176
     1
290
     0
176
     1
290
     0
176
     1
 90
       50
176
     1
 40
0.0
176
     1
 40
1.0
176
     1
 90
        0
176
     1
 62
    18
420
        0
176
     1
 90
       50
176
     1
 90
        3
176
     1
 62
     5
420
      255
176
     1
290
     0
176
     1
 90
       50
176
     1
 90
       50
176
     1
 90
       50
176
     1
290
     0
176
     1
 90
       50
176
     1
 62
   256
176
     0
 40
1.0
176
     0
 90
        2
176
     1
  1
strokes_ogs.tif
176
     1
290
     0
176
     1
 40
1.0
176
     1
 40
1.0
176
     1
  0
VISUALSTYLE
  5
2E
102
{ACAD_REACTORS
330
2A
102
}
330
2A
100
AcDbVisualStyle
  2
GouraudWithEdges
 70
     3
177
     3
291
     1
 70
    58
 90
        2
176
     1
 90
        2
176
     1
 90
        1
176
     1
 90
        2
176
     1
 40
0.6
176
     1
 40
30.0
176
     1
 62
     7
420
 16777215
176
     1
 90
        1
176
     1
 90
        0
176
     1
 62
     7
176
     1
 62
   257
176
     1
 90
        1
176
     1
 90
        1
176
     1
 40
1.0
176
     1
 90
        0
176
     1
 62
   257
176
     1
 40
1.0
176
     1
 90
        1
176
     1
 90
        6
176
     1
 90
        2
176
     1
 62
     7
176
     1
 90
        5
176
     1
 90
        0
176
     1
 90
        0
176
     1
290
     0
176
     1
 90
       13
176
     1
 40
0.0
176
     1
 90
        0
176
     1
290
     0
176
     1
290
     1
176
     1
290
     1
176
     1
290
     0
176
     1
290
     0
176
     1
290
     0
176
     1
290
     0
176
     1
290
     0
176
     1
290
     0
176
     1
 90
       50
176
     1
 40
0.0
176
     1
 40
1.0
176
     1
 90
        0
176
     1
 62
    18
420
        0
176
     1
 90
       50
176
     1
 90
        3
176
     1
 62
     5
420
      255
176
     1
290
     0
176
     1
 90
       50
176
     1
 90
       50
176
     1
 90
       50
176
     1
290
     0
176
     1
 90
       50
176
     1
 62
   256
176
     0
 40
1.0
176
     0
 90
        2
176
     1
  1
strokes_ogs.tif
176
     1
290
     0
176
     1
 40
1.0
176
     1
 40
1.0
176
     1
  0
VISUALSTYLE
  5
31
102
{ACAD_REACTORS
330
2A
102
}
330
2A
100
AcDbVisualStyle
  2
Hidden
 70
     6
177
     3
291
     0
 70
    58
 90
        1
176
     1
 90
        2
176
     1
 90
        2
176
     1
 90
        0
176
     1
 40
0.6
176
     1
 40
30.0
176
     1
 62
     7
420
 16777215
176
     1
 90
        2
176
     1
 90
        2
176
     1
 62
     7
176
     1
 62
   257
176
     1
 90
        2
176
     1
 90
        1
176
     1
 40
40.0
176
     1
 90
        0
176
     1
 62
   257
176
     1
 40
1.0
176
     1
 90
        1
176
     1
 90
        6
176
     1
 90
        2
176
     1
 62
     7
176
     1
 90
        3
176
     1
 90
        0
176
     1
 90
        0
176
     1
290
     0
176
     1
 90
        1
176
     1
 40
0.0
176
     1
 90
        0
176
     1
290
     0
176
     1
290
     1
176
     1
290
     1
176
     1
290
     0
176
     1
290
     0
176
     1
290
     0
176
     1
290
     0
176
     1
290
     0
176
     1
290
     0
176
     1
 90
       50
176
     1
 40
0.0
176
     1
 40
1.0
176
     1
 90
        0
176
     1
 62
    18
420
        0
176
     1
 90
       50
176
     1
 90
        3
176
     1
 62
     5
420
      255
176
     1
290
     0
176
     1
 90
       50
176
     1
 90
       50
176
     1
 90
       50
176
     1
290
     0
176
     1
 90
       50
176
     1
 62
   256
176
     0
 40
1.0
176
     0
 90
        2
176
     1
  1
strokes_ogs.tif
176
     1
290
     0
176
     1
 40
1.0
176
     1
 40
1.0
176
     1
  0
VISUALSTYLE
  5
3B
102
{ACAD_REACTORS
330
2A
102
}
330
2A
100
AcDbVisualStyle
  2
JitterOff
 70
    20
177
     3
291
     1
 70
    58
 90
        2
176
     0
 90
        2
176
     0
 90
        0
176
     0
 90
        0
176
     0
 40
0.6
176
     0
 40
30.0
176
     0
 62
     7
420
 16777215
176
     0
 90
        1
176
     0
 90
        4
176
     0
 62
     7
176
     0
 62
   257
176
     0
 90
        1
176
     0
 90
        1
176
     0
 40
1.0
176
     0
 90
       10
176
     2
 62
     7
176
     0
 40
1.0
176
     0
 90
        1
176
     0
 90
        6
176
     0
 90
        2
176
     0
 62
     7
176
     0
 90
        5
176
     0
 90
        0
176
     0
 90
        0
176
     0
290
     0
176
     0
 90
        1
176
     0
 40
0.0
176
     0
 90
        0
176
     0
290
     0
176
     0
290
     1
176
     0
290
     1
176
     0
290
     0
176
     0
290
     0
176
     0
290
     0
176
     0
290
     0
176
     0
290
     0
176
     0
290
     0
176
     0
 90
       50
176
     0
 40
0.0
176
     0
 40
1.0
176
     0
 90
        0
176
     0
 62
    18
420
        0
176
     0
 90
       50
176
     0
 90
        3
176
     0
 62
     5
420
      255
176
     0
290
     0
176
     0
 90
       50
176
     0
 90
       50
176
     0
 90
       50
176
     0
290
     0
176
     0
 90
       50
176
     0
 62
   256
176
     0
 40
1.0
176
     0
 90
        2
176
     0
  1
strokes_ogs.tif
176
     0
290
     0
176
     0
 40
1.0
176
     0
 40
1.0
176
     0
  0
VISUALSTYLE
  5
38
102
{ACAD_REACTORS
330
2A
102
}
330
2A
100
AcDbVisualStyle
  2
Linepattern
 70
    14
177
     3
291
     1
 70
    58
 90
        2
176
     1
 90
        2
176
     1
 90
        0
176
     1
 90
        0
176
     1
 40
0.6
176
     1
 40
30.0
176
     1
 62
     7
420
 16777215
176
     1
 90
        1
176
     1
 90
        4
176
     1
 62
     7
176
     1
 62
   257
176
     1
 90
        7
176
     1
 90
        7
176
     1
 40
1.0
176
     1
 90
        8
176
     1
 62
     7
176
     1
 40
1.0
176
     1
 90
        1
176
     1
 90
        6
176
     1
 90
        2
176
     1
 62
     7
176
     1
 90
        5
176
     1
 90
        0
176
     1
 90
        0
176
     1
290
     0
176
     1
 90
        1
176
     1
 40
0.0
176
     1
 90
        0
176
     1
290
     0
176
     1
290
     1
176
     1
290
     1
176
     1
290
     0
176
     1
290
     0
176
     1
290
     0
176
     1
290
     0
176
     1
290
     0
176
     1
290
     0
176
     1
 90
       50
176
     1
 40
0.0
176
     1
 40
1.0
176
     1
 90
        0
176
     1
 62
    18
420
        0
176
     1
 90
       50
176
     1
 90
        3
176
     1
 62
     5
420
      255
176
     1
290
     0
176
     1
 90
       50
176
     1
 90
       50
176
     1
 90
       50
176
     1
290
     0
176
     1
 90
       50
176
     1
 62
   256
176
     0
 40
1.0
176
     0
 90
        2
176
     1
  1
strokes_ogs.tif
176
     1
290
     0
176
     1
 40
1.0
176
     1
 40
1.0
176
     1
  0
VISUALSTYLE
  5
3C
102
{ACAD_REACTORS
330
2A
102
}
330
2A
100
AcDbVisualStyle
  2
OverhangOff
 70
    21
177
     3
291
     1
 70
    58
 90
        2
176
     0
 90
        2
176
     0
 90
        0
176
     0
 90
        0
176
     0
 40
0.6
176
     0
 40
30.0
176
     0
 62
     7
420
 16777215
176
     0
 90
        1
176
     0
 90
        4
176
     0
 62
     7
176
     0
 62
   257
176
     0
 90
        1
176
     0
 90
        1
176
     0
 40
1.0
176
     0
 90
        9
176
     2
 62
     7
176
     0
 40
1.0
176
     0
 90
        1
176
     0
 90
        6
176
     0
 90
        2
176
     0
 62
     7
176
     0
 90
        5
176
     0
 90
        0
176
     0
 90
        0
176
     0
290
     0
176
     0
 90
        1
176
     0
 40
0.0
176
     0
 90
        0
176
     0
290
     0
176
     0
290
     1
176
     0
290
     1
176
     0
290
     0
176
     0
290
     0
176
     0
290
     0
176
     0
290
     0
176
     0
290
     0
176
     0
290
     0
176
     0
 90
       50
176
     0
 40
0.0
176
     0
 40
1.0
176
     0
 90
        0
176
     0
 62
    18
420
        0
176
     0
 90
       50
176
     0
 90
        3
176
     0
 62
     5
420
      255
176
     0
290
     0
176
     0
 90
       50
176
     0
 90
       50
176
     0
 90
       50
176
     0
290
     0
176
     0
 90
       50
176
     0
 62
   256
176
     0
 40
1.0
176
     0
 90
        2
176
     0
  1
strokes_ogs.tif
176
     0
290
     0
176
     0
 40
1.0
176
     0
 40
1.0
176
     0
  0
VISUALSTYLE
  5
33
102
{ACAD_REACTORS
330
2A
102
}
330
2A
100
AcDbVisualStyle
  2
Realistic
 70
     8
177
     3
291
     0
 70
    58
 90
        2
176
     1
 90
        3
176
     1
 90
        0
176
     1
 90
        2
176
     1
 40
0.6
176
     1
 40
30.0
176
     1
 62
     7
420
 16777215
176
     1
 90
        0
176
     1
 90
        0
176
     1
 62
     7
176
     1
 62
   257
176
     1
 90
        1
176
     1
 90
        1
176
     1
 40
1.0
176
     1
 90
        8
176
     1
 62
   257
176
     1
 40
1.0
176
     1
 90
        1
176
     1
 90
        6
176
     1
 90
        2
176
     1
 62
     7
176
     1
 90
        3
176
     1
 90
        0
176
     1
 90
        0
176
     1
290
     0
176
     1
 90
       13
176
     1
 40
0.0
176
     1
 90
        0
176
     1
290
     0
176
     1
290
     1
176
     1
290
     1
176
     1
290
     0
176
     1
290
     0
176
     1
290
     0
176
     1
290
     0
176
     1
290
     0
176
     1
290
     0
176
     1
 90
       50
176
     1
 40
0.0
176
     1
 40
1.0
176
     1
 90
        0
176
     1
 62
    18
420
        0
176
     1
 90
       50
176
     1
 90
        3
176
     1
 62
     5
420
      255
176
     1
290
     0
176
     1
 90
       50
176
     1
 90
       50
176
     1
 90
       50
176
     1
290
     0
176
     1
 90
       50
176
     1
 62
   256
176
     0
 40
1.0
176
     0
 90
        2
176
     1
  1
strokes_ogs.tif
176
     1
290
     0
176
     1
 40
1.0
176
     1
 40
1.0
176
     1
  0
VISUALSTYLE
  5
42
102
{ACAD_REACTORS
330
2A
102
}
330
2A
100
AcDbVisualStyle
  2
Shaded
 70
    27
177
     3
291
     0
 70
    58
 90
        2
176
     1
 90
        2
176
     1
 90
        1
176
     1
 90
        2
176
     1
 40
0.6
176
     1
 40
30.0
176
     1
 62
     7
420
 16777215
176
     1
 90
        0
176
     1
 90
        4
176
     1
 62
     7
176
     1
 62
   257
176
     1
 90
        1
176
     1
 90
        1
176
     1
 40
1.0
176
     1
 90
        8
176
     1
 62
   257
176
     1
 40
1.0
176
     1
 90
        1
176
     1
 90
        6
176
     1
 90
        2
176
     1
 62
     8
420
  7895160
176
     1
 90
        3
176
     1
 90
        0
176
     1
 90
        0
176
     1
290
     0
176
     1
 90
        5
176
     1
 40
0.0
176
     1
 90
        0
176
     1
290
     0
176
     1
290
     1
176
     1
290
     1
176
     1
290
     0
176
     1
290
     0
176
     1
290
     0
176
     1
290
     0
176
     1
290
     0
176
     1
290
     0
176
     1
 90
       50
176
     1
 40
0.0
176
     1
 40
1.0
176
     1
 90
        0
176
     1
 62
    18
420
        0
176
     1
 90
       50
176
     1
 90
        3
176
     1
 62
     5
420
      255
176
     1
290
     0
176
     1
 90
       50
176
     1
 90
       50
176
     1
 90
       50
176
     1
290
     0
176
     1
 90
       50
176
     1
 62
   256
176
     0
 40
1.0
176
     0
 90
        2
176
     1
  1
strokes_ogs.tif
176
     1
290
     0
176
     1
 40
1.0
176
     1
 40
1.0
176
     1
  0
VISUALSTYLE
  5
41
102
{ACAD_REACTORS
330
2A
102
}
330
2A
100
AcDbVisualStyle
  2
Shaded with edges
 70
    26
177
     3
291
     0
 70
    58
 90
        2
176
     1
 90
        2
176
     1
 90
        1
176
     1
 90
        2
176
     1
 40
0.6
176
     1
 40
30.0
176
     1
 62
     7
420
 16777215
176
     1
 90
        1
176
     1
 90
       10
176
     1
 62
     7
176
     1
 62
   257
176
     1
 90
        2
176
     1
 90
        1
176
     1
 40
1.0
176
     1
 90
        8
176
     1
 62
   257
176
     1
 40
1.0
176
     1
 90
        1
176
     1
 90
        6
176
     1
 90
        2
176
     1
 62
     7
176
     1
 90
        3
176
     1
 90
        0
176
     1
 90
        0
176
     1
290
     0
176
     1
 90
        5
176
     1
 40
0.0
176
     1
 90
        0
176
     1
290
     0
176
     1
290
     1
176
     1
290
     1
176
     1
290
     0
176
     1
290
     0
176
     1
290
     0
176
     1
290
     0
176
     1
290
     0
176
     1
290
     0
176
     1
 90
       50
176
     1
 40
0.0
176
     1
 40
1.0
176
     1
 90
        0
176
     1
 62
    18
420
        0
176
     1
 90
       50
176
     1
 90
        3
176
     1
 62
     5
420
      255
176
     1
290
     0
176
     1
 90
       50
176
     1
 90
       50
176
     1
 90
       50
176
     1
290
     0
176
     1
 90
       50
176
     1
 62
   256
176
     0
 40
1.0
176
     0
 90
        2
176
     1
  1
strokes_ogs.tif
176
     1
290
     0
176
     1
 40
1.0
176
     1
 40
1.0
176
     1
  0
VISUALSTYLE
  5
3E
102
{ACAD_REACTORS
330
2A
102
}
330
2A
100
AcDbVisualStyle
  2
Shades of Gray
 70
    23
177
     3
291
     0
 70
    58
 90
        2
176
     1
 90
        2
176
     1
 90
        3
176
     1
 90
        0
176
     1
 40
0.6
176
     1
 40
30.0
176
     1
 62
     7
420
 16777215
176
     1
 90
        2
176
     1
 90
        2
176
     1
 62
     7
176
     1
 62
     7
176
     1
 90
        1
176
     1
 90
        1
176
     1
 40
40.0
176
     1
 90
        8
176
     1
 62
     7
176
     1
 40
1.0
176
     1
 90
        1
176
     1
 90
        6
176
     1
 90
        2
176
     1
 62
     7
176
     1
 90
        3
176
     1
 90
        0
176
     1
 90
        0
176
     1
290
     0
176
     1
 90
        1
176
     1
 40
0.0
176
     1
 90
        0
176
     1
290
     0
176
     1
290
     1
176
     1
290
     1
176
     1
290
     0
176
     1
290
     0
176
     1
290
     0
176
     1
290
     0
176
     1
290
     0
176
     1
290
     0
176
     1
 90
       50
176
     1
 40
0.0
176
     1
 40
1.0
176
     1
 90
        0
176
     1
 62
    18
420
        0
176
     1
 90
       50
176
     1
 90
        3
176
     1
 62
     5
420
      255
176
     1
290
     0
176
     1
 90
       50
176
     1
 90
       50
176
     1
 90
       50
176
     1
290
     0
176
     1
 90
       50
176
     1
 62
   256
176
     0
 40
1.0
176
     0
 90
        2
176
     1
  1
strokes_ogs.tif
176
     1
290
     0
176
     1
 40
1.0
176
     1
 40
1.0
176
     1
  0
VISUALSTYLE
  5
3F
102
{ACAD_REACTORS
330
2A
102
}
330
2A
100
AcDbVisualStyle
  2
Sketchy
 70
    24
177
     3
291
     0
 70
    58
 90
        1
176
     1
 90
        2
176
     1
 90
        2
176
     1
 90
        0
176
     1
 40
0.6
176
     1
 40
30.0
176
     1
 62
     7
420
 16777215
176
     1
 90
        2
176
     1
 90
        2
176
     1
 62
     7
176
     1
 62
     7
176
     1
 90
        1
176
     1
 90
        1
176
     1
 40
40.0
176
     1
 90
       11
176
     1
 62
     7
176
     1
 40
1.0
176
     1
 90
        1
176
     1
 90
        6
176
     1
 90
        2
176
     1
 62
     7
176
     1
 90
        6
176
     1
 90
        0
176
     1
 90
        0
176
     1
290
     0
176
     1
 90
        1
176
     1
 40
0.0
176
     1
 90
        0
176
     1
290
     0
176
     1
290
     1
176
     1
290
     1
176
     1
290
     0
176
     1
290
     0
176
     1
290
     0
176
     1
290
     0
176
     1
290
     0
176
     1
290
     0
176
     1
 90
       50
176
     1
 40
0.0
176
     1
 40
1.0
176
     1
 90
        0
176
     1
 62
    18
420
        0
176
     1
 90
       50
176
     1
 90
        3
176
     1
 62
     5
420
      255
176
     1
290
     0
176
     1
 90
       50
176
     1
 90
       50
176
     1
 90
       50
176
     1
290
     0
176
     1
 90
       50
176
     1
 62
   256
176
     0
 40
1.0
176
     0
 90
        2
176
     1
  1
strokes_ogs.tif
176
     1
290
     0
176
     1
 40
1.0
176
     1
 40
1.0
176
     1
  0
VISUALSTYLE
  5
37
102
{ACAD_REACTORS
330
2A
102
}
330
2A
100
AcDbVisualStyle
  2
Thicken
 70
    13
177
     3
291
     1
 70
    58
 90
        2
176
     1
 90
        2
176
     1
 90
        0
176
     1
 90
        0
176
     1
 40
0.6
176
     1
 40
30.0
176
     1
 62
     7
420
 16777215
176
     1
 90
        1
176
     1
 90
        4
176
     1
 62
     7
176
     1
 62
   257
176
     1
 90
        1
176
     1
 90
        1
176
     1
 40
1.0
176
     1
 90
       12
176
     1
 62
     7
176
     1
 40
1.0
176
     1
 90
        1
176
     1
 90
        6
176
     1
 90
        2
176
     1
 62
     7
176
     1
 90
        5
176
     1
 90
        0
176
     1
 90
        0
176
     1
290
     0
176
     1
 90
        1
176
     1
 40
0.0
176
     1
 90
        0
176
     1
290
     0
176
     1
290
     1
176
     1
290
     1
176
     1
290
     0
176
     1
290
     0
176
     1
290
     0
176
     1
290
     0
176
     1
290
     0
176
     1
290
     0
176
     1
 90
       50
176
     1
 40
0.0
176
     1
 40
1.0
176
     1
 90
        0
176
     1
 62
    18
420
        0
176
     1
 90
       50
176
     1
 90
        3
176
     1
 62
     5
420
      255
176
     1
290
     0
176
     1
 90
       50
176
     1
 90
       50
176
     1
 90
       50
176
     1
290
     0
176
     1
 90
       50
176
     1
 62
   256
176
     0
 40
1.0
176
     0
 90
        2
176
     1
  1
strokes_ogs.tif
176
     1
290
     0
176
     1
 40
1.0
176
     1
 40
1.0
176
     1
  0
VISUALSTYLE
  5
30
102
{ACAD_REACTORS
330
2A
102
}
330
2A
100
AcDbVisualStyle
  2
Wireframe
 70
     5
177
     3
291
     0
 70
    58
 90
        0
176
     1
 90
        2
176
     1
 90
        0
176
     1
 90
        0
176
     1
 40
0.6
176
     1
 40
30.0
176
     1
 62
     7
420
 16777215
176
     1
 90
        1
176
     1
 90
        4
176
     1
 62
     7
176
     1
 62
   257
176
     1
 90
        1
176
     1
 90
        1
176
     1
 40
1.0
176
     1
 90
        0
176
     1
 62
   257
176
     1
 40
1.0
176
     1
 90
        1
176
     1
 90
        6
176
     1
 90
        2
176
     1
 62
     7
176
     1
 90
        3
176
     1
 90
        0
176
     1
 90
        0
176
     1
290
     0
176
     1
 90
        1
176
     1
 40
0.0
176
     1
 90
        0
176
     1
290
     0
176
     1
290
     1
176
     1
290
     1
176
     1
290
     0
176
     1
290
     0
176
     1
290
     0
176
     1
290
     0
176
     1
290
     0
176
     1
290
     0
176
     1
 90
       50
176
     1
 40
0.0
176
     1
 40
1.0
176
     1
 90
        0
176
     1
 62
    18
420
        0
176
     1
 90
       50
176
     1
 90
        3
176
     1
 62
     5
420
      255
176
     1
290
     0
176
     1
 90
       50
176
     1
 90
       50
176
     1
 90
       50
176
     1
290
     0
176
     1
 90
       50
176
     1
 62
   256
176
     0
 40
1.0
176
     0
 90
        2
176
     1
  1
strokes_ogs.tif
176
     1
290
     0
176
     1
 40
1.0
176
     1
 40
1.0
176
     1
  0
VISUALSTYLE
  5
40
102
{ACAD_REACTORS
330
2A
102
}
330
2A
100
AcDbVisualStyle
  2
X-Ray
 70
    25
177
     3
291
     0
 70
    58
 90
        2
176
     1
 90
        2
176
     1
 90
        1
176
     1
 90
        1
176
     1
 40
0.5
176
     1
 40
30.0
176
     1
 62
     7
420
 16777215
176
     1
 90
        1
176
     1
 90
        0
176
     1
 62
     7
176
     1
 62
   257
176
     1
 90
        1
176
     1
 90
        1
176
     1
 40
1.0
176
     1
 90
        8
176
     1
 62
     7
176
     1
 40
1.0
176
     1
 90
        1
176
     1
 90
        6
176
     1
 90
        2
176
     1
 62
     7
176
     1
 90
        3
176
     1
 90
        0
176
     1
 90
        0
176
     1
290
     0
176
     1
 90
       13
176
     1
 40
0.0
176
     1
 90
        0
176
     1
290
     0
176
     1
290
     1
176
     1
290
     1
176
     1
290
     0
176
     1
290
     0
176
     1
290
     0
176
     1
290
     0
176
     1
290
     0
176
     1
290
     0
176
     1
 90
       50
176
     1
 40
0.0
176
     1
 40
1.0
176
     1
 90
        0
176
     1
 62
    18
420
        0
176
     1
 90
       50
176
     1
 90
        3
176
     1
 62
     5
420
      255
176
     1
290
     0
176
     1
 90
       50
176
     1
 90
       50
176
     1
 90
       50
176
     1
290
     0
176
     1
 90
       50
176
     1
 62
   256
176
     0
 40
1.0
176
     0
 90
        2
176
     1
  1
strokes_ogs.tif
176
     1
290
     0
176
     1
 40
1.0
176
     1
 40
1.0
176
     1
  0
DICTIONARYVAR
  5
1A1
102
{ACAD_REACTORS
330
1A0
102
}
330
1A0
100
DictionaryVariables
280
     0
  1
1:1
  0
DICTIONARYVAR
  5
1A6
102
{ACAD_REACTORS
330
1A0
102
}
330
1A0
100
DictionaryVariables
280
     0
  1
Standard
  0
DICTIONARYVAR
  5
1A5
102
{ACAD_REACTORS
330
1A0
102
}
330
1A0
100
DictionaryVariables
280
     0
  1
Standard
  0
DICTIONARY
  5
1A2
330
6A
100
AcDbDictionary
280
     1
281
     1
  3
ACAD_ROUNDTRIP_2008_TABLESTYLE_CELLSTYLEMAP
360
1A3
  0
CELLSTYLEMAP
  5
1A3
102
{ACAD_REACTORS
330
1A2
102
}
330
1A2
100
AcDbCellStyleMap
 90
        3
300
CELLSTYLE
  1
TABLEFORMAT_BEGIN
 90
        5
170
     1
 91
        0
 92
    32768
 62
   257
 93
        1
300
CONTENTFORMAT
  1
CONTENTFORMAT_BEGIN
 90
        0
 91
        0
 92
        4
 93
        0
300

 40
0.0
140
1.0
 94
        5
 62
     0
340
11
144
0.25
309
CONTENTFORMAT_END
171
     1
301
MARGIN
  1
CELLMARGIN_BEGIN
 40
0.06
 40
0.06
 40
0.06
 40
0.06
 40
0.06
 40
0.06
309
CELLMARGIN_END
 94
        6
 95
        1
302
GRIDFORMAT
  1
GRIDFORMAT_BEGIN
 90
        0
 91
        1
 62
     0
 92
       -2
340
14
 93
        0
 40
0.045
309
GRIDFORMAT_END
 95
        2
302
GRIDFORMAT
  1
GRIDFORMAT_BEGIN
 90
        0
 91
        1
 62
     0
 92
       -2
340
14
 93
        0
 40
0.045
309
GRIDFORMAT_END
 95
        4
302
GRIDFORMAT
  1
GRIDFORMAT_BEGIN
 90
        0
 91
        1
 62
     0
 92
       -2
340
14
 93
        0
 40
0.045
309
GRIDFORMAT_END
 95
        8
302
GRIDFORMAT
  1
GRIDFORMAT_BEGIN
 90
        0
 91
        1
 62
     0
 92
       -2
340
14
 93
        0
 40
0.045
309
GRIDFORMAT_END
 95
       16
302
GRIDFORMAT
  1
GRIDFORMAT_BEGIN
 90
        0
 91
        1
 62
     0
 92
       -2
340
14
 93
        0
 40
0.045
309
GRIDFORMAT_END
 95
       32
302
GRIDFORMAT
  1
GRIDFORMAT_BEGIN
 90
        0
 91
        1
 62
     0
 92
       -2
340
14
 93
        0
 40
0.045
309
GRIDFORMAT_END
309
TABLEFORMAT_END
  1
CELLSTYLE_BEGIN
 90
        1
 91
        1
300
_TITLE
309
CELLSTYLE_END
300
CELLSTYLE
  1
TABLEFORMAT_BEGIN
 90
        5
170
     1
 91
        0
 92
        0
 62
   257
 93
        1
300
CONTENTFORMAT
  1
CONTENTFORMAT_BEGIN
 90
        0
 91
        0
 92
        4
 93
        0
300

 40
0.0
140
1.0
 94
        5
 62
     0
340
11
144
0.18
309
CONTENTFORMAT_END
171
     1
301
MARGIN
  1
CELLMARGIN_BEGIN
 40
0.06
 40
0.06
 40
0.06
 40
0.06
 40
0.06
 40
0.06
309
CELLMARGIN_END
 94
        6
 95
        1
302
GRIDFORMAT
  1
GRIDFORMAT_BEGIN
 90
        0
 91
        1
 62
     0
 92
       -2
340
14
 93
        0
 40
0.045
309
GRIDFORMAT_END
 95
        2
302
GRIDFORMAT
  1
GRIDFORMAT_BEGIN
 90
        0
 91
        1
 62
     0
 92
       -2
340
14
 93
        0
 40
0.045
309
GRIDFORMAT_END
 95
        4
302
GRIDFORMAT
  1
GRIDFORMAT_BEGIN
 90
        0
 91
        1
 62
     0
 92
       -2
340
14
 93
        0
 40
0.045
309
GRIDFORMAT_END
 95
        8
302
GRIDFORMAT
  1
GRIDFORMAT_BEGIN
 90
        0
 91
        1
 62
     0
 92
       -2
340
14
 93
        0
 40
0.045
309
GRIDFORMAT_END
 95
       16
302
GRIDFORMAT
  1
GRIDFORMAT_BEGIN
 90
        0
 91
        1
 62
     0
 92
       -2
340
14
 93
        0
 40
0.045
309
GRIDFORMAT_END
 95
       32
302
GRIDFORMAT
  1
GRIDFORMAT_BEGIN
 90
        0
 91
        1
 62
     0
 92
       -2
340
14
 93
        0
 40
0.045
309
GRIDFORMAT_END
309
TABLEFORMAT_END
  1
CELLSTYLE_BEGIN
 90
        2
 91
        1
300
_HEADER
309
CELLSTYLE_END
300
CELLSTYLE
  1
TABLEFORMAT_BEGIN
 90
        5
170
     1
 91
        0
 92
        0
 62
   257
 93
        1
300
CONTENTFORMAT
  1
CONTENTFORMAT_BEGIN
 90
        0
 91
        0
 92
        4
 93
        0
300

 40
0.0
140
1.0
 94
        2
 62
     0
340
11
144
0.18
309
CONTENTFORMAT_END
171
     1
301
MARGIN
  1
CELLMARGIN_BEGIN
 40
0.06
 40
0.06
 40
0.06
 40
0.06
 40
0.06
 40
0.06
309
CELLMARGIN_END
 94
        6
 95
        1
302
GRIDFORMAT
  1
GRIDFORMAT_BEGIN
 90
        0
 91
        1
 62
     0
 92
       -2
340
14
 93
        0
 40
0.045
309
GRIDFORMAT_END
 95
        2
302
GRIDFORMAT
  1
GRIDFORMAT_BEGIN
 90
        0
 91
        1
 62
     0
 92
       -2
340
14
 93
        0
 40
0.045
309
GRIDFORMAT_END
 95
        4
302
GRIDFORMAT
  1
GRIDFORMAT_BEGIN
 90
        0
 91
        1
 62
     0
 92
       -2
340
14
 93
        0
 40
0.045
309
GRIDFORMAT_END
 95
        8
302
GRIDFORMAT
  1
GRIDFORMAT_BEGIN
 90
        0
 91
        1
 62
     0
 92
       -2
340
14
 93
        0
 40
0.045
309
GRIDFORMAT_END
 95
       16
302
GRIDFORMAT
  1
GRIDFORMAT_BEGIN
 90
        0
 91
        1
 62
     0
 92
       -2
340
14
 93
        0
 40
0.045
309
GRIDFORMAT_END
 95
       32
302
GRIDFORMAT
  1
GRIDFORMAT_BEGIN
 90
        0
 91
        1
 62
     0
 92
       -2
340
14
 93
        0
 40
0.045
309
GRIDFORMAT_END
309
TABLEFORMAT_END
  1
CELLSTYLE_BEGIN
 90
        3
 91
        2
300
_DATA
309
CELLSTYLE_END
  0
ENDSEC
  0
EOF