0
SECTION
  2
HEADER
  9
$ACADVER
  1
AC1027
  9
$ACADMAINTVER
 70
     8
  9
$DWGCODEPAGE
  3
ANSI_1252
  9
$REQUIREDVERSIONS
160
                 0
  9
$COMMENTS
  1
File was created by Cadenas
  9
$CUSTOMPROPERTYTAG
  1
NN
  9
$CUSTOMPROPERTY
  1
Set Screw Medium Duty Extreme Duty Two-Bolt Flange Inch Bore
  9
$CUSTOMPROPERTYTAG
  1
NT
  9
$CUSTOMPROPERTY
  1
SC 2 Bolt Flange Bearings -(Normal Duty)
  9
$CUSTOMPROPERTYTAG
  1
NB
  9
$CUSTOMPROPERTY
  1
076145
  9
$CUSTOMPROPERTYTAG
  1
NBSYN
  9
$CUSTOMPROPERTY
  1
$PN.
  9
$CUSTOMPROPERTYTAG
  1
LINA
  9
$CUSTOMPROPERTY
  1
076145
  9
$CUSTOMPROPERTYTAG
  1
SERIES
  9
$CUSTOMPROPERTY
  1
210
  9
$CUSTOMPROPERTYTAG
  1
SS
  9
$CUSTOMPROPERTY
  1
1-11/16
  9
$CUSTOMPROPERTYTAG
  1
PN
  9
$CUSTOMPROPERTY
  1
076145
  9
$CUSTOMPROPERTYTAG
  1
DESCRIPTION
  9
$CUSTOMPROPERTY
  1
F2B-SCMED-111
  9
$CUSTOMPROPERTYTAG
  1
W
  9
$CUSTOMPROPERTY
  1
5.8
  9
$CUSTOMPROPERTYTAG
  1
A
  9
$CUSTOMPROPERTY
  1
1.94
  9
$CUSTOMPROPERTYTAG
  1
B
  9
$CUSTOMPROPERTY
  1
7.44
  9
$CUSTOMPROPERTYTAG
  1
C
  9
$CUSTOMPROPERTY
  1
2.02
  9
$CUSTOMPROPERTYTAG
  1
D
  9
$CUSTOMPROPERTY
  1
6.19
  9
$CUSTOMPROPERTYTAG
  1
F
  9
$CUSTOMPROPERTY
  1
1/2
  9
$CUSTOMPROPERTYTAG
  1
H
  9
$CUSTOMPROPERTY
  1
0.63
  9
$CUSTOMPROPERTYTAG
  1
J
  9
$CUSTOMPROPERTY
  1
0.55
  9
$CUSTOMPROPERTYTAG
  1
L
  9
$CUSTOMPROPERTY
  1
2.43
  9
$CUSTOMPROPERTYTAG
  1
M
  9
$CUSTOMPROPERTY
  1
4.56
  9
$CUSTOMPROPERTYTAG
  1
N
  9
$CUSTOMPROPERTY
  1
2.03
  9
$CUSTOMPROPERTYTAG
  1
COMPANY
  9
$CUSTOMPROPERTY
  1
baldor
  9
$INSBASE
 10
0.0
 20
0.0
 30
0.0
  9
$EXTMIN
 10
1.000000000000000E+20
 20
1.000000000000000E+20
 30
1.000000000000000E+20
  9
$EXTMAX
 10
-1.000000000000000E+20
 20
-1.000000000000000E+20
 30
-1.000000000000000E+20
  9
$LIMMIN
 10
0.0
 20
0.0
  9
$LIMMAX
 10
12.0
 20
9.0
  9
$ORTHOMODE
 70
     0
  9
$REGENMODE
 70
     1
  9
$FILLMODE
 70
     1
  9
$QTEXTMODE
 70
     0
  9
$MIRRTEXT
 70
     1
  9
$LTSCALE
 40
1.0
  9
$ATTMODE
 70
     1
  9
$TEXTSIZE
 40
0.2
  9
$TRACEWID
 40
0.05
  9
$TEXTSTYLE
  7
Standard
  9
$CLAYER
  8
0
  9
$CELTYPE
  6
ByLayer
  9
$CECOLOR
 62
   256
  9
$CELTSCALE
 40
1.0
  9
$DISPSILH
 70
     0
  9
$DIMSCALE
 40
1.0
  9
$DIMASZ
 40
0.18
  9
$DIMEXO
 40
0.0625
  9
$DIMDLI
 40
0.38
  9
$DIMRND
 40
0.0
  9
$DIMDLE
 40
0.0
  9
$DIMEXE
 40
0.18
  9
$DIMTP
 40
0.0
  9
$DIMTM
 40
0.0
  9
$DIMTXT
 40
0.18
  9
$DIMCEN
 40
0.09
  9
$DIMTSZ
 40
0.0
  9
$DIMTOL
 70
     0
  9
$DIMLIM
 70
     0
  9
$DIMTIH
 70
     1
  9
$DIMTOH
 70
     1
  9
$DIMSE1
 70
     0
  9
$DIMSE2
 70
     0
  9
$DIMTAD
 70
     0
  9
$DIMZIN
 70
     0
  9
$DIMBLK
  1

  9
$DIMASO
 70
     1
  9
$DIMSHO
 70
     1
  9
$DIMPOST
  1

  9
$DIMAPOST
  1

  9
$DIMALT
 70
     0
  9
$DIMALTD
 70
     2
  9
$DIMALTF
 40
25.4
  9
$DIMLFAC
 40
1.0
  9
$DIMTOFL
 70
     0
  9
$DIMTVP
 40
0.0
  9
$DIMTIX
 70
     0
  9
$DIMSOXD
 70
     0
  9
$DIMSAH
 70
     0
  9
$DIMBLK1
  1

  9
$DIMBLK2
  1

  9
$DIMSTYLE
  2
Standard
  9
$DIMCLRD
 70
     0
  9
$DIMCLRE
 70
     0
  9
$DIMCLRT
 70
     0
  9
$DIMTFAC
 40
1.0
  9
$DIMGAP
 40
0.09
  9
$DIMJUST
 70
     0
  9
$DIMSD1
 70
     0
  9
$DIMSD2
 70
     0
  9
$DIMTOLJ
 70
     1
  9
$DIMTZIN
 70
     0
  9
$DIMALTZ
 70
     0
  9
$DIMALTTZ
 70
     0
  9
$DIMUPT
 70
     0
  9
$DIMDEC
 70
     4
  9
$DIMTDEC
 70
     4
  9
$DIMALTU
 70
     2
  9
$DIMALTTD
 70
     2
  9
$DIMTXSTY
  7
Standard
  9
$DIMAUNIT
 70
     0
  9
$DIMADEC
 70
     0
  9
$DIMALTRND
 40
0.0
  9
$DIMAZIN
 70
     0
  9
$DIMDSEP
 70
    46
  9
$DIMATFIT
 70
     3
  9
$DIMFRAC
 70
     0
  9
$DIMLDRBLK
  1

  9
$DIMLUNIT
 70
     2
  9
$DIMLWD
 70
    -2
  9
$DIMLWE
 70
    -2
  9
$DIMTMOVE
 70
     0
  9
$DIMFXL
 40
1.0
  9
$DIMFXLON
 70
     0
  9
$DIMJOGANG
 40
0.7853981633974483
  9
$DIMTFILL
 70
     0
  9
$DIMTFILLCLR
 70
     0
  9
$DIMARCSYM
 70
     0
  9
$DIMLTYPE
  6

  9
$DIMLTEX1
  6

  9
$DIMLTEX2
  6

  9
$DIMTXTDIRECTION
 70
     0
  9
$LUNITS
 70
     2
  9
$LUPREC
 70
     4
  9
$SKETCHINC
 40
0.1
  9
$FILLETRAD
 40
0.5
  9
$AUNITS
 70
     0
  9
$AUPREC
 70
     0
  9
$MENU
  1
.
  9
$ELEVATION
 40
0.0
  9
$PELEVATION
 40
0.0
  9
$THICKNESS
 40
0.0
  9
$LIMCHECK
 70
     0
  9
$CHAMFERA
 40
0.0
  9
$CHAMFERB
 40
0.0
  9
$CHAMFERC
 40
0.0
  9
$CHAMFERD
 40
0.0
  9
$SKPOLY
 70
     0
  9
$TDCREATE
 40
2458168.891925486
  9
$TDUCREATE
 40
2458168.850258819
  9
$TDUPDATE
 40
2458168.891925659
  9
$TDUUPDATE
 40
2458168.850258993
  9
$TDINDWG
 40
0.0000000116
  9
$TDUSRTIMER
 40
0.0000000116
  9
$USRTIMER
 70
     1
  9
$ANGBASE
 50
0.0
  9
$ANGDIR
 70
     0
  9
$PDMODE
 70
     0
  9
$PDSIZE
 40
0.0
  9
$PLINEWID
 40
0.0
  9
$SPLFRAME
 70
     0
  9
$SPLINETYPE
 70
     6
  9
$SPLINESEGS
 70
     8
  9
$HANDSEED
  5
199
  9
$SURFTAB1
 70
     6
  9
$SURFTAB2
 70
     6
  9
$SURFTYPE
 70
     6
  9
$SURFU
 70
     6
  9
$SURFV
 70
     6
  9
$UCSBASE
  2

  9
$UCSNAME
  2

  9
$UCSORG
 10
0.0
 20
0.0
 30
0.0
  9
$UCSXDIR
 10
1.0
 20
0.0
 30
0.0
  9
$UCSYDIR
 10
0.0
 20
1.0
 30
0.0
  9
$UCSORTHOREF
  2

  9
$UCSORTHOVIEW
 70
     0
  9
$UCSORGTOP
 10
0.0
 20
0.0
 30
0.0
  9
$UCSORGBOTTOM
 10
0.0
 20
0.0
 30
0.0
  9
$UCSORGLEFT
 10
0.0
 20
0.0
 30
0.0
  9
$UCSORGRIGHT
 10
0.0
 20
0.0
 30
0.0
  9
$UCSORGFRONT
 10
0.0
 20
0.0
 30
0.0
  9
$UCSORGBACK
 10
0.0
 20
0.0
 30
0.0
  9
$PUCSBASE
  2

  9
$PUCSNAME
  2

  9
$PUCSORG
 10
0.0
 20
0.0
 30
0.0
  9
$PUCSXDIR
 10
1.0
 20
0.0
 30
0.0
  9
$PUCSYDIR
 10
0.0
 20
1.0
 30
0.0
  9
$PUCSORTHOREF
  2

  9
$PUCSORTHOVIEW
 70
     0
  9
$PUCSORGTOP
 10
0.0
 20
0.0
 30
0.0
  9
$PUCSORGBOTTOM
 10
0.0
 20
0.0
 30
0.0
  9
$PUCSORGLEFT
 10
0.0
 20
0.0
 30
0.0
  9
$PUCSORGRIGHT
 10
0.0
 20
0.0
 30
0.0
  9
$PUCSORGFRONT
 10
0.0
 20
0.0
 30
0.0
  9
$PUCSORGBACK
 10
0.0
 20
0.0
 30
0.0
  9
$USERI1
 70
     0
  9
$USERI2
 70
     0
  9
$USERI3
 70
     0
  9
$USERI4
 70
     0
  9
$USERI5
 70
     0
  9
$USERR1
 40
0.0
  9
$USERR2
 40
0.0
  9
$USERR3
 40
0.0
  9
$USERR4
 40
0.0
  9
$USERR5
 40
0.0
  9
$WORLDVIEW
 70
     1
  9
$SHADEDGE
 70
     3
  9
$SHADEDIF
 70
    70
  9
$TILEMODE
 70
     1
  9
$MAXACTVP
 70
    64
  9
$PINSBASE
 10
0.0
 20
0.0
 30
0.0
  9
$PLIMCHECK
 70
     0
  9
$PEXTMIN
 10
1.000000000000000E+20
 20
1.000000000000000E+20
 30
1.000000000000000E+20
  9
$PEXTMAX
 10
-1.000000000000000E+20
 20
-1.000000000000000E+20
 30
-1.000000000000000E+20
  9
$PLIMMIN
 10
0.0
 20
0.0
  9
$PLIMMAX
 10
12.0
 20
9.0
  9
$UNITMODE
 70
     0
  9
$VISRETAIN
 70
     1
  9
$PLINEGEN
 70
     0
  9
$PSLTSCALE
 70
     1
  9
$TREEDEPTH
 70
  3020
  9
$CMLSTYLE
  2
Standard
  9
$CMLJUST
 70
     0
  9
$CMLSCALE
 40
1.0
  9
$PROXYGRAPHICS
 70
     1
  9
$MEASUREMENT
 70
     0
  9
$CELWEIGHT
370
    -1
  9
$ENDCAPS
280
     0
  9
$JOINSTYLE
280
     0
  9
$LWDISPLAY
290
     0
  9
$INSUNITS
 70
     1
  9
$HYPERLINKBASE
  1

  9
$STYLESHEET
  1

  9
$XEDIT
290
     1
  9
$CEPSNTYPE
380
     0
  9
$PSTYLEMODE
290
     1
  9
$FINGERPRINTGUID
  2
{56D4C3D4-3653-4DBF-B593-C821C93A8E36}
  9
$VERSIONGUID
  2
{FAEB1C32-E019-11D5-929B-00C0DF256EC4}
  9
$EXTNAMES
290
     1
  9
$PSVPSCALE
 40
0.0
  9
$OLESTARTUP
290
     0
  9
$SORTENTS
280
   127
  9
$INDEXCTL
280
     0
  9
$HIDETEXT
280
     1
  9
$XCLIPFRAME
280
     2
  9
$HALOGAP
280
     0
  9
$OBSCOLOR
 70
   257
  9
$OBSLTYPE
280
     0
  9
$INTERSECTIONDISPLAY
280
     0
  9
$INTERSECTIONCOLOR
 70
   257
  9
$DIMASSOC
280
     2
  9
$PROJECTNAME
  1

  9
$CAMERADISPLAY
290
     0
  9
$LENSLENGTH
 40
50.0
  9
$CAMERAHEIGHT
 40
0.0
  9
$STEPSPERSEC
 40
2.0
  9
$STEPSIZE
 40
6.0
  9
$3DDWFPREC
 40
2.0
  9
$PSOLWIDTH
 40
0.25
  9
$PSOLHEIGHT
 40
4.0
  9
$LOFTANG1
 40
1.570796326794897
  9
$LOFTANG2
 40
1.570796326794897
  9
$LOFTMAG1
 40
0.0
  9
$LOFTMAG2
 40
0.0
  9
$LOFTPARAM
 70
     7
  9
$LOFTNORMALS
280
     1
  9
$LATITUDE
 40
37.795
  9
$LONGITUDE
 40
-122.394
  9
$NORTHDIRECTION
 40
0.0
  9
$TIMEZONE
 70
 -8000
  9
$LIGHTGLYPHDISPLAY
280
     1
  9
$TILEMODELIGHTSYNCH
280
     1
  9
$CMATERIAL
347
44
  9
$SOLIDHIST
280
     0
  9
$SHOWHIST
280
     1
  9
$DWFFRAME
280
     2
  9
$DGNFRAME
280
     2
  9
$REALWORLDSCALE
290
     1
  9
$INTERFERECOLOR
 62
   256
  9
$CSHADOW
280
     0
  9
$SHADOWPLANELOCATION
 40
0.0
  0
ENDSEC
  0
SECTION
  2
CLASSES
  0
CLASS
  1
ACDBDICTIONARYWDFLT
  2
AcDbDictionaryWithDefault
  3
ObjectDBX Classes
 90
        0
 91
        4
280
     0
281
     0
  0
CLASS
  1
VISUALSTYLE
  2
AcDbVisualStyle
  3
ObjectDBX Classes
 90
     4095
 91
        4
280
     0
281
     0
  0
CLASS
  1
MATERIAL
  2
AcDbMaterial
  3
ObjectDBX Classes
 90
     1153
 91
        4
280
     0
281
     0
  0
CLASS
  1
SCALE
  2
AcDbScale
  3
ObjectDBX Classes
 90
     1153
 91
        4
280
     0
281
     0
  0
CLASS
  1
TABLESTYLE
  2
AcDbTableStyle
  3
ObjectDBX Classes
 90
     4095
 91
        4
280
     0
281
     0
  0
CLASS
  1
MLEADERSTYLE
  2
AcDbMLeaderStyle
  3
ACDB_MLEADERSTYLE_CLASS
 90
     4095
 91
        4
280
     0
281
     0
  0
CLASS
  1
SUN
  2
AcDbSun
  3
SCENEOE
 90
     1153
 91
        4
280
     0
281
     0
  0
CLASS
  1
DICTIONARYVAR
  2
AcDbDictionaryVar
  3
ObjectDBX Classes
 90
        0
 91
        4
280
     0
281
     0
  0
CLASS
  1
CELLSTYLEMAP
  2
AcDbCellStyleMap
  3
ObjectDBX Classes
 90
     1152
 91
        4
280
     0
281
     0
  0
ENDSEC
  0
SECTION
  2
TABLES
  0
TABLE
  2
VPORT
  5
8
330
0
100
AcDbSymbolTable
 70
     1
  0
VPORT
  5
29
330
8
100
AcDbSymbolTableRecord
100
AcDbViewportTableRecord
  2
*Active
 70
     0
 10
0.0
 20
0.0
 11
1.0
 21
1.0
 12
0.0
 22
-1.021749999999999
 13
0.0
 23
0.0
 14
0.5
 24
0.5
 15
0.5
 25
0.5
 16
0.0
 26
0.0
 36
1.0
 17
0.0
 27
0.0
 37
0.0
 40
2.23431
 41
2.081716503081487
 42
50.0
 43
0.0
 44
0.0
 50
0.0
 51
0.0
 71
     0
 72
   100
 73
     1
 74
     3
 75
     0
 76
     0
 77
     0
 78
     0
281
     0
 65
     1
110
0.0
120
0.0
130
0.0
111
1.0
121
0.0
131
0.0
112
0.0
122
1.0
132
0.0
 79
     0
146
0.0
348
2F
 60
     3
 61
     5
292
     1
282
     1
141
0.0
142
0.0
 63
   250
361
6D
  0
ENDTAB
  0
TABLE
  2
LTYPE
  5
5
330
0
100
AcDbSymbolTable
 70
     3
  0
LTYPE
  5
14
330
5
100
AcDbSymbolTableRecord
100
AcDbLinetypeTableRecord
  2
ByBlock
 70
     0
  3

 72
    65
 73
     0
 40
0.0
  0
LTYPE
  5
15
330
5
100
AcDbSymbolTableRecord
100
AcDbLinetypeTableRecord
  2
ByLayer
 70
     0
  3

 72
    65
 73
     0
 40
0.0
  0
LTYPE
  5
16
330
5
100
AcDbSymbolTableRecord
100
AcDbLinetypeTableRecord
  2
Continuous
 70
     0
  3
Solid line
 72
    65
 73
     0
 40
0.0
  0
LTYPE
  5
94
330
5
100
AcDbSymbolTableRecord
100
AcDbLinetypeTableRecord
  2
Dashed
 70
     0
  3

 72
    65
 73
     2
 40
2.0
 49
1.0
 74
     0
 49
-1.0
 74
     0
  0
LTYPE
  5
122
330
5
100
AcDbSymbolTableRecord
100
AcDbLinetypeTableRecord
  2
Center
 70
     0
  3

 72
    65
 73
     4
 40
1.5
 49
0.45
 74
     0
 49
-0.5
 74
     0
 49
0.05
 74
     0
 49
-0.5
 74
     0
  0
ENDTAB
  0
TABLE
  2
LAYER
  5
2
330
0
100
AcDbSymbolTable
 70
     7
  0
LAYER
  5
10
330
2
100
AcDbSymbolTableRecord
100
AcDbLayerTableRecord
  2
0
 70
     0
 62
     7
  6
Continuous
370
    -3
390
F
347
46
348
0
  0
LAYER
  5
72
330
2
100
AcDbSymbolTableRecord
100
AcDbLayerTableRecord
  2
AM_6
 70
     0
 62
    -2
  6
Continuous
370
    35
390
F
347
46
348
0
  0
LAYER
  5
95
330
2
100
AcDbSymbolTableRecord
100
AcDbLayerTableRecord
  2
AM_9
 70
     0
 62
     6
  6
Dashed
370
    25
390
F
347
46
348
0
  0
LAYER
  5
BF
330
2
100
AcDbSymbolTableRecord
100
AcDbLayerTableRecord
  2
AM_4
 70
     0
 62
     7
  6
Continuous
370
    50
390
F
347
46
348
0
  0
LAYER
  5
123
330
2
100
AcDbSymbolTableRecord
100
AcDbLayerTableRecord
  2
AM_7
 70
     0
 62
     7
  6
Center
370
    25
390
F
347
46
348
0
  0
LAYER
  5
132
330
2
100
AcDbSymbolTableRecord
100
AcDbLayerTableRecord
  2
AM_5
 70
     0
 62
     3
  6
Continuous
370
    25
390
F
347
46
348
0
  0
LAYER
  5
18B
330
2
100
AcDbSymbolTableRecord
100
AcDbLayerTableRecord
  2
ConnectionPoints
 70
     0
 62
     7
  6
Continuous
370
    50
390
F
347
46
348
0
  0
ENDTAB
  0
TABLE
  2
STYLE
  5
3
330
0
100
AcDbSymbolTable
 70
     1
  0
STYLE
  5
11
330
3
100
AcDbSymbolTableRecord
100
AcDbTextStyleTableRecord
  2
Standard
 70
     0
 40
0.0
 41
1.0
 50
0.0
 71
     0
 42
0.2
  3
txt
  4

  0
ENDTAB
  0
TABLE
  2
VIEW
  5
6
330
0
100
AcDbSymbolTable
 70
     0
  0
ENDTAB
  0
TABLE
  2
UCS
  5
7
330
0
100
AcDbSymbolTable
 70
     0
  0
ENDTAB
  0
TABLE
  2
APPID
  5
9
330
0
100
AcDbSymbolTable
 70
     1
  0
APPID
  5
12
330
9
100
AcDbSymbolTableRecord
100
AcDbRegAppTableRecord
  2
ACAD
 70
     0
  0
ENDTAB
  0
TABLE
  2
DIMSTYLE
  5
A
330
0
100
AcDbSymbolTable
 70
     1
100
AcDbDimStyleTable
  0
DIMSTYLE
105
27
330
A
100
AcDbSymbolTableRecord
100
AcDbDimStyleTableRecord
  2
Standard
 70
     0
178
     0
340
11
  0
ENDTAB
  0
TABLE
  2
BLOCK_RECORD
  5
1
330
0
100
AcDbSymbolTable
 70
     5
  0
BLOCK_RECORD
  5
1F
330
1
100
AcDbSymbolTableRecord
100
AcDbBlockTableRecord
  2
*Model_Space
340
22
 70
     0
280
     1
281
     0
  0
BLOCK_RECORD
  5
1B
330
1
100
AcDbSymbolTableRecord
100
AcDbBlockTableRecord
  2
*Paper_Space
340
1E
 70
     0
280
     1
281
     0
  0
BLOCK_RECORD
  5
23
330
1
100
AcDbSymbolTableRecord
100
AcDbBlockTableRecord
  2
*Paper_Space0
340
26
 70
     0
280
     1
281
     0
  0
BLOCK_RECORD
  5
6E
330
1
100
AcDbSymbolTableRecord
100
AcDbBlockTableRecord
  2
1_076145_4
340
0
102
{BLKREFS
331
6F
102
}
 70
     0
280
     1
281
     0
  0
BLOCK_RECORD
  5
88
330
1
100
AcDbSymbolTableRecord
100
AcDbBlockTableRecord
  2
2_405015E_Inch_0_in_076145_4
340
0
102
{BLKREFS
331
89
102
}
 70
     0
280
     1
281
     0
  0
BLOCK_RECORD
  5
DC
330
1
100
AcDbSymbolTableRecord
100
AcDbBlockTableRecord
  2
3_076208_0_in_076145_4
340
0
102
{BLKREFS
331
DD
102
}
 70
     0
280
     1
281
     0
  0
BLOCK_RECORD
  5
135
330
1
100
AcDbSymbolTableRecord
100
AcDbBlockTableRecord
  2
4_076145h_0_in_076145_4
340
0
102
{BLKREFS
331
136
102
}
 70
     0
280
     1
281
     0
  0
ENDTAB
  0
ENDSEC
  0
SECTION
  2
BLOCKS
  0
BLOCK
  5
20
330
1F
100
AcDbEntity
  8
0
100
AcDbBlockBegin
  2
*Model_Space
 70
     0
 10
0.0
 20
0.0
 30
0.0
  3
*Model_Space
  1

  0
ENDBLK
  5
21
330
1F
100
AcDbEntity
  8
0
100
AcDbBlockEnd
  0
BLOCK
  5
1C
330
1B
100
AcDbEntity
 67
     1
  8
0
100
AcDbBlockBegin
  2
*Paper_Space
 70
     0
 10
0.0
 20
0.0
 30
0.0
  3
*Paper_Space
  1

  0
ENDBLK
  5
1D
330
1B
100
AcDbEntity
 67
     1
  8
0
100
AcDbBlockEnd
  0
BLOCK
  5
24
330
23
100
AcDbEntity
  8
0
100
AcDbBlockBegin
  2
*Paper_Space0
 70
     0
 10
0.0
 20
0.0
 30
0.0
  3
*Paper_Space0
  1

  0
ENDBLK
  5
25
330
23
100
AcDbEntity
  8
0
100
AcDbBlockEnd
  0
BLOCK
  5
70
330
6E
100
AcDbEntity
  8
0
100
AcDbBlockBegin
  2
1_076145_4
 70
     2
 10
0.0
 20
0.0
 30
0.0
  3
1_076145_4
  1

  0
ATTDEF
  5
73
330
6E
100
AcDbEntity
  8
AM_6
100
AcDbText
 10
7.279999999999999
 20
0.0735
 30
0.0
 40
0.5
  1
Set Screw Medium Duty Extreme Duty Two-Bolt Flange Inch Bore
100
AcDbAttributeDefinition
  3

  2
NN
 70
     8
280
     0
  0
ATTDEF
  5
74
330
6E
100
AcDbEntity
  8
AM_6
100
AcDbText
 10
7.279999999999999
 20
-0.4265
 30
0.0
 40
0.5
  1
SC 2 Bolt Flange Bearings -(Normal Duty)
100
AcDbAttributeDefinition
  3

  2
NT
 70
     8
280
     0
  0
ATTDEF
  5
75
330
6E
100
AcDbEntity
  8
AM_6
100
AcDbText
 10
7.279999999999999
 20
-0.9265
 30
0.0
 40
0.5
  1
076145
100
AcDbAttributeDefinition
  3

  2
NB
 70
     8
280
     0
  0
ATTDEF
  5
76
330
6E
100
AcDbEntity
  8
AM_6
100
AcDbText
 10
7.279999999999999
 20
-1.4265
 30
0.0
 40
0.5
  1
$PN.
100
AcDbAttributeDefinition
  3

  2
NBSYN
 70
     8
280
     0
  0
ATTDEF
  5
77
330
6E
100
AcDbEntity
  8
AM_6
100
AcDbText
 10
7.279999999999999
 20
-1.9265
 30
0.0
 40
0.5
  1
076145
100
AcDbAttributeDefinition
  3

  2
LINA
 70
     8
280
     0
  0
ATTDEF
  5
78
330
6E
100
AcDbEntity
  8
AM_6
100
AcDbText
 10
7.279999999999999
 20
-2.4265
 30
0.0
 40
0.5
  1
210
100
AcDbAttributeDefinition
  3

  2
SERIES
 70
     8
280
     0
  0
ATTDEF
  5
79
330
6E
100
AcDbEntity
  8
AM_6
100
AcDbText
 10
7.279999999999999
 20
-2.9265
 30
0.0
 40
0.5
  1
1-11/16
100
AcDbAttributeDefinition
  3

  2
SS
 70
     8
280
     0
  0
ATTDEF
  5
7A
330
6E
100
AcDbEntity
  8
AM_6
100
AcDbText
 10
7.279999999999999
 20
-3.4265
 30
0.0
 40
0.5
  1
076145
100
AcDbAttributeDefinition
  3

  2
PN
 70
     8
280
     0
  0
ATTDEF
  5
7B
330
6E
100
AcDbEntity
  8
AM_6
100
AcDbText
 10
7.279999999999999
 20
-3.9265
 30
0.0
 40
0.5
  1
F2B-SCMED-111
100
AcDbAttributeDefinition
  3

  2
DESCRIPTION
 70
     8
280
     0
  0
ATTDEF
  5
7C
330
6E
100
AcDbEntity
  8
AM_6
100
AcDbText
 10
7.279999999999999
 20
-4.4265
 30
0.0
 40
0.5
  1
5.8
100
AcDbAttributeDefinition
  3

  2
W
 70
     8
280
     0
  0
ATTDEF
  5
7D
330
6E
100
AcDbEntity
  8
AM_6
100
AcDbText
 10
7.279999999999999
 20
-4.9265
 30
0.0
 40
0.5
  1
1.94
100
AcDbAttributeDefinition
  3

  2
A
 70
     8
280
     0
  0
ATTDEF
  5
7E
330
6E
100
AcDbEntity
  8
AM_6
100
AcDbText
 10
7.279999999999999
 20
-5.4265
 30
0.0
 40
0.5
  1
7.44
100
AcDbAttributeDefinition
  3

  2
B
 70
     8
280
     0
  0
ATTDEF
  5
7F
330
6E
100
AcDbEntity
  8
AM_6
100
AcDbText
 10
7.279999999999999
 20
-5.9265
 30
0.0
 40
0.5
  1
2.02
100
AcDbAttributeDefinition
  3

  2
C
 70
     8
280
     0
  0
ATTDEF
  5
80
330
6E
100
AcDbEntity
  8
AM_6
100
AcDbText
 10
7.279999999999999
 20
-6.4265
 30
0.0
 40
0.5
  1
6.19
100
AcDbAttributeDefinition
  3

  2
D
 70
     8
280
     0
  0
ATTDEF
  5
81
330
6E
100
AcDbEntity
  8
AM_6
100
AcDbText
 10
7.279999999999999
 20
-6.9265
 30
0.0
 40
0.5
  1
1/2
100
AcDbAttributeDefinition
  3

  2
F
 70
     8
280
     0
  0
ATTDEF
  5
82
330
6E
100
AcDbEntity
  8
AM_6
100
AcDbText
 10
7.279999999999999
 20
-7.4265
 30
0.0
 40
0.5
  1
0.63
100
AcDbAttributeDefinition
  3

  2
H
 70
     8
280
     0
  0
ATTDEF
  5
83
330
6E
100
AcDbEntity
  8
AM_6
100
AcDbText
 10
7.279999999999999
 20
-7.9265
 30
0.0
 40
0.5
  1
0.55
100
AcDbAttributeDefinition
  3

  2
J
 70
     8
280
     0
  0
ATTDEF
  5
84
330
6E
100
AcDbEntity
  8
AM_6
100
AcDbText
 10
7.279999999999999
 20
-8.4265
 30
0.0
 40
0.5
  1
2.43
100
AcDbAttributeDefinition
  3

  2
L
 70
     8
280
     0
  0
ATTDEF
  5
85
330
6E
100
AcDbEntity
  8
AM_6
100
AcDbText
 10
7.279999999999999
 20
-8.9265
 30
0.0
 40
0.5
  1
4.56
100
AcDbAttributeDefinition
  3

  2
M
 70
     8
280
     0
  0
ATTDEF
  5
86
330
6E
100
AcDbEntity
  8
AM_6
100
AcDbText
 10
7.279999999999999
 20
-9.4265
 30
0.0
 40
0.5
  1
2.03
100
AcDbAttributeDefinition
  3

  2
N
 70
     8
280
     0
  0
ATTDEF
  5
87
330
6E
100
AcDbEntity
  8
AM_6
100
AcDbText
 10
7.279999999999999
 20
-9.9265
 30
0.0
 40
0.5
  1
baldor
100
AcDbAttributeDefinition
  3

  2
COMPANY
 70
     8
280
     0
  0
INSERT
  5
89
330
6E
100
AcDbEntity
  8
0
100
AcDbBlockReference
  2
2_405015E_Inch_0_in_076145_4
 10
0.0
 20
0.0
 30
0.0
  0
INSERT
  5
DD
330
6E
100
AcDbEntity
  8
0
100
AcDbBlockReference
  2
3_076208_0_in_076145_4
 10
0.0
 20
0.0
 30
0.0
  0
INSERT
  5
136
330
6E
100
AcDbEntity
  8
0
100
AcDbBlockReference
  2
4_076145h_0_in_076145_4
 10
0.0
 20
0.0
 30
0.0
  0
ENDBLK
  5
71
330
6E
100
AcDbEntity
  8
0
100
AcDbBlockEnd
  0
BLOCK
  5
8A
330
88
100
AcDbEntity
  8
0
100
AcDbBlockBegin
  2
2_405015E_Inch_0_in_076145_4
 70
     2
 10
0.0
 20
0.0
 30
0.0
  3
2_405015E_Inch_0_in_076145_4
  1

  0
ATTDEF
  5
8C
330
88
100
AcDbEntity
  8
AM_6
100
AcDbText
 10
7.04748410166542
 20
-0.6574092572295386
 30
0.0
 40
0.5
  1
405015E -Inch
100
AcDbAttributeDefinition
  3

  2
NN
 70
     8
280
     0
  0
ATTDEF
  5
8D
330
88
100
AcDbEntity
  8
AM_6
100
AcDbText
 10
7.04748410166542
 20
-1.157409257229538
 30
0.0
 40
0.5
  1
Grease Fitting
100
AcDbAttributeDefinition
  3

  2
NT
 70
     8
280
     0
  0
ATTDEF
  5
8E
330
88
100
AcDbEntity
  8
AM_6
100
AcDbText
 10
7.04748410166542
 20
-1.657409257229538
 30
0.0
 40
0.5
  1
405015E-Inch
100
AcDbAttributeDefinition
  3

  2
NB
 70
     8
280
     0
  0
ATTDEF
  5
8F
330
88
100
AcDbEntity
  8
AM_6
100
AcDbText
 10
7.04748410166542
 20
-2.157409257229538
 30
0.0
 40
0.5
  1
$MN.-Inch
100
AcDbAttributeDefinition
  3

  2
NBSYN
 70
     8
280
     0
  0
ATTDEF
  5
90
330
88
100
AcDbEntity
  8
AM_6
100
AcDbText
 10
7.04748410166542
 20
-2.657409257229538
 30
0.0
 40
0.5
  1
405015E
100
AcDbAttributeDefinition
  3

  2
LINA
 70
     8
280
     0
  0
ATTDEF
  5
91
330
88
100
AcDbEntity
  8
AM_6
100
AcDbText
 10
7.04748410166542
 20
-3.157409257229538
 30
0.0
 40
0.5
  1
405015E
100
AcDbAttributeDefinition
  3

  2
MN
 70
     8
280
     0
  0
ATTDEF
  5
92
330
88
100
AcDbEntity
  8
AM_6
100
AcDbText
 10
7.04748410166542
 20
-3.657409257229538
 30
0.0
 40
0.5
  1
1/8 x 27PTF
100
AcDbAttributeDefinition
  3

  2
T
 70
     8
280
     0
  0
ATTDEF
  5
93
330
88
100
AcDbEntity
  8
AM_6
100
AcDbText
 10
7.04748410166542
 20
-4.157409257229538
 30
0.0
 40
0.5
  1
baldor
100
AcDbAttributeDefinition
  3

  2
COMPANY
 70
     8
280
     0
  0
LINE
  5
96
330
88
100
AcDbEntity
  8
AM_9
100
AcDbLine
 10
1.928693343254152
 20
-0.7837046286147691
 30
0.0
 11
1.870806187604619
 21
-0.7837046286147691
 31
0.0
  0
LINE
  5
97
330
88
100
AcDbEntity
  8
AM_9
100
AcDbLine
 10
1.928693343254152
 20
-1.03629537138523
 30
0.0
 11
1.870806187604619
 21
-1.03629537138523
 31
0.0
  0
LWPOLYLINE
  5
98
330
88
100
AcDbEntity
  8
AM_9
100
AcDbPolyline
 90
        4
 70
     0
 43
0.0
 10
1.870806187604619
 20
-0.7837046286147691
 10
1.866101753335279
 20
-0.846568385308563
 10
1.864828987196357
 20
-0.8782399629513855
 10
1.864394426370058
 20
-0.9099999999999997
  0
LWPOLYLINE
  5
99
330
88
100
AcDbEntity
  8
AM_9
100
AcDbPolyline
 90
        4
 70
     0
 43
0.0
 10
1.864394426370058
 20
-0.9099999999999997
 10
1.86539679316589
 20
-0.9583998160558986
 10
1.868271077438688
 20
-1.006799632111798
 10
1.870806187604619
 20
-1.03629537138523
  0
ELLIPSE
  5
9A
330
88
100
AcDbEntity
  8
AM_9
100
AcDbEllipse
 10
1.522331520971066
 20
-0.9099999999999997
 30
0.0
 11
9.913691727296317E-18
 21
0.161902872472269
 31
0.0
210
0.0
220
0.0
230
1.0
 40
0.7071067811865478
 41
0.0
 42
6.283185307179586
  0
LWPOLYLINE
  5
9B
330
88
100
AcDbEntity
  8
AM_9
100
AcDbPolyline
 90
        4
 70
     0
 43
0.0
 10
1.870806187604619
 20
-1.03629537138523
 10
1.827605721531712
 20
-1.067727249732127
 10
1.806938154249327
 20
-1.083563038553539
 10
1.78705462217778
 20
-1.099443057077846
  0
LWPOLYLINE
  5
9C
330
88
100
AcDbEntity
  8
AM_9
100
AcDbPolyline
 90
        4
 70
     0
 43
0.0
 10
1.78705462217778
 20
-0.7205569429221537
 10
1.806819079787064
 20
-0.7363438643453075
 10
1.827416900056978
 20
-0.7521307857684614
 10
1.870806187604619
 20
-0.7837046286147691
  0
LINE
  5
9D
330
88
100
AcDbEntity
  8
AM_9
100
AcDbLine
 10
1.928693343254152
 20
-0.7837046286147691
 30
0.0
 11
1.919748796894249
 21
-0.7751471629264111
 31
0.0
  0
LWPOLYLINE
  5
9E
330
88
100
AcDbEntity
  8
AM_9
100
AcDbPolyline
 90
        4
 70
     0
 43
0.0
 10
1.935105104488713
 20
-0.9099999999999997
 10
1.934675597927497
 20
-0.878426157153692
 10
1.933412728705654
 20
-0.8468523143073845
 10
1.928693343254152
 20
-0.7837046286147691
  0
LINE
  5
9F
330
88
100
AcDbEntity
  8
AM_9
100
AcDbLine
 10
1.920484482505324
 20
-1.04415527785565
 30
0.0
 11
1.928693343254152
 21
-1.03629537138523
 31
0.0
  0
LWPOLYLINE
  5
A0
330
88
100
AcDbEntity
  8
AM_9
100
AcDbPolyline
 90
        4
 70
     0
 43
0.0
 10
1.928693343254152
 20
-1.03629537138523
 10
1.931228453420084
 20
-1.006799632111798
 10
1.93409689166923
 20
-0.958542441247754
 10
1.935105104488713
 20
-0.9099999999999997
  0
LWPOLYLINE
  5
A1
330
88
100
AcDbEntity
  8
AM_9
100
AcDbPolyline
 90
        4
 70
     0
 43
0.0
 10
1.78705462217778
 20
-1.099443057077846
 10
1.768149177690925
 20
-1.115229978500999
 10
1.7500770958647
 20
-1.131016899924153
 10
1.716126579220062
 20
-1.162590742770461
  0
LWPOLYLINE
  5
A2
330
88
100
AcDbEntity
  8
AM_9
100
AcDbPolyline
 90
        4
 70
     0
 43
0.0
 10
1.716126579220062
 20
-0.6574092572295386
 10
1.749918176754288
 20
-0.6888411355764356
 10
1.768040211758829
 20
-0.7046769243978467
 10
1.78705462217778
 20
-0.7205569429221537
  0
LINE
  5
A3
330
88
100
AcDbEntity
  8
AM_9
100
AcDbLine
 10
1.543903682419493
 20
-1.108520612131338
 30
0.0
 11
1.705168073220151
 21
-1.115651397843462
 31
0.0
  0
LINE
  5
A4
330
88
100
AcDbEntity
  8
AM_9
100
AcDbLine
 10
1.705168073220151
 20
-0.7043486021565372
 30
0.0
 11
1.543903682419493
 21
-0.7114793878686609
 31
0.0
  0
LWPOLYLINE
  5
A5
330
88
100
AcDbEntity
  8
AM_9
100
AcDbPolyline
 90
        4
 70
     0
 43
0.0
 10
1.555035209600944
 20
-0.9099999999999997
 10
1.555464716162159
 20
-0.878426157153692
 10
1.556727585384003
 20
-0.8468523143073843
 10
1.561446970835505
 20
-0.7837046286147691
  0
LWPOLYLINE
  5
A6
330
88
100
AcDbEntity
  8
AM_9
100
AcDbPolyline
 90
        4
 70
     0
 43
0.0
 10
1.561446970835505
 20
-1.03629537138523
 10
1.558911860669573
 20
-1.006799632111798
 10
1.556043422420427
 20
-0.958542441247754
 10
1.555035209600944
 20
-0.9099999999999997
  0
LINE
  5
A7
330
88
100
AcDbEntity
  8
AM_9
100
AcDbLine
 10
1.577297783783673
 20
-0.7837046286147691
 30
0.0
 11
1.561446970835505
 21
-0.7837046286147691
 31
0.0
  0
LINE
  5
A8
330
88
100
AcDbEntity
  8
AM_9
100
AcDbLine
 10
1.73197739216823
 20
-0.6574092572295386
 30
0.0
 11
1.716126579220062
 21
-0.6574092572295386
 31
0.0
  0
LWPOLYLINE
  5
A9
330
88
100
AcDbEntity
  8
AM_9
100
AcDbPolyline
 90
        4
 70
     0
 43
0.0
 10
1.632375013793222
 20
-0.7205569429221537
 10
1.652139471402507
 20
-0.704770021499
 10
1.672737291672421
 20
-0.6889831000758462
 10
1.716126579220062
 20
-0.6574092572295386
  0
LWPOLYLINE
  5
AA
330
88
100
AcDbEntity
  8
AM_9
100
AcDbPolyline
 90
        4
 70
     0
 43
0.0
 10
1.561446970835505
 20
-0.7837046286147691
 10
1.59523856836973
 20
-0.7522727502678721
 10
1.613360603374272
 20
-0.7364369614464609
 10
1.632375013793222
 20
-0.7205569429221537
  0
LINE
  5
AB
330
88
100
AcDbEntity
  8
AM_9
100
AcDbLine
 10
1.73197739216823
 20
-1.162590742770461
 30
0.0
 11
1.716126579220062
 21
-1.162590742770461
 31
0.0
  0
LINE
  5
AC
330
88
100
AcDbEntity
  8
AM_9
100
AcDbLine
 10
1.577297783783673
 20
-1.03629537138523
 30
0.0
 11
1.561446970835505
 21
-1.03629537138523
 31
0.0
  0
LWPOLYLINE
  5
AD
330
88
100
AcDbEntity
  8
AM_9
100
AcDbPolyline
 90
        4
 70
     0
 43
0.0
 10
1.632375013793222
 20
-1.099443057077846
 10
1.613469569306368
 20
-1.083656135654692
 10
1.595397487480143
 20
-1.067869214231538
 10
1.561446970835505
 20
-1.03629537138523
  0
LWPOLYLINE
  5
AE
330
88
100
AcDbEntity
  8
AM_9
100
AcDbPolyline
 90
        4
 70
     0
 43
0.0
 10
1.716126579220062
 20
-1.162590742770461
 10
1.672926113147155
 20
-1.131158864423564
 10
1.652258545864769
 20
-1.115323075602153
 10
1.632375013793222
 20
-1.099443057077846
  0
ELLIPSE
  5
AF
330
88
100
AcDbEntity
  8
AM_9
100
AcDbEllipse
 10
1.780425496104155
 20
-0.9099999999999985
 30
0.0
 11
-4.018372309702312E-17
 21
-0.2187500000000032
 31
0.0
210
0.0
220
0.0
230
1.0
 40
0.7071067811865428
 41
0.9156936017150592
 42
2.225899051874891
  0
LINE
  5
B0
330
88
100
AcDbEntity
  8
AM_9
100
AcDbLine
 10
1.886491513282138
 20
-0.8151316701949484
 30
0.0
 11
1.867877646853072
 21
-0.8026451089971007
 31
0.0
  0
LINE
  5
B1
330
88
100
AcDbEntity
  8
AM_9
100
AcDbLine
 10
1.867877646853072
 20
-1.017354891002899
 30
0.0
 11
1.886491513282138
 21
-1.004868329805051
 31
0.0
  0
ELLIPSE
  5
B2
330
88
100
AcDbEntity
  8
AM_9
100
AcDbEllipse
 10
1.854671708128743
 20
-0.9099999999999998
 30
0.0
 11
-1.928818708657083E-17
 21
-0.1050000000000001
 31
0.0
210
0.0
220
0.0
230
1.0
 40
0.7071067811865489
 41
0.0
 42
3.141592653589793
  0
ELLIPSE
  5
B3
330
88
100
AcDbEntity
  8
AM_9
100
AcDbEllipse
 10
1.831869721753273
 20
-0.9099999999998877
 30
0.0
 11
-2.182689656891105E-17
 21
-0.1188200907347751
 31
0.0
210
0.0
220
0.0
230
1.0
 40
0.7071067811862249
 41
0.3762206260992311
 42
2.765372027489868
  0
ELLIPSE
  5
B4
330
88
100
AcDbEntity
  8
AM_9
100
AcDbEllipse
 10
1.780425496104156
 20
-0.9099999999999997
 30
0.0
 11
-3.926523799766191E-17
 21
-0.2137499999999994
 31
0.0
210
0.0
220
0.0
230
1.0
 40
0.7071067811865464
 41
0.9036552188395177
 42
2.237937434749911
  0
LINE
  5
B5
330
88
100
AcDbEntity
  8
AM_9
100
AcDbLine
 10
1.855990699011282
 20
-1.015
 30
0.0
 11
1.875884911564339
 21
-1.015
 31
0.0
  0
LINE
  5
B6
330
88
100
AcDbEntity
  8
AM_9
100
AcDbLine
 10
1.875884911564339
 20
-0.8049999999999997
 30
0.0
 11
1.855990699011282
 21
-0.8049999999999997
 31
0.0
  0
ELLIPSE
  5
B7
330
88
100
AcDbEntity
  8
AM_9
100
AcDbEllipse
 10
1.87588491156434
 20
-0.9099999999999997
 30
0.0
 11
-1.928818708657081E-17
 21
-0.105
 31
0.0
210
0.0
220
0.0
230
1.0
 40
0.7071067811865497
 41
5.759586531581288
 42
9.948376736367678
  0
LINE
  5
B8
330
88
100
AcDbEntity
  8
AM_9
100
AcDbLine
 10
1.914775435072816
 20
-0.8907256813308472
 30
0.0
 11
1.913762594881824
 21
-0.8820125081230836
 31
0.0
  0
LINE
  5
B9
330
88
100
AcDbEntity
  8
AM_9
100
AcDbLine
 10
1.913762594881824
 20
-0.9379874918769158
 30
0.0
 11
1.914775435072816
 21
-0.9292743186691522
 31
0.0
  0
ELLIPSE
  5
BA
330
88
100
AcDbEntity
  8
AM_9
100
AcDbEllipse
 10
1.793378418511536
 20
-0.9099999999999998
 30
0.0
 11
-3.169399141454464E-17
 21
-0.1725340532830159
 31
0.0
210
0.0
220
0.0
230
1.0
 40
0.7071067811865418
 41
0.7772913431435455
 42
2.364301310446866
  0
ELLIPSE
  5
BB
330
88
100
AcDbEntity
  8
AM_9
100
AcDbEllipse
 10
1.918311318435532
 20
-0.9099999999999996
 30
0.0
 11
-2.479909768273392E-17
 21
-0.1350000000000001
 31
0.0
210
0.0
220
0.0
230
1.0
 40
0.7071067811865458
 41
0.4159140521025471
 42
2.725678601487246
  0
ELLIPSE
  5
BC
330
88
100
AcDbEntity
  8
AM_9
100
AcDbEllipse
 10
1.709714817985502
 20
-0.9099999999999988
 30
0.0
 11
-4.018372309702285E-17
 21
-0.2187500000000018
 31
0.0
210
0.0
220
0.0
230
1.0
 40
0.7071067811865475
 41
0.0
 42
6.283185307179586
  0
ELLIPSE
  5
BD
330
88
100
AcDbEntity
  8
AM_9
100
AcDbEllipse
 10
1.709714817984585
 20
-0.909999999999449
 30
0.0
 11
-3.779601035280791E-17
 21
-0.2057518972225187
 31
0.0
210
0.0
220
0.0
230
1.0
 40
0.7071067811864785
 41
0.0
 42
6.283185307179586
  0
ELLIPSE
  5
BE
330
88
100
AcDbEntity
  8
AM_9
100
AcDbEllipse
 10
1.548292772712056
 20
-0.9099999999991497
 30
0.0
 11
-3.648546613362268E-17
 21
-0.1986176267803652
 31
0.0
210
0.0
220
0.0
230
1.0
 40
0.7071067811864946
 41
0.0
 42
6.283185307179586
  0
LWPOLYLINE
  5
C0
330
88
100
AcDbEntity
  8
AM_4
100
AcDbPolyline
 90
        4
 70
     0
 43
0.0
 10
1.918994556287134
 20
-0.7744331960793455
 10
1.894901745719926
 20
-0.7522727502678721
 10
1.876779710715384
 20
-0.736436961446461
 10
1.857765300296434
 20
-0.7205569429221537
  0
LWPOLYLINE
  5
C1
330
88
100
AcDbEntity
  8
AM_4
100
AcDbPolyline
 90
        4
 70
     0
 43
0.0
 10
1.857765300296434
 20
-1.099443057077846
 10
1.876670744783288
 20
-1.083656135654692
 10
1.894742826609514
 20
-1.067869214231538
 10
1.920484482505324
 20
-1.04415527785565
  0
LWPOLYLINE
  5
C2
330
88
100
AcDbEntity
  8
AM_4
100
AcDbPolyline
 90
        4
 70
     0
 43
0.0
 10
1.774013734869594
 20
-1.162590742770461
 10
1.817214200942502
 20
-1.131158864423564
 10
1.837881768224887
 20
-1.115323075602153
 10
1.857765300296434
 20
-1.099443057077846
  0
LWPOLYLINE
  5
C3
330
88
100
AcDbEntity
  8
AM_4
100
AcDbPolyline
 90
        4
 70
     0
 43
0.0
 10
1.857765300296434
 20
-0.7205569429221537
 10
1.838000842687149
 20
-0.704770021499
 10
1.817403022417236
 20
-0.6889831000758462
 10
1.774013734869594
 20
-0.6574092572295386
  0
LWPOLYLINE
  5
C4
330
88
100
AcDbEntity
  8
AM_4
100
AcDbPolyline
 90
        4
 70
     0
 43
0.0
 10
1.625745887719598
 20
-0.9099999999999997
 10
1.624743520923767
 20
-0.9583998160558986
 10
1.621869236650969
 20
-1.006799632111798
 10
1.619334126485037
 20
-1.03629537138523
  0
LINE
  5
C5
330
88
100
AcDbEntity
  8
AM_4
100
AcDbLine
 10
1.619334126485037
 20
-0.7837046286147691
 30
0.0
 11
1.577297783783673
 21
-0.7837046286147691
 31
0.0
  0
LWPOLYLINE
  5
C6
330
88
100
AcDbEntity
  8
AM_4
100
AcDbPolyline
 90
        4
 70
     0
 43
0.0
 10
1.774013734869594
 20
-0.6574092572295386
 10
1.740222137335369
 20
-0.6888411355764353
 10
1.722100102330827
 20
-0.7046769243978467
 10
1.703085691911877
 20
-0.7205569429221537
  0
LINE
  5
C7
330
88
100
AcDbEntity
  8
AM_4
100
AcDbLine
 10
1.774013734869594
 20
-0.6574092572295386
 30
0.0
 11
1.73197739216823
 21
-0.6574092572295386
 31
0.0
  0
LINE
  5
C8
330
88
100
AcDbEntity
  8
AM_4
100
AcDbLine
 10
1.774013734869594
 20
-1.162590742770461
 30
0.0
 11
1.73197739216823
 21
-1.162590742770461
 31
0.0
  0
LWPOLYLINE
  5
C9
330
88
100
AcDbEntity
  8
AM_4
100
AcDbPolyline
 90
        4
 70
     0
 43
0.0
 10
1.703085691911877
 20
-1.099443057077846
 10
1.721991136398731
 20
-1.115229978500999
 10
1.740063218224957
 20
-1.131016899924153
 10
1.774013734869594
 20
-1.162590742770461
  0
LWPOLYLINE
  5
CA
330
88
100
AcDbEntity
  8
AM_4
100
AcDbPolyline
 90
        4
 70
     0
 43
0.0
 10
1.619334126485037
 20
-1.03629537138523
 10
1.662534592557944
 20
-1.067727249732127
 10
1.68320215984033
 20
-1.083563038553539
 10
1.703085691911877
 20
-1.099443057077846
  0
LINE
  5
CB
330
88
100
AcDbEntity
  8
AM_4
100
AcDbLine
 10
1.619334126485037
 20
-1.03629537138523
 30
0.0
 11
1.577297783783673
 21
-1.03629537138523
 31
0.0
  0
ELLIPSE
  5
CC
330
88
100
AcDbEntity
  8
AM_4
100
AcDbEllipse
 10
1.780425496104159
 20
-0.9099999999999993
 30
0.0
 11
-4.018372309702245E-17
 21
-0.2187499999999996
 31
0.0
210
0.0
220
0.0
230
1.0
 40
0.7071067811865375
 41
2.225899051874907
 42
7.198878908894635
  0
LWPOLYLINE
  5
CD
330
88
100
AcDbEntity
  8
AM_4
100
AcDbPolyline
 90
        4
 70
     0
 43
0.0
 10
1.703085691911877
 20
-0.7205569429221537
 10
1.683321234302592
 20
-0.7363438643453075
 10
1.662723414032678
 20
-0.7521307857684614
 10
1.619334126485037
 20
-0.7837046286147691
  0
LWPOLYLINE
  5
CE
330
88
100
AcDbEntity
  8
AM_4
100
AcDbPolyline
 90
        4
 70
     0
 43
0.0
 10
1.619334126485037
 20
-0.7837046286147691
 10
1.624038560754378
 20
-0.8465683853085629
 10
1.6253113268933
 20
-0.8782399629513854
 10
1.625745887719598
 20
-0.9099999999999997
  0
ELLIPSE
  5
CF
330
88
100
AcDbEntity
  8
AM_4
100
AcDbEllipse
 10
1.831869721753135
 20
-0.9099999999999986
 30
0.0
 11
-2.182689656893335E-17
 21
-0.1188200907348964
 31
0.0
210
0.0
220
0.0
230
1.0
 40
0.7071067811865493
 41
2.765372027488838
 42
6.659405933280535
  0
ELLIPSE
  5
D0
330
88
100
AcDbEntity
  8
AM_4
100
AcDbEllipse
 10
1.780425496104156
 20
-0.9099999999999993
 30
0.0
 11
-3.926523799766191E-17
 21
-0.2137499999999994
 31
0.0
210
0.0
220
0.0
230
1.0
 40
0.7071067811865464
 41
2.23793743474991
 42
7.186840526019102
  0
ELLIPSE
  5
D1
330
88
100
AcDbEntity
  8
AM_4
100
AcDbEllipse
 10
1.854671708128743
 20
-0.9099999999999997
 30
0.0
 11
-1.928818708657085E-17
 21
-0.1050000000000002
 31
0.0
210
0.0
220
0.0
230
1.0
 40
0.7071067811865481
 41
3.141592653589793
 42
6.283185307179586
  0
LINE
  5
D2
330
88
100
AcDbEntity
  8
AM_4
100
AcDbLine
 10
1.854671708128743
 20
-1.015
 30
0.0
 11
1.855990699011282
 21
-1.015
 31
0.0
  0
LINE
  5
D3
330
88
100
AcDbEntity
  8
AM_4
100
AcDbLine
 10
1.855990699011282
 20
-0.8049999999999997
 30
0.0
 11
1.854671708128743
 21
-0.8049999999999997
 31
0.0
  0
ELLIPSE
  5
D4
330
88
100
AcDbEntity
  8
AM_4
100
AcDbEllipse
 10
1.793378418511535
 20
-0.9099999999999994
 30
0.0
 11
-3.169399141454455E-17
 21
-0.1725340532830154
 31
0.0
210
0.0
220
0.0
230
1.0
 40
0.7071067811865488
 41
2.364301310446866
 42
7.060476650323129
  0
LINE
  5
D5
330
88
100
AcDbEntity
  8
AM_4
100
AcDbLine
 10
1.838761805552046
 20
-1.000932667397366
 30
0.0
 11
1.87058161070544
 21
-1.026913429510899
 31
0.0
  0
LINE
  5
D6
330
88
100
AcDbEntity
  8
AM_4
100
AcDbLine
 10
1.87058161070544
 20
-0.7930865704891005
 30
0.0
 11
1.838761805552046
 21
-0.8190673326026338
 31
0.0
  0
ELLIPSE
  5
D7
330
88
100
AcDbEntity
  8
AM_4
100
AcDbEllipse
 10
1.918311318435533
 20
-0.9099999999999997
 30
0.0
 11
-2.479909768273394E-17
 21
-0.1350000000000002
 31
0.0
210
0.0
220
0.0
230
1.0
 40
0.7071067811865501
 41
2.72567860148725
 42
6.699099359282128
  0
ELLIPSE
  5
D8
330
88
100
AcDbEntity
  8
AM_4
100
AcDbEllipse
 10
1.875884911564339
 20
-0.9099999999999998
 30
0.0
 11
-1.928818708657075E-17
 21
-0.1049999999999996
 31
0.0
210
0.0
220
0.0
230
1.0
 40
0.7071067811865477
 41
3.665191429188088
 42
5.759586531581292
  0
LINE
  5
D9
330
88
100
AcDbEntity
  8
AM_4
100
AcDbLine
 10
2.004213878294231
 20
-0.816075655999071
 30
0.0
 11
1.956879425784341
 21
-0.7865091007763662
 31
0.0
  0
LINE
  5
DA
330
88
100
AcDbEntity
  8
AM_4
100
AcDbLine
 10
1.956879425784341
 20
-1.033490899223633
 30
0.0
 11
2.004213878294231
 21
-1.003924344000928
 31
0.0
  0
ELLIPSE
  5
DB
330
88
100
AcDbEntity
  8
AM_4
100
AcDbEllipse
 10
1.974879860930456
 20
-0.9099999999999996
 30
0.0
 11
-1.886162459184654E-17
 21
-0.1026779019331873
 31
0.0
210
0.0
220
0.0
230
1.0
 40
0.7071067811865458
 41
0.0
 42
6.283185307179586
  0
ENDBLK
  5
8B
330
88
100
AcDbEntity
  8
0
100
AcDbBlockEnd
  0
BLOCK
  5
DE
330
DC
100
AcDbEntity
  8
0
100
AcDbBlockBegin
  2
3_076208_0_in_076145_4
 70
     2
 10
0.0
 20
0.0
 30
0.0
  3
3_076208_0_in_076145_4
  1

  0
ATTDEF
  5
E0
330
DC
100
AcDbEntity
  8
AM_6
100
AcDbText
 10
6.770932289135558
 20
-0.0800000000000001
 30
0.0
 40
0.5
  1
Set Screw Medium Duty Extreme Duty Insert Inch Bore
100
AcDbAttributeDefinition
  3

  2
NN
 70
     8
280
     0
  0
ATTDEF
  5
E1
330
DC
100
AcDbEntity
  8
AM_6
100
AcDbText
 10
6.770932289135558
 20
-0.5800000000000001
 30
0.0
 40
0.5
  1
SC Medium Duty Bearing Inserts
100
AcDbAttributeDefinition
  3

  2
NT
 70
     8
280
     0
  0
ATTDEF
  5
E2
330
DC
100
AcDbEntity
  8
AM_6
100
AcDbText
 10
6.770932289135558
 20
-1.08
 30
0.0
 40
0.5
  1
076208
100
AcDbAttributeDefinition
  3

  2
NB
 70
     8
280
     0
  0
ATTDEF
  5
E3
330
DC
100
AcDbEntity
  8
AM_6
100
AcDbText
 10
6.770932289135558
 20
-1.58
 30
0.0
 40
0.5
  1
$PN.
100
AcDbAttributeDefinition
  3

  2
NBSYN
 70
     8
280
     0
  0
ATTDEF
  5
E4
330
DC
100
AcDbEntity
  8
AM_6
100
AcDbText
 10
6.770932289135558
 20
-2.08
 30
0.0
 40
0.5
  1
076208
100
AcDbAttributeDefinition
  3

  2
LINA
 70
     8
280
     0
  0
ATTDEF
  5
E5
330
DC
100
AcDbEntity
  8
AM_6
100
AcDbText
 10
6.770932289135558
 20
-2.58
 30
0.0
 40
0.5
  1
210
100
AcDbAttributeDefinition
  3

  2
SERIES
 70
     8
280
     0
  0
ATTDEF
  5
E6
330
DC
100
AcDbEntity
  8
AM_6
100
AcDbText
 10
6.770932289135558
 20
-3.08
 30
0.0
 40
0.5
  1
1-11/16
100
AcDbAttributeDefinition
  3

  2
SS
 70
     8
280
     0
  0
ATTDEF
  5
E7
330
DC
100
AcDbEntity
  8
AM_6
100
AcDbText
 10
6.770932289135558
 20
-3.58
 30
0.0
 40
0.5
  1
076208
100
AcDbAttributeDefinition
  3

  2
PN
 70
     8
280
     0
  0
ATTDEF
  5
E8
330
DC
100
AcDbEntity
  8
AM_6
100
AcDbText
 10
6.770932289135558
 20
-4.08
 30
0.0
 40
0.5
  1
INS-SCMED-111
100
AcDbAttributeDefinition
  3

  2
DESCRIPTION
 70
     8
280
     0
  0
ATTDEF
  5
E9
330
DC
100
AcDbEntity
  8
AM_6
100
AcDbText
 10
6.770932289135558
 20
-4.58
 30
0.0
 40
0.5
  1
1.82
100
AcDbAttributeDefinition
  3

  2
WEIGHT
 70
     8
280
     0
  0
ATTDEF
  5
EA
330
DC
100
AcDbEntity
  8
AM_6
100
AcDbText
 10
6.770932289135558
 20
-5.08
 30
0.0
 40
0.5
  1
1.94
100
AcDbAttributeDefinition
  3

  2
A
 70
     8
280
     0
  0
ATTDEF
  5
EB
330
DC
100
AcDbEntity
  8
AM_6
100
AcDbText
 10
6.770932289135558
 20
-5.58
 30
0.0
 40
0.5
  1
0.87
100
AcDbAttributeDefinition
  3

  2
C
 70
     8
280
     0
  0
ATTDEF
  5
EC
330
DC
100
AcDbEntity
  8
AM_6
100
AcDbText
 10
6.770932289135558
 20
-6.08
 30
0.0
 40
0.5
  1
3.5433
100
AcDbAttributeDefinition
  3

  2
D
 70
     8
280
     0
  0
ATTDEF
  5
ED
330
DC
100
AcDbEntity
  8
AM_6
100
AcDbText
 10
6.770932289135558
 20
-6.58
 30
0.0
 40
0.5
  1
0.25
100
AcDbAttributeDefinition
  3

  2
J
 70
     8
280
     0
  0
ATTDEF
  5
EE
330
DC
100
AcDbEntity
  8
AM_6
100
AcDbText
 10
6.770932289135558
 20
-7.08
 30
0.0
 40
0.5
  1
2.43
100
AcDbAttributeDefinition
  3

  2
L
 70
     8
280
     0
  0
ATTDEF
  5
EF
330
DC
100
AcDbEntity
  8
AM_6
100
AcDbText
 10
6.770932289135558
 20
-7.58
 30
0.0
 40
0.5
  1
3/8 - 24
100
AcDbAttributeDefinition
  3

  2
N
 70
     8
280
     0
  0
ATTDEF
  5
F0
330
DC
100
AcDbEntity
  8
AM_6
100
AcDbText
 10
6.770932289135558
 20
-8.08
 30
0.0
 40
0.5
  1
0.75
100
AcDbAttributeDefinition
  3

  2
W
 70
     8
280
     0
  0
ATTDEF
  5
F1
330
DC
100
AcDbEntity
  8
AM_6
100
AcDbText
 10
6.770932289135558
 20
-8.58
 30
0.0
 40
0.5
  1
1.19
100
AcDbAttributeDefinition
  3

  2
Y
 70
     8
280
     0
  0
ATTDEF
  5
F2
330
DC
100
AcDbEntity
  8
AM_6
100
AcDbText
 10
6.770932289135558
 20
-9.08
 30
0.0
 40
0.5
  1
baldor
100
AcDbAttributeDefinition
  3

  2
COMPANY
 70
     8
280
     0
  0
ELLIPSE
  5
F3
330
DC
100
AcDbEntity
  8
AM_9
100
AcDbEllipse
 10
0.7558180175493987
 20
-1.6425
 30
0.0
 11
-2.822504710334875E-17
 21
-0.1536500000000007
 31
0.0
210
0.0
220
0.0
230
1.0
 40
0.4226182617406992
 41
4.12863309761579
 42
5.29614486315359
  0
ELLIPSE
  5
F4
330
DC
100
AcDbEntity
  8
AM_9
100
AcDbEllipse
 10
0.7558180175493986
 20
-1.6425
 30
0.0
 11
-2.822504710334864E-17
 21
-0.1536500000000001
 31
0.0
210
0.0
220
0.0
230
1.0
 40
0.4226182617406982
 41
0.9870404440259977
 42
2.154552209563797
  0
LINE
  5
F5
330
DC
100
AcDbEntity
  8
AM_9
100
AcDbLine
 10
0.7646477790919656
 20
-1.79615
 30
0.0
 11
1.077731581779758
 21
-1.79615
 31
0.0
  0
LINE
  5
F6
330
DC
100
AcDbEntity
  8
AM_9
100
AcDbLine
 10
1.077731581779758
 20
-1.48885
 30
0.0
 11
0.7646477790919658
 21
-1.48885
 31
0.0
  0
LWPOLYLINE
  5
F7
330
DC
100
AcDbEntity
  8
AM_9
100
AcDbPolyline
 90
        8
 70
     0
 43
0.0
 10
0.7646897554188054
 20
-1.488850001008451
 10
0.7629181609980492
 20
-1.488907066398098
 10
0.7518963362715997
 20
-1.491651130420571
 10
0.74025891878615
 20
-1.498690180913906
 10
0.7290498039762667
 20
-1.509438975393839
 10
0.7180896959996871
 20
-1.524184212926005
 10
0.7094009431897533
 20
-1.539698679081003
 10
0.7016361078542648
 20
-1.557814001772507
  0
LWPOLYLINE
  5
F8
330
DC
100
AcDbEntity
  8
AM_9
100
AcDbPolyline
 90
        8
 70
     0
 43
0.0
 10
0.764704634872668
 20
-1.796149998991549
 10
0.7664573963028755
 20
-1.796092933601902
 10
0.7765815994889709
 20
-1.793348869579429
 10
0.7859881553848094
 20
-1.786309819086094
 10
0.7939906315459208
 20
-1.775561024606161
 10
0.800947439704655
 20
-1.760815787073995
 10
0.8059216654411306
 20
-1.745301320918997
 10
0.8099999272445321
 20
-1.727185998227493
  0
ELLIPSE
  5
F9
330
DC
100
AcDbEntity
  8
AM_9
100
AcDbEllipse
 10
1.077731581779758
 20
-1.6425
 30
0.0
 11
-2.822504710334867E-17
 21
-0.1536500000000003
 31
0.0
210
0.0
220
0.0
230
1.0
 40
0.4226182617406954
 41
3.500196040574322
 42
5.93999554076357
  0
LINE
  5
FA
330
DC
100
AcDbEntity
  8
AM_9
100
AcDbLine
 10
1.047451756009353
 20
-1.77842226453218
 30
0.0
 11
1.063615657208017
 21
-1.798583281669811
 31
0.0
  0
LINE
  5
FB
330
DC
100
AcDbEntity
  8
AM_9
100
AcDbLine
 10
1.063762085110681
 20
-1.486234080771425
 30
0.0
 11
1.047451756009353
 21
-1.50657773546782
 31
0.0
  0
LWPOLYLINE
  5
FC
330
DC
100
AcDbEntity
  8
AM_9
100
AcDbPolyline
 90
        4
 70
     0
 43
0.0
 10
1.081713778871279
 20
-1.469378713640375
 10
1.089410569637113
 20
-1.465368965310728
 10
1.097035012838221
 20
-1.463299034057829
 10
1.104484606386856
 20
-1.463195497975743
  0
LWPOLYLINE
  5
FD
330
DC
100
AcDbEntity
  8
AM_9
100
AcDbPolyline
 90
       10
 70
     0
 43
0.0
 10
-0.1282053204988497
 20
-1.557814001772506
 10
-0.1342820935695674
 20
-1.565873582443397
 10
-0.1470000496296566
 20
-1.588115591506196
 10
-0.1553873784988012
 20
-1.612353953082739
 10
-0.1587292071286484
 20
-1.635121972474509
 10
-0.1580091078624579
 20
-1.658128661467911
 10
-0.1536697066287572
 20
-1.679037180685797
 10
-0.1460557926284768
 20
-1.69896471213294
 10
-0.1379583012631548
 20
-1.713606184325715
 10
-0.1282053204988497
 20
-1.727185998227495
  0
LWPOLYLINE
  5
FE
330
DC
100
AcDbEntity
  8
AM_9
100
AcDbPolyline
 90
       10
 70
     0
 43
0.0
 10
0.1282053204988497
 20
-1.727185998227495
 10
0.1342820935695673
 20
-1.719126417556603
 10
0.1470000496296565
 20
-1.696884408493804
 10
0.1553873784988012
 20
-1.672646046917261
 10
0.1587292071286483
 20
-1.649878027525491
 10
0.1580091078624579
 20
-1.626871338532089
 10
0.1536697066287573
 20
-1.605962819314203
 10
0.1460557926284768
 20
-1.58603528786706
 10
0.1379583012631549
 20
-1.571393815674285
 10
0.1282053204988497
 20
-1.557814001772506
  0
LWPOLYLINE
  5
FF
330
DC
100
AcDbEntity
  8
AM_9
100
AcDbPolyline
 90
       10
 70
     0
 43
0.0
 10
0.7016361078542649
 20
-1.557814001772507
 10
0.6941077529086741
 20
-1.577194563293721
 10
0.6883848211365825
 20
-1.598522099522419
 10
0.6848557766079988
 20
-1.621611176348905
 10
0.6838426062952662
 20
-1.6454166354699
 10
0.6852223286724572
 20
-1.666899362783145
 10
0.6886456294067322
 20
-1.687696368147675
 10
0.6939242267852437
 20
-1.707250765253183
 10
0.7007345019646128
 20
-1.725171833008198
 10
0.7016361078542649
 20
-1.727185998227494
  0
LWPOLYLINE
  5
100
330
DC
100
AcDbEntity
  8
AM_9
100
AcDbPolyline
 90
        7
 70
     0
 43
0.0
 10
0.701636107854265
 20
-1.727185998227494
 10
0.7103922122318971
 20
-1.747284987456379
 10
0.7208157965174495
 20
-1.764926523268525
 10
0.7318642145232681
 20
-1.778641805943801
 10
0.7436992041387984
 20
-1.788820596596606
 10
0.75511924802584
 20
-1.794560228834701
 10
0.764704634872668
 20
-1.796149998991549
  0
LWPOLYLINE
  5
101
330
DC
100
AcDbEntity
  8
AM_9
100
AcDbPolyline
 90
        9
 70
     0
 43
0.0
 10
0.809999927244532
 20
-1.727185998227493
 10
0.8143270492429415
 20
-1.703159206732256
 10
0.8167707662845165
 20
-1.68008274382012
 10
0.8180159043565698
 20
-1.655642829198684
 10
0.8181019986524162
 20
-1.633465504855804
 10
0.8172383458116893
 20
-1.611559794620559
 10
0.8155027251522389
 20
-1.591343560918254
 10
0.8128904593633095
 20
-1.572445747579249
 10
0.809999927244532
 20
-1.557814001772507
  0
LWPOLYLINE
  5
102
330
DC
100
AcDbEntity
  8
AM_9
100
AcDbPolyline
 90
        7
 70
     0
 43
0.0
 10
0.8099999272445321
 20
-1.557814001772507
 10
0.8053767507065144
 20
-1.537715012543621
 10
0.7992912119871609
 20
-1.520073476731475
 10
0.7920705205152695
 20
-1.5063581940562
 10
0.7833317445610253
 20
-1.496179403403394
 10
0.7737530101888919
 20
-1.490439771165299
 10
0.7646897554188054
 20
-1.488850001008451
  0
LINE
  5
103
330
DC
100
AcDbEntity
  8
AM_9
100
AcDbLine
 10
0.84375
 20
-1.9714
 30
0.0
 11
0.84375
 21
-0.1286000000000002
 31
0.0
  0
LINE
  5
104
330
DC
100
AcDbEntity
  8
AM_9
100
AcDbLine
 10
-0.84375
 20
-0.1286000000000002
 30
0.0
 11
-0.84375
 21
-1.9714
 31
0.0
  0
LINE
  5
105
330
DC
100
AcDbEntity
  8
AM_9
100
AcDbLine
 10
0.84375
 20
-0.1286000000000002
 30
0.0
 11
0.89235
 21
-0.0800000000000001
 31
0.0
  0
LINE
  5
106
330
DC
100
AcDbEntity
  8
AM_9
100
AcDbLine
 10
-0.89235
 20
-0.0800000000000001
 30
0.0
 11
-0.84375
 21
-0.1286000000000002
 31
0.0
  0
LINE
  5
107
330
DC
100
AcDbEntity
  8
AM_9
100
AcDbLine
 10
-0.84375
 20
-1.9714
 30
0.0
 11
-0.89235
 21
-2.02
 31
0.0
  0
LINE
  5
108
330
DC
100
AcDbEntity
  8
AM_9
100
AcDbLine
 10
0.89235
 20
-2.02
 30
0.0
 11
0.84375
 21
-1.9714
 31
0.0
  0
LINE
  5
109
330
DC
100
AcDbEntity
  8
AM_9
100
AcDbLine
 10
-1.1664
 20
-0.0800000000000001
 30
0.0
 11
-1.215
 21
-0.1286
 31
0.0
  0
LINE
  5
10A
330
DC
100
AcDbEntity
  8
AM_9
100
AcDbLine
 10
1.215
 20
-0.1286
 30
0.0
 11
1.1664
 21
-0.0800000000000001
 31
0.0
  0
LWPOLYLINE
  5
10B
330
DC
100
AcDbEntity
  8
AM_9
100
AcDbPolyline
 90
        5
 70
     0
 43
0.0
 10
-0.0442153301659039
 20
-1.469356455613107
 10
-0.0285190960909559
 20
-1.465614285426192
 10
-0.0019937458984588
 20
-1.463007938352042
 10
0.025409550285207
 20
-1.465071170788563
 10
0.0452528762837201
 20
-1.469664243032437
  0
LWPOLYLINE
  5
10C
330
DC
100
AcDbEntity
  8
AM_9
100
AcDbPolyline
 90
        3
 70
     0
 43
0.0
 10
1.104484606386856
 20
-1.463195497975743
 10
1.115267795455089
 20
-1.466843544452455
 10
1.119277653765738
 20
-1.469475033537951
  0
LINE
  5
10D
330
DC
100
AcDbEntity
  8
AM_9
100
AcDbLine
 10
1.215
 20
-1.47
 30
0.0
 11
1.215
 21
-1.265
 31
0.0
  0
LINE
  5
10E
330
DC
100
AcDbEntity
  8
AM_9
100
AcDbLine
 10
-1.215
 20
-1.265
 30
0.0
 11
-1.215
 21
-1.47
 31
0.0
  0
LINE
  5
10F
330
DC
100
AcDbEntity
  8
AM_9
100
AcDbLine
 10
-1.215
 20
-0.1286
 30
0.0
 11
1.215000000000001
 21
-0.1286
 31
0.0
  0
LINE
  5
110
330
DC
100
AcDbEntity
  8
AM_9
100
AcDbLine
 10
1.215000000000001
 20
-0.395
 30
0.0
 11
1.215000000000001
 21
-0.1286
 31
0.0
  0
LINE
  5
111
330
DC
100
AcDbEntity
  8
AM_9
100
AcDbLine
 10
-1.215000000000001
 20
-0.1286
 30
0.0
 11
-1.215000000000001
 21
-0.395
 31
0.0
  0
LINE
  5
112
330
DC
100
AcDbEntity
  8
AM_9
100
AcDbLine
 10
1.688316666666667
 20
-1.13
 30
0.0
 11
1.688316666666667
 21
-1.03
 31
0.0
  0
LINE
  5
113
330
DC
100
AcDbEntity
  8
AM_9
100
AcDbLine
 10
-1.688316666666667
 20
-1.03
 30
0.0
 11
-1.688316666666667
 21
-1.13
 31
0.0
  0
LINE
  5
114
330
DC
100
AcDbEntity
  8
AM_9
100
AcDbLine
 10
-1.67805057209251
 20
-0.395
 30
0.0
 11
1.678050572091513
 21
-0.395
 31
0.0
  0
ARC
  5
115
330
DC
100
AcDbEntity
  8
AM_9
100
AcDbCircle
 10
1.67805057209251
 20
-0.4450000000000001
 30
0.0
 40
0.0500000000000001
100
AcDbArc
 50
12.92190045228232
 51
90.0
  0
ARC
  5
116
330
DC
100
AcDbEntity
  8
AM_9
100
AcDbCircle
 10
-1.67805057209251
 20
-0.4450000000000002
 30
0.0
 40
0.0500000000000002
100
AcDbArc
 50
90.0
 51
167.0780995477176
  0
LINE
  5
117
330
DC
100
AcDbEntity
  8
AM_9
100
AcDbLine
 10
-1.678050572092514
 20
-1.265
 30
0.0
 11
1.678050572091517
 21
-1.265
 31
0.0
  0
ARC
  5
118
330
DC
100
AcDbEntity
  8
AM_9
100
AcDbCircle
 10
1.678050572092514
 20
-1.215
 30
0.0
 40
0.0499999999999998
100
AcDbArc
 50
270.0
 51
347.0781236960827
  0
ARC
  5
119
330
DC
100
AcDbEntity
  8
AM_9
100
AcDbCircle
 10
-1.678050572092514
 20
-1.215
 30
0.0
 40
0.05
100
AcDbArc
 50
192.9218763039173
 51
270.0
  0
LINE
  5
11A
330
DC
100
AcDbEntity
  8
AM_9
100
AcDbLine
 10
-1.726784366253863
 20
-1.226181113837149
 30
0.0
 11
1.726784366253893
 21
-1.226181113837149
 31
0.0
  0
LINE
  5
11B
330
DC
100
AcDbEntity
  8
AM_9
100
AcDbLine
 10
-1.746065211411074
 20
-1.13
 30
0.0
 11
1.746065211411104
 21
-1.13
 31
0.0
  0
ARC
  5
11C
330
DC
100
AcDbEntity
  8
AM_9
100
AcDbCircle
 10
0.0000000000023819
 20
-0.8300000000004715
 30
0.0
 40
1.771649999997602
100
AcDbArc
 50
347.0781002292375
 51
350.2509203909145
  0
ARC
  5
11D
330
DC
100
AcDbEntity
  8
AM_9
100
AcDbCircle
 10
-0.000000000073791
 20
-0.8300000000147862
 30
0.0
 40
1.7716499999248
100
AcDbArc
 50
189.7490796090204
 51
192.9218997708276
  0
LINE
  5
11E
330
DC
100
AcDbEntity
  8
AM_9
100
AcDbLine
 10
-1.760324891177762
 20
-1.03
 30
0.0
 11
1.76032489117777
 21
-1.03
 31
0.0
  0
LINE
  5
11F
330
DC
100
AcDbEntity
  8
AM_9
100
AcDbLine
 10
-1.726784361541367
 20
-0.4338188656230941
 30
0.0
 11
1.726784361541375
 21
-0.433818865623094
 31
0.0
  0
ARC
  5
120
330
DC
100
AcDbEntity
  8
AM_9
100
AcDbCircle
 10
-0.000000000003219
 20
-0.8300000000001814
 30
0.0
 40
1.771650000003186
100
AcDbArc
 50
353.5181126598392
 51
12.92190045226451
  0
ARC
  5
121
330
DC
100
AcDbEntity
  8
AM_9
100
AcDbCircle
 10
0.0000000000015645
 20
-0.8300000000000884
 30
0.0
 40
1.771650000001552
100
AcDbArc
 50
167.0780995477265
 51
186.4818873401699
  0
LINE
  5
124
330
DC
100
AcDbEntity
  8
AM_7
100
AcDbLine
 10
-0.1613325
 20
-1.6425
 30
0.0
 11
0.1613325
 21
-1.6425
 31
0.0
  0
ELLIPSE
  5
125
330
DC
100
AcDbEntity
  8
AM_4
100
AcDbEllipse
 10
1.077731581779759
 20
-1.6425
 30
0.0
 11
-2.822504710334859E-17
 21
-0.1536499999999998
 31
0.0
210
0.0
220
0.0
230
1.0
 40
0.4226182617406995
 41
5.939995540763562
 42
9.783381347753913
  0
LWPOLYLINE
  5
126
330
DC
100
AcDbEntity
  8
AM_4
100
AcDbPolyline
 90
       14
 70
     0
 43
0.0
 10
1.063790353164311
 20
-1.7988011736452
 10
1.059702757223979
 20
-1.793382804506076
 10
1.049173210240681
 20
-1.776137085133559
 10
1.03984889376771
 20
-1.755796428500364
 10
1.031589104135544
 20
-1.731291812950698
 10
1.025334532143306
 20
-1.704599501253887
 10
1.021177909575051
 20
-1.674736164254429
 10
1.019670027920984
 20
-1.644016003294257
 10
1.020990481078578
 20
-1.61234725480506
 10
1.025125740868013
 20
-1.581527666245131
 10
1.031961356314121
 20
-1.552421463475518
 10
1.041163817903128
 20
-1.525958907503834
 10
1.052040372766059
 20
-1.503664085324935
 10
1.063803840623945
 20
-1.486181999702217
  0
LWPOLYLINE
  5
127
330
DC
100
AcDbEntity
  8
AM_4
100
AcDbPolyline
 90
        4
 70
     0
 43
0.0
 10
1.063803840623945
 20
-1.486181999702217
 10
1.064334977185003
 20
-1.485524717751151
 10
1.076720546730878
 20
-1.473016244797054
 10
1.081713778871279
 20
-1.469378713640375
  0
CIRCLE
  5
128
330
DC
100
AcDbEntity
  8
AM_4
100
AcDbCircle
 10
0.0
 20
-1.6425
 30
0.0
 40
0.15365
  0
LINE
  5
129
330
DC
100
AcDbEntity
  8
AM_4
100
AcDbLine
 10
-1.1664
 20
-2.02
 30
0.0
 11
1.1664
 21
-2.02
 31
0.0
  0
LINE
  5
12A
330
DC
100
AcDbEntity
  8
AM_4
100
AcDbLine
 10
1.1664
 20
-2.02
 30
0.0
 11
1.215
 21
-1.9714
 31
0.0
  0
LINE
  5
12B
330
DC
100
AcDbEntity
  8
AM_4
100
AcDbLine
 10
-1.215
 20
-1.9714
 30
0.0
 11
-1.1664
 21
-2.02
 31
0.0
  0
LINE
  5
12C
330
DC
100
AcDbEntity
  8
AM_4
100
AcDbLine
 10
-1.215
 20
-1.9714
 30
0.0
 11
1.215
 21
-1.9714
 31
0.0
  0
LWPOLYLINE
  5
12D
330
DC
100
AcDbEntity
  8
AM_4
100
AcDbPolyline
 90
       33
 70
     0
 43
0.0
 10
0.0452528762837201
 20
-1.469664243032437
 10
0.0504548534827932
 20
-1.471324346292076
 10
0.0747873804410941
 20
-1.481854431931306
 10
0.0970340328155544
 20
-1.496116500501758
 10
0.117249384440494
 20
-1.514161002567534
 10
0.1349731776114235
 20
-1.535912470359141
 10
0.1494139183618907
 20
-1.56081959804245
 10
0.1601171809823226
 20
-1.588718500916971
 10
0.166376686073604
 20
-1.618777280841237
 10
0.1677131463406062
 20
-1.649845210024441
 10
0.1638137397846358
 20
-1.681580715853904
 10
0.1548490379874522
 20
-1.711672584681756
 10
0.1404837576852969
 20
-1.740617840349562
 10
0.1222241196421028
 20
-1.765416816532822
 10
0.099141843703017
 20
-1.787257350439905
 10
0.0746447238000807
 20
-1.803221594780764
 10
0.0467421692773064
 20
-1.814880490552754
 10
0.0201489451016139
 20
-1.820702207008824
 10
-0.0079353592827976
 20
-1.821803346094656
 10
-0.0336349744120958
 20
-1.818351344017834
 10
-0.0591061421077496
 20
-1.810470393605201
 10
-0.0824277418670604
 20
-1.798802621619613
 10
-0.1041395425516264
 20
-1.783182989208456
 10
-0.1236060847256023
 20
-1.763826486949561
 10
-0.1402009802219208
 20
-1.741078661203722
 10
-0.1535225247386706
 20
-1.714967223439531
 10
-0.1627602181627493
 20
-1.686312112176694
 10
-0.1673864092885866
 20
-1.655868525188817
 10
-0.1669778852091676
 20
-1.624214045985504
 10
-0.1614078158661213
 20
-1.593313545573098
 10
-0.1504145628537401
 20
-1.562943040000331
 10
-0.1377742059683369
 20
-1.540088089166715
 10
-0.1216042494881212
 20
-1.518882193528159
  0
LWPOLYLINE
  5
12E
330
DC
100
AcDbEntity
  8
AM_4
100
AcDbPolyline
 90
        5
 70
     0
 43
0.0
 10
-0.1216042494881212
 20
-1.518882193528159
 10
-0.1033820791976686
 20
-1.501178998009854
 10
-0.0822272577573799
 20
-1.486076432568108
 10
-0.0567429041073014
 20
-1.47359761840151
 10
-0.0442153301659039
 20
-1.469356455613107
  0
LWPOLYLINE
  5
12F
330
DC
100
AcDbEntity
  8
AM_4
100
AcDbPolyline
 90
       22
 70
     0
 43
0.0
 10
1.119277653765738
 20
-1.469475033537951
 10
1.125158057398252
 20
-1.474872231487255
 10
1.133845108163664
 20
-1.486863117254611
 10
1.141365504583433
 20
-1.502417062546656
 10
1.14796445261495
 20
-1.522174621869843
 10
1.153223264450843
 20
-1.544763899861994
 10
1.15738033328884
 20
-1.571338184839548
 10
1.160096085860106
 20
-1.599711520390092
 10
1.161431780103634
 20
-1.630629144184009
 10
1.161251562391281
 20
-1.661869189310161
 10
1.159492158424565
 20
-1.693183128894602
 10
1.156117722846913
 20
-1.723048230945262
 10
1.151101364385646
 20
-1.750342690773295
 10
1.1443843487829
 20
-1.774438902337726
 10
1.136277024051474
 20
-1.793712664022912
 10
1.126612331154914
 20
-1.808484302050452
 10
1.116289292981162
 20
-1.817548505558028
 10
1.104944177763392
 20
-1.821744679808811
 10
1.093626319462467
 20
-1.820998009324422
 10
1.082018892247721
 20
-1.815816315518079
 10
1.070638837812401
 20
-1.806491437282599
 10
1.063790353164311
 20
-1.7988011736452
  0
LINE
  5
130
330
DC
100
AcDbEntity
  8
AM_4
100
AcDbLine
 10
1.215
 20
-1.9714
 30
0.0
 11
1.215
 21
-1.47
 31
0.0
  0
LINE
  5
131
330
DC
100
AcDbEntity
  8
AM_4
100
AcDbLine
 10
-1.215
 20
-1.47
 30
0.0
 11
-1.215
 21
-1.9714
 31
0.0
  0
ARC
  5
133
330
DC
100
AcDbEntity
  8
AM_5
100
AcDbCircle
 10
0.0000000000000002
 20
-1.6425
 30
0.0
 40
0.1875
100
AcDbArc
 50
75.00000000000004
 51
15.00000000000002
  0
ARC
  5
134
330
DC
100
AcDbEntity
  8
AM_5
100
AcDbCircle
 10
0.0000000000000002
 20
-1.645
 30
0.0
 40
0.1875
100
AcDbArc
 50
75.00000000000006
 51
15.00000000000002
  0
ENDBLK
  5
DF
330
DC
100
AcDbEntity
  8
0
100
AcDbBlockEnd
  0
BLOCK
  5
137
330
135
100
AcDbEntity
  8
0
100
AcDbBlockBegin
  2
4_076145h_0_in_076145_4
 70
     2
 10
0.0
 20
0.0
 30
0.0
  3
4_076145h_0_in_076145_4
  1

  0
ATTDEF
  5
139
330
135
100
AcDbEntity
  8
AM_6
100
AcDbText
 10
7.279999999999999
 20
0.0735
 30
0.0
 40
0.5
  1
F2B-SCMED -Inch - housing
100
AcDbAttributeDefinition
  3

  2
NN
 70
     8
280
     0
  0
ATTDEF
  5
13A
330
135
100
AcDbEntity
  8
AM_6
100
AcDbText
 10
7.279999999999999
 20
-0.4265
 30
0.0
 40
0.5
  1
SC 2 Bolt Flange Bearings -(Normal Duty)
100
AcDbAttributeDefinition
  3

  2
NT
 70
     8
280
     0
  0
ATTDEF
  5
13B
330
135
100
AcDbEntity
  8
AM_6
100
AcDbText
 10
7.279999999999999
 20
-0.9265
 30
0.0
 40
0.5
  1
076145h
100
AcDbAttributeDefinition
  3

  2
NB
 70
     8
280
     0
  0
ATTDEF
  5
13C
330
135
100
AcDbEntity
  8
AM_6
100
AcDbText
 10
7.279999999999999
 20
-1.4265
 30
0.0
 40
0.5
  1
$PN.h
100
AcDbAttributeDefinition
  3

  2
NBSYN
 70
     8
280
     0
  0
ATTDEF
  5
13D
330
135
100
AcDbEntity
  8
AM_6
100
AcDbText
 10
7.279999999999999
 20
-1.9265
 30
0.0
 40
0.5
  1
076145
100
AcDbAttributeDefinition
  3

  2
LINA
 70
     8
280
     0
  0
ATTDEF
  5
13E
330
135
100
AcDbEntity
  8
AM_6
100
AcDbText
 10
7.279999999999999
 20
-2.4265
 30
0.0
 40
0.5
  1
210
100
AcDbAttributeDefinition
  3

  2
SERIES
 70
     8
280
     0
  0
ATTDEF
  5
13F
330
135
100
AcDbEntity
  8
AM_6
100
AcDbText
 10
7.279999999999999
 20
-2.9265
 30
0.0
 40
0.5
  1
1-11/16
100
AcDbAttributeDefinition
  3

  2
SS
 70
     8
280
     0
  0
ATTDEF
  5
140
330
135
100
AcDbEntity
  8
AM_6
100
AcDbText
 10
7.279999999999999
 20
-3.4265
 30
0.0
 40
0.5
  1
076145
100
AcDbAttributeDefinition
  3

  2
PN
 70
     8
280
     0
  0
ATTDEF
  5
141
330
135
100
AcDbEntity
  8
AM_6
100
AcDbText
 10
7.279999999999999
 20
-3.9265
 30
0.0
 40
0.5
  1
F2B-SCMED-111
100
AcDbAttributeDefinition
  3

  2
DESCRIPTION
 70
     8
280
     0
  0
ATTDEF
  5
142
330
135
100
AcDbEntity
  8
AM_6
100
AcDbText
 10
7.279999999999999
 20
-4.4265
 30
0.0
 40
0.5
  1
5.8
100
AcDbAttributeDefinition
  3

  2
W
 70
     8
280
     0
  0
ATTDEF
  5
143
330
135
100
AcDbEntity
  8
AM_6
100
AcDbText
 10
7.279999999999999
 20
-4.9265
 30
0.0
 40
0.5
  1
1.94
100
AcDbAttributeDefinition
  3

  2
A
 70
     8
280
     0
  0
ATTDEF
  5
144
330
135
100
AcDbEntity
  8
AM_6
100
AcDbText
 10
7.279999999999999
 20
-5.4265
 30
0.0
 40
0.5
  1
7.44
100
AcDbAttributeDefinition
  3

  2
B
 70
     8
280
     0
  0
ATTDEF
  5
145
330
135
100
AcDbEntity
  8
AM_6
100
AcDbText
 10
7.279999999999999
 20
-5.9265
 30
0.0
 40
0.5
  1
2.02
100
AcDbAttributeDefinition
  3

  2
C
 70
     8
280
     0
  0
ATTDEF
  5
146
330
135
100
AcDbEntity
  8
AM_6
100
AcDbText
 10
7.279999999999999
 20
-6.4265
 30
0.0
 40
0.5
  1
6.19
100
AcDbAttributeDefinition
  3

  2
D
 70
     8
280
     0
  0
ATTDEF
  5
147
330
135
100
AcDbEntity
  8
AM_6
100
AcDbText
 10
7.279999999999999
 20
-6.9265
 30
0.0
 40
0.5
  1
1/2
100
AcDbAttributeDefinition
  3

  2
F
 70
     8
280
     0
  0
ATTDEF
  5
148
330
135
100
AcDbEntity
  8
AM_6
100
AcDbText
 10
7.279999999999999
 20
-7.4265
 30
0.0
 40
0.5
  1
0.63
100
AcDbAttributeDefinition
  3

  2
H
 70
     8
280
     0
  0
ATTDEF
  5
149
330
135
100
AcDbEntity
  8
AM_6
100
AcDbText
 10
7.279999999999999
 20
-7.9265
 30
0.0
 40
0.5
  1
0.55
100
AcDbAttributeDefinition
  3

  2
J
 70
     8
280
     0
  0
ATTDEF
  5
14A
330
135
100
AcDbEntity
  8
AM_6
100
AcDbText
 10
7.279999999999999
 20
-8.4265
 30
0.0
 40
0.5
  1
2.43
100
AcDbAttributeDefinition
  3

  2
L
 70
     8
280
     0
  0
ATTDEF
  5
14B
330
135
100
AcDbEntity
  8
AM_6
100
AcDbText
 10
7.279999999999999
 20
-8.9265
 30
0.0
 40
0.5
  1
4.56
100
AcDbAttributeDefinition
  3

  2
M
 70
     8
280
     0
  0
ATTDEF
  5
14C
330
135
100
AcDbEntity
  8
AM_6
100
AcDbText
 10
7.279999999999999
 20
-9.4265
 30
0.0
 40
0.5
  1
2.03
100
AcDbAttributeDefinition
  3

  2
N
 70
     8
280
     0
  0
ATTDEF
  5
14D
330
135
100
AcDbEntity
  8
AM_6
100
AcDbText
 10
7.279999999999999
 20
-9.9265
 30
0.0
 40
0.5
  1
4450
100
AcDbAttributeDefinition
  3

  2
CAPS
 70
     8
280
     0
  0
ATTDEF
  5
14E
330
135
100
AcDbEntity
  8
AM_6
100
AcDbText
 10
7.279999999999999
 20
-10.4265
 30
0.0
 40
0.5
  1
7891
100
AcDbAttributeDefinition
  3

  2
CAPD
 70
     8
280
     0
  0
ATTDEF
  5
14F
330
135
100
AcDbEntity
  8
AM_6
100
AcDbText
 10
7.279999999999999
 20
-10.9265
 30
0.0
 40
0.5
  1
baldor
100
AcDbAttributeDefinition
  3

  2
COMPANY
 70
     8
280
     0
  0
LINE
  5
150
330
135
100
AcDbEntity
  8
AM_9
100
AcDbLine
 10
2.040410941714359
 20
-0.9542052762460379
 30
0.0
 11
2.040410941714359
 21
-0.8657947237539616
 31
0.0
  0
LINE
  5
151
330
135
100
AcDbEntity
  8
AM_9
100
AcDbLine
 10
0.625
 20
-0.9554999999999998
 30
0.0
 11
0.625
 21
-0.4199999999999999
 31
0.0
  0
LINE
  5
152
330
135
100
AcDbEntity
  8
AM_9
100
AcDbLine
 10
-0.625
 20
-0.9554999999999998
 30
0.0
 11
-0.625
 21
-0.4199999999999999
 31
0.0
  0
LINE
  5
153
330
135
100
AcDbEntity
  8
AM_9
100
AcDbLine
 10
1.77165
 20
-1.155
 30
0.0
 11
1.77165
 21
-0.42
 31
0.0
  0
LINE
  5
154
330
135
100
AcDbEntity
  8
AM_9
100
AcDbLine
 10
-1.77165
 20
-0.42
 30
0.0
 11
-1.77165
 21
-1.155
 31
0.0
  0
LINE
  5
155
330
135
100
AcDbEntity
  8
AM_9
100
AcDbLine
 10
0.625
 20
-0.9554999999999998
 30
0.0
 11
-0.625
 21
-0.9554999999999998
 31
0.0
  0
LINE
  5
156
330
135
100
AcDbEntity
  8
AM_9
100
AcDbLine
 10
-1.940399999999998
 20
-1.155
 30
0.0
 11
1.940399999999999
 21
-1.155
 31
0.0
  0
LINE
  5
157
330
135
100
AcDbEntity
  8
AM_9
100
AcDbLine
 10
1.940399999999999
 20
-1.47
 30
0.0
 11
1.940399999999999
 21
-1.155
 31
0.0
  0
LINE
  5
158
330
135
100
AcDbEntity
  8
AM_9
100
AcDbLine
 10
-1.940399999999999
 20
-1.155
 30
0.0
 11
-1.940399999999999
 21
-1.47
 31
0.0
  0
LINE
  5
159
330
135
100
AcDbEntity
  8
AM_9
100
AcDbLine
 10
-1.9404
 20
-0.42
 30
0.0
 11
1.9404
 21
-0.42
 31
0.0
  0
LINE
  5
15A
330
135
100
AcDbEntity
  8
AM_9
100
AcDbLine
 10
1.9404
 20
-0.42
 30
0.0
 11
1.9404
 21
-0.0800000000000001
 31
0.0
  0
LINE
  5
15B
330
135
100
AcDbEntity
  8
AM_9
100
AcDbLine
 10
-1.9404
 20
-0.0800000000000001
 30
0.0
 11
-1.9404
 21
-0.42
 31
0.0
  0
LINE
  5
15C
330
135
100
AcDbEntity
  8
AM_9
100
AcDbLine
 10
2.003506396143865
 20
-1.004366259116848
 30
0.0
 11
2.003506396143864
 21
-0.8156337408831513
 31
0.0
  0
LINE
  5
15D
330
135
100
AcDbEntity
  8
AM_9
100
AcDbLine
 10
1.050490779551086
 20
-0.0799999999999999
 30
0.0
 11
1.050490779551086
 21
0.0000000000000001
 31
0.0
  0
LINE
  5
15E
330
135
100
AcDbEntity
  8
AM_9
100
AcDbLine
 10
-1.05049081696228
 20
-0.0799999999999999
 30
0.0
 11
-1.05049081696228
 21
0.0000000000000001
 31
0.0
  0
LINE
  5
15F
330
135
100
AcDbEntity
  8
AM_9
100
AcDbLine
 10
-1.276987391841841
 20
-0.0799999999999999
 30
0.0
 11
1.276987391841846
 21
-0.0799999999999999
 31
0.0
  0
LWPOLYLINE
  5
160
330
135
100
AcDbEntity
  8
AM_9
100
AcDbPolyline
 90
       10
 70
     0
 43
0.0
 10
1.931977378662075
 20
-1.407000000000001
 10
1.931371496289258
 20
-1.417223926909909
 10
1.929502857737734
 20
-1.427447853819816
 10
1.926535216099418
 20
-1.436813240691569
 10
1.922395085970801
 20
-1.445594801596505
 10
1.917372336403593
 20
-1.453161338344727
 10
1.911379534020708
 20
-1.459636580307019
 10
1.90474063113428
 20
-1.464620107697677
 10
1.897416799165489
 20
-1.468091517491391
 10
1.886237286091116
 20
-1.47
  0
LINE
  5
161
330
135
100
AcDbEntity
  8
AM_9
100
AcDbLine
 10
1.926647416724924
 20
-0.5670000000000001
 30
0.0
 11
1.413121625810933
 21
-0.567
 31
0.0
  0
LINE
  5
162
330
135
100
AcDbEntity
  8
AM_9
100
AcDbLine
 10
1.926647416724924
 20
-0.5670000000000001
 30
0.0
 11
1.926647416724924
 21
-0.0800000000000002
 31
0.0
  0
LINE
  5
163
330
135
100
AcDbEntity
  8
AM_9
100
AcDbLine
 10
1.931977378662075
 20
-1.407000000000001
 30
0.0
 11
1.931977378662075
 21
-0.0799999999999999
 31
0.0
  0
LINE
  5
164
330
135
100
AcDbEntity
  8
AM_9
100
AcDbLine
 10
1.219405604422171
 20
-1.407000000000001
 30
0.0
 11
2.040410941714359
 21
-1.407000000000001
 31
0.0
  0
LINE
  5
165
330
135
100
AcDbEntity
  8
AM_9
100
AcDbLine
 10
0.25
 20
-0.6299999999999998
 30
0.0
 11
0.25
 21
0.0000000000000002
 31
0.0
  0
LINE
  5
166
330
135
100
AcDbEntity
  8
AM_9
100
AcDbLine
 10
-0.25
 20
0.0000000000000002
 30
0.0
 11
-0.25
 21
-0.6299999999999998
 31
0.0
  0
LINE
  5
167
330
135
100
AcDbEntity
  8
AM_7
100
AcDbLine
 10
0.0
 20
-2.117
 30
0.0
 11
0.0
 21
0.0735
 31
0.0
  0
LINE
  5
168
330
135
100
AcDbEntity
  8
AM_4
100
AcDbLine
 10
2.040410941714359
 20
-0.8657947237539616
 30
0.0
 11
2.040410941714359
 21
-0.0799999999999999
 31
0.0
  0
LINE
  5
169
330
135
100
AcDbEntity
  8
AM_4
100
AcDbLine
 10
2.040410941714359
 20
-1.47
 30
0.0
 11
2.040410941714359
 21
-0.9542052762460379
 31
0.0
  0
LINE
  5
16A
330
135
100
AcDbEntity
  8
AM_4
100
AcDbLine
 10
2.003506396143864
 20
-0.8156337408831513
 30
0.0
 11
2.003506396143864
 21
-0.0799999999999999
 31
0.0
  0
LINE
  5
16B
330
135
100
AcDbEntity
  8
AM_4
100
AcDbLine
 10
2.003506396143864
 20
-1.47
 30
0.0
 11
2.003506396143865
 21
-1.004366259116848
 31
0.0
  0
LINE
  5
16C
330
135
100
AcDbEntity
  8
AM_4
100
AcDbLine
 10
1.463276815317343
 20
-1.47
 30
0.0
 11
1.463276815317343
 21
-0.0799999999999998
 31
0.0
  0
LINE
  5
16D
330
135
100
AcDbEntity
  8
AM_4
100
AcDbLine
 10
1.29357118783257
 20
-1.47
 30
0.0
 11
1.29357118783257
 21
-0.5669999999999998
 31
0.0
  0
LINE
  5
16E
330
135
100
AcDbEntity
  8
AM_4
100
AcDbLine
 10
1.293914082851682
 20
-0.0799999999999999
 30
0.0
 11
1.293914082851682
 21
0.0000000000000001
 31
0.0
  0
LINE
  5
16F
330
135
100
AcDbEntity
  8
AM_4
100
AcDbLine
 10
1.293914082851682
 20
0.0000000000000001
 30
0.0
 11
-1.293914082851676
 21
0.0000000000000001
 31
0.0
  0
LINE
  5
170
330
135
100
AcDbEntity
  8
AM_4
100
AcDbLine
 10
-1.293914082851676
 20
0.0000000000000001
 30
0.0
 11
-1.293914082851676
 21
-0.0799999999999999
 31
0.0
  0
LWPOLYLINE
  5
171
330
135
100
AcDbEntity
  8
AM_4
100
AcDbPolyline
 90
       11
 70
     0
 43
0.0
 10
1.173713612913317
 20
-1.47
 10
1.178045841226619
 20
-1.469716566490811
 10
1.185714140324328
 20
-1.467790758177911
 10
1.193256977483248
 20
-1.463951748257276
 10
1.199989542073503
 20
-1.458548594287165
 10
1.206147853709708
 20
-1.451384010715501
 10
1.211091277029308
 20
-1.443245215395801
 10
1.215087452794654
 20
-1.43374286454874
 10
1.217719321757621
 20
-1.423963048953635
 10
1.219170797437454
 20
-1.413380977388108
 10
1.219405604422171
 20
-1.407000000000001
  0
LINE
  5
172
330
135
100
AcDbEntity
  8
AM_4
100
AcDbLine
 10
-2.217
 20
-1.47
 30
0.0
 11
2.217
 21
-1.47
 31
0.0
  0
ARC
  5
173
330
135
100
AcDbEntity
  8
AM_4
100
AcDbCircle
 10
2.217000000000001
 20
-1.407000000000001
 30
0.0
 40
0.0629999999999988
100
AcDbArc
 50
270.0
 51
0.0
  0
ARC
  5
174
330
135
100
AcDbEntity
  8
AM_4
100
AcDbCircle
 10
-2.217000000000001
 20
-1.407000000000001
 30
0.0
 40
0.0629999999999988
100
AcDbArc
 50
180.0
 51
270.0
  0
LINE
  5
175
330
135
100
AcDbEntity
  8
AM_4
100
AcDbLine
 10
-1.276987391841841
 20
-0.0799999999999999
 30
0.0
 11
-2.279999999999998
 21
-0.0800000000000001
 31
0.0
  0
LINE
  5
176
330
135
100
AcDbEntity
  8
AM_4
100
AcDbLine
 10
2.040410941714359
 20
-1.407000000000001
 30
0.0
 11
2.28
 21
-1.407000000000001
 31
0.0
  0
LINE
  5
177
330
135
100
AcDbEntity
  8
AM_4
100
AcDbLine
 10
1.219405604422171
 20
-0.5669999999999998
 30
0.0
 11
1.219405604422171
 21
-1.407000000000001
 31
0.0
  0
LINE
  5
178
330
135
100
AcDbEntity
  8
AM_4
100
AcDbLine
 10
2.28
 20
-1.407000000000001
 30
0.0
 11
2.28
 21
-0.0800000000000001
 31
0.0
  0
LINE
  5
179
330
135
100
AcDbEntity
  8
AM_4
100
AcDbLine
 10
-2.279999999999998
 20
-0.0800000000000001
 30
0.0
 11
-2.279999999999998
 21
-1.407000000000001
 31
0.0
  0
LINE
  5
17A
330
135
100
AcDbEntity
  8
AM_4
100
AcDbLine
 10
-2.279999999999998
 20
-1.407000000000001
 30
0.0
 11
1.219405604422171
 21
-1.407000000000001
 31
0.0
  0
LINE
  5
17B
330
135
100
AcDbEntity
  8
AM_4
100
AcDbLine
 10
0.9181913629996595
 20
-0.6299999999999998
 30
0.0
 11
0.9181913629996595
 21
-0.5669999999999998
 31
0.0
  0
LINE
  5
17C
330
135
100
AcDbEntity
  8
AM_4
100
AcDbLine
 10
-0.9181913629996594
 20
-0.5669999999999998
 30
0.0
 11
-0.9181913629996594
 21
-0.6299999999999998
 31
0.0
  0
LINE
  5
17D
330
135
100
AcDbEntity
  8
AM_4
100
AcDbLine
 10
-0.6046695672569574
 20
-0.5669999999999998
 30
0.0
 11
-0.6046695672569574
 21
-0.6299999999999998
 31
0.0
  0
LINE
  5
17E
330
135
100
AcDbEntity
  8
AM_4
100
AcDbLine
 10
0.6046695672569576
 20
-0.5669999999999998
 30
0.0
 11
0.6046695672569576
 21
-0.6299999999999998
 31
0.0
  0
LINE
  5
17F
330
135
100
AcDbEntity
  8
AM_4
100
AcDbLine
 10
2.28
 20
-0.0800000000000001
 30
0.0
 11
1.276987391841846
 21
-0.0799999999999999
 31
0.0
  0
LINE
  5
180
330
135
100
AcDbEntity
  8
AM_4
100
AcDbLine
 10
1.276987391841846
 20
-0.0799999999999999
 30
0.0
 11
1.276987391841846
 21
0.0000000000000001
 31
0.0
  0
LINE
  5
181
330
135
100
AcDbEntity
  8
AM_4
100
AcDbLine
 10
0.5470512408808622
 20
-0.5669999999999998
 30
0.0
 11
0.5470512408808644
 21
-0.6299999999999997
 31
0.0
  0
LINE
  5
182
330
135
100
AcDbEntity
  8
AM_4
100
AcDbLine
 10
1.413121625810933
 20
-0.5669999999999998
 30
0.0
 11
0.5470512408808622
 21
-0.5669999999999998
 31
0.0
  0
LINE
  5
183
330
135
100
AcDbEntity
  8
AM_4
100
AcDbLine
 10
1.413121625810934
 20
-0.0799999999999998
 30
0.0
 11
1.413121625810933
 21
-0.5669999999999998
 31
0.0
  0
LINE
  5
184
330
135
100
AcDbEntity
  8
AM_4
100
AcDbLine
 10
0.9181913629996595
 20
-0.6299999999999998
 30
0.0
 11
-0.9181913629996594
 21
-0.6299999999999998
 31
0.0
  0
LINE
  5
185
330
135
100
AcDbEntity
  8
AM_4
100
AcDbLine
 10
-1.276987391841841
 20
0.0000000000000001
 30
0.0
 11
-1.276987391841841
 21
-0.0799999999999999
 31
0.0
  0
LINE
  5
186
330
135
100
AcDbEntity
  8
AM_4
100
AcDbLine
 10
-1.926647416724925
 20
-0.567
 30
0.0
 11
-1.926647416724922
 21
-0.08
 31
0.0
  0
LINE
  5
187
330
135
100
AcDbEntity
  8
AM_4
100
AcDbLine
 10
-0.5470512408808633
 20
-0.5669999999999998
 30
0.0
 11
-1.926647416724925
 21
-0.567
 31
0.0
  0
LINE
  5
188
330
135
100
AcDbEntity
  8
AM_4
100
AcDbLine
 10
-0.5470512408808644
 20
-0.6299999999999997
 30
0.0
 11
-0.5470512408808633
 21
-0.5669999999999998
 31
0.0
  0
LINE
  5
189
330
135
100
AcDbEntity
  8
AM_4
100
AcDbLine
 10
-0.5281379980057356
 20
-0.6299999999999997
 30
0.0
 11
-0.5281379980057356
 21
0.0000000000000002
 31
0.0
  0
LINE
  5
18A
330
135
100
AcDbEntity
  8
AM_4
100
AcDbLine
 10
0.528137998005736
 20
-0.6299999999999997
 30
0.0
 11
0.528137998005736
 21
0.0000000000000002
 31
0.0
  0
ENDBLK
  5
138
330
135
100
AcDbEntity
  8
0
100
AcDbBlockEnd
  0
ENDSEC
  0
SECTION
  2
ENTITIES
  0
INSERT
  5
6F
330
1F
100
AcDbEntity
  8
0
100
AcDbBlockReference
  2
1_076145_4
 10
0.0
 20
0.0
 30
0.0
  0
POINT
  5
18C
330
1F
100
AcDbEntity
  8
ConnectionPoints
100
AcDbPoint
 10
0.0
 20
-0.0800000000000001
 30
0.0
  0
POINT
  5
18D
330
1F
100
AcDbEntity
  8
ConnectionPoints
100
AcDbPoint
 10
0.0
 20
-2.02
 30
0.0000000000000001
  0
POINT
  5
18E
330
1F
100
AcDbEntity
  8
ConnectionPoints
100
AcDbPoint
 10
1.709714817985501
 20
-0.9099999999999998
 30
1.709714817985501
  0
POINT
  5
18F
330
1F
100
AcDbEntity
  8
ConnectionPoints
100
AcDbPoint
 10
0.0
 20
-2.02
 30
0.0000000000000001
  0
ENDSEC
  0
SECTION
  2
OBJECTS
  0
DICTIONARY
  5
C
330
0
100
AcDbDictionary
281
     1
  3
ACAD_DETAILVIEWSTYLE
350
197
  3
ACAD_GROUP
350
D
  3
ACAD_LAYOUT
350
1A
  3
ACAD_MATERIAL
350
43
  3
ACAD_MLEADERSTYLE
350
6B
  3
ACAD_MLINESTYLE
350
17
  3
ACAD_PLOTSETTINGS
350
19
  3
ACAD_PLOTSTYLENAME
350
E
  3
ACAD_SCALELIST
350
47
  3
ACAD_SECTIONVIEWSTYLE
350
198
  3
ACAD_TABLESTYLE
350
69
  3
ACAD_VISUALSTYLE
350
2A
  3
ACDB_RECOMPOSE_DATA
350
194
  3
AcDbVariableDictionary
350
190
  0
SUN
  5
6D
330
29
100
AcDbSun
 90
        1
290
     0
 63
     7
421
 16777215
 40
1.0
291
     1
 91
  2455826
 92
 54000000
292
     0
 70
     2
 71
   256
280
     1
  0
DICTIONARY
  5
197
102
{ACAD_REACTORS
330
C
102
}
330
C
100
AcDbDictionary
281
     1
  0
DICTIONARY
  5
D
102
{ACAD_REACTORS
330
C
102
}
330
C
100
AcDbDictionary
281
     1
  0
DICTIONARY
  5
1A
102
{ACAD_REACTORS
330
C
102
}
330
C
100
AcDbDictionary
281
     1
  3
Layout1
350
1E
  3
Layout2
350
26
  3
Model
350
22
  0
DICTIONARY
  5
43
102
{ACAD_REACTORS
330
C
102
}
330
C
100
AcDbDictionary
281
     1
  3
ByBlock
350
45
  3
ByLayer
350
44
  3
Global
350
46
  0
DICTIONARY
  5
6B
102
{ACAD_REACTORS
330
C
102
}
330
C
100
AcDbDictionary
281
     1
  3
Standard
350
6C
  0
DICTIONARY
  5
17
102
{ACAD_REACTORS
330
C
102
}
330
C
100
AcDbDictionary
281
     1
  3
Standard
350
18
  0
DICTIONARY
  5
19
102
{ACAD_REACTORS
330
C
102
}
330
C
100
AcDbDictionary
281
     1
  0
ACDBDICTIONARYWDFLT
  5
E
102
{ACAD_REACTORS
330
C
102
}
330
C
100
AcDbDictionary
281
     1
  3
Normal
350
F
100
AcDbDictionaryWithDefault
340
F
  0
DICTIONARY
  5
47
102
{ACAD_REACTORS
330
C
102
}
330
C
100
AcDbDictionary
281
     1
  3
A0
350
48
  3
A1
350
49
  3
A2
350
4A
  3
A3
350
4B
  3
A4
350
4C
  3
A5
350
4D
  3
A6
350
4E
  3
A7
350
4F
  3
A8
350
50
  3
A9
350
51
  3
B0
350
52
  3
B1
350
53
  3
B2
350
54
  3
B3
350
55
  3
B4
350
56
  3
B5
350
57
  3
B6
350
58
  3
B7
350
59
  3
B8
350
5A
  3
B9
350
5B
  3
C0
350
5C
  3
C1
350
5D
  3
C2
350
5E
  3
C3
350
5F
  3
C4
350
60
  3
C5
350
61
  3
C6
350
62
  3
C7
350
63
  3
C8
350
64
  3
C9
350
65
  3
D0
350
66
  3
D1
350
67
  3
D2
350
68
  0
DICTIONARY
  5
198
102
{ACAD_REACTORS
330
C
102
}
330
C
100
AcDbDictionary
281
     1
  0
DICTIONARY
  5
69
102
{ACAD_REACTORS
330
C
102
}
330
C
100
AcDbDictionary
281
     1
  3
Standard
350
6A
  0
DICTIONARY
  5
2A
102
{ACAD_REACTORS
330
C
102
}
330
C
100
AcDbDictionary
281
     1
  3
2dWireframe
350
2F
  3
Basic
350
32
  3
Brighten
350
36
  3
ColorChange
350
3A
  3
Conceptual
350
34
  3
Dim
350
35
  3
EdgeColorOff
350
3D
  3
Facepattern
350
39
  3
Flat
350
2B
  3
FlatWithEdges
350
2C
  3
Gouraud
350
2D
  3
GouraudWithEdges
350
2E
  3
Hidden
350
31
  3
JitterOff
350
3B
  3
Linepattern
350
38
  3
OverhangOff
350
3C
  3
Realistic
350
33
  3
Shaded
350
42
  3
Shaded with edges
350
41
  3
Shades of Gray
350
3E
  3
Sketchy
350
3F
  3
Thicken
350
37
  3
Wireframe
350
30
  3
X-Ray
350
40
  0
XRECORD
  5
194
102
{ACAD_REACTORS
330
C
102
}
330
C
100
AcDbXrecord
280
     1
 90
        1
330
6A
  0
DICTIONARY
  5
190
102
{ACAD_REACTORS
330
C
102
}
330
C
100
AcDbDictionary
281
     1
  3
CANNOSCALE
350
191
  3
CMLEADERSTYLE
350
196
  3
CTABLESTYLE
350
195
  0
LAYOUT
  5
1E
102
{ACAD_REACTORS
330
1A
102
}
330
1A
100
AcDbPlotSettings
  1

  2
none_device
  4

  6

 40
0.0
 41
0.0
 42
0.0
 43
0.0
 44
0.0
 45
0.0
 46
0.0
 47
0.0
 48
0.0
 49
0.0
140
0.0
141
0.0
142
1.0
143
1.0
 70
   688
 72
     0
 73
     0
 74
     5
  7

 75
    16
 76
     0
 77
     2
 78
   300
147
1.0
148
0.0
149
0.0
100
AcDbLayout
  1
Layout1
 70
     1
 71
     1
 10
0.0
 20
0.0
 11
12.0
 21
9.0
 12
0.0
 22
0.0
 32
0.0
 14
1.000000000000000E+20
 24
1.000000000000000E+20
 34
1.000000000000000E+20
 15
-1.000000000000000E+20
 25
-1.000000000000000E+20
 35
-1.000000000000000E+20
146
0.0
 13
0.0
 23
0.0
 33
0.0
 16
1.0
 26
0.0
 36
0.0
 17
0.0
 27
1.0
 37
0.0
 76
     0
330
1B
  0
LAYOUT
  5
26
102
{ACAD_REACTORS
330
1A
102
}
330
1A
100
AcDbPlotSettings
  1

  2
none_device
  4

  6

 40
0.0
 41
0.0
 42
0.0
 43
0.0
 44
0.0
 45
0.0
 46
0.0
 47
0.0
 48
0.0
 49
0.0
140
0.0
141
0.0
142
1.0
143
1.0
 70
   688
 72
     0
 73
     0
 74
     5
  7

 75
    16
 76
     0
 77
     2
 78
   300
147
1.0
148
0.0
149
0.0
100
AcDbLayout
  1
Layout2
 70
     1
 71
     2
 10
0.0
 20
0.0
 11
0.0
 21
0.0
 12
0.0
 22
0.0
 32
0.0
 14
0.0
 24
0.0
 34
0.0
 15
0.0
 25
0.0
 35
0.0
146
0.0
 13
0.0
 23
0.0
 33
0.0
 16
1.0
 26
0.0
 36
0.0
 17
0.0
 27
1.0
 37
0.0
 76
     0
330
23
  0
LAYOUT
  5
22
102
{ACAD_REACTORS
330
1A
102
}
330
1A
100
AcDbPlotSettings
  1

  2
none_device
  4
Letter_(8.50_x_11.00_Inches)
  6

 40
6.35
 41
6.35
 42
6.35000508
 43
6.35000508
 44
215.9
 45
279.4
 46
0.0
 47
0.0
 48
0.0
 49
0.0
140
0.0
141
0.0
142
1.0
143
1.0
 70
  1712
 72
     0
 73
     0
 74
     0
  7

 75
     0
 76
     0
 77
     2
 78
   300
147
1.0
148
0.0
149
0.0
100
AcDbLayout
  1
Model
 70
     1
 71
     0
 10
0.0
 20
0.0
 11
12.0
 21
9.0
 12
0.0
 22
0.0
 32
0.0
 14
1.000000000000000E+20
 24
1.000000000000000E+20
 34
1.000000000000000E+20
 15
-1.000000000000000E+20
 25
-1.000000000000000E+20
 35
-1.000000000000000E+20
146
0.0
 13
0.0
 23
0.0
 33
0.0
 16
1.0
 26
0.0
 36
0.0
 17
0.0
 27
1.0
 37
0.0
 76
     0
330
1F
331
29
  0
MATERIAL
  5
45
102
{ACAD_REACTORS
330
43
102
}
330
43
100
AcDbMaterial
  1
ByBlock
 72
     1
 94
      127
  0
MATERIAL
  5
44
102
{ACAD_REACTORS
330
43
102
}
330
43
100
AcDbMaterial
  1
ByLayer
 72
     1
 94
      127
  0
MATERIAL
  5
46
102
{ACAD_REACTORS
330
43
102
}
330
43
100
AcDbMaterial
  1
Global
 72
     1
 94
      127
  0
MLEADERSTYLE
  5
6C
102
{ACAD_REACTORS
330
6B
102
}
330
6B
100
AcDbMLeaderStyle
179
     2
170
     2
171
     1
172
     0
 90
        2
 40
0.0
 41
0.0
173
     1
 91
-1056964608
340
14
 92
       -2
290
     1
 42
0.09
291
     1
 43
0.36
  3
Standard
341
0
 44
0.18
300

342
11
174
     1
178
     6
175
     1
176
     0
 93
-1056964608
 45
0.18
292
     0
297
     0
 46
0.18
343
0
 94
-1056964608
 47
1.0
 49
1.0
140
1.0
293
     1
141
0.0
294
     1
177
     0
142
1.0
295
     0
296
     0
143
0.125
271
     0
272
     9
273
     9
298
     0
  0
MLINESTYLE
  5
18
102
{ACAD_REACTORS
330
17
102
}
330
17
100
AcDbMlineStyle
  2
Standard
 70
     0
  3

 62
   256
 51
90.0
 52
90.0
 71
     2
 49
0.5
 62
   256
  6
BYLAYER
 49
-0.5
 62
   256
  6
BYLAYER
  0
ACDBPLACEHOLDER
  5
F
102
{ACAD_REACTORS
330
E
102
}
330
E
  0
SCALE
  5
48
102
{ACAD_REACTORS
330
47
102
}
330
47
100
AcDbScale
 70
     0
300
1:1
140
1.0
141
1.0
290
     1
  0
SCALE
  5
49
102
{ACAD_REACTORS
330
47
102
}
330
47
100
AcDbScale
 70
     0
300
1:2
140
1.0
141
2.0
290
     0
  0
SCALE
  5
4A
102
{ACAD_REACTORS
330
47
102
}
330
47
100
AcDbScale
 70
     0
300
1:4
140
1.0
141
4.0
290
     0
  0
SCALE
  5
4B
102
{ACAD_REACTORS
330
47
102
}
330
47
100
AcDbScale
 70
     0
300
1:5
140
1.0
141
5.0
290
     0
  0
SCALE
  5
4C
102
{ACAD_REACTORS
330
47
102
}
330
47
100
AcDbScale
 70
     0
300
1:8
140
1.0
141
8.0
290
     0
  0
SCALE
  5
4D
102
{ACAD_REACTORS
330
47
102
}
330
47
100
AcDbScale
 70
     0
300
1:10
140
1.0
141
10.0
290
     0
  0
SCALE
  5
4E
102
{ACAD_REACTORS
330
47
102
}
330
47
100
AcDbScale
 70
     0
300
1:16
140
1.0
141
16.0
290
     0
  0
SCALE
  5
4F
102
{ACAD_REACTORS
330
47
102
}
330
47
100
AcDbScale
 70
     0
300
1:20
140
1.0
141
20.0
290
     0
  0
SCALE
  5
50
102
{ACAD_REACTORS
330
47
102
}
330
47
100
AcDbScale
 70
     0
300
1:30
140
1.0
141
30.0
290
     0
  0
SCALE
  5
51
102
{ACAD_REACTORS
330
47
102
}
330
47
100
AcDbScale
 70
     0
300
1:40
140
1.0
141
40.0
290
     0
  0
SCALE
  5
52
102
{ACAD_REACTORS
330
47
102
}
330
47
100
AcDbScale
 70
     0
300
1:50
140
1.0
141
50.0
290
     0
  0
SCALE
  5
53
102
{ACAD_REACTORS
330
47
102
}
330
47
100
AcDbScale
 70
     0
300
1:100
140
1.0
141
100.0
290
     0
  0
SCALE
  5
54
102
{ACAD_REACTORS
330
47
102
}
330
47
100
AcDbScale
 70
     0
300
2:1
140
2.0
141
1.0
290
     0
  0
SCALE
  5
55
102
{ACAD_REACTORS
330
47
102
}
330
47
100
AcDbScale
 70
     0
300
4:1
140
4.0
141
1.0
290
     0
  0
SCALE
  5
56
102
{ACAD_REACTORS
330
47
102
}
330
47
100
AcDbScale
 70
     0
300
8:1
140
8.0
141
1.0
290
     0
  0
SCALE
  5
57
102
{ACAD_REACTORS
330
47
102
}
330
47
100
AcDbScale
 70
     0
300
10:1
140
10.0
141
1.0
290
     0
  0
SCALE
  5
58
102
{ACAD_REACTORS
330
47
102
}
330
47
100
AcDbScale
 70
     0
300
100:1
140
100.0
141
1.0
290
     0
  0
SCALE
  5
59
102
{ACAD_REACTORS
330
47
102
}
330
47
100
AcDbScale
 70
     0
300
1/128" = 1'-0"
140
0.0078125
141
12.0
290
     0
  0
SCALE
  5
5A
102
{ACAD_REACTORS
330
47
102
}
330
47
100
AcDbScale
 70
     0
300
1/64" = 1'-0"
140
0.015625
141
12.0
290
     0
  0
SCALE
  5
5B
102
{ACAD_REACTORS
330
47
102
}
330
47
100
AcDbScale
 70
     0
300
1/32" = 1'-0"
140
0.03125
141
12.0
290
     0
  0
SCALE
  5
5C
102
{ACAD_REACTORS
330
47
102
}
330
47
100
AcDbScale
 70
     0
300
1/16" = 1'-0"
140
0.0625
141
12.0
290
     0
  0
SCALE
  5
5D
102
{ACAD_REACTORS
330
47
102
}
330
47
100
AcDbScale
 70
     0
300
3/32" = 1'-0"
140
0.09375
141
12.0
290
     0
  0
SCALE
  5
5E
102
{ACAD_REACTORS
330
47
102
}
330
47
100
AcDbScale
 70
     0
300
1/8" = 1'-0"
140
0.125
141
12.0
290
     0
  0
SCALE
  5
5F
102
{ACAD_REACTORS
330
47
102
}
330
47
100
AcDbScale
 70
     0
300
3/16" = 1'-0"
140
0.1875
141
12.0
290
     0
  0
SCALE
  5
60
102
{ACAD_REACTORS
330
47
102
}
330
47
100
AcDbScale
 70
     0
300
1/4" = 1'-0"
140
0.25
141
12.0
290
     0
  0
SCALE
  5
61
102
{ACAD_REACTORS
330
47
102
}
330
47
100
AcDbScale
 70
     0
300
3/8" = 1'-0"
140
0.375
141
12.0
290
     0
  0
SCALE
  5
62
102
{ACAD_REACTORS
330
47
102
}
330
47
100
AcDbScale
 70
     0
300
1/2" = 1'-0"
140
0.5
141
12.0
290
     0
  0
SCALE
  5
63
102
{ACAD_REACTORS
330
47
102
}
330
47
100
AcDbScale
 70
     0
300
3/4" = 1'-0"
140
0.75
141
12.0
290
     0
  0
SCALE
  5
64
102
{ACAD_REACTORS
330
47
102
}
330
47
100
AcDbScale
 70
     0
300
1" = 1'-0"
140
1.0
141
12.0
290
     0
  0
SCALE
  5
65
102
{ACAD_REACTORS
330
47
102
}
330
47
100
AcDbScale
 70
     0
300
1-1/2" = 1'-0"
140
1.5
141
12.0
290
     0
  0
SCALE
  5
66
102
{ACAD_REACTORS
330
47
102
}
330
47
100
AcDbScale
 70
     0
300
3" = 1'-0"
140
3.0
141
12.0
290
     0
  0
SCALE
  5
67
102
{ACAD_REACTORS
330
47
102
}
330
47
100
AcDbScale
 70
     0
300
6" = 1'-0"
140
6.0
141
12.0
290
     0
  0
SCALE
  5
68
102
{ACAD_REACTORS
330
47
102
}
330
47
100
AcDbScale
 70
     0
300
1'-0" = 1'-0"
140
12.0
141
12.0
290
     0
  0
TABLESTYLE
  5
6A
102
{ACAD_REACTORS
330
69
102
}
102
{ACAD_XDICTIONARY
360
192
102
}
330
69
100
AcDbTableStyle
  3
Standard
 70
     0
 71
     0
 40
0.06
 41
0.06
280
     0
281
     0
  7
Standard
140
0.18
170
     2
 62
     0
 63
   257
283
     0
 90
        4
 91
        0
  1

274
    -2
284
     1
 64
     0
275
    -2
285
     1
 65
     0
276
    -2
286
     1
 66
     0
277
    -2
287
     1
 67
     0
278
    -2
288
     1
 68
     0
279
    -2
289
     1
 69
     0
  7
Standard
140
0.25
170
     5
 62
     0
 63
   257
283
     0
 90
        4
 91
        0
  1

274
    -2
284
     1
 64
     0
275
    -2
285
     1
 65
     0
276
    -2
286
     1
 66
     0
277
    -2
287
     1
 67
     0
278
    -2
288
     1
 68
     0
279
    -2
289
     1
 69
     0
  7
Standard
140
0.18
170
     5
 62
     0
 63
   257
283
     0
 90
        4
 91
        0
  1

274
    -2
284
     1
 64
     0
275
    -2
285
     1
 65
     0
276
    -2
286
     1
 66
     0
277
    -2
287
     1
 67
     0
278
    -2
288
     1
 68
     0
279
    -2
289
     1
 69
     0
  0
VISUALSTYLE
  5
2F
102
{ACAD_REACTORS
330
2A
102
}
330
2A
100
AcDbVisualStyle
  2
2dWireframe
 70
     4
177
     3
291
     0
 70
    58
 90
        0
176
     1
 90
        2
176
     1
 90
        0
176
     1
 90
        0
176
     1
 40
0.6
176
     1
 40
30.0
176
     1
 62
     7
420
 16777215
176
     1
 90
        1
176
     1
 90
        4
176
     1
 62
     7
176
     1
 62
   257
176
     1
 90
        1
176
     1
 90
        1
176
     1
 40
1.0
176
     1
 90
        0
176
     1
 62
   257
176
     1
 40
1.0
176
     1
 90
        1
176
     1
 90
        6
176
     1
 90
        2
176
     1
 62
     7
176
     1
 90
        5
176
     1
 90
        0
176
     1
 90
        0
176
     1
290
     0
176
     1
 90
        1
176
     1
 40
0.0
176
     1
 90
        0
176
     1
290
     1
176
     1
290
     1
176
     1
290
     0
176
     1
290
     0
176
     1
290
     0
176
     1
290
     0
176
     1
290
     0
176
     1
290
     0
176
     1
290
     0
176
     1
 90
       50
176
     1
 40
0.0
176
     1
 40
1.0
176
     1
 90
        0
176
     1
 62
    18
420
        0
176
     1
 90
       50
176
     1
 90
        3
176
     1
 62
     5
420
      255
176
     1
290
     0
176
     1
 90
       50
176
     1
 90
       50
176
     1
 90
       50
176
     1
290
     0
176
     1
 90
       50
176
     1
 62
   256
176
     0
 40
1.0
176
     0
 90
        2
176
     1
  1
strokes_ogs.tif
176
     1
290
     0
176
     1
 40
1.0
176
     1
 40
1.0
176
     1
  0
VISUALSTYLE
  5
32
102
{ACAD_REACTORS
330
2A
102
}
330
2A
100
AcDbVisualStyle
  2
Basic
 70
     7
177
     3
291
     1
 70
    58
 90
        1
176
     1
 90
        0
176
     1
 90
        1
176
     1
 90
        0
176
     1
 40
0.6
176
     1
 40
30.0
176
     1
 62
     7
420
 16777215
176
     1
 90
        0
176
     1
 90
        4
176
     1
 62
     7
176
     1
 62
   257
176
     1
 90
        1
176
     1
 90
        1
176
     1
 40
1.0
176
     1
 90
        8
176
     1
 62
     7
176
     1
 40
1.0
176
     1
 90
        1
176
     1
 90
        6
176
     1
 90
        2
176
     1
 62
     7
176
     1
 90
        5
176
     1
 90
        0
176
     1
 90
        0
176
     1
290
     0
176
     1
 90
        1
176
     1
 40
0.0
176
     1
 90
        0
176
     1
290
     0
176
     1
290
     1
176
     1
290
     1
176
     1
290
     0
176
     1
290
     0
176
     1
290
     0
176
     1
290
     0
176
     1
290
     0
176
     1
290
     0
176
     1
 90
       50
176
     1
 40
0.0
176
     1
 40
1.0
176
     1
 90
        0
176
     1
 62
    18
420
        0
176
     1
 90
       50
176
     1
 90
        3
176
     1
 62
     5
420
      255
176
     1
290
     0
176
     1
 90
       50
176
     1
 90
       50
176
     1
 90
       50
176
     1
290
     0
176
     1
 90
       50
176
     1
 62
   256
176
     0
 40
1.0
176
     0
 90
        2
176
     1
  1
strokes_ogs.tif
176
     1
290
     0
176
     1
 40
1.0
176
     1
 40
1.0
176
     1
  0
VISUALSTYLE
  5
36
102
{ACAD_REACTORS
330
2A
102
}
330
2A
100
AcDbVisualStyle
  2
Brighten
 70
    12
177
     3
291
     1
 70
    58
 90
        2
176
     1
 90
        2
176
     1
 90
        0
176
     1
 90
        0
176
     1
 40
0.6
176
     1
 40
30.0
176
     1
 62
     7
420
 16777215
176
     1
 90
        1
176
     1
 90
        4
176
     1
 62
     7
176
     1
 62
   257
176
     1
 90
        1
176
     1
 90
        1
176
     1
 40
1.0
176
     1
 90
        8
176
     1
 62
     7
176
     1
 40
1.0
176
     1
 90
        1
176
     1
 90
        6
176
     1
 90
        2
176
     1
 62
     7
176
     1
 90
        5
176
     1
 90
        0
176
     1
 90
        0
176
     1
290
     0
176
     1
 90
        1
176
     1
 40
50.0
176
     1
 90
        0
176
     1
290
     0
176
     1
290
     1
176
     1
290
     1
176
     1
290
     0
176
     1
290
     0
176
     1
290
     0
176
     1
290
     0
176
     1
290
     0
176
     1
290
     0
176
     1
 90
       50
176
     1
 40
0.0
176
     1
 40
1.0
176
     1
 90
        0
176
     1
 62
    18
420
        0
176
     1
 90
       50
176
     1
 90
        3
176
     1
 62
     5
420
      255
176
     1
290
     0
176
     1
 90
       50
176
     1
 90
       50
176
     1
 90
       50
176
     1
290
     0
176
     1
 90
       50
176
     1
 62
   256
176
     0
 40
1.0
176
     0
 90
        2
176
     1
  1
strokes_ogs.tif
176
     1
290
     0
176
     1
 40
1.0
176
     1
 40
1.0
176
     1
  0
VISUALSTYLE
  5
3A
102
{ACAD_REACTORS
330
2A
102
}
330
2A
100
AcDbVisualStyle
  2
ColorChange
 70
    16
177
     3
291
     1
 70
    58
 90
        2
176
     1
 90
        2
176
     1
 90
        3
176
     1
 90
        0
176
     1
 40
0.6
176
     1
 40
30.0
176
     1
 62
     8
420
  8421504
176
     1
 90
        1
176
     1
 90
        4
176
     1
 62
     7
176
     1
 62
   257
176
     1
 90
        1
176
     1
 90
        1
176
     1
 40
1.0
176
     1
 90
        8
176
     1
 62
     8
420
  8421504
176
     1
 40
1.0
176
     1
 90
        1
176
     1
 90
        6
176
     1
 90
        2
176
     1
 62
     7
176
     1
 90
        5
176
     1
 90
        0
176
     1
 90
        0
176
     1
290
     0
176
     1
 90
        1
176
     1
 40
0.0
176
     1
 90
        0
176
     1
290
     0
176
     1
290
     1
176
     1
290
     1
176
     1
290
     0
176
     1
290
     0
176
     1
290
     0
176
     1
290
     0
176
     1
290
     0
176
     1
290
     0
176
     1
 90
       50
176
     1
 40
0.0
176
     1
 40
1.0
176
     1
 90
        0
176
     1
 62
    18
420
        0
176
     1
 90
       50
176
     1
 90
        3
176
     1
 62
     5
420
      255
176
     1
290
     0
176
     1
 90
       50
176
     1
 90
       50
176
     1
 90
       50
176
     1
290
     0
176
     1
 90
       50
176
     1
 62
   256
176
     0
 40
1.0
176
     0
 90
        2
176
     1
  1
strokes_ogs.tif
176
     1
290
     0
176
     1
 40
1.0
176
     1
 40
1.0
176
     1
  0
VISUALSTYLE
  5
34
102
{ACAD_REACTORS
330
2A
102
}
330
2A
100
AcDbVisualStyle
  2
Conceptual
 70
     9
177
     3
291
     0
 70
    58
 90
        3
176
     1
 90
        2
176
     1
 90
        0
176
     1
 90
        0
176
     1
 40
0.6
176
     1
 40
30.0
176
     1
 62
     7
420
 16777215
176
     1
 90
        2
176
     1
 90
        2
176
     1
 62
     7
176
     1
 62
   257
176
     1
 90
        1
176
     1
 90
        1
176
     1
 40
179.0
176
     1
 90
        8
176
     1
 62
     7
176
     1
 40
1.0
176
     1
 90
        1
176
     1
 90
        6
176
     1
 90
        2
176
     1
 62
     7
176
     1
 90
        3
176
     1
 90
        0
176
     1
 90
        0
176
     1
290
     0
176
     1
 90
        1
176
     1
 40
0.0
176
     1
 90
        0
176
     1
290
     0
176
     1
290
     1
176
     1
290
     1
176
     1
290
     0
176
     1
290
     0
176
     1
290
     0
176
     1
290
     0
176
     1
290
     0
176
     1
290
     0
176
     1
 90
       50
176
     1
 40
0.0
176
     1
 40
1.0
176
     1
 90
        0
176
     1
 62
    18
420
        0
176
     1
 90
       50
176
     1
 90
        3
176
     1
 62
     5
420
      255
176
     1
290
     0
176
     1
 90
       50
176
     1
 90
       50
176
     1
 90
       50
176
     1
290
     0
176
     1
 90
       50
176
     1
 62
   256
176
     0
 40
1.0
176
     0
 90
        2
176
     1
  1
strokes_ogs.tif
176
     1
290
     0
176
     1
 40
1.0
176
     1
 40
1.0
176
     1
  0
VISUALSTYLE
  5
35
102
{ACAD_REACTORS
330
2A
102
}
330
2A
100
AcDbVisualStyle
  2
Dim
 70
    11
177
     3
291
     1
 70
    58
 90
        2
176
     1
 90
        2
176
     1
 90
        0
176
     1
 90
        0
176
     1
 40
0.6
176
     1
 40
30.0
176
     1
 62
     7
420
 16777215
176
     1
 90
        1
176
     1
 90
        4
176
     1
 62
     7
176
     1
 62
   257
176
     1
 90
        1
176
     1
 90
        1
176
     1
 40
1.0
176
     1
 90
        8
176
     1
 62
     7
176
     1
 40
1.0
176
     1
 90
        1
176
     1
 90
        6
176
     1
 90
        2
176
     1
 62
     7
176
     1
 90
        5
176
     1
 90
        0
176
     1
 90
        0
176
     1
290
     0
176
     1
 90
        1
176
     1
 40
-50.0
176
     1
 90
        0
176
     1
290
     0
176
     1
290
     1
176
     1
290
     1
176
     1
290
     0
176
     1
290
     0
176
     1
290
     0
176
     1
290
     0
176
     1
290
     0
176
     1
290
     0
176
     1
 90
       50
176
     1
 40
0.0
176
     1
 40
1.0
176
     1
 90
        0
176
     1
 62
    18
420
        0
176
     1
 90
       50
176
     1
 90
        3
176
     1
 62
     5
420
      255
176
     1
290
     0
176
     1
 90
       50
176
     1
 90
       50
176
     1
 90
       50
176
     1
290
     0
176
     1
 90
       50
176
     1
 62
   256
176
     0
 40
1.0
176
     0
 90
        2
176
     1
  1
strokes_ogs.tif
176
     1
290
     0
176
     1
 40
1.0
176
     1
 40
1.0
176
     1
  0
VISUALSTYLE
  5
3D
102
{ACAD_REACTORS
330
2A
102
}
330
2A
100
AcDbVisualStyle
  2
EdgeColorOff
 70
    22
177
     3
291
     1
 70
    58
 90
        2
176
     0
 90
        2
176
     0
 90
        0
176
     0
 90
        0
176
     0
 40
0.6
176
     0
 40
30.0
176
     0
 62
     7
420
 16777215
176
     0
 90
        1
176
     0
 90
        4
176
     0
 62
     7
176
     0
 62
   257
176
     0
 90
        1
176
     0
 90
        1
176
     0
 40
1.0
176
     0
 90
        8
176
     2
 62
     7
176
     0
 40
1.0
176
     0
 90
        1
176
     0
 90
        6
176
     0
 90
        2
176
     0
 62
     7
176
     0
 90
        5
176
     0
 90
        0
176
     0
 90
        0
176
     0
290
     0
176
     0
 90
        1
176
     0
 40
0.0
176
     0
 90
        0
176
     0
290
     0
176
     0
290
     1
176
     0
290
     1
176
     0
290
     0
176
     0
290
     0
176
     0
290
     0
176
     0
290
     0
176
     0
290
     0
176
     0
290
     0
176
     0
 90
       50
176
     0
 40
0.0
176
     0
 40
1.0
176
     0
 90
        0
176
     0
 62
    18
420
        0
176
     0
 90
       50
176
     0
 90
        3
176
     0
 62
     5
420
      255
176
     0
290
     0
176
     0
 90
       50
176
     0
 90
       50
176
     0
 90
       50
176
     0
290
     0
176
     0
 90
       50
176
     0
 62
   256
176
     0
 40
1.0
176
     0
 90
        2
176
     0
  1
strokes_ogs.tif
176
     0
290
     0
176
     0
 40
1.0
176
     0
 40
1.0
176
     0
  0
VISUALSTYLE
  5
39
102
{ACAD_REACTORS
330
2A
102
}
330
2A
100
AcDbVisualStyle
  2
Facepattern
 70
    15
177
     3
291
     1
 70
    58
 90
        2
176
     1
 90
        2
176
     1
 90
        0
176
     1
 90
        0
176
     1
 40
0.6
176
     1
 40
30.0
176
     1
 62
     7
420
 16777215
176
     1
 90
        1
176
     1
 90
        4
176
     1
 62
     7
176
     1
 62
   257
176
     1
 90
        1
176
     1
 90
        1
176
     1
 40
1.0
176
     1
 90
        8
176
     1
 62
     7
176
     1
 40
1.0
176
     1
 90
        1
176
     1
 90
        6
176
     1
 90
        2
176
     1
 62
     7
176
     1
 90
        5
176
     1
 90
        0
176
     1
 90
        0
176
     1
290
     0
176
     1
 90
        1
176
     1
 40
0.0
176
     1
 90
        0
176
     1
290
     0
176
     1
290
     1
176
     1
290
     1
176
     1
290
     0
176
     1
290
     0
176
     1
290
     0
176
     1
290
     0
176
     1
290
     0
176
     1
290
     0
176
     1
 90
       50
176
     1
 40
0.0
176
     1
 40
1.0
176
     1
 90
        0
176
     1
 62
    18
420
        0
176
     1
 90
       50
176
     1
 90
        3
176
     1
 62
     5
420
      255
176
     1
290
     0
176
     1
 90
       50
176
     1
 90
       50
176
     1
 90
       50
176
     1
290
     0
176
     1
 90
       50
176
     1
 62
   256
176
     0
 40
1.0
176
     0
 90
        2
176
     1
  1
strokes_ogs.tif
176
     1
290
     0
176
     1
 40
1.0
176
     1
 40
1.0
176
     1
  0
VISUALSTYLE
  5
2B
102
{ACAD_REACTORS
330
2A
102
}
330
2A
100
AcDbVisualStyle
  2
Flat
 70
     0
177
     3
291
     1
 70
    58
 90
        2
176
     1
 90
        1
176
     1
 90
        1
176
     1
 90
        2
176
     1
 40
0.6
176
     1
 40
30.0
176
     1
 62
     7
420
 16777215
176
     1
 90
        0
176
     1
 90
        0
176
     1
 62
     7
176
     1
 62
   257
176
     1
 90
        1
176
     1
 90
        1
176
     1
 40
1.0
176
     1
 90
        8
176
     1
 62
     7
176
     1
 40
1.0
176
     1
 90
        1
176
     1
 90
        6
176
     1
 90
        2
176
     1
 62
     7
176
     1
 90
        5
176
     1
 90
        0
176
     1
 90
        0
176
     1
290
     0
176
     1
 90
       13
176
     1
 40
0.0
176
     1
 90
        0
176
     1
290
     0
176
     1
290
     1
176
     1
290
     1
176
     1
290
     0
176
     1
290
     0
176
     1
290
     0
176
     1
290
     0
176
     1
290
     0
176
     1
290
     0
176
     1
 90
       50
176
     1
 40
0.0
176
     1
 40
1.0
176
     1
 90
        0
176
     1
 62
    18
420
        0
176
     1
 90
       50
176
     1
 90
        3
176
     1
 62
     5
420
      255
176
     1
290
     0
176
     1
 90
       50
176
     1
 90
       50
176
     1
 90
       50
176
     1
290
     0
176
     1
 90
       50
176
     1
 62
   256
176
     0
 40
1.0
176
     0
 90
        2
176
     1
  1
strokes_ogs.tif
176
     1
290
     0
176
     1
 40
1.0
176
     1
 40
1.0
176
     1
  0
VISUALSTYLE
  5
2C
102
{ACAD_REACTORS
330
2A
102
}
330
2A
100
AcDbVisualStyle
  2
FlatWithEdges
 70
     1
177
     3
291
     1
 70
    58
 90
        2
176
     1
 90
        1
176
     1
 90
        1
176
     1
 90
        2
176
     1
 40
0.6
176
     1
 40
30.0
176
     1
 62
     7
420
 16777215
176
     1
 90
        1
176
     1
 90
        0
176
     1
 62
     7
176
     1
 62
   257
176
     1
 90
        1
176
     1
 90
        1
176
     1
 40
1.0
176
     1
 90
        0
176
     1
 62
   257
176
     1
 40
1.0
176
     1
 90
        1
176
     1
 90
        6
176
     1
 90
        2
176
     1
 62
     7
176
     1
 90
        5
176
     1
 90
        0
176
     1
 90
        0
176
     1
290
     0
176
     1
 90
       13
176
     1
 40
0.0
176
     1
 90
        0
176
     1
290
     0
176
     1
290
     1
176
     1
290
     1
176
     1
290
     0
176
     1
290
     0
176
     1
290
     0
176
     1
290
     0
176
     1
290
     0
176
     1
290
     0
176
     1
 90
       50
176
     1
 40
0.0
176
     1
 40
1.0
176
     1
 90
        0
176
     1
 62
    18
420
        0
176
     1
 90
       50
176
     1
 90
        3
176
     1
 62
     5
420
      255
176
     1
290
     0
176
     1
 90
       50
176
     1
 90
       50
176
     1
 90
       50
176
     1
290
     0
176
     1
 90
       50
176
     1
 62
   256
176
     0
 40
1.0
176
     0
 90
        2
176
     1
  1
strokes_ogs.tif
176
     1
290
     0
176
     1
 40
1.0
176
     1
 40
1.0
176
     1
  0
VISUALSTYLE
  5
2D
102
{ACAD_REACTORS
330
2A
102
}
330
2A
100
AcDbVisualStyle
  2
Gouraud
 70
     2
177
     3
291
     1
 70
    58
 90
        2
176
     1
 90
        2
176
     1
 90
        1
176
     1
 90
        2
176
     1
 40
0.6
176
     1
 40
30.0
176
     1
 62
     7
420
 16777215
176
     1
 90
        0
176
     1
 90
        0
176
     1
 62
     7
176
     1
 62
   257
176
     1
 90
        1
176
     1
 90
        1
176
     1
 40
1.0
176
     1
 90
        0
176
     1
 62
     7
176
     1
 40
1.0
176
     1
 90
        1
176
     1
 90
        6
176
     1
 90
        2
176
     1
 62
     7
176
     1
 90
        5
176
     1
 90
        0
176
     1
 90
        0
176
     1
290
     0
176
     1
 90
       13
176
     1
 40
0.0
176
     1
 90
        0
176
     1
290
     0
176
     1
290
     1
176
     1
290
     1
176
     1
290
     0
176
     1
290
     0
176
     1
290
     0
176
     1
290
     0
176
     1
290
     0
176
     1
290
     0
176
     1
 90
       50
176
     1
 40
0.0
176
     1
 40
1.0
176
     1
 90
        0
176
     1
 62
    18
420
        0
176
     1
 90
       50
176
     1
 90
        3
176
     1
 62
     5
420
      255
176
     1
290
     0
176
     1
 90
       50
176
     1
 90
       50
176
     1
 90
       50
176
     1
290
     0
176
     1
 90
       50
176
     1
 62
   256
176
     0
 40
1.0
176
     0
 90
        2
176
     1
  1
strokes_ogs.tif
176
     1
290
     0
176
     1
 40
1.0
176
     1
 40
1.0
176
     1
  0
VISUALSTYLE
  5
2E
102
{ACAD_REACTORS
330
2A
102
}
330
2A
100
AcDbVisualStyle
  2
GouraudWithEdges
 70
     3
177
     3
291
     1
 70
    58
 90
        2
176
     1
 90
        2
176
     1
 90
        1
176
     1
 90
        2
176
     1
 40
0.6
176
     1
 40
30.0
176
     1
 62
     7
420
 16777215
176
     1
 90
        1
176
     1
 90
        0
176
     1
 62
     7
176
     1
 62
   257
176
     1
 90
        1
176
     1
 90
        1
176
     1
 40
1.0
176
     1
 90
        0
176
     1
 62
   257
176
     1
 40
1.0
176
     1
 90
        1
176
     1
 90
        6
176
     1
 90
        2
176
     1
 62
     7
176
     1
 90
        5
176
     1
 90
        0
176
     1
 90
        0
176
     1
290
     0
176
     1
 90
       13
176
     1
 40
0.0
176
     1
 90
        0
176
     1
290
     0
176
     1
290
     1
176
     1
290
     1
176
     1
290
     0
176
     1
290
     0
176
     1
290
     0
176
     1
290
     0
176
     1
290
     0
176
     1
290
     0
176
     1
 90
       50
176
     1
 40
0.0
176
     1
 40
1.0
176
     1
 90
        0
176
     1
 62
    18
420
        0
176
     1
 90
       50
176
     1
 90
        3
176
     1
 62
     5
420
      255
176
     1
290
     0
176
     1
 90
       50
176
     1
 90
       50
176
     1
 90
       50
176
     1
290
     0
176
     1
 90
       50
176
     1
 62
   256
176
     0
 40
1.0
176
     0
 90
        2
176
     1
  1
strokes_ogs.tif
176
     1
290
     0
176
     1
 40
1.0
176
     1
 40
1.0
176
     1
  0
VISUALSTYLE
  5
31
102
{ACAD_REACTORS
330
2A
102
}
330
2A
100
AcDbVisualStyle
  2
Hidden
 70
     6
177
     3
291
     0
 70
    58
 90
        1
176
     1
 90
        2
176
     1
 90
        2
176
     1
 90
        0
176
     1
 40
0.6
176
     1
 40
30.0
176
     1
 62
     7
420
 16777215
176
     1
 90
        2
176
     1
 90
        2
176
     1
 62
     7
176
     1
 62
   257
176
     1
 90
        2
176
     1
 90
        1
176
     1
 40
40.0
176
     1
 90
        0
176
     1
 62
   257
176
     1
 40
1.0
176
     1
 90
        1
176
     1
 90
        6
176
     1
 90
        2
176
     1
 62
     7
176
     1
 90
        3
176
     1
 90
        0
176
     1
 90
        0
176
     1
290
     0
176
     1
 90
        1
176
     1
 40
0.0
176
     1
 90
        0
176
     1
290
     0
176
     1
290
     1
176
     1
290
     1
176
     1
290
     0
176
     1
290
     0
176
     1
290
     0
176
     1
290
     0
176
     1
290
     0
176
     1
290
     0
176
     1
 90
       50
176
     1
 40
0.0
176
     1
 40
1.0
176
     1
 90
        0
176
     1
 62
    18
420
        0
176
     1
 90
       50
176
     1
 90
        3
176
     1
 62
     5
420
      255
176
     1
290
     0
176
     1
 90
       50
176
     1
 90
       50
176
     1
 90
       50
176
     1
290
     0
176
     1
 90
       50
176
     1
 62
   256
176
     0
 40
1.0
176
     0
 90
        2
176
     1
  1
strokes_ogs.tif
176
     1
290
     0
176
     1
 40
1.0
176
     1
 40
1.0
176
     1
  0
VISUALSTYLE
  5
3B
102
{ACAD_REACTORS
330
2A
102
}
330
2A
100
AcDbVisualStyle
  2
JitterOff
 70
    20
177
     3
291
     1
 70
    58
 90
        2
176
     0
 90
        2
176
     0
 90
        0
176
     0
 90
        0
176
     0
 40
0.6
176
     0
 40
30.0
176
     0
 62
     7
420
 16777215
176
     0
 90
        1
176
     0
 90
        4
176
     0
 62
     7
176
     0
 62
   257
176
     0
 90
        1
176
     0
 90
        1
176
     0
 40
1.0
176
     0
 90
       10
176
     2
 62
     7
176
     0
 40
1.0
176
     0
 90
        1
176
     0
 90
        6
176
     0
 90
        2
176
     0
 62
     7
176
     0
 90
        5
176
     0
 90
        0
176
     0
 90
        0
176
     0
290
     0
176
     0
 90
        1
176
     0
 40
0.0
176
     0
 90
        0
176
     0
290
     0
176
     0
290
     1
176
     0
290
     1
176
     0
290
     0
176
     0
290
     0
176
     0
290
     0
176
     0
290
     0
176
     0
290
     0
176
     0
290
     0
176
     0
 90
       50
176
     0
 40
0.0
176
     0
 40
1.0
176
     0
 90
        0
176
     0
 62
    18
420
        0
176
     0
 90
       50
176
     0
 90
        3
176
     0
 62
     5
420
      255
176
     0
290
     0
176
     0
 90
       50
176
     0
 90
       50
176
     0
 90
       50
176
     0
290
     0
176
     0
 90
       50
176
     0
 62
   256
176
     0
 40
1.0
176
     0
 90
        2
176
     0
  1
strokes_ogs.tif
176
     0
290
     0
176
     0
 40
1.0
176
     0
 40
1.0
176
     0
  0
VISUALSTYLE
  5
38
102
{ACAD_REACTORS
330
2A
102
}
330
2A
100
AcDbVisualStyle
  2
Linepattern
 70
    14
177
     3
291
     1
 70
    58
 90
        2
176
     1
 90
        2
176
     1
 90
        0
176
     1
 90
        0
176
     1
 40
0.6
176
     1
 40
30.0
176
     1
 62
     7
420
 16777215
176
     1
 90
        1
176
     1
 90
        4
176
     1
 62
     7
176
     1
 62
   257
176
     1
 90
        7
176
     1
 90
        7
176
     1
 40
1.0
176
     1
 90
        8
176
     1
 62
     7
176
     1
 40
1.0
176
     1
 90
        1
176
     1
 90
        6
176
     1
 90
        2
176
     1
 62
     7
176
     1
 90
        5
176
     1
 90
        0
176
     1
 90
        0
176
     1
290
     0
176
     1
 90
        1
176
     1
 40
0.0
176
     1
 90
        0
176
     1
290
     0
176
     1
290
     1
176
     1
290
     1
176
     1
290
     0
176
     1
290
     0
176
     1
290
     0
176
     1
290
     0
176
     1
290
     0
176
     1
290
     0
176
     1
 90
       50
176
     1
 40
0.0
176
     1
 40
1.0
176
     1
 90
        0
176
     1
 62
    18
420
        0
176
     1
 90
       50
176
     1
 90
        3
176
     1
 62
     5
420
      255
176
     1
290
     0
176
     1
 90
       50
176
     1
 90
       50
176
     1
 90
       50
176
     1
290
     0
176
     1
 90
       50
176
     1
 62
   256
176
     0
 40
1.0
176
     0
 90
        2
176
     1
  1
strokes_ogs.tif
176
     1
290
     0
176
     1
 40
1.0
176
     1
 40
1.0
176
     1
  0
VISUALSTYLE
  5
3C
102
{ACAD_REACTORS
330
2A
102
}
330
2A
100
AcDbVisualStyle
  2
OverhangOff
 70
    21
177
     3
291
     1
 70
    58
 90
        2
176
     0
 90
        2
176
     0
 90
        0
176
     0
 90
        0
176
     0
 40
0.6
176
     0
 40
30.0
176
     0
 62
     7
420
 16777215
176
     0
 90
        1
176
     0
 90
        4
176
     0
 62
     7
176
     0
 62
   257
176
     0
 90
        1
176
     0
 90
        1
176
     0
 40
1.0
176
     0
 90
        9
176
     2
 62
     7
176
     0
 40
1.0
176
     0
 90
        1
176
     0
 90
        6
176
     0
 90
        2
176
     0
 62
     7
176
     0
 90
        5
176
     0
 90
        0
176
     0
 90
        0
176
     0
290
     0
176
     0
 90
        1
176
     0
 40
0.0
176
     0
 90
        0
176
     0
290
     0
176
     0
290
     1
176
     0
290
     1
176
     0
290
     0
176
     0
290
     0
176
     0
290
     0
176
     0
290
     0
176
     0
290
     0
176
     0
290
     0
176
     0
 90
       50
176
     0
 40
0.0
176
     0
 40
1.0
176
     0
 90
        0
176
     0
 62
    18
420
        0
176
     0
 90
       50
176
     0
 90
        3
176
     0
 62
     5
420
      255
176
     0
290
     0
176
     0
 90
       50
176
     0
 90
       50
176
     0
 90
       50
176
     0
290
     0
176
     0
 90
       50
176
     0
 62
   256
176
     0
 40
1.0
176
     0
 90
        2
176
     0
  1
strokes_ogs.tif
176
     0
290
     0
176
     0
 40
1.0
176
     0
 40
1.0
176
     0
  0
VISUALSTYLE
  5
33
102
{ACAD_REACTORS
330
2A
102
}
330
2A
100
AcDbVisualStyle
  2
Realistic
 70
     8
177
     3
291
     0
 70
    58
 90
        2
176
     1
 90
        3
176
     1
 90
        0
176
     1
 90
        2
176
     1
 40
0.6
176
     1
 40
30.0
176
     1
 62
     7
420
 16777215
176
     1
 90
        0
176
     1
 90
        0
176
     1
 62
     7
176
     1
 62
   257
176
     1
 90
        1
176
     1
 90
        1
176
     1
 40
1.0
176
     1
 90
        8
176
     1
 62
   257
176
     1
 40
1.0
176
     1
 90
        1
176
     1
 90
        6
176
     1
 90
        2
176
     1
 62
     7
176
     1
 90
        3
176
     1
 90
        0
176
     1
 90
        0
176
     1
290
     0
176
     1
 90
       13
176
     1
 40
0.0
176
     1
 90
        0
176
     1
290
     0
176
     1
290
     1
176
     1
290
     1
176
     1
290
     0
176
     1
290
     0
176
     1
290
     0
176
     1
290
     0
176
     1
290
     0
176
     1
290
     0
176
     1
 90
       50
176
     1
 40
0.0
176
     1
 40
1.0
176
     1
 90
        0
176
     1
 62
    18
420
        0
176
     1
 90
       50
176
     1
 90
        3
176
     1
 62
     5
420
      255
176
     1
290
     0
176
     1
 90
       50
176
     1
 90
       50
176
     1
 90
       50
176
     1
290
     0
176
     1
 90
       50
176
     1
 62
   256
176
     0
 40
1.0
176
     0
 90
        2
176
     1
  1
strokes_ogs.tif
176
     1
290
     0
176
     1
 40
1.0
176
     1
 40
1.0
176
     1
  0
VISUALSTYLE
  5
42
102
{ACAD_REACTORS
330
2A
102
}
330
2A
100
AcDbVisualStyle
  2
Shaded
 70
    27
177
     3
291
     0
 70
    58
 90
        2
176
     1
 90
        2
176
     1
 90
        1
176
     1
 90
        2
176
     1
 40
0.6
176
     1
 40
30.0
176
     1
 62
     7
420
 16777215
176
     1
 90
        0
176
     1
 90
        4
176
     1
 62
     7
176
     1
 62
   257
176
     1
 90
        1
176
     1
 90
        1
176
     1
 40
1.0
176
     1
 90
        8
176
     1
 62
   257
176
     1
 40
1.0
176
     1
 90
        1
176
     1
 90
        6
176
     1
 90
        2
176
     1
 62
     8
420
  7895160
176
     1
 90
        3
176
     1
 90
        0
176
     1
 90
        0
176
     1
290
     0
176
     1
 90
        5
176
     1
 40
0.0
176
     1
 90
        0
176
     1
290
     0
176
     1
290
     1
176
     1
290
     1
176
     1
290
     0
176
     1
290
     0
176
     1
290
     0
176
     1
290
     0
176
     1
290
     0
176
     1
290
     0
176
     1
 90
       50
176
     1
 40
0.0
176
     1
 40
1.0
176
     1
 90
        0
176
     1
 62
    18
420
        0
176
     1
 90
       50
176
     1
 90
        3
176
     1
 62
     5
420
      255
176
     1
290
     0
176
     1
 90
       50
176
     1
 90
       50
176
     1
 90
       50
176
     1
290
     0
176
     1
 90
       50
176
     1
 62
   256
176
     0
 40
1.0
176
     0
 90
        2
176
     1
  1
strokes_ogs.tif
176
     1
290
     0
176
     1
 40
1.0
176
     1
 40
1.0
176
     1
  0
VISUALSTYLE
  5
41
102
{ACAD_REACTORS
330
2A
102
}
330
2A
100
AcDbVisualStyle
  2
Shaded with edges
 70
    26
177
     3
291
     0
 70
    58
 90
        2
176
     1
 90
        2
176
     1
 90
        1
176
     1
 90
        2
176
     1
 40
0.6
176
     1
 40
30.0
176
     1
 62
     7
420
 16777215
176
     1
 90
        1
176
     1
 90
       10
176
     1
 62
     7
176
     1
 62
   257
176
     1
 90
        2
176
     1
 90
        1
176
     1
 40
1.0
176
     1
 90
        8
176
     1
 62
   257
176
     1
 40
1.0
176
     1
 90
        1
176
     1
 90
        6
176
     1
 90
        2
176
     1
 62
     7
176
     1
 90
        3
176
     1
 90
        0
176
     1
 90
        0
176
     1
290
     0
176
     1
 90
        5
176
     1
 40
0.0
176
     1
 90
        0
176
     1
290
     0
176
     1
290
     1
176
     1
290
     1
176
     1
290
     0
176
     1
290
     0
176
     1
290
     0
176
     1
290
     0
176
     1
290
     0
176
     1
290
     0
176
     1
 90
       50
176
     1
 40
0.0
176
     1
 40
1.0
176
     1
 90
        0
176
     1
 62
    18
420
        0
176
     1
 90
       50
176
     1
 90
        3
176
     1
 62
     5
420
      255
176
     1
290
     0
176
     1
 90
       50
176
     1
 90
       50
176
     1
 90
       50
176
     1
290
     0
176
     1
 90
       50
176
     1
 62
   256
176
     0
 40
1.0
176
     0
 90
        2
176
     1
  1
strokes_ogs.tif
176
     1
290
     0
176
     1
 40
1.0
176
     1
 40
1.0
176
     1
  0
VISUALSTYLE
  5
3E
102
{ACAD_REACTORS
330
2A
102
}
330
2A
100
AcDbVisualStyle
  2
Shades of Gray
 70
    23
177
     3
291
     0
 70
    58
 90
        2
176
     1
 90
        2
176
     1
 90
        3
176
     1
 90
        0
176
     1
 40
0.6
176
     1
 40
30.0
176
     1
 62
     7
420
 16777215
176
     1
 90
        2
176
     1
 90
        2
176
     1
 62
     7
176
     1
 62
     7
176
     1
 90
        1
176
     1
 90
        1
176
     1
 40
40.0
176
     1
 90
        8
176
     1
 62
     7
176
     1
 40
1.0
176
     1
 90
        1
176
     1
 90
        6
176
     1
 90
        2
176
     1
 62
     7
176
     1
 90
        3
176
     1
 90
        0
176
     1
 90
        0
176
     1
290
     0
176
     1
 90
        1
176
     1
 40
0.0
176
     1
 90
        0
176
     1
290
     0
176
     1
290
     1
176
     1
290
     1
176
     1
290
     0
176
     1
290
     0
176
     1
290
     0
176
     1
290
     0
176
     1
290
     0
176
     1
290
     0
176
     1
 90
       50
176
     1
 40
0.0
176
     1
 40
1.0
176
     1
 90
        0
176
     1
 62
    18
420
        0
176
     1
 90
       50
176
     1
 90
        3
176
     1
 62
     5
420
      255
176
     1
290
     0
176
     1
 90
       50
176
     1
 90
       50
176
     1
 90
       50
176
     1
290
     0
176
     1
 90
       50
176
     1
 62
   256
176
     0
 40
1.0
176
     0
 90
        2
176
     1
  1
strokes_ogs.tif
176
     1
290
     0
176
     1
 40
1.0
176
     1
 40
1.0
176
     1
  0
VISUALSTYLE
  5
3F
102
{ACAD_REACTORS
330
2A
102
}
330
2A
100
AcDbVisualStyle
  2
Sketchy
 70
    24
177
     3
291
     0
 70
    58
 90
        1
176
     1
 90
        2
176
     1
 90
        2
176
     1
 90
        0
176
     1
 40
0.6
176
     1
 40
30.0
176
     1
 62
     7
420
 16777215
176
     1
 90
        2
176
     1
 90
        2
176
     1
 62
     7
176
     1
 62
     7
176
     1
 90
        1
176
     1
 90
        1
176
     1
 40
40.0
176
     1
 90
       11
176
     1
 62
     7
176
     1
 40
1.0
176
     1
 90
        1
176
     1
 90
        6
176
     1
 90
        2
176
     1
 62
     7
176
     1
 90
        6
176
     1
 90
        0
176
     1
 90
        0
176
     1
290
     0
176
     1
 90
        1
176
     1
 40
0.0
176
     1
 90
        0
176
     1
290
     0
176
     1
290
     1
176
     1
290
     1
176
     1
290
     0
176
     1
290
     0
176
     1
290
     0
176
     1
290
     0
176
     1
290
     0
176
     1
290
     0
176
     1
 90
       50
176
     1
 40
0.0
176
     1
 40
1.0
176
     1
 90
        0
176
     1
 62
    18
420
        0
176
     1
 90
       50
176
     1
 90
        3
176
     1
 62
     5
420
      255
176
     1
290
     0
176
     1
 90
       50
176
     1
 90
       50
176
     1
 90
       50
176
     1
290
     0
176
     1
 90
       50
176
     1
 62
   256
176
     0
 40
1.0
176
     0
 90
        2
176
     1
  1
strokes_ogs.tif
176
     1
290
     0
176
     1
 40
1.0
176
     1
 40
1.0
176
     1
  0
VISUALSTYLE
  5
37
102
{ACAD_REACTORS
330
2A
102
}
330
2A
100
AcDbVisualStyle
  2
Thicken
 70
    13
177
     3
291
     1
 70
    58
 90
        2
176
     1
 90
        2
176
     1
 90
        0
176
     1
 90
        0
176
     1
 40
0.6
176
     1
 40
30.0
176
     1
 62
     7
420
 16777215
176
     1
 90
        1
176
     1
 90
        4
176
     1
 62
     7
176
     1
 62
   257
176
     1
 90
        1
176
     1
 90
        1
176
     1
 40
1.0
176
     1
 90
       12
176
     1
 62
     7
176
     1
 40
1.0
176
     1
 90
        1
176
     1
 90
        6
176
     1
 90
        2
176
     1
 62
     7
176
     1
 90
        5
176
     1
 90
        0
176
     1
 90
        0
176
     1
290
     0
176
     1
 90
        1
176
     1
 40
0.0
176
     1
 90
        0
176
     1
290
     0
176
     1
290
     1
176
     1
290
     1
176
     1
290
     0
176
     1
290
     0
176
     1
290
     0
176
     1
290
     0
176
     1
290
     0
176
     1
290
     0
176
     1
 90
       50
176
     1
 40
0.0
176
     1
 40
1.0
176
     1
 90
        0
176
     1
 62
    18
420
        0
176
     1
 90
       50
176
     1
 90
        3
176
     1
 62
     5
420
      255
176
     1
290
     0
176
     1
 90
       50
176
     1
 90
       50
176
     1
 90
       50
176
     1
290
     0
176
     1
 90
       50
176
     1
 62
   256
176
     0
 40
1.0
176
     0
 90
        2
176
     1
  1
strokes_ogs.tif
176
     1
290
     0
176
     1
 40
1.0
176
     1
 40
1.0
176
     1
  0
VISUALSTYLE
  5
30
102
{ACAD_REACTORS
330
2A
102
}
330
2A
100
AcDbVisualStyle
  2
Wireframe
 70
     5
177
     3
291
     0
 70
    58
 90
        0
176
     1
 90
        2
176
     1
 90
        0
176
     1
 90
        0
176
     1
 40
0.6
176
     1
 40
30.0
176
     1
 62
     7
420
 16777215
176
     1
 90
        1
176
     1
 90
        4
176
     1
 62
     7
176
     1
 62
   257
176
     1
 90
        1
176
     1
 90
        1
176
     1
 40
1.0
176
     1
 90
        0
176
     1
 62
   257
176
     1
 40
1.0
176
     1
 90
        1
176
     1
 90
        6
176
     1
 90
        2
176
     1
 62
     7
176
     1
 90
        3
176
     1
 90
        0
176
     1
 90
        0
176
     1
290
     0
176
     1
 90
        1
176
     1
 40
0.0
176
     1
 90
        0
176
     1
290
     0
176
     1
290
     1
176
     1
290
     1
176
     1
290
     0
176
     1
290
     0
176
     1
290
     0
176
     1
290
     0
176
     1
290
     0
176
     1
290
     0
176
     1
 90
       50
176
     1
 40
0.0
176
     1
 40
1.0
176
     1
 90
        0
176
     1
 62
    18
420
        0
176
     1
 90
       50
176
     1
 90
        3
176
     1
 62
     5
420
      255
176
     1
290
     0
176
     1
 90
       50
176
     1
 90
       50
176
     1
 90
       50
176
     1
290
     0
176
     1
 90
       50
176
     1
 62
   256
176
     0
 40
1.0
176
     0
 90
        2
176
     1
  1
strokes_ogs.tif
176
     1
290
     0
176
     1
 40
1.0
176
     1
 40
1.0
176
     1
  0
VISUALSTYLE
  5
40
102
{ACAD_REACTORS
330
2A
102
}
330
2A
100
AcDbVisualStyle
  2
X-Ray
 70
    25
177
     3
291
     0
 70
    58
 90
        2
176
     1
 90
        2
176
     1
 90
        1
176
     1
 90
        1
176
     1
 40
0.5
176
     1
 40
30.0
176
     1
 62
     7
420
 16777215
176
     1
 90
        1
176
     1
 90
        0
176
     1
 62
     7
176
     1
 62
   257
176
     1
 90
        1
176
     1
 90
        1
176
     1
 40
1.0
176
     1
 90
        8
176
     1
 62
     7
176
     1
 40
1.0
176
     1
 90
        1
176
     1
 90
        6
176
     1
 90
        2
176
     1
 62
     7
176
     1
 90
        3
176
     1
 90
        0
176
     1
 90
        0
176
     1
290
     0
176
     1
 90
       13
176
     1
 40
0.0
176
     1
 90
        0
176
     1
290
     0
176
     1
290
     1
176
     1
290
     1
176
     1
290
     0
176
     1
290
     0
176
     1
290
     0
176
     1
290
     0
176
     1
290
     0
176
     1
290
     0
176
     1
 90
       50
176
     1
 40
0.0
176
     1
 40
1.0
176
     1
 90
        0
176
     1
 62
    18
420
        0
176
     1
 90
       50
176
     1
 90
        3
176
     1
 62
     5
420
      255
176
     1
290
     0
176
     1
 90
       50
176
     1
 90
       50
176
     1
 90
       50
176
     1
290
     0
176
     1
 90
       50
176
     1
 62
   256
176
     0
 40
1.0
176
     0
 90
        2
176
     1
  1
strokes_ogs.tif
176
     1
290
     0
176
     1
 40
1.0
176
     1
 40
1.0
176
     1
  0
DICTIONARYVAR
  5
191
102
{ACAD_REACTORS
330
190
102
}
330
190
100
DictionaryVariables
280
     0
  1
1:1
  0
DICTIONARYVAR
  5
196
102
{ACAD_REACTORS
330
190
102
}
330
190
100
DictionaryVariables
280
     0
  1
Standard
  0
DICTIONARYVAR
  5
195
102
{ACAD_REACTORS
330
190
102
}
330
190
100
DictionaryVariables
280
     0
  1
Standard
  0
DICTIONARY
  5
192
330
6A
100
AcDbDictionary
280
     1
281
     1
  3
ACAD_ROUNDTRIP_2008_TABLESTYLE_CELLSTYLEMAP
360
193
  0
CELLSTYLEMAP
  5
193
102
{ACAD_REACTORS
330
192
102
}
330
192
100
AcDbCellStyleMap
 90
        3
300
CELLSTYLE
  1
TABLEFORMAT_BEGIN
 90
        5
170
     1
 91
        0
 92
    32768
 62
   257
 93
        1
300
CONTENTFORMAT
  1
CONTENTFORMAT_BEGIN
 90
        0
 91
        0
 92
        4
 93
        0
300

 40
0.0
140
1.0
 94
        5
 62
     0
340
11
144
0.25
309
CONTENTFORMAT_END
171
     1
301
MARGIN
  1
CELLMARGIN_BEGIN
 40
0.06
 40
0.06
 40
0.06
 40
0.06
 40
0.06
 40
0.06
309
CELLMARGIN_END
 94
        6
 95
        1
302
GRIDFORMAT
  1
GRIDFORMAT_BEGIN
 90
        0
 91
        1
 62
     0
 92
       -2
340
14
 93
        0
 40
0.045
309
GRIDFORMAT_END
 95
        2
302
GRIDFORMAT
  1
GRIDFORMAT_BEGIN
 90
        0
 91
        1
 62
     0
 92
       -2
340
14
 93
        0
 40
0.045
309
GRIDFORMAT_END
 95
        4
302
GRIDFORMAT
  1
GRIDFORMAT_BEGIN
 90
        0
 91
        1
 62
     0
 92
       -2
340
14
 93
        0
 40
0.045
309
GRIDFORMAT_END
 95
        8
302
GRIDFORMAT
  1
GRIDFORMAT_BEGIN
 90
        0
 91
        1
 62
     0
 92
       -2
340
14
 93
        0
 40
0.045
309
GRIDFORMAT_END
 95
       16
302
GRIDFORMAT
  1
GRIDFORMAT_BEGIN
 90
        0
 91
        1
 62
     0
 92
       -2
340
14
 93
        0
 40
0.045
309
GRIDFORMAT_END
 95
       32
302
GRIDFORMAT
  1
GRIDFORMAT_BEGIN
 90
        0
 91
        1
 62
     0
 92
       -2
340
14
 93
        0
 40
0.045
309
GRIDFORMAT_END
309
TABLEFORMAT_END
  1
CELLSTYLE_BEGIN
 90
        1
 91
        1
300
_TITLE
309
CELLSTYLE_END
300
CELLSTYLE
  1
TABLEFORMAT_BEGIN
 90
        5
170
     1
 91
        0
 92
        0
 62
   257
 93
        1
300
CONTENTFORMAT
  1
CONTENTFORMAT_BEGIN
 90
        0
 91
        0
 92
        4
 93
        0
300

 40
0.0
140
1.0
 94
        5
 62
     0
340
11
144
0.18
309
CONTENTFORMAT_END
171
     1
301
MARGIN
  1
CELLMARGIN_BEGIN
 40
0.06
 40
0.06
 40
0.06
 40
0.06
 40
0.06
 40
0.06
309
CELLMARGIN_END
 94
        6
 95
        1
302
GRIDFORMAT
  1
GRIDFORMAT_BEGIN
 90
        0
 91
        1
 62
     0
 92
       -2
340
14
 93
        0
 40
0.045
309
GRIDFORMAT_END
 95
        2
302
GRIDFORMAT
  1
GRIDFORMAT_BEGIN
 90
        0
 91
        1
 62
     0
 92
       -2
340
14
 93
        0
 40
0.045
309
GRIDFORMAT_END
 95
        4
302
GRIDFORMAT
  1
GRIDFORMAT_BEGIN
 90
        0
 91
        1
 62
     0
 92
       -2
340
14
 93
        0
 40
0.045
309
GRIDFORMAT_END
 95
        8
302
GRIDFORMAT
  1
GRIDFORMAT_BEGIN
 90
        0
 91
        1
 62
     0
 92
       -2
340
14
 93
        0
 40
0.045
309
GRIDFORMAT_END
 95
       16
302
GRIDFORMAT
  1
GRIDFORMAT_BEGIN
 90
        0
 91
        1
 62
     0
 92
       -2
340
14
 93
        0
 40
0.045
309
GRIDFORMAT_END
 95
       32
302
GRIDFORMAT
  1
GRIDFORMAT_BEGIN
 90
        0
 91
        1
 62
     0
 92
       -2
340
14
 93
        0
 40
0.045
309
GRIDFORMAT_END
309
TABLEFORMAT_END
  1
CELLSTYLE_BEGIN
 90
        2
 91
        1
300
_HEADER
309
CELLSTYLE_END
300
CELLSTYLE
  1
TABLEFORMAT_BEGIN
 90
        5
170
     1
 91
        0
 92
        0
 62
   257
 93
        1
300
CONTENTFORMAT
  1
CONTENTFORMAT_BEGIN
 90
        0
 91
        0
 92
        4
 93
        0
300

 40
0.0
140
1.0
 94
        2
 62
     0
340
11
144
0.18
309
CONTENTFORMAT_END
171
     1
301
MARGIN
  1
CELLMARGIN_BEGIN
 40
0.06
 40
0.06
 40
0.06
 40
0.06
 40
0.06
 40
0.06
309
CELLMARGIN_END
 94
        6
 95
        1
302
GRIDFORMAT
  1
GRIDFORMAT_BEGIN
 90
        0
 91
        1
 62
     0
 92
       -2
340
14
 93
        0
 40
0.045
309
GRIDFORMAT_END
 95
        2
302
GRIDFORMAT
  1
GRIDFORMAT_BEGIN
 90
        0
 91
        1
 62
     0
 92
       -2
340
14
 93
        0
 40
0.045
309
GRIDFORMAT_END
 95
        4
302
GRIDFORMAT
  1
GRIDFORMAT_BEGIN
 90
        0
 91
        1
 62
     0
 92
       -2
340
14
 93
        0
 40
0.045
309
GRIDFORMAT_END
 95
        8
302
GRIDFORMAT
  1
GRIDFORMAT_BEGIN
 90
        0
 91
        1
 62
     0
 92
       -2
340
14
 93
        0
 40
0.045
309
GRIDFORMAT_END
 95
       16
302
GRIDFORMAT
  1
GRIDFORMAT_BEGIN
 90
        0
 91
        1
 62
     0
 92
       -2
340
14
 93
        0
 40
0.045
309
GRIDFORMAT_END
 95
       32
302
GRIDFORMAT
  1
GRIDFORMAT_BEGIN
 90
        0
 91
        1
 62
     0
 92
       -2
340
14
 93
        0
 40
0.045
309
GRIDFORMAT_END
309
TABLEFORMAT_END
  1
CELLSTYLE_BEGIN
 90
        3
 91
        2
300
_DATA
309
CELLSTYLE_END
  0
ENDSEC
  0
EOF