0
SECTION
  2
HEADER
  9
$ACADVER
  1
AC1027
  9
$ACADMAINTVER
 70
     8
  9
$DWGCODEPAGE
  3
ANSI_1252
  9
$REQUIREDVERSIONS
160
                 0
  9
$COMMENTS
  1
File was created by Cadenas
  9
$CUSTOMPROPERTYTAG
  1
NN
  9
$CUSTOMPROPERTY
  1
Set Screw Extreme Duty Wide Slot Take Up Inch Bore
  9
$CUSTOMPROPERTYTAG
  1
NT
  9
$CUSTOMPROPERTY
  1
SCED Take-Up Bearings -Wide Slot -(Normal Duty)
  9
$CUSTOMPROPERTYTAG
  1
NB
  9
$CUSTOMPROPERTY
  1
076102
  9
$CUSTOMPROPERTYTAG
  1
NBSYN
  9
$CUSTOMPROPERTY
  1
$PN.
  9
$CUSTOMPROPERTYTAG
  1
LINA
  9
$CUSTOMPROPERTY
  1
076102
  9
$CUSTOMPROPERTYTAG
  1
SERIES
  9
$CUSTOMPROPERTY
  1
210
  9
$CUSTOMPROPERTYTAG
  1
SS
  9
$CUSTOMPROPERTY
  1
1-15/16
  9
$CUSTOMPROPERTYTAG
  1
PN
  9
$CUSTOMPROPERTY
  1
076102
  9
$CUSTOMPROPERTYTAG
  1
DESCRIPTION
  9
$CUSTOMPROPERTY
  1
WSTU-SCED-115
  9
$CUSTOMPROPERTYTAG
  1
W
  9
$CUSTOMPROPERTY
  1
6.4
  9
$CUSTOMPROPERTYTAG
  1
FS
  9
$CUSTOMPROPERTY
  1
WS400
  9
$CUSTOMPROPERTYTAG
  1
A
  9
$CUSTOMPROPERTY
  1
1.94
  9
$CUSTOMPROPERTYTAG
  1
B
  9
$CUSTOMPROPERTY
  1
5.82
  9
$CUSTOMPROPERTYTAG
  1
C
  9
$CUSTOMPROPERTY
  1
0.688
  9
$CUSTOMPROPERTYTAG
  1
D
  9
$CUSTOMPROPERTY
  1
3.38
  9
$CUSTOMPROPERTYTAG
  1
E
  9
$CUSTOMPROPERTY
  1
3.56
  9
$CUSTOMPROPERTYTAG
  1
F
  9
$CUSTOMPROPERTY
  1
1
  9
$CUSTOMPROPERTYTAG
  1
G
  9
$CUSTOMPROPERTY
  1
0.63
  9
$CUSTOMPROPERTYTAG
  1
H
  9
$CUSTOMPROPERTY
  1
0.75
  9
$CUSTOMPROPERTYTAG
  1
J
  9
$CUSTOMPROPERTY
  1
3.25
  9
$CUSTOMPROPERTYTAG
  1
K
  9
$CUSTOMPROPERTY
  1
1.94
  9
$CUSTOMPROPERTYTAG
  1
L
  9
$CUSTOMPROPERTY
  1
2.43
  9
$CUSTOMPROPERTYTAG
  1
M
  9
$CUSTOMPROPERTY
  1
3.985 / 4.015
  9
$CUSTOMPROPERTYTAG
  1
N
  9
$CUSTOMPROPERTY
  1
4.75
  9
$CUSTOMPROPERTYTAG
  1
R
  9
$CUSTOMPROPERTY
  1
0.75
  9
$CUSTOMPROPERTYTAG
  1
S
  9
$CUSTOMPROPERTY
  1
1.19
  9
$CUSTOMPROPERTYTAG
  1
T
  9
$CUSTOMPROPERTY
  1
1.94
  9
$CUSTOMPROPERTYTAG
  1
COMPANY
  9
$CUSTOMPROPERTY
  1
baldor
  9
$INSBASE
 10
0.0
 20
0.0
 30
0.0
  9
$EXTMIN
 10
1.000000000000000E+20
 20
1.000000000000000E+20
 30
1.000000000000000E+20
  9
$EXTMAX
 10
-1.000000000000000E+20
 20
-1.000000000000000E+20
 30
-1.000000000000000E+20
  9
$LIMMIN
 10
0.0
 20
0.0
  9
$LIMMAX
 10
12.0
 20
9.0
  9
$ORTHOMODE
 70
     0
  9
$REGENMODE
 70
     1
  9
$FILLMODE
 70
     1
  9
$QTEXTMODE
 70
     0
  9
$MIRRTEXT
 70
     1
  9
$LTSCALE
 40
1.0
  9
$ATTMODE
 70
     1
  9
$TEXTSIZE
 40
0.2
  9
$TRACEWID
 40
0.05
  9
$TEXTSTYLE
  7
Standard
  9
$CLAYER
  8
0
  9
$CELTYPE
  6
ByLayer
  9
$CECOLOR
 62
   256
  9
$CELTSCALE
 40
1.0
  9
$DISPSILH
 70
     0
  9
$DIMSCALE
 40
1.0
  9
$DIMASZ
 40
0.18
  9
$DIMEXO
 40
0.0625
  9
$DIMDLI
 40
0.38
  9
$DIMRND
 40
0.0
  9
$DIMDLE
 40
0.0
  9
$DIMEXE
 40
0.18
  9
$DIMTP
 40
0.0
  9
$DIMTM
 40
0.0
  9
$DIMTXT
 40
0.18
  9
$DIMCEN
 40
0.09
  9
$DIMTSZ
 40
0.0
  9
$DIMTOL
 70
     0
  9
$DIMLIM
 70
     0
  9
$DIMTIH
 70
     1
  9
$DIMTOH
 70
     1
  9
$DIMSE1
 70
     0
  9
$DIMSE2
 70
     0
  9
$DIMTAD
 70
     0
  9
$DIMZIN
 70
     0
  9
$DIMBLK
  1

  9
$DIMASO
 70
     1
  9
$DIMSHO
 70
     1
  9
$DIMPOST
  1

  9
$DIMAPOST
  1

  9
$DIMALT
 70
     0
  9
$DIMALTD
 70
     2
  9
$DIMALTF
 40
25.4
  9
$DIMLFAC
 40
1.0
  9
$DIMTOFL
 70
     0
  9
$DIMTVP
 40
0.0
  9
$DIMTIX
 70
     0
  9
$DIMSOXD
 70
     0
  9
$DIMSAH
 70
     0
  9
$DIMBLK1
  1

  9
$DIMBLK2
  1

  9
$DIMSTYLE
  2
Standard
  9
$DIMCLRD
 70
     0
  9
$DIMCLRE
 70
     0
  9
$DIMCLRT
 70
     0
  9
$DIMTFAC
 40
1.0
  9
$DIMGAP
 40
0.09
  9
$DIMJUST
 70
     0
  9
$DIMSD1
 70
     0
  9
$DIMSD2
 70
     0
  9
$DIMTOLJ
 70
     1
  9
$DIMTZIN
 70
     0
  9
$DIMALTZ
 70
     0
  9
$DIMALTTZ
 70
     0
  9
$DIMUPT
 70
     0
  9
$DIMDEC
 70
     4
  9
$DIMTDEC
 70
     4
  9
$DIMALTU
 70
     2
  9
$DIMALTTD
 70
     2
  9
$DIMTXSTY
  7
Standard
  9
$DIMAUNIT
 70
     0
  9
$DIMADEC
 70
     0
  9
$DIMALTRND
 40
0.0
  9
$DIMAZIN
 70
     0
  9
$DIMDSEP
 70
    46
  9
$DIMATFIT
 70
     3
  9
$DIMFRAC
 70
     0
  9
$DIMLDRBLK
  1

  9
$DIMLUNIT
 70
     2
  9
$DIMLWD
 70
    -2
  9
$DIMLWE
 70
    -2
  9
$DIMTMOVE
 70
     0
  9
$DIMFXL
 40
1.0
  9
$DIMFXLON
 70
     0
  9
$DIMJOGANG
 40
0.7853981633974483
  9
$DIMTFILL
 70
     0
  9
$DIMTFILLCLR
 70
     0
  9
$DIMARCSYM
 70
     0
  9
$DIMLTYPE
  6

  9
$DIMLTEX1
  6

  9
$DIMLTEX2
  6

  9
$DIMTXTDIRECTION
 70
     0
  9
$LUNITS
 70
     2
  9
$LUPREC
 70
     4
  9
$SKETCHINC
 40
0.1
  9
$FILLETRAD
 40
0.5
  9
$AUNITS
 70
     0
  9
$AUPREC
 70
     0
  9
$MENU
  1
.
  9
$ELEVATION
 40
0.0
  9
$PELEVATION
 40
0.0
  9
$THICKNESS
 40
0.0
  9
$LIMCHECK
 70
     0
  9
$CHAMFERA
 40
0.0
  9
$CHAMFERB
 40
0.0
  9
$CHAMFERC
 40
0.0
  9
$CHAMFERD
 40
0.0
  9
$SKPOLY
 70
     0
  9
$TDCREATE
 40
2458168.889298333
  9
$TDUCREATE
 40
2458168.847631667
  9
$TDUPDATE
 40
2458168.889298333
  9
$TDUUPDATE
 40
2458168.847631667
  9
$TDINDWG
 40
0.0000000116
  9
$TDUSRTIMER
 40
0.0000000116
  9
$USRTIMER
 70
     1
  9
$ANGBASE
 50
0.0
  9
$ANGDIR
 70
     0
  9
$PDMODE
 70
     0
  9
$PDSIZE
 40
0.0
  9
$PLINEWID
 40
0.0
  9
$SPLFRAME
 70
     0
  9
$SPLINETYPE
 70
     6
  9
$SPLINESEGS
 70
     8
  9
$HANDSEED
  5
1AA
  9
$SURFTAB1
 70
     6
  9
$SURFTAB2
 70
     6
  9
$SURFTYPE
 70
     6
  9
$SURFU
 70
     6
  9
$SURFV
 70
     6
  9
$UCSBASE
  2

  9
$UCSNAME
  2

  9
$UCSORG
 10
0.0
 20
0.0
 30
0.0
  9
$UCSXDIR
 10
1.0
 20
0.0
 30
0.0
  9
$UCSYDIR
 10
0.0
 20
1.0
 30
0.0
  9
$UCSORTHOREF
  2

  9
$UCSORTHOVIEW
 70
     0
  9
$UCSORGTOP
 10
0.0
 20
0.0
 30
0.0
  9
$UCSORGBOTTOM
 10
0.0
 20
0.0
 30
0.0
  9
$UCSORGLEFT
 10
0.0
 20
0.0
 30
0.0
  9
$UCSORGRIGHT
 10
0.0
 20
0.0
 30
0.0
  9
$UCSORGFRONT
 10
0.0
 20
0.0
 30
0.0
  9
$UCSORGBACK
 10
0.0
 20
0.0
 30
0.0
  9
$PUCSBASE
  2

  9
$PUCSNAME
  2

  9
$PUCSORG
 10
0.0
 20
0.0
 30
0.0
  9
$PUCSXDIR
 10
1.0
 20
0.0
 30
0.0
  9
$PUCSYDIR
 10
0.0
 20
1.0
 30
0.0
  9
$PUCSORTHOREF
  2

  9
$PUCSORTHOVIEW
 70
     0
  9
$PUCSORGTOP
 10
0.0
 20
0.0
 30
0.0
  9
$PUCSORGBOTTOM
 10
0.0
 20
0.0
 30
0.0
  9
$PUCSORGLEFT
 10
0.0
 20
0.0
 30
0.0
  9
$PUCSORGRIGHT
 10
0.0
 20
0.0
 30
0.0
  9
$PUCSORGFRONT
 10
0.0
 20
0.0
 30
0.0
  9
$PUCSORGBACK
 10
0.0
 20
0.0
 30
0.0
  9
$USERI1
 70
     0
  9
$USERI2
 70
     0
  9
$USERI3
 70
     0
  9
$USERI4
 70
     0
  9
$USERI5
 70
     0
  9
$USERR1
 40
0.0
  9
$USERR2
 40
0.0
  9
$USERR3
 40
0.0
  9
$USERR4
 40
0.0
  9
$USERR5
 40
0.0
  9
$WORLDVIEW
 70
     1
  9
$SHADEDGE
 70
     3
  9
$SHADEDIF
 70
    70
  9
$TILEMODE
 70
     1
  9
$MAXACTVP
 70
    64
  9
$PINSBASE
 10
0.0
 20
0.0
 30
0.0
  9
$PLIMCHECK
 70
     0
  9
$PEXTMIN
 10
1.000000000000000E+20
 20
1.000000000000000E+20
 30
1.000000000000000E+20
  9
$PEXTMAX
 10
-1.000000000000000E+20
 20
-1.000000000000000E+20
 30
-1.000000000000000E+20
  9
$PLIMMIN
 10
0.0
 20
0.0
  9
$PLIMMAX
 10
12.0
 20
9.0
  9
$UNITMODE
 70
     0
  9
$VISRETAIN
 70
     1
  9
$PLINEGEN
 70
     0
  9
$PSLTSCALE
 70
     1
  9
$TREEDEPTH
 70
  3020
  9
$CMLSTYLE
  2
Standard
  9
$CMLJUST
 70
     0
  9
$CMLSCALE
 40
1.0
  9
$PROXYGRAPHICS
 70
     1
  9
$MEASUREMENT
 70
     0
  9
$CELWEIGHT
370
    -1
  9
$ENDCAPS
280
     0
  9
$JOINSTYLE
280
     0
  9
$LWDISPLAY
290
     0
  9
$INSUNITS
 70
     1
  9
$HYPERLINKBASE
  1

  9
$STYLESHEET
  1

  9
$XEDIT
290
     1
  9
$CEPSNTYPE
380
     0
  9
$PSTYLEMODE
290
     1
  9
$FINGERPRINTGUID
  2
{290C25A5-8790-4C3C-86CA-40A330A39D44}
  9
$VERSIONGUID
  2
{FAEB1C32-E019-11D5-929B-00C0DF256EC4}
  9
$EXTNAMES
290
     1
  9
$PSVPSCALE
 40
0.0
  9
$OLESTARTUP
290
     0
  9
$SORTENTS
280
   127
  9
$INDEXCTL
280
     0
  9
$HIDETEXT
280
     1
  9
$XCLIPFRAME
280
     2
  9
$HALOGAP
280
     0
  9
$OBSCOLOR
 70
   257
  9
$OBSLTYPE
280
     0
  9
$INTERSECTIONDISPLAY
280
     0
  9
$INTERSECTIONCOLOR
 70
   257
  9
$DIMASSOC
280
     2
  9
$PROJECTNAME
  1

  9
$CAMERADISPLAY
290
     0
  9
$LENSLENGTH
 40
50.0
  9
$CAMERAHEIGHT
 40
0.0
  9
$STEPSPERSEC
 40
2.0
  9
$STEPSIZE
 40
6.0
  9
$3DDWFPREC
 40
2.0
  9
$PSOLWIDTH
 40
0.25
  9
$PSOLHEIGHT
 40
4.0
  9
$LOFTANG1
 40
1.570796326794897
  9
$LOFTANG2
 40
1.570796326794897
  9
$LOFTMAG1
 40
0.0
  9
$LOFTMAG2
 40
0.0
  9
$LOFTPARAM
 70
     7
  9
$LOFTNORMALS
280
     1
  9
$LATITUDE
 40
37.795
  9
$LONGITUDE
 40
-122.394
  9
$NORTHDIRECTION
 40
0.0
  9
$TIMEZONE
 70
 -8000
  9
$LIGHTGLYPHDISPLAY
280
     1
  9
$TILEMODELIGHTSYNCH
280
     1
  9
$CMATERIAL
347
44
  9
$SOLIDHIST
280
     0
  9
$SHOWHIST
280
     1
  9
$DWFFRAME
280
     2
  9
$DGNFRAME
280
     2
  9
$REALWORLDSCALE
290
     1
  9
$INTERFERECOLOR
 62
   256
  9
$CSHADOW
280
     0
  9
$SHADOWPLANELOCATION
 40
0.0
  0
ENDSEC
  0
SECTION
  2
CLASSES
  0
CLASS
  1
ACDBDICTIONARYWDFLT
  2
AcDbDictionaryWithDefault
  3
ObjectDBX Classes
 90
        0
 91
        4
280
     0
281
     0
  0
CLASS
  1
VISUALSTYLE
  2
AcDbVisualStyle
  3
ObjectDBX Classes
 90
     4095
 91
        4
280
     0
281
     0
  0
CLASS
  1
MATERIAL
  2
AcDbMaterial
  3
ObjectDBX Classes
 90
     1153
 91
        4
280
     0
281
     0
  0
CLASS
  1
SCALE
  2
AcDbScale
  3
ObjectDBX Classes
 90
     1153
 91
        4
280
     0
281
     0
  0
CLASS
  1
TABLESTYLE
  2
AcDbTableStyle
  3
ObjectDBX Classes
 90
     4095
 91
        4
280
     0
281
     0
  0
CLASS
  1
MLEADERSTYLE
  2
AcDbMLeaderStyle
  3
ACDB_MLEADERSTYLE_CLASS
 90
     4095
 91
        4
280
     0
281
     0
  0
CLASS
  1
SUN
  2
AcDbSun
  3
SCENEOE
 90
     1153
 91
        4
280
     0
281
     0
  0
CLASS
  1
DICTIONARYVAR
  2
AcDbDictionaryVar
  3
ObjectDBX Classes
 90
        0
 91
        4
280
     0
281
     0
  0
CLASS
  1
CELLSTYLEMAP
  2
AcDbCellStyleMap
  3
ObjectDBX Classes
 90
     1152
 91
        4
280
     0
281
     0
  0
ENDSEC
  0
SECTION
  2
TABLES
  0
TABLE
  2
VPORT
  5
8
330
0
100
AcDbSymbolTable
 70
     1
  0
VPORT
  5
29
330
8
100
AcDbSymbolTableRecord
100
AcDbViewportTableRecord
  2
*Active
 70
     0
 10
0.0
 20
0.0
 11
1.0
 21
1.0
 12
0.4930456766194453
 22
0.0
 13
0.0
 23
0.0
 14
0.5
 24
0.5
 15
0.5
 25
0.5
 16
0.0
 26
0.0
 36
1.0
 17
0.0
 27
0.0
 37
0.0
 40
4.845
 41
1.304612346686549
 42
50.0
 43
0.0
 44
0.0
 50
0.0
 51
0.0
 71
     0
 72
   100
 73
     1
 74
     3
 75
     0
 76
     0
 77
     0
 78
     0
281
     0
 65
     1
110
0.0
120
0.0
130
0.0
111
1.0
121
0.0
131
0.0
112
0.0
122
1.0
132
0.0
 79
     0
146
0.0
348
2F
 60
     3
 61
     5
292
     1
282
     1
141
0.0
142
0.0
 63
   250
361
6D
  0
ENDTAB
  0
TABLE
  2
LTYPE
  5
5
330
0
100
AcDbSymbolTable
 70
     3
  0
LTYPE
  5
14
330
5
100
AcDbSymbolTableRecord
100
AcDbLinetypeTableRecord
  2
ByBlock
 70
     0
  3

 72
    65
 73
     0
 40
0.0
  0
LTYPE
  5
15
330
5
100
AcDbSymbolTableRecord
100
AcDbLinetypeTableRecord
  2
ByLayer
 70
     0
  3

 72
    65
 73
     0
 40
0.0
  0
LTYPE
  5
16
330
5
100
AcDbSymbolTableRecord
100
AcDbLinetypeTableRecord
  2
Continuous
 70
     0
  3
Solid line
 72
    65
 73
     0
 40
0.0
  0
LTYPE
  5
A6
330
5
100
AcDbSymbolTableRecord
100
AcDbLinetypeTableRecord
  2
Dashed
 70
     0
  3

 72
    65
 73
     2
 40
2.0
 49
1.0
 74
     0
 49
-1.0
 74
     0
  0
LTYPE
  5
C0
330
5
100
AcDbSymbolTableRecord
100
AcDbLinetypeTableRecord
  2
Center
 70
     0
  3

 72
    65
 73
     4
 40
1.5
 49
0.45
 74
     0
 49
-0.5
 74
     0
 49
0.05
 74
     0
 49
-0.5
 74
     0
  0
ENDTAB
  0
TABLE
  2
LAYER
  5
2
330
0
100
AcDbSymbolTable
 70
     7
  0
LAYER
  5
10
330
2
100
AcDbSymbolTableRecord
100
AcDbLayerTableRecord
  2
0
 70
     0
 62
     7
  6
Continuous
370
    -3
390
F
347
46
348
0
  0
LAYER
  5
72
330
2
100
AcDbSymbolTableRecord
100
AcDbLayerTableRecord
  2
AM_6
 70
     0
 62
    -2
  6
Continuous
370
    35
390
F
347
46
348
0
  0
LAYER
  5
A7
330
2
100
AcDbSymbolTableRecord
100
AcDbLayerTableRecord
  2
AM_9
 70
     0
 62
     6
  6
Dashed
370
    25
390
F
347
46
348
0
  0
LAYER
  5
BB
330
2
100
AcDbSymbolTableRecord
100
AcDbLayerTableRecord
  2
AM_5
 70
     0
 62
     3
  6
Continuous
370
    25
390
F
347
46
348
0
  0
LAYER
  5
C1
330
2
100
AcDbSymbolTableRecord
100
AcDbLayerTableRecord
  2
AM_7
 70
     0
 62
     7
  6
Center
370
    25
390
F
347
46
348
0
  0
LAYER
  5
C3
330
2
100
AcDbSymbolTableRecord
100
AcDbLayerTableRecord
  2
AM_4
 70
     0
 62
     7
  6
Continuous
370
    50
390
F
347
46
348
0
  0
LAYER
  5
19D
330
2
100
AcDbSymbolTableRecord
100
AcDbLayerTableRecord
  2
ConnectionPoints
 70
     0
 62
     7
  6
Continuous
370
    50
390
F
347
46
348
0
  0
ENDTAB
  0
TABLE
  2
STYLE
  5
3
330
0
100
AcDbSymbolTable
 70
     1
  0
STYLE
  5
11
330
3
100
AcDbSymbolTableRecord
100
AcDbTextStyleTableRecord
  2
Standard
 70
     0
 40
0.0
 41
1.0
 50
0.0
 71
     0
 42
0.2
  3
txt
  4

  0
ENDTAB
  0
TABLE
  2
VIEW
  5
6
330
0
100
AcDbSymbolTable
 70
     0
  0
ENDTAB
  0
TABLE
  2
UCS
  5
7
330
0
100
AcDbSymbolTable
 70
     0
  0
ENDTAB
  0
TABLE
  2
APPID
  5
9
330
0
100
AcDbSymbolTable
 70
     1
  0
APPID
  5
12
330
9
100
AcDbSymbolTableRecord
100
AcDbRegAppTableRecord
  2
ACAD
 70
     0
  0
ENDTAB
  0
TABLE
  2
DIMSTYLE
  5
A
330
0
100
AcDbSymbolTable
 70
     1
100
AcDbDimStyleTable
  0
DIMSTYLE
105
27
330
A
100
AcDbSymbolTableRecord
100
AcDbDimStyleTableRecord
  2
Standard
 70
     0
178
     0
340
11
  0
ENDTAB
  0
TABLE
  2
BLOCK_RECORD
  5
1
330
0
100
AcDbSymbolTable
 70
     5
  0
BLOCK_RECORD
  5
1F
330
1
100
AcDbSymbolTableRecord
100
AcDbBlockTableRecord
  2
*Model_Space
340
22
 70
     0
280
     1
281
     0
  0
BLOCK_RECORD
  5
1B
330
1
100
AcDbSymbolTableRecord
100
AcDbBlockTableRecord
  2
*Paper_Space
340
1E
 70
     0
280
     1
281
     0
  0
BLOCK_RECORD
  5
23
330
1
100
AcDbSymbolTableRecord
100
AcDbBlockTableRecord
  2
*Paper_Space0
340
26
 70
     0
280
     1
281
     0
  0
BLOCK_RECORD
  5
6E
330
1
100
AcDbSymbolTableRecord
100
AcDbBlockTableRecord
  2
1_076102_0
340
0
102
{BLKREFS
331
6F
102
}
 70
     0
280
     1
281
     0
  0
BLOCK_RECORD
  5
8F
330
1
100
AcDbSymbolTableRecord
100
AcDbBlockTableRecord
  2
2_076119_0_in_076102_0
340
0
102
{BLKREFS
331
90
102
}
 70
     0
280
     1
281
     0
  0
BLOCK_RECORD
  5
CC
330
1
100
AcDbSymbolTableRecord
100
AcDbBlockTableRecord
  2
3_405016_Inch_0_in_076102_0
340
0
102
{BLKREFS
331
CD
102
}
 70
     0
280
     1
281
     0
  0
BLOCK_RECORD
  5
143
330
1
100
AcDbSymbolTableRecord
100
AcDbBlockTableRecord
  2
4_076102h_0_in_076102_0
340
0
102
{BLKREFS
331
144
102
}
 70
     0
280
     1
281
     0
  0
ENDTAB
  0
ENDSEC
  0
SECTION
  2
BLOCKS
  0
BLOCK
  5
20
330
1F
100
AcDbEntity
  8
0
100
AcDbBlockBegin
  2
*Model_Space
 70
     0
 10
0.0
 20
0.0
 30
0.0
  3
*Model_Space
  1

  0
ENDBLK
  5
21
330
1F
100
AcDbEntity
  8
0
100
AcDbBlockEnd
  0
BLOCK
  5
1C
330
1B
100
AcDbEntity
 67
     1
  8
0
100
AcDbBlockBegin
  2
*Paper_Space
 70
     0
 10
0.0
 20
0.0
 30
0.0
  3
*Paper_Space
  1

  0
ENDBLK
  5
1D
330
1B
100
AcDbEntity
 67
     1
  8
0
100
AcDbBlockEnd
  0
BLOCK
  5
24
330
23
100
AcDbEntity
  8
0
100
AcDbBlockBegin
  2
*Paper_Space0
 70
     0
 10
0.0
 20
0.0
 30
0.0
  3
*Paper_Space0
  1

  0
ENDBLK
  5
25
330
23
100
AcDbEntity
  8
0
100
AcDbBlockEnd
  0
BLOCK
  5
70
330
6E
100
AcDbEntity
  8
0
100
AcDbBlockBegin
  2
1_076102_0
 70
     2
 10
0.0
 20
0.0
 30
0.0
  3
1_076102_0
  1

  0
ATTDEF
  5
73
330
6E
100
AcDbEntity
  8
AM_6
100
AcDbText
 10
8.5915
 20
2.375
 30
0.0
 40
0.5
  1
Set Screw Extreme Duty Wide Slot Take Up Inch Bore
100
AcDbAttributeDefinition
  3

  2
NN
 70
     8
280
     0
  0
ATTDEF
  5
74
330
6E
100
AcDbEntity
  8
AM_6
100
AcDbText
 10
8.5915
 20
1.875
 30
0.0
 40
0.5
  1
SCED Take-Up Bearings -Wide Slot -(Normal Duty)
100
AcDbAttributeDefinition
  3

  2
NT
 70
     8
280
     0
  0
ATTDEF
  5
75
330
6E
100
AcDbEntity
  8
AM_6
100
AcDbText
 10
8.5915
 20
1.375
 30
0.0
 40
0.5
  1
076102
100
AcDbAttributeDefinition
  3

  2
NB
 70
     8
280
     0
  0
ATTDEF
  5
76
330
6E
100
AcDbEntity
  8
AM_6
100
AcDbText
 10
8.5915
 20
0.875
 30
0.0
 40
0.5
  1
$PN.
100
AcDbAttributeDefinition
  3

  2
NBSYN
 70
     8
280
     0
  0
ATTDEF
  5
77
330
6E
100
AcDbEntity
  8
AM_6
100
AcDbText
 10
8.5915
 20
0.375
 30
0.0
 40
0.5
  1
076102
100
AcDbAttributeDefinition
  3

  2
LINA
 70
     8
280
     0
  0
ATTDEF
  5
78
330
6E
100
AcDbEntity
  8
AM_6
100
AcDbText
 10
8.5915
 20
-0.125
 30
0.0
 40
0.5
  1
210
100
AcDbAttributeDefinition
  3

  2
SERIES
 70
     8
280
     0
  0
ATTDEF
  5
79
330
6E
100
AcDbEntity
  8
AM_6
100
AcDbText
 10
8.5915
 20
-0.625
 30
0.0
 40
0.5
  1
1-15/16
100
AcDbAttributeDefinition
  3

  2
SS
 70
     8
280
     0
  0
ATTDEF
  5
7A
330
6E
100
AcDbEntity
  8
AM_6
100
AcDbText
 10
8.5915
 20
-1.125
 30
0.0
 40
0.5
  1
076102
100
AcDbAttributeDefinition
  3

  2
PN
 70
     8
280
     0
  0
ATTDEF
  5
7B
330
6E
100
AcDbEntity
  8
AM_6
100
AcDbText
 10
8.5915
 20
-1.625
 30
0.0
 40
0.5
  1
WSTU-SCED-115
100
AcDbAttributeDefinition
  3

  2
DESCRIPTION
 70
     8
280
     0
  0
ATTDEF
  5
7C
330
6E
100
AcDbEntity
  8
AM_6
100
AcDbText
 10
8.5915
 20
-2.125
 30
0.0
 40
0.5
  1
6.4
100
AcDbAttributeDefinition
  3

  2
W
 70
     8
280
     0
  0
ATTDEF
  5
7D
330
6E
100
AcDbEntity
  8
AM_6
100
AcDbText
 10
8.5915
 20
-2.625
 30
0.0
 40
0.5
  1
WS400
100
AcDbAttributeDefinition
  3

  2
FS
 70
     8
280
     0
  0
ATTDEF
  5
7E
330
6E
100
AcDbEntity
  8
AM_6
100
AcDbText
 10
8.5915
 20
-3.125
 30
0.0
 40
0.5
  1
1.94
100
AcDbAttributeDefinition
  3

  2
A
 70
     8
280
     0
  0
ATTDEF
  5
7F
330
6E
100
AcDbEntity
  8
AM_6
100
AcDbText
 10
8.5915
 20
-3.625
 30
0.0
 40
0.5
  1
5.82
100
AcDbAttributeDefinition
  3

  2
B
 70
     8
280
     0
  0
ATTDEF
  5
80
330
6E
100
AcDbEntity
  8
AM_6
100
AcDbText
 10
8.5915
 20
-4.125
 30
0.0
 40
0.5
  1
0.688
100
AcDbAttributeDefinition
  3

  2
C
 70
     8
280
     0
  0
ATTDEF
  5
81
330
6E
100
AcDbEntity
  8
AM_6
100
AcDbText
 10
8.5915
 20
-4.625
 30
0.0
 40
0.5
  1
3.38
100
AcDbAttributeDefinition
  3

  2
D
 70
     8
280
     0
  0
ATTDEF
  5
82
330
6E
100
AcDbEntity
  8
AM_6
100
AcDbText
 10
8.5915
 20
-5.125
 30
0.0
 40
0.5
  1
3.56
100
AcDbAttributeDefinition
  3

  2
E
 70
     8
280
     0
  0
ATTDEF
  5
83
330
6E
100
AcDbEntity
  8
AM_6
100
AcDbText
 10
8.5915
 20
-5.625
 30
0.0
 40
0.5
  1
1
100
AcDbAttributeDefinition
  3

  2
F
 70
     8
280
     0
  0
ATTDEF
  5
84
330
6E
100
AcDbEntity
  8
AM_6
100
AcDbText
 10
8.5915
 20
-6.125
 30
0.0
 40
0.5
  1
0.63
100
AcDbAttributeDefinition
  3

  2
G
 70
     8
280
     0
  0
ATTDEF
  5
85
330
6E
100
AcDbEntity
  8
AM_6
100
AcDbText
 10
8.5915
 20
-6.625
 30
0.0
 40
0.5
  1
0.75
100
AcDbAttributeDefinition
  3

  2
H
 70
     8
280
     0
  0
ATTDEF
  5
86
330
6E
100
AcDbEntity
  8
AM_6
100
AcDbText
 10
8.5915
 20
-7.125
 30
0.0
 40
0.5
  1
3.25
100
AcDbAttributeDefinition
  3

  2
J
 70
     8
280
     0
  0
ATTDEF
  5
87
330
6E
100
AcDbEntity
  8
AM_6
100
AcDbText
 10
8.5915
 20
-7.625
 30
0.0
 40
0.5
  1
1.94
100
AcDbAttributeDefinition
  3

  2
K
 70
     8
280
     0
  0
ATTDEF
  5
88
330
6E
100
AcDbEntity
  8
AM_6
100
AcDbText
 10
8.5915
 20
-8.125
 30
0.0
 40
0.5
  1
2.43
100
AcDbAttributeDefinition
  3

  2
L
 70
     8
280
     0
  0
ATTDEF
  5
89
330
6E
100
AcDbEntity
  8
AM_6
100
AcDbText
 10
8.5915
 20
-8.625
 30
0.0
 40
0.5
  1
3.985 / 4.015
100
AcDbAttributeDefinition
  3

  2
M
 70
     8
280
     0
  0
ATTDEF
  5
8A
330
6E
100
AcDbEntity
  8
AM_6
100
AcDbText
 10
8.5915
 20
-9.125
 30
0.0
 40
0.5
  1
4.75
100
AcDbAttributeDefinition
  3

  2
N
 70
     8
280
     0
  0
ATTDEF
  5
8B
330
6E
100
AcDbEntity
  8
AM_6
100
AcDbText
 10
8.5915
 20
-9.625
 30
0.0
 40
0.5
  1
0.75
100
AcDbAttributeDefinition
  3

  2
R
 70
     8
280
     0
  0
ATTDEF
  5
8C
330
6E
100
AcDbEntity
  8
AM_6
100
AcDbText
 10
8.5915
 20
-10.125
 30
0.0
 40
0.5
  1
1.19
100
AcDbAttributeDefinition
  3

  2
S
 70
     8
280
     0
  0
ATTDEF
  5
8D
330
6E
100
AcDbEntity
  8
AM_6
100
AcDbText
 10
8.5915
 20
-10.625
 30
0.0
 40
0.5
  1
1.94
100
AcDbAttributeDefinition
  3

  2
T
 70
     8
280
     0
  0
ATTDEF
  5
8E
330
6E
100
AcDbEntity
  8
AM_6
100
AcDbText
 10
8.5915
 20
-11.125
 30
0.0
 40
0.5
  1
baldor
100
AcDbAttributeDefinition
  3

  2
COMPANY
 70
     8
280
     0
  0
INSERT
  5
90
330
6E
100
AcDbEntity
  8
0
100
AcDbBlockReference
  2
2_076119_0_in_076102_0
 10
0.0
 20
0.0
 30
0.0
  0
INSERT
  5
CD
330
6E
100
AcDbEntity
  8
0
100
AcDbBlockReference
  2
3_405016_Inch_0_in_076102_0
 10
0.0
 20
0.0
 30
0.0
  0
INSERT
  5
144
330
6E
100
AcDbEntity
  8
0
100
AcDbBlockReference
  2
4_076102h_0_in_076102_0
 10
0.0
 20
0.0
 30
0.0
  0
ENDBLK
  5
71
330
6E
100
AcDbEntity
  8
0
100
AcDbBlockEnd
  0
BLOCK
  5
91
330
8F
100
AcDbEntity
  8
0
100
AcDbBlockBegin
  2
2_076119_0_in_076102_0
 70
     2
 10
0.0
 20
0.0
 30
0.0
  3
2_076119_0_in_076102_0
  1

  0
ATTDEF
  5
93
330
8F
100
AcDbEntity
  8
AM_6
100
AcDbText
 10
6.760324891177762
 20
1.760324891177762
 30
0.0
 40
0.5
  1
Set Screw Extreme Duty Insert Inch Bore
100
AcDbAttributeDefinition
  3

  2
NN
 70
     8
280
     0
  0
ATTDEF
  5
94
330
8F
100
AcDbEntity
  8
AM_6
100
AcDbText
 10
6.760324891177762
 20
1.260324891177762
 30
0.0
 40
0.5
  1
SC Medium Duty Bearing Inserts
100
AcDbAttributeDefinition
  3

  2
NT
 70
     8
280
     0
  0
ATTDEF
  5
95
330
8F
100
AcDbEntity
  8
AM_6
100
AcDbText
 10
6.760324891177762
 20
0.7603248911777618
 30
0.0
 40
0.5
  1
076119
100
AcDbAttributeDefinition
  3

  2
NB
 70
     8
280
     0
  0
ATTDEF
  5
96
330
8F
100
AcDbEntity
  8
AM_6
100
AcDbText
 10
6.760324891177762
 20
0.2603248911777618
 30
0.0
 40
0.5
  1
$PN.
100
AcDbAttributeDefinition
  3

  2
NBSYN
 70
     8
280
     0
  0
ATTDEF
  5
97
330
8F
100
AcDbEntity
  8
AM_6
100
AcDbText
 10
6.760324891177762
 20
-0.2396751088222382
 30
0.0
 40
0.5
  1
076119
100
AcDbAttributeDefinition
  3

  2
LINA
 70
     8
280
     0
  0
ATTDEF
  5
98
330
8F
100
AcDbEntity
  8
AM_6
100
AcDbText
 10
6.760324891177762
 20
-0.7396751088222382
 30
0.0
 40
0.5
  1
210
100
AcDbAttributeDefinition
  3

  2
SERIES
 70
     8
280
     0
  0
ATTDEF
  5
99
330
8F
100
AcDbEntity
  8
AM_6
100
AcDbText
 10
6.760324891177762
 20
-1.239675108822238
 30
0.0
 40
0.5
  1
1-15/16
100
AcDbAttributeDefinition
  3

  2
SS
 70
     8
280
     0
  0
ATTDEF
  5
9A
330
8F
100
AcDbEntity
  8
AM_6
100
AcDbText
 10
6.760324891177762
 20
-1.739675108822238
 30
0.0
 40
0.5
  1
076119
100
AcDbAttributeDefinition
  3

  2
PN
 70
     8
280
     0
  0
ATTDEF
  5
9B
330
8F
100
AcDbEntity
  8
AM_6
100
AcDbText
 10
6.760324891177762
 20
-2.239675108822238
 30
0.0
 40
0.5
  1
INS-SCED-115
100
AcDbAttributeDefinition
  3

  2
DESCRIPTION
 70
     8
280
     0
  0
ATTDEF
  5
9C
330
8F
100
AcDbEntity
  8
AM_6
100
AcDbText
 10
6.760324891177762
 20
-2.739675108822238
 30
0.0
 40
0.5
  1
1.48
100
AcDbAttributeDefinition
  3

  2
WEIGHT
 70
     8
280
     0
  0
ATTDEF
  5
9D
330
8F
100
AcDbEntity
  8
AM_6
100
AcDbText
 10
6.760324891177762
 20
-3.239675108822238
 30
0.0
 40
0.5
  1
1.94
100
AcDbAttributeDefinition
  3

  2
A
 70
     8
280
     0
  0
ATTDEF
  5
9E
330
8F
100
AcDbEntity
  8
AM_6
100
AcDbText
 10
6.760324891177762
 20
-3.739675108822238
 30
0.0
 40
0.5
  1
0.87
100
AcDbAttributeDefinition
  3

  2
C
 70
     8
280
     0
  0
ATTDEF
  5
9F
330
8F
100
AcDbEntity
  8
AM_6
100
AcDbText
 10
6.760324891177762
 20
-4.239675108822238
 30
0.0
 40
0.5
  1
3.5433
100
AcDbAttributeDefinition
  3

  2
D
 70
     8
280
     0
  0
ATTDEF
  5
A0
330
8F
100
AcDbEntity
  8
AM_6
100
AcDbText
 10
6.760324891177762
 20
-4.739675108822238
 30
0.0
 40
0.5
  1
0.25
100
AcDbAttributeDefinition
  3

  2
J
 70
     8
280
     0
  0
ATTDEF
  5
A1
330
8F
100
AcDbEntity
  8
AM_6
100
AcDbText
 10
6.760324891177762
 20
-5.239675108822238
 30
0.0
 40
0.5
  1
2.43
100
AcDbAttributeDefinition
  3

  2
L
 70
     8
280
     0
  0
ATTDEF
  5
A2
330
8F
100
AcDbEntity
  8
AM_6
100
AcDbText
 10
6.760324891177762
 20
-5.739675108822238
 30
0.0
 40
0.5
  1
3/8 - 24
100
AcDbAttributeDefinition
  3

  2
N
 70
     8
280
     0
  0
ATTDEF
  5
A3
330
8F
100
AcDbEntity
  8
AM_6
100
AcDbText
 10
6.760324891177762
 20
-6.239675108822238
 30
0.0
 40
0.5
  1
0.75
100
AcDbAttributeDefinition
  3

  2
W
 70
     8
280
     0
  0
ATTDEF
  5
A4
330
8F
100
AcDbEntity
  8
AM_6
100
AcDbText
 10
6.760324891177762
 20
-6.739675108822238
 30
0.0
 40
0.5
  1
1.19
100
AcDbAttributeDefinition
  3

  2
Y
 70
     8
280
     0
  0
ATTDEF
  5
A5
330
8F
100
AcDbEntity
  8
AM_6
100
AcDbText
 10
6.760324891177762
 20
-7.239675108822238
 30
0.0
 40
0.5
  1
baldor
100
AcDbAttributeDefinition
  3

  2
COMPANY
 70
     8
280
     0
  0
CIRCLE
  5
A8
330
8F
100
AcDbEntity
  8
AM_9
100
AcDbCircle
 10
0.0
 20
0.0
 30
0.0
 40
1.688316666666667
  0
LINE
  5
A9
330
8F
100
AcDbEntity
  8
AM_9
100
AcDbLine
 10
0.9336667358865233
 20
0.2592415057173368
 30
0.0
 11
0.9365601751449774
 21
0.2671911647445028
 31
0.0
  0
LINE
  5
AA
330
8F
100
AcDbEntity
  8
AM_9
100
AcDbLine
 10
0.8066895833120603
 20
0.5456995477008655
 30
0.0
 11
0.7986306474274065
 21
0.5486327604827392
 31
0.0
  0
LINE
  5
AB
330
8F
100
AcDbEntity
  8
AM_9
100
AcDbLine
 10
-0.15365
 20
0.9617316453590965
 30
0.0
 11
-0.1597167147165287
 21
0.9556649306425679
 31
0.0
  0
LINE
  5
AC
330
8F
100
AcDbEntity
  8
AM_9
100
AcDbLine
 10
0.1597167147165286
 20
0.9556649306425679
 30
0.0
 11
0.15365
 21
0.9617316453590965
 31
0.0
  0
LINE
  5
AD
330
8F
100
AcDbEntity
  8
AM_9
100
AcDbLine
 10
0.1163993333953659
 20
0.9617316453590965
 30
0.0
 11
0.15365
 21
0.9617316453590965
 31
0.0
  0
LINE
  5
AE
330
8F
100
AcDbEntity
  8
AM_9
100
AcDbLine
 10
0.15365
 20
0.9617316453590965
 30
0.0
 11
0.15365
 21
1.189145229904304
 31
0.0
  0
LINE
  5
AF
330
8F
100
AcDbEntity
  8
AM_9
100
AcDbLine
 10
-0.15365
 20
1.189145229904304
 30
0.0
 11
-0.15365
 21
0.9617316453590965
 31
0.0
  0
LINE
  5
B0
330
8F
100
AcDbEntity
  8
AM_9
100
AcDbLine
 10
-0.15365
 20
0.9617316453590965
 30
0.0
 11
-0.1163993333953659
 21
0.9617316453590965
 31
0.0
  0
LINE
  5
B1
330
8F
100
AcDbEntity
  8
AM_9
100
AcDbLine
 10
0.9208173631758448
 20
0.3009517339605881
 30
0.0
 11
0.9365601751449774
 21
0.2671911647445028
 31
0.0
  0
LINE
  5
B2
330
8F
100
AcDbEntity
  8
AM_9
100
AcDbLine
 10
0.9365601751449774
 20
0.2671911647445028
 30
0.0
 11
1.142666877696217
 21
0.3633002985412201
 31
0.0
  0
LINE
  5
B3
330
8F
100
AcDbEntity
  8
AM_9
100
AcDbLine
 10
1.0127962858633
 20
0.6418086814975827
 30
0.0
 11
0.8066895833120603
 21
0.5456995477008655
 31
0.0
  0
LINE
  5
B4
330
8F
100
AcDbEntity
  8
AM_9
100
AcDbLine
 10
0.8066895833120603
 20
0.5456995477008655
 30
0.0
 11
0.8224323952811928
 21
0.51193897848478
 31
0.0
  0
LINE
  5
B5
330
8F
100
AcDbEntity
  8
AM_9
100
AcDbLine
 10
1.0127962858633
 20
0.6418086814975827
 30
0.0
 11
1.142666877696217
 21
0.3633002985412203
 31
0.0
  0
LINE
  5
B6
330
8F
100
AcDbEntity
  8
AM_9
100
AcDbLine
 10
1.142666877696217
 20
0.3633002985412203
 30
0.0
 11
1.161194338212485
 21
0.3565568543967564
 31
0.0
  0
LINE
  5
B7
330
8F
100
AcDbEntity
  8
AM_9
100
AcDbLine
 10
1.019641620643997
 20
0.6606160842361545
 30
0.0
 11
1.0127962858633
 21
0.6418086814975827
 31
0.0
  0
LINE
  5
B8
330
8F
100
AcDbEntity
  8
AM_9
100
AcDbLine
 10
-0.15365
 20
1.189145229904304
 30
0.0
 11
0.15365
 21
1.189145229904304
 31
0.0
  0
LINE
  5
B9
330
8F
100
AcDbEntity
  8
AM_9
100
AcDbLine
 10
0.15365
 20
1.189145229904304
 30
0.0
 11
0.1676416881170537
 21
1.203136918021358
 31
0.0
  0
LINE
  5
BA
330
8F
100
AcDbEntity
  8
AM_9
100
AcDbLine
 10
-0.1675843714459418
 20
1.203079601350246
 30
0.0
 11
-0.15365
 21
1.189145229904304
 31
0.0
  0
LINE
  5
BC
330
8F
100
AcDbEntity
  8
AM_5
100
AcDbLine
 10
-0.1875
 20
0.9504316453590971
 30
0.0
 11
-0.1875
 21
1.200445229904305
 31
0.0
  0
LINE
  5
BD
330
8F
100
AcDbEntity
  8
AM_5
100
AcDbLine
 10
0.1875
 20
0.9504316453590971
 30
0.0
 11
0.1875
 21
1.200445229904305
 31
0.0
  0
LINE
  5
BE
330
8F
100
AcDbEntity
  8
AM_5
100
AcDbLine
 10
0.7821426771586241
 20
0.5716024799343863
 30
0.0
 11
1.008731935696892
 21
0.6772627864464437
 31
0.0
  0
LINE
  5
BF
330
8F
100
AcDbEntity
  8
AM_5
100
AcDbLine
 10
0.9406245253113866
 20
0.2317370597956428
 30
0.0
 11
1.167213783849655
 21
0.3373973663077001
 31
0.0
  0
LINE
  5
C2
330
8F
100
AcDbEntity
  8
AM_7
100
AcDbLine
 10
0.7559763691116124
 20
0.3525175703009549
 30
0.0
 11
1.193380091896665
 21
0.5564822759411312
 31
0.0
  0
CIRCLE
  5
C4
330
8F
100
AcDbEntity
  8
AM_4
100
AcDbCircle
 10
0.0
 20
0.0
 30
0.0
 40
1.760324891177762
  0
CIRCLE
  5
C5
330
8F
100
AcDbEntity
  8
AM_4
100
AcDbCircle
 10
0.0
 20
0.0
 30
0.0
 40
1.746065211411074
  0
CIRCLE
  5
C6
330
8F
100
AcDbEntity
  8
AM_4
100
AcDbCircle
 10
0.0
 20
0.0
 30
0.0
 40
1.726784366253863
  0
CIRCLE
  5
C7
330
8F
100
AcDbEntity
  8
AM_4
100
AcDbCircle
 10
0.0
 20
0.0
 30
0.0
 40
1.678050572092514
  0
CIRCLE
  5
C8
330
8F
100
AcDbEntity
  8
AM_4
100
AcDbCircle
 10
0.0
 20
0.0
 30
0.0
 40
1.215
  0
CIRCLE
  5
C9
330
8F
100
AcDbEntity
  8
AM_4
100
AcDbCircle
 10
0.0
 20
0.0
 30
0.0
 40
0.9687500000000001
  0
CIRCLE
  5
CA
330
8F
100
AcDbEntity
  8
AM_4
100
AcDbCircle
 10
0.0
 20
0.0
 30
0.0
 40
1.01735
  0
CIRCLE
  5
CB
330
8F
100
AcDbEntity
  8
AM_4
100
AcDbCircle
 10
0.0
 20
0.0
 30
0.0
 40
1.1664
  0
ENDBLK
  5
92
330
8F
100
AcDbEntity
  8
0
100
AcDbBlockEnd
  0
BLOCK
  5
CE
330
CC
100
AcDbEntity
  8
0
100
AcDbBlockBegin
  2
3_405016_Inch_0_in_076102_0
 70
     2
 10
0.0
 20
0.0
 30
0.0
  3
3_405016_Inch_0_in_076102_0
  1

  0
ATTDEF
  5
D0
330
CC
100
AcDbEntity
  8
AM_6
100
AcDbText
 10
3.226454967085182
 20
-0.9219256983551585
 30
0.0
 40
0.5
  1
405016 -Inch
100
AcDbAttributeDefinition
  3

  2
NN
 70
     8
280
     0
  0
ATTDEF
  5
D1
330
CC
100
AcDbEntity
  8
AM_6
100
AcDbText
 10
3.226454967085182
 20
-1.421925698355158
 30
0.0
 40
0.5
  1
Grease Fitting
100
AcDbAttributeDefinition
  3

  2
NT
 70
     8
280
     0
  0
ATTDEF
  5
D2
330
CC
100
AcDbEntity
  8
AM_6
100
AcDbText
 10
3.226454967085182
 20
-1.921925698355158
 30
0.0
 40
0.5
  1
405016-Inch
100
AcDbAttributeDefinition
  3

  2
NB
 70
     8
280
     0
  0
ATTDEF
  5
D3
330
CC
100
AcDbEntity
  8
AM_6
100
AcDbText
 10
3.226454967085182
 20
-2.421925698355158
 30
0.0
 40
0.5
  1
$MN.-Inch
100
AcDbAttributeDefinition
  3

  2
NBSYN
 70
     8
280
     0
  0
ATTDEF
  5
D4
330
CC
100
AcDbEntity
  8
AM_6
100
AcDbText
 10
3.226454967085182
 20
-2.921925698355158
 30
0.0
 40
0.5
  1
405016
100
AcDbAttributeDefinition
  3

  2
LINA
 70
     8
280
     0
  0
ATTDEF
  5
D5
330
CC
100
AcDbEntity
  8
AM_6
100
AcDbText
 10
3.226454967085182
 20
-3.421925698355158
 30
0.0
 40
0.5
  1
405016
100
AcDbAttributeDefinition
  3

  2
MN
 70
     8
280
     0
  0
ATTDEF
  5
D6
330
CC
100
AcDbEntity
  8
AM_6
100
AcDbText
 10
3.226454967085182
 20
-3.921925698355158
 30
0.0
 40
0.5
  1
7/16 HEX
100
AcDbAttributeDefinition
  3

  2
H
 70
     8
280
     0
  0
ATTDEF
  5
D7
330
CC
100
AcDbEntity
  8
AM_6
100
AcDbText
 10
3.226454967085182
 20
-4.421925698355158
 30
0.0
 40
0.5
  1
0.383
100
AcDbAttributeDefinition
  3

  2
NDR
 70
     8
280
     0
  0
ATTDEF
  5
D8
330
CC
100
AcDbEntity
  8
AM_6
100
AcDbText
 10
3.226454967085182
 20
-4.921925698355158
 30
0.0
 40
0.5
  1
0.337
100
AcDbAttributeDefinition
  3

  2
KDR
 70
     8
280
     0
  0
ATTDEF
  5
D9
330
CC
100
AcDbEntity
  8
AM_6
100
AcDbText
 10
3.226454967085182
 20
-5.421925698355158
 30
0.0
 40
0.5
  1
0.1575
100
AcDbAttributeDefinition
  3

  2
BZE
 70
     8
280
     0
  0
ATTDEF
  5
DA
330
CC
100
AcDbEntity
  8
AM_6
100
AcDbText
 10
3.226454967085182
 20
-5.921925698355158
 30
0.0
 40
0.5
  1
0.4375
100
AcDbAttributeDefinition
  3

  2
HEX
 70
     8
280
     0
  0
ATTDEF
  5
DB
330
CC
100
AcDbEntity
  8
AM_6
100
AcDbText
 10
3.226454967085182
 20
-6.421925698355158
 30
0.0
 40
0.5
  1
0.281250
100
AcDbAttributeDefinition
  3

  2
HEX2
 70
     8
280
     0
  0
ATTDEF
  5
DC
330
CC
100
AcDbEntity
  8
AM_6
100
AcDbText
 10
3.226454967085182
 20
-6.921925698355158
 30
0.0
 40
0.5
  1
baldor
100
AcDbAttributeDefinition
  3

  2
COMPANY
 70
     8
280
     0
  0
LINE
  5
DD
330
CC
100
AcDbEntity
  8
AM_9
100
AcDbLine
 10
-1.773545032914818
 20
-1.21062989348012
 30
0.0
 11
-1.935208758792041
 21
-0.9306201065198805
 31
0.0
  0
LINE
  5
DE
330
CC
100
AcDbEntity
  8
AM_9
100
AcDbLine
 10
-1.935208758792041
 20
-0.9306201065198805
 30
0.0
 11
-1.967656731804525
 21
-0.9219256983551585
 31
0.0
  0
LINE
  5
DF
330
CC
100
AcDbEntity
  8
AM_9
100
AcDbLine
 10
-1.78223944107954
 20
-1.243077866492603
 30
0.0
 11
-1.773545032914818
 21
-1.21062989348012
 31
0.0
  0
ARC
  5
E0
330
CC
100
AcDbEntity
  8
AM_9
100
AcDbCircle
 10
-2.325278209161219
 20
-1.3425
 30
0.0
 40
0.1999999999999996
100
AcDbArc
 50
166.0493241738566
 51
253.7103587423933
  0
LINE
  5
E1
330
CC
100
AcDbEntity
  8
AM_9
100
AcDbLine
 10
-1.78223944107954
 20
-1.243077866492603
 30
0.0
 11
-1.967656731804525
 21
-0.9219256983551585
 31
0.0
  0
LINE
  5
E2
330
CC
100
AcDbEntity
  8
AM_9
100
AcDbLine
 10
-1.967656731804525
 20
-0.9219256983551585
 30
0.0
 11
-2.13957556985639
 21
-1.014146406375599
 31
0.0
  0
LINE
  5
E3
330
CC
100
AcDbEntity
  8
AM_9
100
AcDbLine
 10
-1.948064336006161
 20
-1.345853593624401
 30
0.0
 11
-1.78223944107954
 21
-1.243077866492603
 31
0.0
  0
LINE
  5
E4
330
CC
100
AcDbEntity
  8
AM_9
100
AcDbLine
 10
-2.470687850745358
 20
-1.52020229571137
 30
0.0
 11
-2.482009423969235
 21
-1.526738809059826
 31
0.0
  0
LINE
  5
E5
330
CC
100
AcDbEntity
  8
AM_9
100
AcDbLine
 10
-2.55187773235015
 20
-1.37957729571137
 30
0.0
 11
-2.563199305574027
 21
-1.386113809059826
 31
0.0
  0
LWPOLYLINE
  5
E6
330
CC
100
AcDbEntity
  8
AM_9
100
AcDbPolyline
 90
        4
 70
     0
 43
0.0
 10
-2.55187773235015
 20
-1.37957729571137
 10
-2.519207277707488
 20
-1.428367212109331
 10
-2.489234696529055
 20
-1.481595324422914
 10
-2.470687850745358
 20
-1.52020229571137
  0
LINE
  5
E7
330
CC
100
AcDbEntity
  8
AM_9
100
AcDbLine
 10
-2.270569152314074
 20
-1.437258866093428
 30
0.0
 11
-2.38042538837101
 21
-1.246982283714534
 31
0.0
  0
ELLIPSE
  5
E8
330
CC
100
AcDbEntity
  8
AM_9
100
AcDbEllipse
 10
-2.395894344656515
 20
-1.383270244837341
 30
0.0
 11
-0.07031250000000001
 21
0.1217848224071869
 31
0.0
210
0.0
220
0.0
230
1.0
 40
0.906307787036649
 41
5.859216366485144
 42
9.848746901463828
  0
LWPOLYLINE
  5
E9
330
CC
100
AcDbEntity
  8
AM_9
100
AcDbPolyline
 90
        4
 70
     0
 43
0.0
 10
-2.470687850745358
 20
-1.52020229571137
 10
-2.412609474531703
 20
-1.520585121917566
 10
-2.356132262371204
 20
-1.523363121169831
 10
-2.319513004706862
 20
-1.526671457656344
  0
LWPOLYLINE
  5
EA
330
CC
100
AcDbEntity
  8
AM_9
100
AcDbPolyline
 90
        4
 70
     0
 43
0.0
 10
-2.481892767916444
 20
-1.245421457656344
 10
-2.503545731107983
 20
-1.291456884363538
 10
-2.530155631874482
 20
-1.341768689712644
 10
-2.55187773235015
 20
-1.37957729571137
  0
LWPOLYLINE
  5
EB
330
CC
100
AcDbEntity
  8
AM_9
100
AcDbPolyline
 90
        3
 70
     0
 43
0.0
 10
-2.280709108977258
 20
-1.419695945966246
 10
-2.299432647487632
 20
-1.44935797563067
 10
-2.322551569002712
 20
-1.467942786561161
  0
LWPOLYLINE
  5
EC
330
CC
100
AcDbEntity
  8
AM_9
100
AcDbPolyline
 90
        8
 70
     0
 43
0.0
 10
-2.280709108977258
 20
-1.419695945966246
 10
-2.27575444850519
 20
-1.403701216295605
 10
-2.274126335756333
 20
-1.370877825105296
 10
-2.283360235951754
 20
-1.335957633207593
 10
-2.30258492424825
 20
-1.304477046299116
 10
-2.329406676328224
 20
-1.280495849846331
 10
-2.362013059976012
 20
-1.266703487144152
 10
-2.369847309345178
 20
-1.265304054033754
  0
LINE
  5
ED
330
CC
100
AcDbEntity
  8
AM_9
100
AcDbLine
 10
-2.432477043989425
 20
-1.277374216923162
 30
0.0
 11
-2.450894344656515
 21
-1.288007450421053
 31
0.0
  0
LINE
  5
EE
330
CC
100
AcDbEntity
  8
AM_9
100
AcDbLine
 10
-2.340894344656515
 20
-1.478533039253629
 30
0.0
 11
-2.322477028063326
 21
-1.4678997965608
 31
0.0
  0
LWPOLYLINE
  5
EF
330
CC
100
AcDbEntity
  8
AM_9
100
AcDbPolyline
 90
        3
 70
     0
 43
0.0
 10
-2.444187162471475
 20
-1.285339626018579
 10
-2.437344772837402
 20
-1.280381372029879
 10
-2.432554868389059
 20
-1.277419199248029
  0
LWPOLYLINE
  5
F0
330
CC
100
AcDbEntity
  8
AM_9
100
AcDbPolyline
 90
       10
 70
     0
 43
0.0
 10
-2.334979509242527
 20
-1.473958854736983
 10
-2.360228968784516
 20
-1.48026170963818
 10
-2.395442157499049
 20
-1.477990967168628
 10
-2.428588662899829
 20
-1.463797239076489
 10
-2.45592006662541
 20
-1.439336212655024
 10
-2.474389969601807
 20
-1.407408286749774
 10
-2.481966547236798
 20
-1.371607393511457
 10
-2.477817259470547
 20
-1.335922481606625
 10
-2.462382113140163
 20
-1.304328872764631
 10
-2.444187162471475
 20
-1.285339626018579
  0
LWPOLYLINE
  5
F1
330
CC
100
AcDbEntity
  8
AM_9
100
AcDbPolyline
 90
        3
 70
     0
 43
0.0
 10
-2.322551569002712
 20
-1.467942786561161
 10
-2.326966122155917
 20
-1.470334802540261
 10
-2.334979509242527
 20
-1.473958854736983
  0
LWPOLYLINE
  5
F2
330
CC
100
AcDbEntity
  8
AM_9
100
AcDbPolyline
 90
        3
 70
     0
 43
0.0
 10
-2.432554868389059
 20
-1.277419199248029
 10
-2.40548986027826
 20
-1.266820477436415
 10
-2.369847309345161
 20
-1.265304054033761
  0
ELLIPSE
  5
F3
330
CC
100
AcDbEntity
  8
AM_9
100
AcDbEllipse
 10
-2.395894344656516
 20
-1.383270244837341
 30
0.0
 11
-0.07031249999999953
 21
0.1217848224071878
 31
0.0
210
0.0
220
0.0
230
1.0
 40
0.9063077870366495
 41
3.764821264091957
 42
4.571432719802708
  0
ELLIPSE
  5
F4
330
CC
100
AcDbEntity
  8
AM_9
100
AcDbEllipse
 10
-2.395894344656516
 20
-1.383270244837342
 30
0.0
 11
-0.07031250000001554
 21
0.1217848224071787
 31
0.0
210
0.0
220
0.0
230
1.0
 40
0.906307787036692
 41
4.853345240966595
 42
5.659956696677323
  0
LWPOLYLINE
  5
F5
330
CC
100
AcDbEntity
  8
AM_9
100
AcDbPolyline
 90
        5
 70
     0
 43
0.0
 10
-2.482009423969235
 20
-1.526738809059826
 10
-2.503947470115959
 20
-1.493532427593056
 10
-2.524767899397855
 20
-1.459312409178914
 10
-2.544754799054996
 20
-1.422967684420117
 10
-2.563199305574027
 20
-1.386113809059826
  0
LWPOLYLINE
  5
F6
330
CC
100
AcDbEntity
  8
AM_9
100
AcDbPolyline
 90
        4
 70
     0
 43
0.0
 10
-2.378921105456102
 20
-1.532797916220613
 10
-2.408176586325754
 20
-1.531802555641743
 10
-2.445937861570786
 20
-1.52966027073816
 10
-2.482009423969235
 20
-1.526738809059826
  0
LWPOLYLINE
  5
F7
330
CC
100
AcDbEntity
  8
AM_9
100
AcDbPolyline
 90
        4
 70
     0
 43
0.0
 10
-2.563199305574027
 20
-1.386113809059826
 10
-2.548252810452535
 20
-1.354558470909902
 10
-2.531892915288277
 20
-1.321997724328328
 10
-2.516890330891462
 20
-1.293784825492327
  0
ELLIPSE
  5
F8
330
CC
100
AcDbEntity
  8
AM_9
100
AcDbEllipse
 10
-2.414194252195049
 20
-1.393835701380858
 30
0.0
 11
-0.07031250000000046
 21
0.1217848224071867
 31
0.0
210
0.0
220
0.0
230
1.0
 40
0.9063077870366495
 41
0.2501663860830075
 42
2.894927906767732
  0
LWPOLYLINE
  5
F9
330
CC
100
AcDbEntity
  8
AM_9
100
AcDbPolyline
 90
       19
 70
     0
 43
0.0
 10
-2.359509147372729
 20
-1.38151535548223
 10
-2.356029579245334
 20
-1.391188171167526
 10
-2.352035495749566
 20
-1.40838656354317
 10
-2.350734643749399
 20
-1.425454773198396
 10
-2.352068335726837
 20
-1.441859850649636
 10
-2.355893956038333
 20
-1.457142291261026
 10
-2.362030926961116
 20
-1.470943248931003
 10
-2.370328121367409
 20
-1.483005988881055
 10
-2.380734526029637
 20
-1.493127298257913
 10
-2.393299152584204
 20
-1.501035871866081
 10
-2.407937840884617
 20
-1.506260143748859
 10
-2.423830837972926
 20
-1.508266189363455
 10
-2.440113803368225
 20
-1.506986505709594
 10
-2.456227231765195
 20
-1.502598016324316
 10
-2.471743926458665
 20
-1.49530835794128
 10
-2.486239973864762
 20
-1.485351443075293
 10
-2.499282461412279
 20
-1.473027035158006
 10
-2.510460057199764
 20
-1.458720184823398
 10
-2.514717611000703
 20
-1.451872889647148
  0
LWPOLYLINE
  5
FA
330
CC
100
AcDbEntity
  8
AM_9
100
AcDbPolyline
 90
       19
 70
     0
 43
0.0
 10
-2.514717611000703
 20
-1.451872889647148
 10
-2.518411683170628
 20
-1.444978670147004
 10
-2.525204438877799
 20
-1.428288608690319
 10
-2.529370810250863
 20
-1.411101145720972
 10
-2.530843728258242
 20
-1.394008003034264
 10
-2.529675457189414
 20
-1.377545639466335
 10
-2.526004359883599
 20
-1.362179260555413
 10
-2.520010407179597
 20
-1.348274591981215
 10
-2.51184890218555
 20
-1.33609414450867
 10
-2.50157870804009
 20
-1.325841722622426
 10
-2.489153625894858
 20
-1.317779448075853
 10
-2.474636365199388
 20
-1.31236550996661
 10
-2.458794593193606
 20
-1.310145181348721
 10
-2.442517278532977
 20
-1.311217499968246
 10
-2.426379619561007
 20
-1.315411770871468
 10
-2.410811862121049
 20
-1.322520941580086
 10
-2.396236931797199
 20
-1.332314083315923
 10
-2.383087909713546
 20
-1.344496537545926
 10
-2.376409531267801
 20
-1.352344636809045
  0
ELLIPSE
  5
FB
330
CC
100
AcDbEntity
  8
AM_9
100
AcDbEllipse
 10
-2.465195155459034
 20
-1.423281086609234
 30
0.0
 11
0.06659694825923297
 21
-0.1153492980140274
 31
0.0
210
0.0
220
0.0
230
1.0
 40
0.9063077870366515
 41
0.0
 42
6.283185307179586
  0
LINE
  5
FC
330
CC
100
AcDbEntity
  8
AM_5
100
AcDbLine
 10
-1.923736244785735
 20
-1.303716103579453
 30
0.0
 11
-1.773545032914818
 21
-1.21062989348012
 31
0.0
  0
LINE
  5
FD
330
CC
100
AcDbEntity
  8
AM_5
100
AcDbLine
 10
-1.948064336006161
 20
-1.345853593624401
 30
0.0
 11
-1.923736244785735
 21
-1.303716103579453
 31
0.0
  0
LINE
  5
FE
330
CC
100
AcDbEntity
  8
AM_5
100
AcDbLine
 10
-1.912230630360623
 20
-1.323644412336045
 30
0.0
 11
-2.102425001840651
 21
-0.994218097619007
 31
0.0
  0
LINE
  5
FF
330
CC
100
AcDbEntity
  8
AM_5
100
AcDbLine
 10
-2.090919387415538
 20
-1.014146406375599
 30
0.0
 11
-1.935208758792042
 21
-0.9306201065198805
 31
0.0
  0
LINE
  5
100
330
CC
100
AcDbEntity
  8
AM_5
100
AcDbLine
 10
-2.13957556985639
 20
-1.014146406375599
 30
0.0
 11
-2.090919387415538
 21
-1.014146406375599
 31
0.0
  0
ELLIPSE
  5
101
330
CC
100
AcDbEntity
  8
AM_9
100
AcDbEllipse
 10
-2.395894344656516
 20
-1.383270244837341
 30
0.0
 11
-0.05499999999999971
 21
0.09526279441628849
 31
0.0
210
0.0
220
0.0
230
1.0
 40
0.9063077870366495
 41
0.0
 42
6.283185307179586
  0
LINE
  5
102
330
CC
100
AcDbEntity
  8
AM_7
100
AcDbLine
 10
-2.535278209161218
 20
-1.3425
 30
0.0
 11
-2.115278209161219
 21
-1.3425
 31
0.0
  0
LINE
  5
103
330
CC
100
AcDbEntity
  8
AM_7
100
AcDbLine
 10
-2.325278209161219
 20
-1.5525
 30
0.0
 11
-2.325278209161219
 21
-1.132500000000001
 31
0.0
  0
LINE
  5
104
330
CC
100
AcDbEntity
  8
AM_4
100
AcDbLine
 10
-2.088705727980379
 20
-1.458505557077846
 30
0.0
 11
-2.307455727980379
 21
-1.079619442922154
 31
0.0
  0
LINE
  5
105
330
CC
100
AcDbEntity
  8
AM_4
100
AcDbLine
 10
-2.316523327676993
 20
-1.045778700151693
 30
0.0
 11
-2.307455727980379
 21
-1.079619442922154
 31
0.0
  0
LINE
  5
106
330
CC
100
AcDbEntity
  8
AM_4
100
AcDbLine
 10
-2.088705727980379
 20
-1.458505557077846
 30
0.0
 11
-2.063932584906532
 21
-1.483278700151693
 31
0.0
  0
LINE
  5
107
330
CC
100
AcDbEntity
  8
AM_4
100
AcDbLine
 10
-1.993035587905321
 20
-1.442346299848307
 30
0.0
 11
-2.002103187601935
 21
-1.408505557077846
 31
0.0
  0
LINE
  5
108
330
CC
100
AcDbEntity
  8
AM_4
100
AcDbLine
 10
-2.002103187601935
 20
-1.408505557077846
 30
0.0
 11
-2.220853187601935
 21
-1.029619442922154
 31
0.0
  0
LINE
  5
109
330
CC
100
AcDbEntity
  8
AM_4
100
AcDbLine
 10
-2.220853187601935
 20
-1.029619442922154
 30
0.0
 11
-2.245626330675782
 21
-1.004846299848307
 31
0.0
  0
ARC
  5
10A
330
CC
100
AcDbEntity
  8
AM_4
100
AcDbCircle
 10
-2.325278209161219
 20
-1.342499999999999
 30
0.0
 40
0.2000000000000009
100
AcDbArc
 50
253.7103587423935
 51
300.0
  0
ARC
  5
10B
330
CC
100
AcDbEntity
  8
AM_4
100
AcDbCircle
 10
-2.325278209161218
 20
-1.3425
 30
0.0
 40
0.2000000000000006
100
AcDbArc
 50
120.0000000000001
 51
166.0493241738566
  0
LINE
  5
10C
330
CC
100
AcDbEntity
  8
AM_4
100
AcDbLine
 10
-2.143819952931276
 20
-1.006794919243112
 30
0.0
 11
-2.211478187601935
 21
-1.045857419243112
 31
0.0
  0
LINE
  5
10D
330
CC
100
AcDbEntity
  8
AM_4
100
AcDbLine
 10
-2.011478187601935
 20
-1.392267580756888
 30
0.0
 11
-1.943819952931276
 21
-1.353205080756888
 31
0.0
  0
LINE
  5
10E
330
CC
100
AcDbEntity
  8
AM_4
100
AcDbLine
 10
-2.38042538837101
 20
-1.246982283714534
 30
0.0
 11
-2.425278209161218
 21
-1.169294919243112
 31
0.0
  0
LINE
  5
10F
330
CC
100
AcDbEntity
  8
AM_4
100
AcDbLine
 10
-2.298080727980379
 20
-1.095857419243112
 30
0.0
 11
-2.425278209161218
 21
-1.169294919243112
 31
0.0
  0
LINE
  5
110
330
CC
100
AcDbEntity
  8
AM_4
100
AcDbLine
 10
-2.225278209161218
 20
-1.515705080756888
 30
0.0
 11
-2.098080727980379
 21
-1.442267580756888
 31
0.0
  0
LINE
  5
111
330
CC
100
AcDbEntity
  8
AM_4
100
AcDbLine
 10
-2.225278209161218
 20
-1.515705080756888
 30
0.0
 11
-2.270569152314074
 21
-1.437258866093428
 31
0.0
  0
LWPOLYLINE
  5
112
330
CC
100
AcDbEntity
  8
AM_4
100
AcDbPolyline
 90
        3
 70
     0
 43
0.0
 10
-2.063932584906532
 20
-1.483278700151693
 10
-2.085410255824155
 20
-1.459384432388115
 10
-2.103359199441456
 20
-1.433125
  0
LINE
  5
113
330
CC
100
AcDbEntity
  8
AM_4
100
AcDbLine
 10
-2.063932584906532
 20
-1.483278700151693
 30
0.0
 11
-1.993035587905321
 21
-1.442346299848307
 31
0.0
  0
LWPOLYLINE
  5
114
330
CC
100
AcDbEntity
  8
AM_4
100
AcDbPolyline
 90
        3
 70
     0
 43
0.0
 10
-2.016756659063012
 20
-1.383125
 10
-2.003042466200628
 20
-1.411665440392517
 10
-1.993035587905321
 20
-1.442346299848307
  0
LINE
  5
115
330
CC
100
AcDbEntity
  8
AM_4
100
AcDbLine
 10
-2.316523327676993
 20
-1.045778700151693
 30
0.0
 11
-2.245626330675782
 21
-1.004846299848307
 31
0.0
  0
LWPOLYLINE
  5
116
330
CC
100
AcDbEntity
  8
AM_4
100
AcDbPolyline
 90
        3
 70
     0
 43
0.0
 10
-2.292802256519302
 20
-1.105
 10
-2.306516449381686
 20
-1.076459559607483
 10
-2.316523327676993
 20
-1.045778700151693
  0
LWPOLYLINE
  5
117
330
CC
100
AcDbEntity
  8
AM_4
100
AcDbPolyline
 90
        3
 70
     0
 43
0.0
 10
-2.206199716140858
 20
-1.055
 10
-2.192485523278474
 20
-1.083540440392517
 10
-2.182478644983167
 20
-1.114221299848307
  0
LWPOLYLINE
  5
118
330
CC
100
AcDbEntity
  8
AM_4
100
AcDbPolyline
 90
        3
 70
     0
 43
0.0
 10
-2.245626330675782
 20
-1.004846299848307
 10
-2.224148659758159
 20
-1.028740567611885
 10
-2.206199716140858
 20
-1.055
  0
LWPOLYLINE
  5
119
330
CC
100
AcDbEntity
  8
AM_4
100
AcDbPolyline
 90
        3
 70
     0
 43
0.0
 10
-2.056183273597936
 20
-1.332971299848307
 10
-2.034705602680313
 20
-1.356865567611885
 10
-2.016756659063012
 20
-1.383125
  0
LWPOLYLINE
  5
11A
330
CC
100
AcDbEntity
  8
AM_4
100
AcDbPolyline
 90
        3
 70
     0
 43
0.0
 10
-2.103359199441456
 20
-1.433125
 10
-2.11707339230384
 20
-1.404584559607483
 10
-2.127080270599147
 20
-1.373903700151693
  0
LINE
  5
11B
330
CC
100
AcDbEntity
  8
AM_4
100
AcDbLine
 10
-2.253375641984378
 20
-1.155153700151693
 30
0.0
 11
-2.182478644983167
 21
-1.114221299848307
 31
0.0
  0
LWPOLYLINE
  5
11C
330
CC
100
AcDbEntity
  8
AM_4
100
AcDbPolyline
 90
        3
 70
     0
 43
0.0
 10
-2.127080270599147
 20
-1.373903700151693
 10
-2.164273880690218
 20
-1.32278862725104
 10
-2.198080727980379
 20
-1.2690625
  0
LINE
  5
11D
330
CC
100
AcDbEntity
  8
AM_4
100
AcDbLine
 10
-2.127080270599147
 20
-1.373903700151693
 30
0.0
 11
-2.056183273597936
 21
-1.332971299848307
 31
0.0
  0
LWPOLYLINE
  5
11E
330
CC
100
AcDbEntity
  8
AM_4
100
AcDbPolyline
 90
        3
 70
     0
 43
0.0
 10
-2.111478187601935
 20
-1.2190625
 10
-2.081977073316397
 20
-1.274946690392517
 10
-2.056183273597936
 20
-1.332971299848307
  0
LWPOLYLINE
  5
11F
330
CC
100
AcDbEntity
  8
AM_4
100
AcDbPolyline
 90
        3
 70
     0
 43
0.0
 10
-2.182478644983167
 20
-1.114221299848307
 10
-2.164625912172312
 20
-1.137972765773117
 10
-2.111478187601935
 20
-1.2190625
  0
LWPOLYLINE
  5
120
330
CC
100
AcDbEntity
  8
AM_4
100
AcDbPolyline
 90
        3
 70
     0
 43
0.0
 10
-2.198080727980379
 20
-1.2690625
 10
-2.241732635521799
 20
-1.182490353255273
 10
-2.253375641984378
 20
-1.155153700151693
  0
LWPOLYLINE
  5
121
330
CC
100
AcDbEntity
  8
AM_4
100
AcDbPolyline
 90
        3
 70
     0
 43
0.0
 10
-2.253375641984378
 20
-1.155153700151693
 10
-2.274853312902001
 20
-1.131259432388115
 10
-2.292802256519302
 20
-1.105
  0
LINE
  5
122
330
CC
100
AcDbEntity
  8
AM_4
100
AcDbLine
 10
-2.331200250926406
 20
-1.533419092407283
 30
0.0
 11
-2.378921105456102
 21
-1.532797916220613
 31
0.0
  0
LINE
  5
123
330
CC
100
AcDbEntity
  8
AM_4
100
AcDbLine
 10
-2.516890330891462
 20
-1.293784825492327
 30
0.0
 11
-2.493580014135989
 21
-1.252169092407283
 31
0.0
  0
LWPOLYLINE
  5
124
330
CC
100
AcDbEntity
  8
AM_4
100
AcDbPolyline
 90
        3
 70
     0
 43
0.0
 10
-2.319513004706862
 20
-1.526671457656344
 10
-2.302539322373339
 20
-1.497339189975666
 10
-2.286401065189156
 20
-1.468057477599441
  0
LINE
  5
125
330
CC
100
AcDbEntity
  8
AM_4
100
AcDbLine
 10
-2.286401065189156
 20
-1.468057477599441
 30
0.0
 11
-2.274379535007348
 21
-1.444965725501071
 31
0.0
  0
LWPOLYLINE
  5
126
330
CC
100
AcDbEntity
  8
AM_4
100
AcDbPolyline
 90
        3
 70
     0
 43
0.0
 10
-2.274379535007348
 20
-1.444965725501071
 10
-2.265214548430791
 20
-1.426421611213502
 10
-2.249526506973793
 20
-1.392514734350518
  0
LINE
  5
127
330
CC
100
AcDbEntity
  8
AM_4
100
AcDbLine
 10
-2.304700972727689
 20
-1.478622934142958
 30
0.0
 11
-2.331200250926406
 21
-1.533419092407283
 31
0.0
  0
LINE
  5
128
330
CC
100
AcDbEntity
  8
AM_4
100
AcDbLine
 10
-2.319513004706862
 20
-1.526671457656344
 30
0.0
 11
-2.331200250926406
 21
-1.533419092407283
 31
0.0
  0
LINE
  5
129
330
CC
100
AcDbEntity
  8
AM_4
100
AcDbLine
 10
-2.330716388578584
 20
-1.251889734350518
 30
0.0
 11
-2.388566793385415
 21
-1.247187592413266
 31
0.0
  0
LINE
  5
12A
330
CC
100
AcDbEntity
  8
AM_4
100
AcDbLine
 10
-2.388566793385415
 20
-1.247187592413266
 30
0.0
 11
-2.414575602411399
 21
-1.246052666893888
 31
0.0
  0
LWPOLYLINE
  5
12B
330
CC
100
AcDbEntity
  8
AM_4
100
AcDbPolyline
 90
        3
 70
     0
 43
0.0
 10
-2.414575602411399
 20
-1.246052666893888
 10
-2.437565637103639
 20
-1.245510369847584
 10
-2.481892767916444
 20
-1.245421457656344
  0
LINE
  5
12C
330
CC
100
AcDbEntity
  8
AM_4
100
AcDbLine
 10
-2.481892767916444
 20
-1.245421457656344
 30
0.0
 11
-2.493580014135989
 21
-1.252169092407283
 31
0.0
  0
LINE
  5
12D
330
CC
100
AcDbEntity
  8
AM_4
100
AcDbLine
 10
-2.493580014135989
 20
-1.252169092407283
 30
0.0
 11
-2.432875509949931
 21
-1.256618123437406
 31
0.0
  0
LINE
  5
12E
330
CC
100
AcDbEntity
  8
AM_4
100
AcDbLine
 10
-2.261582156284772
 20
-1.399475066725467
 30
0.0
 11
-2.292679442545882
 21
-1.45553118204459
 31
0.0
  0
LINE
  5
12F
330
CC
100
AcDbEntity
  8
AM_4
100
AcDbLine
 10
-2.406866700923948
 20
-1.257753048956784
 30
0.0
 11
-2.342772037889563
 21
-1.258850066725467
 31
0.0
  0
LINE
  5
130
330
CC
100
AcDbEntity
  8
AM_4
100
AcDbLine
 10
-2.249526506973793
 20
-1.392514734350518
 30
0.0
 11
-2.276736294937645
 21
-1.337287038418517
 31
0.0
  0
LINE
  5
131
330
CC
100
AcDbEntity
  8
AM_4
100
AcDbLine
 10
-2.276736294937645
 20
-1.337287038418517
 30
0.0
 11
-2.296492694890913
 21
-1.303067949924796
 31
0.0
  0
LWPOLYLINE
  5
132
330
CC
100
AcDbEntity
  8
AM_4
100
AcDbPolyline
 90
        3
 70
     0
 43
0.0
 10
-2.296492694890913
 20
-1.303067949924796
 10
-2.305741330304807
 20
-1.2884112730526
 10
-2.330716388578584
 20
-1.251889734350518
  0
LINE
  5
133
330
CC
100
AcDbEntity
  8
AM_4
100
AcDbLine
 10
-2.330716388578584
 20
-1.251889734350518
 30
0.0
 11
-2.342772037889563
 21
-1.258850066725467
 31
0.0
  0
LINE
  5
134
330
CC
100
AcDbEntity
  8
AM_4
100
AcDbLine
 10
-2.342772037889563
 20
-1.258850066725467
 30
0.0
 11
-2.314792602429448
 21
-1.313633406468319
 31
0.0
  0
LINE
  5
135
330
CC
100
AcDbEntity
  8
AM_4
100
AcDbLine
 10
-2.295036202476178
 20
-1.347852494962034
 30
0.0
 11
-2.261582156284772
 21
-1.399475066725467
 31
0.0
  0
LINE
  5
136
330
CC
100
AcDbEntity
  8
AM_4
100
AcDbLine
 10
-2.249526506973793
 20
-1.392514734350518
 30
0.0
 11
-2.261582156284772
 21
-1.399475066725467
 31
0.0
  0
LINE
  5
137
330
CC
100
AcDbEntity
  8
AM_4
100
AcDbLine
 10
-2.432875509949931
 20
-1.256618123437406
 30
0.0
 11
-2.406866700923948
 21
-1.257753048956784
 31
0.0
  0
ELLIPSE
  5
138
330
CC
100
AcDbEntity
  8
AM_4
100
AcDbEllipse
 10
-2.414194252195052
 20
-1.393835701380855
 30
0.0
 11
-0.07031250000000404
 21
0.1217848224071894
 31
0.0
210
0.0
220
0.0
230
1.0
 40
0.9063077870366479
 41
2.894927906767734
 42
3.565561594284219
  0
ELLIPSE
  5
139
330
CC
100
AcDbEntity
  8
AM_4
100
AcDbEllipse
 10
-2.414194252195046
 20
-1.393835701380863
 30
0.0
 11
-0.07031250000000487
 21
0.1217848224071896
 31
0.0
210
0.0
220
0.0
230
1.0
 40
0.9063077870366498
 41
5.859216366485129
 42
6.533351693262563
  0
LINE
  5
13A
330
CC
100
AcDbEntity
  8
AM_4
100
AcDbLine
 10
-2.292679442545882
 20
-1.45553118204459
 30
0.0
 11
-2.304700972727689
 21
-1.478622934142958
 31
0.0
  0
ELLIPSE
  5
13B
330
CC
100
AcDbEntity
  8
AM_4
100
AcDbEllipse
 10
-2.414194252195051
 20
-1.393835701380858
 30
0.0
 11
-0.07031250000000179
 21
0.1217848224071876
 31
0.0
210
0.0
220
0.0
230
1.0
 40
0.9063077870366507
 41
3.764821264091937
 42
4.571432719802689
  0
LINE
  5
13C
330
CC
100
AcDbEntity
  8
AM_4
100
AcDbLine
 10
-2.314792602429448
 20
-1.313633406468319
 30
0.0
 11
-2.295036202476178
 21
-1.347852494962034
 31
0.0
  0
ELLIPSE
  5
13D
330
CC
100
AcDbEntity
  8
AM_4
100
AcDbEllipse
 10
-2.414194252195049
 20
-1.393835701380861
 30
0.0
 11
-0.07031250000000357
 21
0.1217848224071876
 31
0.0
210
0.0
220
0.0
230
1.0
 40
0.9063077870366469
 41
4.85334524096667
 42
5.659956696677416
  0
LWPOLYLINE
  5
13E
330
CC
100
AcDbEntity
  8
AM_4
100
AcDbPolyline
 90
        4
 70
     0
 43
0.0
 10
-2.604741916505418
 20
-1.403725135307957
 10
-2.60540864676111
 20
-1.416639786285404
 10
-2.603925211342032
 20
-1.438251690752074
 10
-2.601856553734695
 20
-1.449545777626247
  0
LWPOLYLINE
  5
13F
330
CC
100
AcDbEntity
  8
AM_4
100
AcDbPolyline
 90
       34
 70
     0
 43
0.0
 10
-2.517683545938038
 20
-1.554068055057956
 10
-2.510821941553616
 20
-1.55694482722765
 10
-2.490343799599149
 20
-1.563103235327368
 10
-2.469417348183106
 20
-1.565900102719568
 10
-2.448576889941982
 20
-1.56527209403487
 10
-2.428350350508645
 20
-1.561252227500829
 10
-2.409238897624773
 20
-1.553964527934805
 10
-2.391701361416958
 20
-1.543612291572744
 10
-2.376146292966359
 20
-1.530464614821434
 10
-2.362934299639578
 20
-1.51485240852213
 10
-2.352361665224775
 20
-1.49714593825845
 10
-2.344670027651797
 20
-1.477755994019351
 10
-2.340043012035208
 20
-1.457132250718631
 10
-2.338599456811316
 20
-1.435759123598087
 10
-2.34038602289242
 20
-1.414146940443806
 10
-2.345372161384653
 20
-1.392818983377429
 10
-2.353448917701127
 20
-1.372296695240067
 10
-2.364431245654717
 20
-1.353085350779712
 10
-2.378062516808303
 20
-1.335661365901568
 10
-2.394017178523256
 20
-1.320463441304632
 10
-2.411910569395072
 20
-1.307876626684412
 10
-2.431303931484194
 20
-1.298224403706347
 10
-2.451712915262425
 20
-1.291757104134082
 10
-2.472619930397048
 20
-1.288640480529962
 10
-2.493491172344107
 20
-1.288946904033218
 10
-2.513797209451217
 20
-1.292652295210937
 10
-2.533033597286951
 20
-1.299640747637935
 10
-2.550737060259543
 20
-1.309715810898363
 10
-2.56649456526551
 20
-1.322614420953441
 10
-2.579939945682679
 20
-1.338010386470964
 10
-2.590771472032598
 20
-1.35553712066851
 10
-2.598742300491263
 20
-1.374787576399102
 10
-2.603663108530865
 20
-1.395315615958238
 10
-2.604741916505418
 20
-1.403725135307957
  0
ELLIPSE
  5
140
330
CC
100
AcDbEntity
  8
AM_4
100
AcDbEllipse
 10
-2.475870136936376
 20
-1.429444290038772
 30
0.0
 11
-0.06957427803572271
 21
0.1205061844577884
 31
0.0
210
0.0
220
0.0
230
1.0
 40
0.9063077870366769
 41
1.237350132645591
 42
1.570796326794897
  0
ELLIPSE
  5
141
330
CC
100
AcDbEntity
  8
AM_4
100
AcDbEllipse
 10
-2.503863799133862
 20
-1.445606438444094
 30
0.0
 11
0.05174132036229517
 21
-0.08961859571819297
 31
0.0
210
0.0
220
0.0
230
1.0
 40
0.9063077870366506
 41
0.0
 42
6.283185307179586
  0
ELLIPSE
  5
142
330
CC
100
AcDbEntity
  8
AM_4
100
AcDbEllipse
 10
-2.475870136936368
 20
-1.429444290038775
 30
0.0
 11
-0.06957427803572401
 21
0.1205061844578037
 31
0.0
210
0.0
220
0.0
230
1.0
 40
0.9063077870366438
 41
1.570796326794897
 42
7.520535439825205
  0
ENDBLK
  5
CF
330
CC
100
AcDbEntity
  8
0
100
AcDbBlockEnd
  0
BLOCK
  5
145
330
143
100
AcDbEntity
  8
0
100
AcDbBlockBegin
  2
4_076102h_0_in_076102_0
 70
     2
 10
0.0
 20
0.0
 30
0.0
  3
4_076102h_0_in_076102_0
  1

  0
ATTDEF
  5
147
330
143
100
AcDbEntity
  8
AM_6
100
AcDbText
 10
8.5915
 20
2.375
 30
0.0
 40
0.5
  1
WSTU-SCED - Inch - Housing
100
AcDbAttributeDefinition
  3

  2
NN
 70
     8
280
     0
  0
ATTDEF
  5
148
330
143
100
AcDbEntity
  8
AM_6
100
AcDbText
 10
8.5915
 20
1.875
 30
0.0
 40
0.5
  1
SCED Take-Up Bearings -Wide Slot -(Normal Duty)
100
AcDbAttributeDefinition
  3

  2
NT
 70
     8
280
     0
  0
ATTDEF
  5
149
330
143
100
AcDbEntity
  8
AM_6
100
AcDbText
 10
8.5915
 20
1.375
 30
0.0
 40
0.5
  1
076102h
100
AcDbAttributeDefinition
  3

  2
NB
 70
     8
280
     0
  0
ATTDEF
  5
14A
330
143
100
AcDbEntity
  8
AM_6
100
AcDbText
 10
8.5915
 20
0.875
 30
0.0
 40
0.5
  1
$PN.h
100
AcDbAttributeDefinition
  3

  2
NBSYN
 70
     8
280
     0
  0
ATTDEF
  5
14B
330
143
100
AcDbEntity
  8
AM_6
100
AcDbText
 10
8.5915
 20
0.375
 30
0.0
 40
0.5
  1
076102
100
AcDbAttributeDefinition
  3

  2
LINA
 70
     8
280
     0
  0
ATTDEF
  5
14C
330
143
100
AcDbEntity
  8
AM_6
100
AcDbText
 10
8.5915
 20
-0.125
 30
0.0
 40
0.5
  1
210
100
AcDbAttributeDefinition
  3

  2
SERIES
 70
     8
280
     0
  0
ATTDEF
  5
14D
330
143
100
AcDbEntity
  8
AM_6
100
AcDbText
 10
8.5915
 20
-0.625
 30
0.0
 40
0.5
  1
1-15/16
100
AcDbAttributeDefinition
  3

  2
SS
 70
     8
280
     0
  0
ATTDEF
  5
14E
330
143
100
AcDbEntity
  8
AM_6
100
AcDbText
 10
8.5915
 20
-1.125
 30
0.0
 40
0.5
  1
076102
100
AcDbAttributeDefinition
  3

  2
PN
 70
     8
280
     0
  0
ATTDEF
  5
14F
330
143
100
AcDbEntity
  8
AM_6
100
AcDbText
 10
8.5915
 20
-1.625
 30
0.0
 40
0.5
  1
WSTU-SCED-115
100
AcDbAttributeDefinition
  3

  2
DESCRIPTION
 70
     8
280
     0
  0
ATTDEF
  5
150
330
143
100
AcDbEntity
  8
AM_6
100
AcDbText
 10
8.5915
 20
-2.125
 30
0.0
 40
0.5
  1
6.4
100
AcDbAttributeDefinition
  3

  2
W
 70
     8
280
     0
  0
ATTDEF
  5
151
330
143
100
AcDbEntity
  8
AM_6
100
AcDbText
 10
8.5915
 20
-2.625
 30
0.0
 40
0.5
  1
WS400
100
AcDbAttributeDefinition
  3

  2
FS
 70
     8
280
     0
  0
ATTDEF
  5
152
330
143
100
AcDbEntity
  8
AM_6
100
AcDbText
 10
8.5915
 20
-3.125
 30
0.0
 40
0.5
  1
1.94
100
AcDbAttributeDefinition
  3

  2
A
 70
     8
280
     0
  0
ATTDEF
  5
153
330
143
100
AcDbEntity
  8
AM_6
100
AcDbText
 10
8.5915
 20
-3.625
 30
0.0
 40
0.5
  1
5.82
100
AcDbAttributeDefinition
  3

  2
B
 70
     8
280
     0
  0
ATTDEF
  5
154
330
143
100
AcDbEntity
  8
AM_6
100
AcDbText
 10
8.5915
 20
-4.125
 30
0.0
 40
0.5
  1
0.688
100
AcDbAttributeDefinition
  3

  2
C
 70
     8
280
     0
  0
ATTDEF
  5
155
330
143
100
AcDbEntity
  8
AM_6
100
AcDbText
 10
8.5915
 20
-4.625
 30
0.0
 40
0.5
  1
3.38
100
AcDbAttributeDefinition
  3

  2
D
 70
     8
280
     0
  0
ATTDEF
  5
156
330
143
100
AcDbEntity
  8
AM_6
100
AcDbText
 10
8.5915
 20
-5.125
 30
0.0
 40
0.5
  1
3.56
100
AcDbAttributeDefinition
  3

  2
E
 70
     8
280
     0
  0
ATTDEF
  5
157
330
143
100
AcDbEntity
  8
AM_6
100
AcDbText
 10
8.5915
 20
-5.625
 30
0.0
 40
0.5
  1
1
100
AcDbAttributeDefinition
  3

  2
F
 70
     8
280
     0
  0
ATTDEF
  5
158
330
143
100
AcDbEntity
  8
AM_6
100
AcDbText
 10
8.5915
 20
-6.125
 30
0.0
 40
0.5
  1
0.63
100
AcDbAttributeDefinition
  3

  2
G
 70
     8
280
     0
  0
ATTDEF
  5
159
330
143
100
AcDbEntity
  8
AM_6
100
AcDbText
 10
8.5915
 20
-6.625
 30
0.0
 40
0.5
  1
0.75
100
AcDbAttributeDefinition
  3

  2
H
 70
     8
280
     0
  0
ATTDEF
  5
15A
330
143
100
AcDbEntity
  8
AM_6
100
AcDbText
 10
8.5915
 20
-7.125
 30
0.0
 40
0.5
  1
3.25
100
AcDbAttributeDefinition
  3

  2
J
 70
     8
280
     0
  0
ATTDEF
  5
15B
330
143
100
AcDbEntity
  8
AM_6
100
AcDbText
 10
8.5915
 20
-7.625
 30
0.0
 40
0.5
  1
1.94
100
AcDbAttributeDefinition
  3

  2
K
 70
     8
280
     0
  0
ATTDEF
  5
15C
330
143
100
AcDbEntity
  8
AM_6
100
AcDbText
 10
8.5915
 20
-8.125
 30
0.0
 40
0.5
  1
2.43
100
AcDbAttributeDefinition
  3

  2
L
 70
     8
280
     0
  0
ATTDEF
  5
15D
330
143
100
AcDbEntity
  8
AM_6
100
AcDbText
 10
8.5915
 20
-8.625
 30
0.0
 40
0.5
  1
3.985 / 4.015
100
AcDbAttributeDefinition
  3

  2
M
 70
     8
280
     0
  0
ATTDEF
  5
15E
330
143
100
AcDbEntity
  8
AM_6
100
AcDbText
 10
8.5915
 20
-9.125
 30
0.0
 40
0.5
  1
4.75
100
AcDbAttributeDefinition
  3

  2
N
 70
     8
280
     0
  0
ATTDEF
  5
15F
330
143
100
AcDbEntity
  8
AM_6
100
AcDbText
 10
8.5915
 20
-9.625
 30
0.0
 40
0.5
  1
0.75
100
AcDbAttributeDefinition
  3

  2
R
 70
     8
280
     0
  0
ATTDEF
  5
160
330
143
100
AcDbEntity
  8
AM_6
100
AcDbText
 10
8.5915
 20
-10.125
 30
0.0
 40
0.5
  1
1.19
100
AcDbAttributeDefinition
  3

  2
S
 70
     8
280
     0
  0
ATTDEF
  5
161
330
143
100
AcDbEntity
  8
AM_6
100
AcDbText
 10
8.5915
 20
-10.625
 30
0.0
 40
0.5
  1
1.94
100
AcDbAttributeDefinition
  3

  2
T
 70
     8
280
     0
  0
ATTDEF
  5
162
330
143
100
AcDbEntity
  8
AM_6
100
AcDbText
 10
8.5915
 20
-11.125
 30
0.0
 40
0.5
  1
4450
100
AcDbAttributeDefinition
  3

  2
CAPS
 70
     8
280
     0
  0
ATTDEF
  5
163
330
143
100
AcDbEntity
  8
AM_6
100
AcDbText
 10
8.5915
 20
-11.625
 30
0.0
 40
0.5
  1
7891
100
AcDbAttributeDefinition
  3

  2
CAPD
 70
     8
280
     0
  0
ATTDEF
  5
164
330
143
100
AcDbEntity
  8
AM_6
100
AcDbText
 10
8.5915
 20
-12.125
 30
0.0
 40
0.5
  1
baldor
100
AcDbAttributeDefinition
  3

  2
COMPANY
 70
     8
280
     0
  0
LINE
  5
165
330
143
100
AcDbEntity
  8
AM_9
100
AcDbLine
 10
0.6458333333333331
 20
1.649740291092981
 30
0.0
 11
0.6458333333333334
 21
1.753363904379394
 31
0.0
  0
LINE
  5
166
330
143
100
AcDbEntity
  8
AM_9
100
AcDbLine
 10
-0.6458333333333331
 20
-1.649740291092981
 30
0.0
 11
-0.6458333333333334
 21
-1.753363904379394
 31
0.0
  0
LINE
  5
167
330
143
100
AcDbEntity
  8
AM_9
100
AcDbLine
 10
0.6458333333333309
 20
-1.753363904379395
 30
0.0
 11
0.6458333333333331
 21
-1.649740291092981
 31
0.0
  0
ARC
  5
168
330
143
100
AcDbEntity
  8
AM_9
100
AcDbCircle
 10
0.0000000000000007
 20
-0.0000000000000075
 30
0.0
 40
1.868524999999992
100
AcDbArc
 50
249.7792505630072
 51
290.2207494369927
  0
ARC
  5
169
330
143
100
AcDbEntity
  8
AM_9
100
AcDbCircle
 10
-0.0000000000000009
 20
0.0000000000000027
 30
0.0
 40
1.868524999999997
100
AcDbArc
 50
69.7792505630072
 51
110.2207494369928
  0
LINE
  5
16A
330
143
100
AcDbEntity
  8
AM_9
100
AcDbLine
 10
-0.6458333333333334
 20
1.753363904379395
 30
0.0
 11
-0.6458333333333331
 21
1.649740291092981
 31
0.0
  0
LINE
  5
16B
330
143
100
AcDbEntity
  8
AM_9
100
AcDbLine
 10
1.69
 20
1.9925
 30
0.0
 11
-1.69
 21
1.9925
 31
0.0
  0
LINE
  5
16C
330
143
100
AcDbEntity
  8
AM_9
100
AcDbLine
 10
1.69
 20
-1.9925
 30
0.0
 11
-1.69
 21
-1.9925
 31
0.0
  0
LINE
  5
16D
330
143
100
AcDbEntity
  8
AM_9
100
AcDbLine
 10
2.93
 20
-0.5
 30
0.0
 11
3.56
 21
-0.5
 31
0.0
  0
LINE
  5
16E
330
143
100
AcDbEntity
  8
AM_9
100
AcDbLine
 10
3.56
 20
0.5
 30
0.0
 11
2.93
 21
0.5
 31
0.0
  0
LINE
  5
16F
330
143
100
AcDbEntity
  8
AM_7
100
AcDbLine
 10
-1.8602325
 20
0.0
 30
0.0
 11
1.8602325
 21
0.0
 31
0.0
  0
LINE
  5
170
330
143
100
AcDbEntity
  8
AM_7
100
AcDbLine
 10
0.0
 20
-1.8602325
 30
0.0
 11
0.0
 21
1.8602325
 31
0.0
  0
LINE
  5
171
330
143
100
AcDbEntity
  8
AM_7
100
AcDbLine
 10
-2.53068860962134
 20
-1.46109375
 30
0.0
 11
-1.495836878606003
 21
-0.8636218245269452
 31
0.0
  0
LINE
  5
172
330
143
100
AcDbEntity
  8
AM_7
100
AcDbLine
 10
3.5915
 20
0.0
 30
0.0
 11
2.8985
 21
0.0
 31
0.0
  0
LINE
  5
173
330
143
100
AcDbEntity
  8
AM_4
100
AcDbLine
 10
-2.218819952931276
 20
-0.8768911086754464
 30
0.0
 11
-1.868819953082321
 21
-1.483108891062935
 31
0.0
  0
ARC
  5
174
330
143
100
AcDbEntity
  8
AM_4
100
AcDbCircle
 10
-1.782217412552832
 20
-1.433108891324553
 30
0.0
 40
0.1000000000000004
100
AcDbArc
 50
210.0000000000001
 51
300.0
  0
ARC
  5
175
330
143
100
AcDbEntity
  8
AM_4
100
AcDbCircle
 10
-2.132217412552832
 20
-0.8268911086754466
 30
0.0
 40
0.0999999999999999
100
AcDbArc
 50
119.9999999999996
 51
210.0
  0
LINE
  5
176
330
143
100
AcDbEntity
  8
AM_4
100
AcDbLine
 10
-2.182217412552832
 20
-0.7402885682970025
 30
0.0
 11
-1.732217412552832
 21
-1.519711431702997
 31
0.0
  0
LINE
  5
177
330
143
100
AcDbEntity
  8
AM_4
100
AcDbLine
 10
-1.732217412552832
 20
-1.519711431702997
 30
0.0
 11
-1.693295091156508
 21
-1.497239618967345
 31
0.0
  0
LINE
  5
178
330
143
100
AcDbEntity
  8
AM_4
100
AcDbLine
 10
-2.143143448472578
 20
-0.7177292046169622
 30
0.0
 11
-2.182217412552832
 21
-0.7402885682970025
 31
0.0
  0
ARC
  5
179
330
143
100
AcDbEntity
  8
AM_4
100
AcDbCircle
 10
-0.0000000000000031
 20
0.0
 30
0.0
 40
2.259999999999998
100
AcDbArc
 50
138.3990956110918
 51
221.6009043889082
  0
LWPOLYLINE
  5
17A
330
143
100
AcDbEntity
  8
AM_4
100
AcDbPolyline
 90
       19
 70
     0
 43
0.0
 10
3.56
 20
1.556199999999999
 10
3.559738195228712
 20
1.562196315101038
 10
3.55895477340724
 20
1.568146994623484
 10
3.557655696848688
 20
1.574006750303053
 10
3.55585085231007
 20
1.579730985860806
 10
3.553553975748121
 20
1.58527613640776
 10
3.550782547780369
 20
1.5906
 10
3.547557660647083
 20
1.595662058820952
 10
3.543903857686585
 20
1.600423787546434
 10
3.539848946545634
 20
1.604848946545634
 10
3.535423787546434
 20
1.608903857686586
 10
3.530662058820952
 20
1.612557660647082
 10
3.5256
 20
1.615782547780369
 10
3.520276136407759
 20
1.618553975748121
 10
3.514730985860805
 20
1.62085085231007
 10
3.509006750303053
 20
1.622655696848688
 10
3.503146994623484
 20
1.62395477340724
 10
3.497196315101038
 20
1.624738195228712
 10
3.4912
 20
1.625
  0
LINE
  5
17B
330
143
100
AcDbEntity
  8
AM_4
100
AcDbLine
 10
3.4912
 20
1.625
 30
0.0
 11
1.69
 21
1.625
 31
0.0
  0
LWPOLYLINE
  5
17C
330
143
100
AcDbEntity
  8
AM_4
100
AcDbPolyline
 90
       19
 70
     0
 43
0.0
 10
3.491199999999999
 20
-1.625
 10
3.497196315101038
 20
-1.624738195228712
 10
3.503146994623484
 20
-1.62395477340724
 10
3.509006750303052
 20
-1.622655696848688
 10
3.514730985860805
 20
-1.62085085231007
 10
3.520276136407759
 20
-1.618553975748122
 10
3.525599999999999
 20
-1.615782547780369
 10
3.530662058820951
 20
-1.612557660647083
 10
3.535423787546433
 20
-1.608903857686586
 10
3.539848946545634
 20
-1.604848946545634
 10
3.543903857686585
 20
-1.600423787546434
 10
3.547557660647082
 20
-1.595662058820952
 10
3.550782547780369
 20
-1.5906
 10
3.553553975748121
 20
-1.58527613640776
 10
3.55585085231007
 20
-1.579730985860806
 10
3.557655696848688
 20
-1.574006750303053
 10
3.558954773407239
 20
-1.568146994623485
 10
3.559738195228711
 20
-1.562196315101039
 10
3.56
 20
-1.5562
  0
LINE
  5
17D
330
143
100
AcDbEntity
  8
AM_4
100
AcDbLine
 10
3.491199999999999
 20
-1.625
 30
0.0
 11
1.690000000000001
 21
-1.625
 31
0.0
  0
LINE
  5
17E
330
143
100
AcDbEntity
  8
AM_4
100
AcDbLine
 10
3.56
 20
1.5562
 30
0.0
 11
3.56
 21
-1.5562
 31
0.0
  0
LINE
  5
17F
330
143
100
AcDbEntity
  8
AM_4
100
AcDbLine
 10
2.930000000000001
 20
-0.901199999999999
 30
0.0
 11
2.93
 21
0.9011999999999997
 31
0.0
  0
CIRCLE
  5
180
330
143
100
AcDbEntity
  8
AM_4
100
AcDbCircle
 10
0.0
 20
0.0
 30
0.0
 40
1.77165
  0
LINE
  5
181
330
143
100
AcDbEntity
  8
AM_4
100
AcDbLine
 10
3.56
 20
1.5562
 30
0.0
 11
1.690000000000001
 21
1.5562
 31
0.0
  0
ARC
  5
182
330
143
100
AcDbEntity
  8
AM_4
100
AcDbCircle
 10
-0.0000000000000004
 20
0.0000000000000001
 30
0.0
 40
2.221199999999999
100
AcDbArc
 50
139.5391886219918
 51
220.4608113780082
  0
LINE
  5
183
330
143
100
AcDbEntity
  8
AM_4
100
AcDbLine
 10
3.56
 20
-1.5562
 30
0.0
 11
1.690000000000001
 21
-1.5562
 31
0.0
  0
ARC
  5
184
330
143
100
AcDbEntity
  8
AM_4
100
AcDbCircle
 10
2.861199999999999
 20
-0.9011999999999981
 30
0.0
 40
0.0688000000000017
100
AcDbArc
 50
270.0
 51
0.0000008537736463
  0
LINE
  5
185
330
143
100
AcDbEntity
  8
AM_4
100
AcDbLine
 10
2.248800000000001
 20
-0.9700000000000001
 30
0.0
 11
2.8612
 21
-0.9699999999999999
 31
0.0
  0
ARC
  5
186
330
143
100
AcDbEntity
  8
AM_4
100
AcDbCircle
 10
2.248800000000001
 20
-0.9011999999999988
 30
0.0
 40
0.0688000000000013
100
AcDbArc
 50
180.0
 51
270.0
  0
LINE
  5
187
330
143
100
AcDbEntity
  8
AM_4
100
AcDbLine
 10
2.18
 20
0.9011999999999994
 30
0.0
 11
2.18
 21
-0.9011999999999994
 31
0.0
  0
ARC
  5
188
330
143
100
AcDbEntity
  8
AM_4
100
AcDbCircle
 10
2.248800000000001
 20
0.9011999999999987
 30
0.0
 40
0.0688000000000012
100
AcDbArc
 50
90.0
 51
180.0
  0
LINE
  5
189
330
143
100
AcDbEntity
  8
AM_4
100
AcDbLine
 10
2.861199999999999
 20
0.9699999999999996
 30
0.0
 11
2.248800000000001
 21
0.9699999999999999
 31
0.0
  0
ARC
  5
18A
330
143
100
AcDbEntity
  8
AM_4
100
AcDbCircle
 10
2.861199999999999
 20
0.9011999999999988
 30
0.0
 40
0.0688000000000009
100
AcDbArc
 50
0.0
 51
90.0
  0
LWPOLYLINE
  5
18B
330
143
100
AcDbEntity
  8
AM_4
100
AcDbPolyline
 90
       19
 70
     0
 43
0.0
 10
1.689999999999999
 20
2.3062
 10
1.689738195228711
 20
2.312196315101038
 10
1.688954773407239
 20
2.318146994623485
 10
1.687655696848687
 20
2.324006750303053
 10
1.68585085231007
 20
2.329730985860806
 10
1.683553975748121
 20
2.33527613640776
 10
1.680782547780369
 20
2.3406
 10
1.677557660647082
 20
2.345662058820952
 10
1.673903857686585
 20
2.350423787546434
 10
1.669848946545634
 20
2.354848946545634
 10
1.665423787546433
 20
2.358903857686586
 10
1.660662058820951
 20
2.362557660647083
 10
1.655599999999999
 20
2.365782547780369
 10
1.650276136407759
 20
2.368553975748121
 10
1.644730985860805
 20
2.37085085231007
 10
1.639006750303052
 20
2.372655696848688
 10
1.633146994623484
 20
2.37395477340724
 10
1.627196315101038
 20
2.374738195228712
 10
1.621199999999999
 20
2.375
  0
LWPOLYLINE
  5
18C
330
143
100
AcDbEntity
  8
AM_4
100
AcDbPolyline
 90
       19
 70
     0
 43
0.0
 10
-1.6212
 20
2.375
 10
-1.627196315101038
 20
2.374738195228712
 10
-1.633146994623484
 20
2.37395477340724
 10
-1.639006750303053
 20
2.372655696848688
 10
-1.644730985860806
 20
2.370850852310071
 10
-1.65027613640776
 20
2.368553975748121
 10
-1.6556
 20
2.36578254778037
 10
-1.660662058820952
 20
2.362557660647083
 10
-1.665423787546433
 20
2.358903857686586
 10
-1.669848946545634
 20
2.354848946545635
 10
-1.673903857686585
 20
2.350423787546434
 10
-1.677557660647082
 20
2.345662058820952
 10
-1.680782547780369
 20
2.3406
 10
-1.683553975748121
 20
2.335276136407761
 10
-1.68585085231007
 20
2.329730985860806
 10
-1.687655696848688
 20
2.324006750303054
 10
-1.68895477340724
 20
2.318146994623485
 10
-1.689738195228712
 20
2.312196315101039
 10
-1.69
 20
2.3062
  0
LINE
  5
18D
330
143
100
AcDbEntity
  8
AM_4
100
AcDbLine
 10
1.621199999999999
 20
2.375
 30
0.0
 11
-1.621199999999999
 21
2.375
 31
0.0
  0
LINE
  5
18E
330
143
100
AcDbEntity
  8
AM_4
100
AcDbLine
 10
-1.69
 20
2.3062
 30
0.0
 11
-1.69
 21
1.441398432079069
 31
0.0
  0
LINE
  5
18F
330
143
100
AcDbEntity
  8
AM_4
100
AcDbLine
 10
1.69
 20
2.3062
 30
0.0
 11
1.690000000000001
 21
1.5562
 31
0.0
  0
LINE
  5
190
330
143
100
AcDbEntity
  8
AM_4
100
AcDbLine
 10
1.69
 20
2.3062
 30
0.0
 11
-1.69
 21
2.3062
 31
0.0
  0
LINE
  5
191
330
143
100
AcDbEntity
  8
AM_4
100
AcDbLine
 10
1.69
 20
1.801249999999999
 30
0.0
 11
-1.69
 21
1.801249999999999
 31
0.0
  0
LINE
  5
192
330
143
100
AcDbEntity
  8
AM_4
100
AcDbLine
 10
1.69
 20
1.90445
 30
0.0
 11
-1.69
 21
1.90445
 31
0.0
  0
LINE
  5
193
330
143
100
AcDbEntity
  8
AM_4
100
AcDbLine
 10
1.69
 20
-1.801249999999999
 30
0.0
 11
-1.69
 21
-1.801249999999999
 31
0.0
  0
LINE
  5
194
330
143
100
AcDbEntity
  8
AM_4
100
AcDbLine
 10
-1.69
 20
-1.441398432079069
 30
0.0
 11
-1.69
 21
-2.306199999999999
 31
0.0
  0
LINE
  5
195
330
143
100
AcDbEntity
  8
AM_4
100
AcDbLine
 10
1.690000000000001
 20
-1.5562
 30
0.0
 11
1.69
 21
-2.3062
 31
0.0
  0
LINE
  5
196
330
143
100
AcDbEntity
  8
AM_4
100
AcDbLine
 10
1.69
 20
-1.90445
 30
0.0
 11
-1.69
 21
-1.90445
 31
0.0
  0
LWPOLYLINE
  5
197
330
143
100
AcDbEntity
  8
AM_4
100
AcDbPolyline
 90
       19
 70
     0
 43
0.0
 10
-1.69
 20
-2.306199999999999
 10
-1.689738195228712
 20
-2.312196315101038
 10
-1.68895477340724
 20
-2.318146994623484
 10
-1.687655696848688
 20
-2.324006750303053
 10
-1.685850852310071
 20
-2.329730985860805
 10
-1.683553975748122
 20
-2.335276136407759
 10
-1.68078254778037
 20
-2.340599999999999
 10
-1.677557660647083
 20
-2.345662058820952
 10
-1.673903857686586
 20
-2.350423787546433
 10
-1.669848946545635
 20
-2.354848946545634
 10
-1.665423787546434
 20
-2.358903857686585
 10
-1.660662058820952
 20
-2.362557660647082
 10
-1.6556
 20
-2.365782547780369
 10
-1.65027613640776
 20
-2.368553975748121
 10
-1.644730985860806
 20
-2.37085085231007
 10
-1.639006750303053
 20
-2.372655696848688
 10
-1.633146994623485
 20
-2.373954773407239
 10
-1.627196315101039
 20
-2.374738195228712
 10
-1.6212
 20
-2.375
  0
LWPOLYLINE
  5
198
330
143
100
AcDbEntity
  8
AM_4
100
AcDbPolyline
 90
       19
 70
     0
 43
0.0
 10
1.6212
 20
-2.375
 10
1.627196315101039
 20
-2.374738195228712
 10
1.633146994623485
 20
-2.37395477340724
 10
1.639006750303053
 20
-2.372655696848688
 10
1.644730985860806
 20
-2.37085085231007
 10
1.65027613640776
 20
-2.368553975748121
 10
1.6556
 20
-2.365782547780369
 10
1.660662058820952
 20
-2.362557660647083
 10
1.665423787546434
 20
-2.358903857686586
 10
1.669848946545635
 20
-2.354848946545634
 10
1.673903857686586
 20
-2.350423787546434
 10
1.677557660647083
 20
-2.345662058820952
 10
1.68078254778037
 20
-2.3406
 10
1.683553975748122
 20
-2.33527613640776
 10
1.685850852310071
 20
-2.329730985860806
 10
1.687655696848688
 20
-2.324006750303053
 10
1.68895477340724
 20
-2.318146994623484
 10
1.689738195228713
 20
-2.312196315101038
 10
1.690000000000001
 20
-2.306200001449851
  0
LINE
  5
199
330
143
100
AcDbEntity
  8
AM_4
100
AcDbLine
 10
1.6212
 20
-2.375
 30
0.0
 11
-1.6212
 21
-2.375
 31
0.0
  0
LINE
  5
19A
330
143
100
AcDbEntity
  8
AM_4
100
AcDbLine
 10
1.69
 20
-2.3062
 30
0.0
 11
-1.69
 21
-2.306199999999999
 31
0.0
  0
LINE
  5
19B
330
143
100
AcDbEntity
  8
AM_4
100
AcDbLine
 10
2.93
 20
0.7738920855002975
 30
0.0
 11
3.56
 21
0.7738920855002975
 31
0.0
  0
LINE
  5
19C
330
143
100
AcDbEntity
  8
AM_4
100
AcDbLine
 10
3.56
 20
-0.7738920855002974
 30
0.0
 11
2.93
 21
-0.7738920855002975
 31
0.0
  0
ENDBLK
  5
146
330
143
100
AcDbEntity
  8
0
100
AcDbBlockEnd
  0
ENDSEC
  0
SECTION
  2
ENTITIES
  0
INSERT
  5
6F
330
1F
100
AcDbEntity
  8
0
100
AcDbBlockReference
  2
1_076102_0
 10
0.0
 20
0.0
 30
0.0
  0
POINT
  5
19E
330
1F
100
AcDbEntity
  8
ConnectionPoints
100
AcDbPoint
 10
-2.043819952931276
 20
-1.18
 30
0.0
  0
POINT
  5
19F
330
1F
100
AcDbEntity
  8
ConnectionPoints
100
AcDbPoint
 10
-2.043819952931276
 20
-1.18
 30
0.0
  0
POINT
  5
1A0
330
1F
100
AcDbEntity
  8
ConnectionPoints
100
AcDbPoint
 10
0.0
 20
0.0
 30
1.19
  0
ENDSEC
  0
SECTION
  2
OBJECTS
  0
DICTIONARY
  5
C
330
0
100
AcDbDictionary
281
     1
  3
ACAD_DETAILVIEWSTYLE
350
1A8
  3
ACAD_GROUP
350
D
  3
ACAD_LAYOUT
350
1A
  3
ACAD_MATERIAL
350
43
  3
ACAD_MLEADERSTYLE
350
6B
  3
ACAD_MLINESTYLE
350
17
  3
ACAD_PLOTSETTINGS
350
19
  3
ACAD_PLOTSTYLENAME
350
E
  3
ACAD_SCALELIST
350
47
  3
ACAD_SECTIONVIEWSTYLE
350
1A9
  3
ACAD_TABLESTYLE
350
69
  3
ACAD_VISUALSTYLE
350
2A
  3
ACDB_RECOMPOSE_DATA
350
1A5
  3
AcDbVariableDictionary
350
1A1
  0
SUN
  5
6D
330
29
100
AcDbSun
 90
        1
290
     0
 63
     7
421
 16777215
 40
1.0
291
     1
 91
  2455826
 92
 54000000
292
     0
 70
     2
 71
   256
280
     1
  0
DICTIONARY
  5
1A8
102
{ACAD_REACTORS
330
C
102
}
330
C
100
AcDbDictionary
281
     1
  0
DICTIONARY
  5
D
102
{ACAD_REACTORS
330
C
102
}
330
C
100
AcDbDictionary
281
     1
  0
DICTIONARY
  5
1A
102
{ACAD_REACTORS
330
C
102
}
330
C
100
AcDbDictionary
281
     1
  3
Layout1
350
1E
  3
Layout2
350
26
  3
Model
350
22
  0
DICTIONARY
  5
43
102
{ACAD_REACTORS
330
C
102
}
330
C
100
AcDbDictionary
281
     1
  3
ByBlock
350
45
  3
ByLayer
350
44
  3
Global
350
46
  0
DICTIONARY
  5
6B
102
{ACAD_REACTORS
330
C
102
}
330
C
100
AcDbDictionary
281
     1
  3
Standard
350
6C
  0
DICTIONARY
  5
17
102
{ACAD_REACTORS
330
C
102
}
330
C
100
AcDbDictionary
281
     1
  3
Standard
350
18
  0
DICTIONARY
  5
19
102
{ACAD_REACTORS
330
C
102
}
330
C
100
AcDbDictionary
281
     1
  0
ACDBDICTIONARYWDFLT
  5
E
102
{ACAD_REACTORS
330
C
102
}
330
C
100
AcDbDictionary
281
     1
  3
Normal
350
F
100
AcDbDictionaryWithDefault
340
F
  0
DICTIONARY
  5
47
102
{ACAD_REACTORS
330
C
102
}
330
C
100
AcDbDictionary
281
     1
  3
A0
350
48
  3
A1
350
49
  3
A2
350
4A
  3
A3
350
4B
  3
A4
350
4C
  3
A5
350
4D
  3
A6
350
4E
  3
A7
350
4F
  3
A8
350
50
  3
A9
350
51
  3
B0
350
52
  3
B1
350
53
  3
B2
350
54
  3
B3
350
55
  3
B4
350
56
  3
B5
350
57
  3
B6
350
58
  3
B7
350
59
  3
B8
350
5A
  3
B9
350
5B
  3
C0
350
5C
  3
C1
350
5D
  3
C2
350
5E
  3
C3
350
5F
  3
C4
350
60
  3
C5
350
61
  3
C6
350
62
  3
C7
350
63
  3
C8
350
64
  3
C9
350
65
  3
D0
350
66
  3
D1
350
67
  3
D2
350
68
  0
DICTIONARY
  5
1A9
102
{ACAD_REACTORS
330
C
102
}
330
C
100
AcDbDictionary
281
     1
  0
DICTIONARY
  5
69
102
{ACAD_REACTORS
330
C
102
}
330
C
100
AcDbDictionary
281
     1
  3
Standard
350
6A
  0
DICTIONARY
  5
2A
102
{ACAD_REACTORS
330
C
102
}
330
C
100
AcDbDictionary
281
     1
  3
2dWireframe
350
2F
  3
Basic
350
32
  3
Brighten
350
36
  3
ColorChange
350
3A
  3
Conceptual
350
34
  3
Dim
350
35
  3
EdgeColorOff
350
3D
  3
Facepattern
350
39
  3
Flat
350
2B
  3
FlatWithEdges
350
2C
  3
Gouraud
350
2D
  3
GouraudWithEdges
350
2E
  3
Hidden
350
31
  3
JitterOff
350
3B
  3
Linepattern
350
38
  3
OverhangOff
350
3C
  3
Realistic
350
33
  3
Shaded
350
42
  3
Shaded with edges
350
41
  3
Shades of Gray
350
3E
  3
Sketchy
350
3F
  3
Thicken
350
37
  3
Wireframe
350
30
  3
X-Ray
350
40
  0
XRECORD
  5
1A5
102
{ACAD_REACTORS
330
C
102
}
330
C
100
AcDbXrecord
280
     1
 90
        1
330
6A
  0
DICTIONARY
  5
1A1
102
{ACAD_REACTORS
330
C
102
}
330
C
100
AcDbDictionary
281
     1
  3
CANNOSCALE
350
1A2
  3
CMLEADERSTYLE
350
1A7
  3
CTABLESTYLE
350
1A6
  0
LAYOUT
  5
1E
102
{ACAD_REACTORS
330
1A
102
}
330
1A
100
AcDbPlotSettings
  1

  2
none_device
  4

  6

 40
0.0
 41
0.0
 42
0.0
 43
0.0
 44
0.0
 45
0.0
 46
0.0
 47
0.0
 48
0.0
 49
0.0
140
0.0
141
0.0
142
1.0
143
1.0
 70
   688
 72
     0
 73
     0
 74
     5
  7

 75
    16
 76
     0
 77
     2
 78
   300
147
1.0
148
0.0
149
0.0
100
AcDbLayout
  1
Layout1
 70
     1
 71
     1
 10
0.0
 20
0.0
 11
12.0
 21
9.0
 12
0.0
 22
0.0
 32
0.0
 14
1.000000000000000E+20
 24
1.000000000000000E+20
 34
1.000000000000000E+20
 15
-1.000000000000000E+20
 25
-1.000000000000000E+20
 35
-1.000000000000000E+20
146
0.0
 13
0.0
 23
0.0
 33
0.0
 16
1.0
 26
0.0
 36
0.0
 17
0.0
 27
1.0
 37
0.0
 76
     0
330
1B
  0
LAYOUT
  5
26
102
{ACAD_REACTORS
330
1A
102
}
330
1A
100
AcDbPlotSettings
  1

  2
none_device
  4

  6

 40
0.0
 41
0.0
 42
0.0
 43
0.0
 44
0.0
 45
0.0
 46
0.0
 47
0.0
 48
0.0
 49
0.0
140
0.0
141
0.0
142
1.0
143
1.0
 70
   688
 72
     0
 73
     0
 74
     5
  7

 75
    16
 76
     0
 77
     2
 78
   300
147
1.0
148
0.0
149
0.0
100
AcDbLayout
  1
Layout2
 70
     1
 71
     2
 10
0.0
 20
0.0
 11
0.0
 21
0.0
 12
0.0
 22
0.0
 32
0.0
 14
0.0
 24
0.0
 34
0.0
 15
0.0
 25
0.0
 35
0.0
146
0.0
 13
0.0
 23
0.0
 33
0.0
 16
1.0
 26
0.0
 36
0.0
 17
0.0
 27
1.0
 37
0.0
 76
     0
330
23
  0
LAYOUT
  5
22
102
{ACAD_REACTORS
330
1A
102
}
330
1A
100
AcDbPlotSettings
  1

  2
none_device
  4
Letter_(8.50_x_11.00_Inches)
  6

 40
6.35
 41
6.35
 42
6.35000508
 43
6.35000508
 44
215.9
 45
279.4
 46
0.0
 47
0.0
 48
0.0
 49
0.0
140
0.0
141
0.0
142
1.0
143
1.0
 70
  1712
 72
     0
 73
     0
 74
     0
  7

 75
     0
 76
     0
 77
     2
 78
   300
147
1.0
148
0.0
149
0.0
100
AcDbLayout
  1
Model
 70
     1
 71
     0
 10
0.0
 20
0.0
 11
12.0
 21
9.0
 12
0.0
 22
0.0
 32
0.0
 14
1.000000000000000E+20
 24
1.000000000000000E+20
 34
1.000000000000000E+20
 15
-1.000000000000000E+20
 25
-1.000000000000000E+20
 35
-1.000000000000000E+20
146
0.0
 13
0.0
 23
0.0
 33
0.0
 16
1.0
 26
0.0
 36
0.0
 17
0.0
 27
1.0
 37
0.0
 76
     0
330
1F
331
29
  0
MATERIAL
  5
45
102
{ACAD_REACTORS
330
43
102
}
330
43
100
AcDbMaterial
  1
ByBlock
 72
     1
 94
      127
  0
MATERIAL
  5
44
102
{ACAD_REACTORS
330
43
102
}
330
43
100
AcDbMaterial
  1
ByLayer
 72
     1
 94
      127
  0
MATERIAL
  5
46
102
{ACAD_REACTORS
330
43
102
}
330
43
100
AcDbMaterial
  1
Global
 72
     1
 94
      127
  0
MLEADERSTYLE
  5
6C
102
{ACAD_REACTORS
330
6B
102
}
330
6B
100
AcDbMLeaderStyle
179
     2
170
     2
171
     1
172
     0
 90
        2
 40
0.0
 41
0.0
173
     1
 91
-1056964608
340
14
 92
       -2
290
     1
 42
0.09
291
     1
 43
0.36
  3
Standard
341
0
 44
0.18
300

342
11
174
     1
178
     6
175
     1
176
     0
 93
-1056964608
 45
0.18
292
     0
297
     0
 46
0.18
343
0
 94
-1056964608
 47
1.0
 49
1.0
140
1.0
293
     1
141
0.0
294
     1
177
     0
142
1.0
295
     0
296
     0
143
0.125
271
     0
272
     9
273
     9
298
     0
  0
MLINESTYLE
  5
18
102
{ACAD_REACTORS
330
17
102
}
330
17
100
AcDbMlineStyle
  2
Standard
 70
     0
  3

 62
   256
 51
90.0
 52
90.0
 71
     2
 49
0.5
 62
   256
  6
BYLAYER
 49
-0.5
 62
   256
  6
BYLAYER
  0
ACDBPLACEHOLDER
  5
F
102
{ACAD_REACTORS
330
E
102
}
330
E
  0
SCALE
  5
48
102
{ACAD_REACTORS
330
47
102
}
330
47
100
AcDbScale
 70
     0
300
1:1
140
1.0
141
1.0
290
     1
  0
SCALE
  5
49
102
{ACAD_REACTORS
330
47
102
}
330
47
100
AcDbScale
 70
     0
300
1:2
140
1.0
141
2.0
290
     0
  0
SCALE
  5
4A
102
{ACAD_REACTORS
330
47
102
}
330
47
100
AcDbScale
 70
     0
300
1:4
140
1.0
141
4.0
290
     0
  0
SCALE
  5
4B
102
{ACAD_REACTORS
330
47
102
}
330
47
100
AcDbScale
 70
     0
300
1:5
140
1.0
141
5.0
290
     0
  0
SCALE
  5
4C
102
{ACAD_REACTORS
330
47
102
}
330
47
100
AcDbScale
 70
     0
300
1:8
140
1.0
141
8.0
290
     0
  0
SCALE
  5
4D
102
{ACAD_REACTORS
330
47
102
}
330
47
100
AcDbScale
 70
     0
300
1:10
140
1.0
141
10.0
290
     0
  0
SCALE
  5
4E
102
{ACAD_REACTORS
330
47
102
}
330
47
100
AcDbScale
 70
     0
300
1:16
140
1.0
141
16.0
290
     0
  0
SCALE
  5
4F
102
{ACAD_REACTORS
330
47
102
}
330
47
100
AcDbScale
 70
     0
300
1:20
140
1.0
141
20.0
290
     0
  0
SCALE
  5
50
102
{ACAD_REACTORS
330
47
102
}
330
47
100
AcDbScale
 70
     0
300
1:30
140
1.0
141
30.0
290
     0
  0
SCALE
  5
51
102
{ACAD_REACTORS
330
47
102
}
330
47
100
AcDbScale
 70
     0
300
1:40
140
1.0
141
40.0
290
     0
  0
SCALE
  5
52
102
{ACAD_REACTORS
330
47
102
}
330
47
100
AcDbScale
 70
     0
300
1:50
140
1.0
141
50.0
290
     0
  0
SCALE
  5
53
102
{ACAD_REACTORS
330
47
102
}
330
47
100
AcDbScale
 70
     0
300
1:100
140
1.0
141
100.0
290
     0
  0
SCALE
  5
54
102
{ACAD_REACTORS
330
47
102
}
330
47
100
AcDbScale
 70
     0
300
2:1
140
2.0
141
1.0
290
     0
  0
SCALE
  5
55
102
{ACAD_REACTORS
330
47
102
}
330
47
100
AcDbScale
 70
     0
300
4:1
140
4.0
141
1.0
290
     0
  0
SCALE
  5
56
102
{ACAD_REACTORS
330
47
102
}
330
47
100
AcDbScale
 70
     0
300
8:1
140
8.0
141
1.0
290
     0
  0
SCALE
  5
57
102
{ACAD_REACTORS
330
47
102
}
330
47
100
AcDbScale
 70
     0
300
10:1
140
10.0
141
1.0
290
     0
  0
SCALE
  5
58
102
{ACAD_REACTORS
330
47
102
}
330
47
100
AcDbScale
 70
     0
300
100:1
140
100.0
141
1.0
290
     0
  0
SCALE
  5
59
102
{ACAD_REACTORS
330
47
102
}
330
47
100
AcDbScale
 70
     0
300
1/128" = 1'-0"
140
0.0078125
141
12.0
290
     0
  0
SCALE
  5
5A
102
{ACAD_REACTORS
330
47
102
}
330
47
100
AcDbScale
 70
     0
300
1/64" = 1'-0"
140
0.015625
141
12.0
290
     0
  0
SCALE
  5
5B
102
{ACAD_REACTORS
330
47
102
}
330
47
100
AcDbScale
 70
     0
300
1/32" = 1'-0"
140
0.03125
141
12.0
290
     0
  0
SCALE
  5
5C
102
{ACAD_REACTORS
330
47
102
}
330
47
100
AcDbScale
 70
     0
300
1/16" = 1'-0"
140
0.0625
141
12.0
290
     0
  0
SCALE
  5
5D
102
{ACAD_REACTORS
330
47
102
}
330
47
100
AcDbScale
 70
     0
300
3/32" = 1'-0"
140
0.09375
141
12.0
290
     0
  0
SCALE
  5
5E
102
{ACAD_REACTORS
330
47
102
}
330
47
100
AcDbScale
 70
     0
300
1/8" = 1'-0"
140
0.125
141
12.0
290
     0
  0
SCALE
  5
5F
102
{ACAD_REACTORS
330
47
102
}
330
47
100
AcDbScale
 70
     0
300
3/16" = 1'-0"
140
0.1875
141
12.0
290
     0
  0
SCALE
  5
60
102
{ACAD_REACTORS
330
47
102
}
330
47
100
AcDbScale
 70
     0
300
1/4" = 1'-0"
140
0.25
141
12.0
290
     0
  0
SCALE
  5
61
102
{ACAD_REACTORS
330
47
102
}
330
47
100
AcDbScale
 70
     0
300
3/8" = 1'-0"
140
0.375
141
12.0
290
     0
  0
SCALE
  5
62
102
{ACAD_REACTORS
330
47
102
}
330
47
100
AcDbScale
 70
     0
300
1/2" = 1'-0"
140
0.5
141
12.0
290
     0
  0
SCALE
  5
63
102
{ACAD_REACTORS
330
47
102
}
330
47
100
AcDbScale
 70
     0
300
3/4" = 1'-0"
140
0.75
141
12.0
290
     0
  0
SCALE
  5
64
102
{ACAD_REACTORS
330
47
102
}
330
47
100
AcDbScale
 70
     0
300
1" = 1'-0"
140
1.0
141
12.0
290
     0
  0
SCALE
  5
65
102
{ACAD_REACTORS
330
47
102
}
330
47
100
AcDbScale
 70
     0
300
1-1/2" = 1'-0"
140
1.5
141
12.0
290
     0
  0
SCALE
  5
66
102
{ACAD_REACTORS
330
47
102
}
330
47
100
AcDbScale
 70
     0
300
3" = 1'-0"
140
3.0
141
12.0
290
     0
  0
SCALE
  5
67
102
{ACAD_REACTORS
330
47
102
}
330
47
100
AcDbScale
 70
     0
300
6" = 1'-0"
140
6.0
141
12.0
290
     0
  0
SCALE
  5
68
102
{ACAD_REACTORS
330
47
102
}
330
47
100
AcDbScale
 70
     0
300
1'-0" = 1'-0"
140
12.0
141
12.0
290
     0
  0
TABLESTYLE
  5
6A
102
{ACAD_REACTORS
330
69
102
}
102
{ACAD_XDICTIONARY
360
1A3
102
}
330
69
100
AcDbTableStyle
  3
Standard
 70
     0
 71
     0
 40
0.06
 41
0.06
280
     0
281
     0
  7
Standard
140
0.18
170
     2
 62
     0
 63
   257
283
     0
 90
        4
 91
        0
  1

274
    -2
284
     1
 64
     0
275
    -2
285
     1
 65
     0
276
    -2
286
     1
 66
     0
277
    -2
287
     1
 67
     0
278
    -2
288
     1
 68
     0
279
    -2
289
     1
 69
     0
  7
Standard
140
0.25
170
     5
 62
     0
 63
   257
283
     0
 90
        4
 91
        0
  1

274
    -2
284
     1
 64
     0
275
    -2
285
     1
 65
     0
276
    -2
286
     1
 66
     0
277
    -2
287
     1
 67
     0
278
    -2
288
     1
 68
     0
279
    -2
289
     1
 69
     0
  7
Standard
140
0.18
170
     5
 62
     0
 63
   257
283
     0
 90
        4
 91
        0
  1

274
    -2
284
     1
 64
     0
275
    -2
285
     1
 65
     0
276
    -2
286
     1
 66
     0
277
    -2
287
     1
 67
     0
278
    -2
288
     1
 68
     0
279
    -2
289
     1
 69
     0
  0
VISUALSTYLE
  5
2F
102
{ACAD_REACTORS
330
2A
102
}
330
2A
100
AcDbVisualStyle
  2
2dWireframe
 70
     4
177
     3
291
     0
 70
    58
 90
        0
176
     1
 90
        2
176
     1
 90
        0
176
     1
 90
        0
176
     1
 40
0.6
176
     1
 40
30.0
176
     1
 62
     7
420
 16777215
176
     1
 90
        1
176
     1
 90
        4
176
     1
 62
     7
176
     1
 62
   257
176
     1
 90
        1
176
     1
 90
        1
176
     1
 40
1.0
176
     1
 90
        0
176
     1
 62
   257
176
     1
 40
1.0
176
     1
 90
        1
176
     1
 90
        6
176
     1
 90
        2
176
     1
 62
     7
176
     1
 90
        5
176
     1
 90
        0
176
     1
 90
        0
176
     1
290
     0
176
     1
 90
        1
176
     1
 40
0.0
176
     1
 90
        0
176
     1
290
     1
176
     1
290
     1
176
     1
290
     0
176
     1
290
     0
176
     1
290
     0
176
     1
290
     0
176
     1
290
     0
176
     1
290
     0
176
     1
290
     0
176
     1
 90
       50
176
     1
 40
0.0
176
     1
 40
1.0
176
     1
 90
        0
176
     1
 62
    18
420
        0
176
     1
 90
       50
176
     1
 90
        3
176
     1
 62
     5
420
      255
176
     1
290
     0
176
     1
 90
       50
176
     1
 90
       50
176
     1
 90
       50
176
     1
290
     0
176
     1
 90
       50
176
     1
 62
   256
176
     0
 40
1.0
176
     0
 90
        2
176
     1
  1
strokes_ogs.tif
176
     1
290
     0
176
     1
 40
1.0
176
     1
 40
1.0
176
     1
  0
VISUALSTYLE
  5
32
102
{ACAD_REACTORS
330
2A
102
}
330
2A
100
AcDbVisualStyle
  2
Basic
 70
     7
177
     3
291
     1
 70
    58
 90
        1
176
     1
 90
        0
176
     1
 90
        1
176
     1
 90
        0
176
     1
 40
0.6
176
     1
 40
30.0
176
     1
 62
     7
420
 16777215
176
     1
 90
        0
176
     1
 90
        4
176
     1
 62
     7
176
     1
 62
   257
176
     1
 90
        1
176
     1
 90
        1
176
     1
 40
1.0
176
     1
 90
        8
176
     1
 62
     7
176
     1
 40
1.0
176
     1
 90
        1
176
     1
 90
        6
176
     1
 90
        2
176
     1
 62
     7
176
     1
 90
        5
176
     1
 90
        0
176
     1
 90
        0
176
     1
290
     0
176
     1
 90
        1
176
     1
 40
0.0
176
     1
 90
        0
176
     1
290
     0
176
     1
290
     1
176
     1
290
     1
176
     1
290
     0
176
     1
290
     0
176
     1
290
     0
176
     1
290
     0
176
     1
290
     0
176
     1
290
     0
176
     1
 90
       50
176
     1
 40
0.0
176
     1
 40
1.0
176
     1
 90
        0
176
     1
 62
    18
420
        0
176
     1
 90
       50
176
     1
 90
        3
176
     1
 62
     5
420
      255
176
     1
290
     0
176
     1
 90
       50
176
     1
 90
       50
176
     1
 90
       50
176
     1
290
     0
176
     1
 90
       50
176
     1
 62
   256
176
     0
 40
1.0
176
     0
 90
        2
176
     1
  1
strokes_ogs.tif
176
     1
290
     0
176
     1
 40
1.0
176
     1
 40
1.0
176
     1
  0
VISUALSTYLE
  5
36
102
{ACAD_REACTORS
330
2A
102
}
330
2A
100
AcDbVisualStyle
  2
Brighten
 70
    12
177
     3
291
     1
 70
    58
 90
        2
176
     1
 90
        2
176
     1
 90
        0
176
     1
 90
        0
176
     1
 40
0.6
176
     1
 40
30.0
176
     1
 62
     7
420
 16777215
176
     1
 90
        1
176
     1
 90
        4
176
     1
 62
     7
176
     1
 62
   257
176
     1
 90
        1
176
     1
 90
        1
176
     1
 40
1.0
176
     1
 90
        8
176
     1
 62
     7
176
     1
 40
1.0
176
     1
 90
        1
176
     1
 90
        6
176
     1
 90
        2
176
     1
 62
     7
176
     1
 90
        5
176
     1
 90
        0
176
     1
 90
        0
176
     1
290
     0
176
     1
 90
        1
176
     1
 40
50.0
176
     1
 90
        0
176
     1
290
     0
176
     1
290
     1
176
     1
290
     1
176
     1
290
     0
176
     1
290
     0
176
     1
290
     0
176
     1
290
     0
176
     1
290
     0
176
     1
290
     0
176
     1
 90
       50
176
     1
 40
0.0
176
     1
 40
1.0
176
     1
 90
        0
176
     1
 62
    18
420
        0
176
     1
 90
       50
176
     1
 90
        3
176
     1
 62
     5
420
      255
176
     1
290
     0
176
     1
 90
       50
176
     1
 90
       50
176
     1
 90
       50
176
     1
290
     0
176
     1
 90
       50
176
     1
 62
   256
176
     0
 40
1.0
176
     0
 90
        2
176
     1
  1
strokes_ogs.tif
176
     1
290
     0
176
     1
 40
1.0
176
     1
 40
1.0
176
     1
  0
VISUALSTYLE
  5
3A
102
{ACAD_REACTORS
330
2A
102
}
330
2A
100
AcDbVisualStyle
  2
ColorChange
 70
    16
177
     3
291
     1
 70
    58
 90
        2
176
     1
 90
        2
176
     1
 90
        3
176
     1
 90
        0
176
     1
 40
0.6
176
     1
 40
30.0
176
     1
 62
     8
420
  8421504
176
     1
 90
        1
176
     1
 90
        4
176
     1
 62
     7
176
     1
 62
   257
176
     1
 90
        1
176
     1
 90
        1
176
     1
 40
1.0
176
     1
 90
        8
176
     1
 62
     8
420
  8421504
176
     1
 40
1.0
176
     1
 90
        1
176
     1
 90
        6
176
     1
 90
        2
176
     1
 62
     7
176
     1
 90
        5
176
     1
 90
        0
176
     1
 90
        0
176
     1
290
     0
176
     1
 90
        1
176
     1
 40
0.0
176
     1
 90
        0
176
     1
290
     0
176
     1
290
     1
176
     1
290
     1
176
     1
290
     0
176
     1
290
     0
176
     1
290
     0
176
     1
290
     0
176
     1
290
     0
176
     1
290
     0
176
     1
 90
       50
176
     1
 40
0.0
176
     1
 40
1.0
176
     1
 90
        0
176
     1
 62
    18
420
        0
176
     1
 90
       50
176
     1
 90
        3
176
     1
 62
     5
420
      255
176
     1
290
     0
176
     1
 90
       50
176
     1
 90
       50
176
     1
 90
       50
176
     1
290
     0
176
     1
 90
       50
176
     1
 62
   256
176
     0
 40
1.0
176
     0
 90
        2
176
     1
  1
strokes_ogs.tif
176
     1
290
     0
176
     1
 40
1.0
176
     1
 40
1.0
176
     1
  0
VISUALSTYLE
  5
34
102
{ACAD_REACTORS
330
2A
102
}
330
2A
100
AcDbVisualStyle
  2
Conceptual
 70
     9
177
     3
291
     0
 70
    58
 90
        3
176
     1
 90
        2
176
     1
 90
        0
176
     1
 90
        0
176
     1
 40
0.6
176
     1
 40
30.0
176
     1
 62
     7
420
 16777215
176
     1
 90
        2
176
     1
 90
        2
176
     1
 62
     7
176
     1
 62
   257
176
     1
 90
        1
176
     1
 90
        1
176
     1
 40
179.0
176
     1
 90
        8
176
     1
 62
     7
176
     1
 40
1.0
176
     1
 90
        1
176
     1
 90
        6
176
     1
 90
        2
176
     1
 62
     7
176
     1
 90
        3
176
     1
 90
        0
176
     1
 90
        0
176
     1
290
     0
176
     1
 90
        1
176
     1
 40
0.0
176
     1
 90
        0
176
     1
290
     0
176
     1
290
     1
176
     1
290
     1
176
     1
290
     0
176
     1
290
     0
176
     1
290
     0
176
     1
290
     0
176
     1
290
     0
176
     1
290
     0
176
     1
 90
       50
176
     1
 40
0.0
176
     1
 40
1.0
176
     1
 90
        0
176
     1
 62
    18
420
        0
176
     1
 90
       50
176
     1
 90
        3
176
     1
 62
     5
420
      255
176
     1
290
     0
176
     1
 90
       50
176
     1
 90
       50
176
     1
 90
       50
176
     1
290
     0
176
     1
 90
       50
176
     1
 62
   256
176
     0
 40
1.0
176
     0
 90
        2
176
     1
  1
strokes_ogs.tif
176
     1
290
     0
176
     1
 40
1.0
176
     1
 40
1.0
176
     1
  0
VISUALSTYLE
  5
35
102
{ACAD_REACTORS
330
2A
102
}
330
2A
100
AcDbVisualStyle
  2
Dim
 70
    11
177
     3
291
     1
 70
    58
 90
        2
176
     1
 90
        2
176
     1
 90
        0
176
     1
 90
        0
176
     1
 40
0.6
176
     1
 40
30.0
176
     1
 62
     7
420
 16777215
176
     1
 90
        1
176
     1
 90
        4
176
     1
 62
     7
176
     1
 62
   257
176
     1
 90
        1
176
     1
 90
        1
176
     1
 40
1.0
176
     1
 90
        8
176
     1
 62
     7
176
     1
 40
1.0
176
     1
 90
        1
176
     1
 90
        6
176
     1
 90
        2
176
     1
 62
     7
176
     1
 90
        5
176
     1
 90
        0
176
     1
 90
        0
176
     1
290
     0
176
     1
 90
        1
176
     1
 40
-50.0
176
     1
 90
        0
176
     1
290
     0
176
     1
290
     1
176
     1
290
     1
176
     1
290
     0
176
     1
290
     0
176
     1
290
     0
176
     1
290
     0
176
     1
290
     0
176
     1
290
     0
176
     1
 90
       50
176
     1
 40
0.0
176
     1
 40
1.0
176
     1
 90
        0
176
     1
 62
    18
420
        0
176
     1
 90
       50
176
     1
 90
        3
176
     1
 62
     5
420
      255
176
     1
290
     0
176
     1
 90
       50
176
     1
 90
       50
176
     1
 90
       50
176
     1
290
     0
176
     1
 90
       50
176
     1
 62
   256
176
     0
 40
1.0
176
     0
 90
        2
176
     1
  1
strokes_ogs.tif
176
     1
290
     0
176
     1
 40
1.0
176
     1
 40
1.0
176
     1
  0
VISUALSTYLE
  5
3D
102
{ACAD_REACTORS
330
2A
102
}
330
2A
100
AcDbVisualStyle
  2
EdgeColorOff
 70
    22
177
     3
291
     1
 70
    58
 90
        2
176
     0
 90
        2
176
     0
 90
        0
176
     0
 90
        0
176
     0
 40
0.6
176
     0
 40
30.0
176
     0
 62
     7
420
 16777215
176
     0
 90
        1
176
     0
 90
        4
176
     0
 62
     7
176
     0
 62
   257
176
     0
 90
        1
176
     0
 90
        1
176
     0
 40
1.0
176
     0
 90
        8
176
     2
 62
     7
176
     0
 40
1.0
176
     0
 90
        1
176
     0
 90
        6
176
     0
 90
        2
176
     0
 62
     7
176
     0
 90
        5
176
     0
 90
        0
176
     0
 90
        0
176
     0
290
     0
176
     0
 90
        1
176
     0
 40
0.0
176
     0
 90
        0
176
     0
290
     0
176
     0
290
     1
176
     0
290
     1
176
     0
290
     0
176
     0
290
     0
176
     0
290
     0
176
     0
290
     0
176
     0
290
     0
176
     0
290
     0
176
     0
 90
       50
176
     0
 40
0.0
176
     0
 40
1.0
176
     0
 90
        0
176
     0
 62
    18
420
        0
176
     0
 90
       50
176
     0
 90
        3
176
     0
 62
     5
420
      255
176
     0
290
     0
176
     0
 90
       50
176
     0
 90
       50
176
     0
 90
       50
176
     0
290
     0
176
     0
 90
       50
176
     0
 62
   256
176
     0
 40
1.0
176
     0
 90
        2
176
     0
  1
strokes_ogs.tif
176
     0
290
     0
176
     0
 40
1.0
176
     0
 40
1.0
176
     0
  0
VISUALSTYLE
  5
39
102
{ACAD_REACTORS
330
2A
102
}
330
2A
100
AcDbVisualStyle
  2
Facepattern
 70
    15
177
     3
291
     1
 70
    58
 90
        2
176
     1
 90
        2
176
     1
 90
        0
176
     1
 90
        0
176
     1
 40
0.6
176
     1
 40
30.0
176
     1
 62
     7
420
 16777215
176
     1
 90
        1
176
     1
 90
        4
176
     1
 62
     7
176
     1
 62
   257
176
     1
 90
        1
176
     1
 90
        1
176
     1
 40
1.0
176
     1
 90
        8
176
     1
 62
     7
176
     1
 40
1.0
176
     1
 90
        1
176
     1
 90
        6
176
     1
 90
        2
176
     1
 62
     7
176
     1
 90
        5
176
     1
 90
        0
176
     1
 90
        0
176
     1
290
     0
176
     1
 90
        1
176
     1
 40
0.0
176
     1
 90
        0
176
     1
290
     0
176
     1
290
     1
176
     1
290
     1
176
     1
290
     0
176
     1
290
     0
176
     1
290
     0
176
     1
290
     0
176
     1
290
     0
176
     1
290
     0
176
     1
 90
       50
176
     1
 40
0.0
176
     1
 40
1.0
176
     1
 90
        0
176
     1
 62
    18
420
        0
176
     1
 90
       50
176
     1
 90
        3
176
     1
 62
     5
420
      255
176
     1
290
     0
176
     1
 90
       50
176
     1
 90
       50
176
     1
 90
       50
176
     1
290
     0
176
     1
 90
       50
176
     1
 62
   256
176
     0
 40
1.0
176
     0
 90
        2
176
     1
  1
strokes_ogs.tif
176
     1
290
     0
176
     1
 40
1.0
176
     1
 40
1.0
176
     1
  0
VISUALSTYLE
  5
2B
102
{ACAD_REACTORS
330
2A
102
}
330
2A
100
AcDbVisualStyle
  2
Flat
 70
     0
177
     3
291
     1
 70
    58
 90
        2
176
     1
 90
        1
176
     1
 90
        1
176
     1
 90
        2
176
     1
 40
0.6
176
     1
 40
30.0
176
     1
 62
     7
420
 16777215
176
     1
 90
        0
176
     1
 90
        0
176
     1
 62
     7
176
     1
 62
   257
176
     1
 90
        1
176
     1
 90
        1
176
     1
 40
1.0
176
     1
 90
        8
176
     1
 62
     7
176
     1
 40
1.0
176
     1
 90
        1
176
     1
 90
        6
176
     1
 90
        2
176
     1
 62
     7
176
     1
 90
        5
176
     1
 90
        0
176
     1
 90
        0
176
     1
290
     0
176
     1
 90
       13
176
     1
 40
0.0
176
     1
 90
        0
176
     1
290
     0
176
     1
290
     1
176
     1
290
     1
176
     1
290
     0
176
     1
290
     0
176
     1
290
     0
176
     1
290
     0
176
     1
290
     0
176
     1
290
     0
176
     1
 90
       50
176
     1
 40
0.0
176
     1
 40
1.0
176
     1
 90
        0
176
     1
 62
    18
420
        0
176
     1
 90
       50
176
     1
 90
        3
176
     1
 62
     5
420
      255
176
     1
290
     0
176
     1
 90
       50
176
     1
 90
       50
176
     1
 90
       50
176
     1
290
     0
176
     1
 90
       50
176
     1
 62
   256
176
     0
 40
1.0
176
     0
 90
        2
176
     1
  1
strokes_ogs.tif
176
     1
290
     0
176
     1
 40
1.0
176
     1
 40
1.0
176
     1
  0
VISUALSTYLE
  5
2C
102
{ACAD_REACTORS
330
2A
102
}
330
2A
100
AcDbVisualStyle
  2
FlatWithEdges
 70
     1
177
     3
291
     1
 70
    58
 90
        2
176
     1
 90
        1
176
     1
 90
        1
176
     1
 90
        2
176
     1
 40
0.6
176
     1
 40
30.0
176
     1
 62
     7
420
 16777215
176
     1
 90
        1
176
     1
 90
        0
176
     1
 62
     7
176
     1
 62
   257
176
     1
 90
        1
176
     1
 90
        1
176
     1
 40
1.0
176
     1
 90
        0
176
     1
 62
   257
176
     1
 40
1.0
176
     1
 90
        1
176
     1
 90
        6
176
     1
 90
        2
176
     1
 62
     7
176
     1
 90
        5
176
     1
 90
        0
176
     1
 90
        0
176
     1
290
     0
176
     1
 90
       13
176
     1
 40
0.0
176
     1
 90
        0
176
     1
290
     0
176
     1
290
     1
176
     1
290
     1
176
     1
290
     0
176
     1
290
     0
176
     1
290
     0
176
     1
290
     0
176
     1
290
     0
176
     1
290
     0
176
     1
 90
       50
176
     1
 40
0.0
176
     1
 40
1.0
176
     1
 90
        0
176
     1
 62
    18
420
        0
176
     1
 90
       50
176
     1
 90
        3
176
     1
 62
     5
420
      255
176
     1
290
     0
176
     1
 90
       50
176
     1
 90
       50
176
     1
 90
       50
176
     1
290
     0
176
     1
 90
       50
176
     1
 62
   256
176
     0
 40
1.0
176
     0
 90
        2
176
     1
  1
strokes_ogs.tif
176
     1
290
     0
176
     1
 40
1.0
176
     1
 40
1.0
176
     1
  0
VISUALSTYLE
  5
2D
102
{ACAD_REACTORS
330
2A
102
}
330
2A
100
AcDbVisualStyle
  2
Gouraud
 70
     2
177
     3
291
     1
 70
    58
 90
        2
176
     1
 90
        2
176
     1
 90
        1
176
     1
 90
        2
176
     1
 40
0.6
176
     1
 40
30.0
176
     1
 62
     7
420
 16777215
176
     1
 90
        0
176
     1
 90
        0
176
     1
 62
     7
176
     1
 62
   257
176
     1
 90
        1
176
     1
 90
        1
176
     1
 40
1.0
176
     1
 90
        0
176
     1
 62
     7
176
     1
 40
1.0
176
     1
 90
        1
176
     1
 90
        6
176
     1
 90
        2
176
     1
 62
     7
176
     1
 90
        5
176
     1
 90
        0
176
     1
 90
        0
176
     1
290
     0
176
     1
 90
       13
176
     1
 40
0.0
176
     1
 90
        0
176
     1
290
     0
176
     1
290
     1
176
     1
290
     1
176
     1
290
     0
176
     1
290
     0
176
     1
290
     0
176
     1
290
     0
176
     1
290
     0
176
     1
290
     0
176
     1
 90
       50
176
     1
 40
0.0
176
     1
 40
1.0
176
     1
 90
        0
176
     1
 62
    18
420
        0
176
     1
 90
       50
176
     1
 90
        3
176
     1
 62
     5
420
      255
176
     1
290
     0
176
     1
 90
       50
176
     1
 90
       50
176
     1
 90
       50
176
     1
290
     0
176
     1
 90
       50
176
     1
 62
   256
176
     0
 40
1.0
176
     0
 90
        2
176
     1
  1
strokes_ogs.tif
176
     1
290
     0
176
     1
 40
1.0
176
     1
 40
1.0
176
     1
  0
VISUALSTYLE
  5
2E
102
{ACAD_REACTORS
330
2A
102
}
330
2A
100
AcDbVisualStyle
  2
GouraudWithEdges
 70
     3
177
     3
291
     1
 70
    58
 90
        2
176
     1
 90
        2
176
     1
 90
        1
176
     1
 90
        2
176
     1
 40
0.6
176
     1
 40
30.0
176
     1
 62
     7
420
 16777215
176
     1
 90
        1
176
     1
 90
        0
176
     1
 62
     7
176
     1
 62
   257
176
     1
 90
        1
176
     1
 90
        1
176
     1
 40
1.0
176
     1
 90
        0
176
     1
 62
   257
176
     1
 40
1.0
176
     1
 90
        1
176
     1
 90
        6
176
     1
 90
        2
176
     1
 62
     7
176
     1
 90
        5
176
     1
 90
        0
176
     1
 90
        0
176
     1
290
     0
176
     1
 90
       13
176
     1
 40
0.0
176
     1
 90
        0
176
     1
290
     0
176
     1
290
     1
176
     1
290
     1
176
     1
290
     0
176
     1
290
     0
176
     1
290
     0
176
     1
290
     0
176
     1
290
     0
176
     1
290
     0
176
     1
 90
       50
176
     1
 40
0.0
176
     1
 40
1.0
176
     1
 90
        0
176
     1
 62
    18
420
        0
176
     1
 90
       50
176
     1
 90
        3
176
     1
 62
     5
420
      255
176
     1
290
     0
176
     1
 90
       50
176
     1
 90
       50
176
     1
 90
       50
176
     1
290
     0
176
     1
 90
       50
176
     1
 62
   256
176
     0
 40
1.0
176
     0
 90
        2
176
     1
  1
strokes_ogs.tif
176
     1
290
     0
176
     1
 40
1.0
176
     1
 40
1.0
176
     1
  0
VISUALSTYLE
  5
31
102
{ACAD_REACTORS
330
2A
102
}
330
2A
100
AcDbVisualStyle
  2
Hidden
 70
     6
177
     3
291
     0
 70
    58
 90
        1
176
     1
 90
        2
176
     1
 90
        2
176
     1
 90
        0
176
     1
 40
0.6
176
     1
 40
30.0
176
     1
 62
     7
420
 16777215
176
     1
 90
        2
176
     1
 90
        2
176
     1
 62
     7
176
     1
 62
   257
176
     1
 90
        2
176
     1
 90
        1
176
     1
 40
40.0
176
     1
 90
        0
176
     1
 62
   257
176
     1
 40
1.0
176
     1
 90
        1
176
     1
 90
        6
176
     1
 90
        2
176
     1
 62
     7
176
     1
 90
        3
176
     1
 90
        0
176
     1
 90
        0
176
     1
290
     0
176
     1
 90
        1
176
     1
 40
0.0
176
     1
 90
        0
176
     1
290
     0
176
     1
290
     1
176
     1
290
     1
176
     1
290
     0
176
     1
290
     0
176
     1
290
     0
176
     1
290
     0
176
     1
290
     0
176
     1
290
     0
176
     1
 90
       50
176
     1
 40
0.0
176
     1
 40
1.0
176
     1
 90
        0
176
     1
 62
    18
420
        0
176
     1
 90
       50
176
     1
 90
        3
176
     1
 62
     5
420
      255
176
     1
290
     0
176
     1
 90
       50
176
     1
 90
       50
176
     1
 90
       50
176
     1
290
     0
176
     1
 90
       50
176
     1
 62
   256
176
     0
 40
1.0
176
     0
 90
        2
176
     1
  1
strokes_ogs.tif
176
     1
290
     0
176
     1
 40
1.0
176
     1
 40
1.0
176
     1
  0
VISUALSTYLE
  5
3B
102
{ACAD_REACTORS
330
2A
102
}
330
2A
100
AcDbVisualStyle
  2
JitterOff
 70
    20
177
     3
291
     1
 70
    58
 90
        2
176
     0
 90
        2
176
     0
 90
        0
176
     0
 90
        0
176
     0
 40
0.6
176
     0
 40
30.0
176
     0
 62
     7
420
 16777215
176
     0
 90
        1
176
     0
 90
        4
176
     0
 62
     7
176
     0
 62
   257
176
     0
 90
        1
176
     0
 90
        1
176
     0
 40
1.0
176
     0
 90
       10
176
     2
 62
     7
176
     0
 40
1.0
176
     0
 90
        1
176
     0
 90
        6
176
     0
 90
        2
176
     0
 62
     7
176
     0
 90
        5
176
     0
 90
        0
176
     0
 90
        0
176
     0
290
     0
176
     0
 90
        1
176
     0
 40
0.0
176
     0
 90
        0
176
     0
290
     0
176
     0
290
     1
176
     0
290
     1
176
     0
290
     0
176
     0
290
     0
176
     0
290
     0
176
     0
290
     0
176
     0
290
     0
176
     0
290
     0
176
     0
 90
       50
176
     0
 40
0.0
176
     0
 40
1.0
176
     0
 90
        0
176
     0
 62
    18
420
        0
176
     0
 90
       50
176
     0
 90
        3
176
     0
 62
     5
420
      255
176
     0
290
     0
176
     0
 90
       50
176
     0
 90
       50
176
     0
 90
       50
176
     0
290
     0
176
     0
 90
       50
176
     0
 62
   256
176
     0
 40
1.0
176
     0
 90
        2
176
     0
  1
strokes_ogs.tif
176
     0
290
     0
176
     0
 40
1.0
176
     0
 40
1.0
176
     0
  0
VISUALSTYLE
  5
38
102
{ACAD_REACTORS
330
2A
102
}
330
2A
100
AcDbVisualStyle
  2
Linepattern
 70
    14
177
     3
291
     1
 70
    58
 90
        2
176
     1
 90
        2
176
     1
 90
        0
176
     1
 90
        0
176
     1
 40
0.6
176
     1
 40
30.0
176
     1
 62
     7
420
 16777215
176
     1
 90
        1
176
     1
 90
        4
176
     1
 62
     7
176
     1
 62
   257
176
     1
 90
        7
176
     1
 90
        7
176
     1
 40
1.0
176
     1
 90
        8
176
     1
 62
     7
176
     1
 40
1.0
176
     1
 90
        1
176
     1
 90
        6
176
     1
 90
        2
176
     1
 62
     7
176
     1
 90
        5
176
     1
 90
        0
176
     1
 90
        0
176
     1
290
     0
176
     1
 90
        1
176
     1
 40
0.0
176
     1
 90
        0
176
     1
290
     0
176
     1
290
     1
176
     1
290
     1
176
     1
290
     0
176
     1
290
     0
176
     1
290
     0
176
     1
290
     0
176
     1
290
     0
176
     1
290
     0
176
     1
 90
       50
176
     1
 40
0.0
176
     1
 40
1.0
176
     1
 90
        0
176
     1
 62
    18
420
        0
176
     1
 90
       50
176
     1
 90
        3
176
     1
 62
     5
420
      255
176
     1
290
     0
176
     1
 90
       50
176
     1
 90
       50
176
     1
 90
       50
176
     1
290
     0
176
     1
 90
       50
176
     1
 62
   256
176
     0
 40
1.0
176
     0
 90
        2
176
     1
  1
strokes_ogs.tif
176
     1
290
     0
176
     1
 40
1.0
176
     1
 40
1.0
176
     1
  0
VISUALSTYLE
  5
3C
102
{ACAD_REACTORS
330
2A
102
}
330
2A
100
AcDbVisualStyle
  2
OverhangOff
 70
    21
177
     3
291
     1
 70
    58
 90
        2
176
     0
 90
        2
176
     0
 90
        0
176
     0
 90
        0
176
     0
 40
0.6
176
     0
 40
30.0
176
     0
 62
     7
420
 16777215
176
     0
 90
        1
176
     0
 90
        4
176
     0
 62
     7
176
     0
 62
   257
176
     0
 90
        1
176
     0
 90
        1
176
     0
 40
1.0
176
     0
 90
        9
176
     2
 62
     7
176
     0
 40
1.0
176
     0
 90
        1
176
     0
 90
        6
176
     0
 90
        2
176
     0
 62
     7
176
     0
 90
        5
176
     0
 90
        0
176
     0
 90
        0
176
     0
290
     0
176
     0
 90
        1
176
     0
 40
0.0
176
     0
 90
        0
176
     0
290
     0
176
     0
290
     1
176
     0
290
     1
176
     0
290
     0
176
     0
290
     0
176
     0
290
     0
176
     0
290
     0
176
     0
290
     0
176
     0
290
     0
176
     0
 90
       50
176
     0
 40
0.0
176
     0
 40
1.0
176
     0
 90
        0
176
     0
 62
    18
420
        0
176
     0
 90
       50
176
     0
 90
        3
176
     0
 62
     5
420
      255
176
     0
290
     0
176
     0
 90
       50
176
     0
 90
       50
176
     0
 90
       50
176
     0
290
     0
176
     0
 90
       50
176
     0
 62
   256
176
     0
 40
1.0
176
     0
 90
        2
176
     0
  1
strokes_ogs.tif
176
     0
290
     0
176
     0
 40
1.0
176
     0
 40
1.0
176
     0
  0
VISUALSTYLE
  5
33
102
{ACAD_REACTORS
330
2A
102
}
330
2A
100
AcDbVisualStyle
  2
Realistic
 70
     8
177
     3
291
     0
 70
    58
 90
        2
176
     1
 90
        3
176
     1
 90
        0
176
     1
 90
        2
176
     1
 40
0.6
176
     1
 40
30.0
176
     1
 62
     7
420
 16777215
176
     1
 90
        0
176
     1
 90
        0
176
     1
 62
     7
176
     1
 62
   257
176
     1
 90
        1
176
     1
 90
        1
176
     1
 40
1.0
176
     1
 90
        8
176
     1
 62
   257
176
     1
 40
1.0
176
     1
 90
        1
176
     1
 90
        6
176
     1
 90
        2
176
     1
 62
     7
176
     1
 90
        3
176
     1
 90
        0
176
     1
 90
        0
176
     1
290
     0
176
     1
 90
       13
176
     1
 40
0.0
176
     1
 90
        0
176
     1
290
     0
176
     1
290
     1
176
     1
290
     1
176
     1
290
     0
176
     1
290
     0
176
     1
290
     0
176
     1
290
     0
176
     1
290
     0
176
     1
290
     0
176
     1
 90
       50
176
     1
 40
0.0
176
     1
 40
1.0
176
     1
 90
        0
176
     1
 62
    18
420
        0
176
     1
 90
       50
176
     1
 90
        3
176
     1
 62
     5
420
      255
176
     1
290
     0
176
     1
 90
       50
176
     1
 90
       50
176
     1
 90
       50
176
     1
290
     0
176
     1
 90
       50
176
     1
 62
   256
176
     0
 40
1.0
176
     0
 90
        2
176
     1
  1
strokes_ogs.tif
176
     1
290
     0
176
     1
 40
1.0
176
     1
 40
1.0
176
     1
  0
VISUALSTYLE
  5
42
102
{ACAD_REACTORS
330
2A
102
}
330
2A
100
AcDbVisualStyle
  2
Shaded
 70
    27
177
     3
291
     0
 70
    58
 90
        2
176
     1
 90
        2
176
     1
 90
        1
176
     1
 90
        2
176
     1
 40
0.6
176
     1
 40
30.0
176
     1
 62
     7
420
 16777215
176
     1
 90
        0
176
     1
 90
        4
176
     1
 62
     7
176
     1
 62
   257
176
     1
 90
        1
176
     1
 90
        1
176
     1
 40
1.0
176
     1
 90
        8
176
     1
 62
   257
176
     1
 40
1.0
176
     1
 90
        1
176
     1
 90
        6
176
     1
 90
        2
176
     1
 62
     8
420
  7895160
176
     1
 90
        3
176
     1
 90
        0
176
     1
 90
        0
176
     1
290
     0
176
     1
 90
        5
176
     1
 40
0.0
176
     1
 90
        0
176
     1
290
     0
176
     1
290
     1
176
     1
290
     1
176
     1
290
     0
176
     1
290
     0
176
     1
290
     0
176
     1
290
     0
176
     1
290
     0
176
     1
290
     0
176
     1
 90
       50
176
     1
 40
0.0
176
     1
 40
1.0
176
     1
 90
        0
176
     1
 62
    18
420
        0
176
     1
 90
       50
176
     1
 90
        3
176
     1
 62
     5
420
      255
176
     1
290
     0
176
     1
 90
       50
176
     1
 90
       50
176
     1
 90
       50
176
     1
290
     0
176
     1
 90
       50
176
     1
 62
   256
176
     0
 40
1.0
176
     0
 90
        2
176
     1
  1
strokes_ogs.tif
176
     1
290
     0
176
     1
 40
1.0
176
     1
 40
1.0
176
     1
  0
VISUALSTYLE
  5
41
102
{ACAD_REACTORS
330
2A
102
}
330
2A
100
AcDbVisualStyle
  2
Shaded with edges
 70
    26
177
     3
291
     0
 70
    58
 90
        2
176
     1
 90
        2
176
     1
 90
        1
176
     1
 90
        2
176
     1
 40
0.6
176
     1
 40
30.0
176
     1
 62
     7
420
 16777215
176
     1
 90
        1
176
     1
 90
       10
176
     1
 62
     7
176
     1
 62
   257
176
     1
 90
        2
176
     1
 90
        1
176
     1
 40
1.0
176
     1
 90
        8
176
     1
 62
   257
176
     1
 40
1.0
176
     1
 90
        1
176
     1
 90
        6
176
     1
 90
        2
176
     1
 62
     7
176
     1
 90
        3
176
     1
 90
        0
176
     1
 90
        0
176
     1
290
     0
176
     1
 90
        5
176
     1
 40
0.0
176
     1
 90
        0
176
     1
290
     0
176
     1
290
     1
176
     1
290
     1
176
     1
290
     0
176
     1
290
     0
176
     1
290
     0
176
     1
290
     0
176
     1
290
     0
176
     1
290
     0
176
     1
 90
       50
176
     1
 40
0.0
176
     1
 40
1.0
176
     1
 90
        0
176
     1
 62
    18
420
        0
176
     1
 90
       50
176
     1
 90
        3
176
     1
 62
     5
420
      255
176
     1
290
     0
176
     1
 90
       50
176
     1
 90
       50
176
     1
 90
       50
176
     1
290
     0
176
     1
 90
       50
176
     1
 62
   256
176
     0
 40
1.0
176
     0
 90
        2
176
     1
  1
strokes_ogs.tif
176
     1
290
     0
176
     1
 40
1.0
176
     1
 40
1.0
176
     1
  0
VISUALSTYLE
  5
3E
102
{ACAD_REACTORS
330
2A
102
}
330
2A
100
AcDbVisualStyle
  2
Shades of Gray
 70
    23
177
     3
291
     0
 70
    58
 90
        2
176
     1
 90
        2
176
     1
 90
        3
176
     1
 90
        0
176
     1
 40
0.6
176
     1
 40
30.0
176
     1
 62
     7
420
 16777215
176
     1
 90
        2
176
     1
 90
        2
176
     1
 62
     7
176
     1
 62
     7
176
     1
 90
        1
176
     1
 90
        1
176
     1
 40
40.0
176
     1
 90
        8
176
     1
 62
     7
176
     1
 40
1.0
176
     1
 90
        1
176
     1
 90
        6
176
     1
 90
        2
176
     1
 62
     7
176
     1
 90
        3
176
     1
 90
        0
176
     1
 90
        0
176
     1
290
     0
176
     1
 90
        1
176
     1
 40
0.0
176
     1
 90
        0
176
     1
290
     0
176
     1
290
     1
176
     1
290
     1
176
     1
290
     0
176
     1
290
     0
176
     1
290
     0
176
     1
290
     0
176
     1
290
     0
176
     1
290
     0
176
     1
 90
       50
176
     1
 40
0.0
176
     1
 40
1.0
176
     1
 90
        0
176
     1
 62
    18
420
        0
176
     1
 90
       50
176
     1
 90
        3
176
     1
 62
     5
420
      255
176
     1
290
     0
176
     1
 90
       50
176
     1
 90
       50
176
     1
 90
       50
176
     1
290
     0
176
     1
 90
       50
176
     1
 62
   256
176
     0
 40
1.0
176
     0
 90
        2
176
     1
  1
strokes_ogs.tif
176
     1
290
     0
176
     1
 40
1.0
176
     1
 40
1.0
176
     1
  0
VISUALSTYLE
  5
3F
102
{ACAD_REACTORS
330
2A
102
}
330
2A
100
AcDbVisualStyle
  2
Sketchy
 70
    24
177
     3
291
     0
 70
    58
 90
        1
176
     1
 90
        2
176
     1
 90
        2
176
     1
 90
        0
176
     1
 40
0.6
176
     1
 40
30.0
176
     1
 62
     7
420
 16777215
176
     1
 90
        2
176
     1
 90
        2
176
     1
 62
     7
176
     1
 62
     7
176
     1
 90
        1
176
     1
 90
        1
176
     1
 40
40.0
176
     1
 90
       11
176
     1
 62
     7
176
     1
 40
1.0
176
     1
 90
        1
176
     1
 90
        6
176
     1
 90
        2
176
     1
 62
     7
176
     1
 90
        6
176
     1
 90
        0
176
     1
 90
        0
176
     1
290
     0
176
     1
 90
        1
176
     1
 40
0.0
176
     1
 90
        0
176
     1
290
     0
176
     1
290
     1
176
     1
290
     1
176
     1
290
     0
176
     1
290
     0
176
     1
290
     0
176
     1
290
     0
176
     1
290
     0
176
     1
290
     0
176
     1
 90
       50
176
     1
 40
0.0
176
     1
 40
1.0
176
     1
 90
        0
176
     1
 62
    18
420
        0
176
     1
 90
       50
176
     1
 90
        3
176
     1
 62
     5
420
      255
176
     1
290
     0
176
     1
 90
       50
176
     1
 90
       50
176
     1
 90
       50
176
     1
290
     0
176
     1
 90
       50
176
     1
 62
   256
176
     0
 40
1.0
176
     0
 90
        2
176
     1
  1
strokes_ogs.tif
176
     1
290
     0
176
     1
 40
1.0
176
     1
 40
1.0
176
     1
  0
VISUALSTYLE
  5
37
102
{ACAD_REACTORS
330
2A
102
}
330
2A
100
AcDbVisualStyle
  2
Thicken
 70
    13
177
     3
291
     1
 70
    58
 90
        2
176
     1
 90
        2
176
     1
 90
        0
176
     1
 90
        0
176
     1
 40
0.6
176
     1
 40
30.0
176
     1
 62
     7
420
 16777215
176
     1
 90
        1
176
     1
 90
        4
176
     1
 62
     7
176
     1
 62
   257
176
     1
 90
        1
176
     1
 90
        1
176
     1
 40
1.0
176
     1
 90
       12
176
     1
 62
     7
176
     1
 40
1.0
176
     1
 90
        1
176
     1
 90
        6
176
     1
 90
        2
176
     1
 62
     7
176
     1
 90
        5
176
     1
 90
        0
176
     1
 90
        0
176
     1
290
     0
176
     1
 90
        1
176
     1
 40
0.0
176
     1
 90
        0
176
     1
290
     0
176
     1
290
     1
176
     1
290
     1
176
     1
290
     0
176
     1
290
     0
176
     1
290
     0
176
     1
290
     0
176
     1
290
     0
176
     1
290
     0
176
     1
 90
       50
176
     1
 40
0.0
176
     1
 40
1.0
176
     1
 90
        0
176
     1
 62
    18
420
        0
176
     1
 90
       50
176
     1
 90
        3
176
     1
 62
     5
420
      255
176
     1
290
     0
176
     1
 90
       50
176
     1
 90
       50
176
     1
 90
       50
176
     1
290
     0
176
     1
 90
       50
176
     1
 62
   256
176
     0
 40
1.0
176
     0
 90
        2
176
     1
  1
strokes_ogs.tif
176
     1
290
     0
176
     1
 40
1.0
176
     1
 40
1.0
176
     1
  0
VISUALSTYLE
  5
30
102
{ACAD_REACTORS
330
2A
102
}
330
2A
100
AcDbVisualStyle
  2
Wireframe
 70
     5
177
     3
291
     0
 70
    58
 90
        0
176
     1
 90
        2
176
     1
 90
        0
176
     1
 90
        0
176
     1
 40
0.6
176
     1
 40
30.0
176
     1
 62
     7
420
 16777215
176
     1
 90
        1
176
     1
 90
        4
176
     1
 62
     7
176
     1
 62
   257
176
     1
 90
        1
176
     1
 90
        1
176
     1
 40
1.0
176
     1
 90
        0
176
     1
 62
   257
176
     1
 40
1.0
176
     1
 90
        1
176
     1
 90
        6
176
     1
 90
        2
176
     1
 62
     7
176
     1
 90
        3
176
     1
 90
        0
176
     1
 90
        0
176
     1
290
     0
176
     1
 90
        1
176
     1
 40
0.0
176
     1
 90
        0
176
     1
290
     0
176
     1
290
     1
176
     1
290
     1
176
     1
290
     0
176
     1
290
     0
176
     1
290
     0
176
     1
290
     0
176
     1
290
     0
176
     1
290
     0
176
     1
 90
       50
176
     1
 40
0.0
176
     1
 40
1.0
176
     1
 90
        0
176
     1
 62
    18
420
        0
176
     1
 90
       50
176
     1
 90
        3
176
     1
 62
     5
420
      255
176
     1
290
     0
176
     1
 90
       50
176
     1
 90
       50
176
     1
 90
       50
176
     1
290
     0
176
     1
 90
       50
176
     1
 62
   256
176
     0
 40
1.0
176
     0
 90
        2
176
     1
  1
strokes_ogs.tif
176
     1
290
     0
176
     1
 40
1.0
176
     1
 40
1.0
176
     1
  0
VISUALSTYLE
  5
40
102
{ACAD_REACTORS
330
2A
102
}
330
2A
100
AcDbVisualStyle
  2
X-Ray
 70
    25
177
     3
291
     0
 70
    58
 90
        2
176
     1
 90
        2
176
     1
 90
        1
176
     1
 90
        1
176
     1
 40
0.5
176
     1
 40
30.0
176
     1
 62
     7
420
 16777215
176
     1
 90
        1
176
     1
 90
        0
176
     1
 62
     7
176
     1
 62
   257
176
     1
 90
        1
176
     1
 90
        1
176
     1
 40
1.0
176
     1
 90
        8
176
     1
 62
     7
176
     1
 40
1.0
176
     1
 90
        1
176
     1
 90
        6
176
     1
 90
        2
176
     1
 62
     7
176
     1
 90
        3
176
     1
 90
        0
176
     1
 90
        0
176
     1
290
     0
176
     1
 90
       13
176
     1
 40
0.0
176
     1
 90
        0
176
     1
290
     0
176
     1
290
     1
176
     1
290
     1
176
     1
290
     0
176
     1
290
     0
176
     1
290
     0
176
     1
290
     0
176
     1
290
     0
176
     1
290
     0
176
     1
 90
       50
176
     1
 40
0.0
176
     1
 40
1.0
176
     1
 90
        0
176
     1
 62
    18
420
        0
176
     1
 90
       50
176
     1
 90
        3
176
     1
 62
     5
420
      255
176
     1
290
     0
176
     1
 90
       50
176
     1
 90
       50
176
     1
 90
       50
176
     1
290
     0
176
     1
 90
       50
176
     1
 62
   256
176
     0
 40
1.0
176
     0
 90
        2
176
     1
  1
strokes_ogs.tif
176
     1
290
     0
176
     1
 40
1.0
176
     1
 40
1.0
176
     1
  0
DICTIONARYVAR
  5
1A2
102
{ACAD_REACTORS
330
1A1
102
}
330
1A1
100
DictionaryVariables
280
     0
  1
1:1
  0
DICTIONARYVAR
  5
1A7
102
{ACAD_REACTORS
330
1A1
102
}
330
1A1
100
DictionaryVariables
280
     0
  1
Standard
  0
DICTIONARYVAR
  5
1A6
102
{ACAD_REACTORS
330
1A1
102
}
330
1A1
100
DictionaryVariables
280
     0
  1
Standard
  0
DICTIONARY
  5
1A3
330
6A
100
AcDbDictionary
280
     1
281
     1
  3
ACAD_ROUNDTRIP_2008_TABLESTYLE_CELLSTYLEMAP
360
1A4
  0
CELLSTYLEMAP
  5
1A4
102
{ACAD_REACTORS
330
1A3
102
}
330
1A3
100
AcDbCellStyleMap
 90
        3
300
CELLSTYLE
  1
TABLEFORMAT_BEGIN
 90
        5
170
     1
 91
        0
 92
    32768
 62
   257
 93
        1
300
CONTENTFORMAT
  1
CONTENTFORMAT_BEGIN
 90
        0
 91
        0
 92
        4
 93
        0
300

 40
0.0
140
1.0
 94
        5
 62
     0
340
11
144
0.25
309
CONTENTFORMAT_END
171
     1
301
MARGIN
  1
CELLMARGIN_BEGIN
 40
0.06
 40
0.06
 40
0.06
 40
0.06
 40
0.06
 40
0.06
309
CELLMARGIN_END
 94
        6
 95
        1
302
GRIDFORMAT
  1
GRIDFORMAT_BEGIN
 90
        0
 91
        1
 62
     0
 92
       -2
340
14
 93
        0
 40
0.045
309
GRIDFORMAT_END
 95
        2
302
GRIDFORMAT
  1
GRIDFORMAT_BEGIN
 90
        0
 91
        1
 62
     0
 92
       -2
340
14
 93
        0
 40
0.045
309
GRIDFORMAT_END
 95
        4
302
GRIDFORMAT
  1
GRIDFORMAT_BEGIN
 90
        0
 91
        1
 62
     0
 92
       -2
340
14
 93
        0
 40
0.045
309
GRIDFORMAT_END
 95
        8
302
GRIDFORMAT
  1
GRIDFORMAT_BEGIN
 90
        0
 91
        1
 62
     0
 92
       -2
340
14
 93
        0
 40
0.045
309
GRIDFORMAT_END
 95
       16
302
GRIDFORMAT
  1
GRIDFORMAT_BEGIN
 90
        0
 91
        1
 62
     0
 92
       -2
340
14
 93
        0
 40
0.045
309
GRIDFORMAT_END
 95
       32
302
GRIDFORMAT
  1
GRIDFORMAT_BEGIN
 90
        0
 91
        1
 62
     0
 92
       -2
340
14
 93
        0
 40
0.045
309
GRIDFORMAT_END
309
TABLEFORMAT_END
  1
CELLSTYLE_BEGIN
 90
        1
 91
        1
300
_TITLE
309
CELLSTYLE_END
300
CELLSTYLE
  1
TABLEFORMAT_BEGIN
 90
        5
170
     1
 91
        0
 92
        0
 62
   257
 93
        1
300
CONTENTFORMAT
  1
CONTENTFORMAT_BEGIN
 90
        0
 91
        0
 92
        4
 93
        0
300

 40
0.0
140
1.0
 94
        5
 62
     0
340
11
144
0.18
309
CONTENTFORMAT_END
171
     1
301
MARGIN
  1
CELLMARGIN_BEGIN
 40
0.06
 40
0.06
 40
0.06
 40
0.06
 40
0.06
 40
0.06
309
CELLMARGIN_END
 94
        6
 95
        1
302
GRIDFORMAT
  1
GRIDFORMAT_BEGIN
 90
        0
 91
        1
 62
     0
 92
       -2
340
14
 93
        0
 40
0.045
309
GRIDFORMAT_END
 95
        2
302
GRIDFORMAT
  1
GRIDFORMAT_BEGIN
 90
        0
 91
        1
 62
     0
 92
       -2
340
14
 93
        0
 40
0.045
309
GRIDFORMAT_END
 95
        4
302
GRIDFORMAT
  1
GRIDFORMAT_BEGIN
 90
        0
 91
        1
 62
     0
 92
       -2
340
14
 93
        0
 40
0.045
309
GRIDFORMAT_END
 95
        8
302
GRIDFORMAT
  1
GRIDFORMAT_BEGIN
 90
        0
 91
        1
 62
     0
 92
       -2
340
14
 93
        0
 40
0.045
309
GRIDFORMAT_END
 95
       16
302
GRIDFORMAT
  1
GRIDFORMAT_BEGIN
 90
        0
 91
        1
 62
     0
 92
       -2
340
14
 93
        0
 40
0.045
309
GRIDFORMAT_END
 95
       32
302
GRIDFORMAT
  1
GRIDFORMAT_BEGIN
 90
        0
 91
        1
 62
     0
 92
       -2
340
14
 93
        0
 40
0.045
309
GRIDFORMAT_END
309
TABLEFORMAT_END
  1
CELLSTYLE_BEGIN
 90
        2
 91
        1
300
_HEADER
309
CELLSTYLE_END
300
CELLSTYLE
  1
TABLEFORMAT_BEGIN
 90
        5
170
     1
 91
        0
 92
        0
 62
   257
 93
        1
300
CONTENTFORMAT
  1
CONTENTFORMAT_BEGIN
 90
        0
 91
        0
 92
        4
 93
        0
300

 40
0.0
140
1.0
 94
        2
 62
     0
340
11
144
0.18
309
CONTENTFORMAT_END
171
     1
301
MARGIN
  1
CELLMARGIN_BEGIN
 40
0.06
 40
0.06
 40
0.06
 40
0.06
 40
0.06
 40
0.06
309
CELLMARGIN_END
 94
        6
 95
        1
302
GRIDFORMAT
  1
GRIDFORMAT_BEGIN
 90
        0
 91
        1
 62
     0
 92
       -2
340
14
 93
        0
 40
0.045
309
GRIDFORMAT_END
 95
        2
302
GRIDFORMAT
  1
GRIDFORMAT_BEGIN
 90
        0
 91
        1
 62
     0
 92
       -2
340
14
 93
        0
 40
0.045
309
GRIDFORMAT_END
 95
        4
302
GRIDFORMAT
  1
GRIDFORMAT_BEGIN
 90
        0
 91
        1
 62
     0
 92
       -2
340
14
 93
        0
 40
0.045
309
GRIDFORMAT_END
 95
        8
302
GRIDFORMAT
  1
GRIDFORMAT_BEGIN
 90
        0
 91
        1
 62
     0
 92
       -2
340
14
 93
        0
 40
0.045
309
GRIDFORMAT_END
 95
       16
302
GRIDFORMAT
  1
GRIDFORMAT_BEGIN
 90
        0
 91
        1
 62
     0
 92
       -2
340
14
 93
        0
 40
0.045
309
GRIDFORMAT_END
 95
       32
302
GRIDFORMAT
  1
GRIDFORMAT_BEGIN
 90
        0
 91
        1
 62
     0
 92
       -2
340
14
 93
        0
 40
0.045
309
GRIDFORMAT_END
309
TABLEFORMAT_END
  1
CELLSTYLE_BEGIN
 90
        3
 91
        2
300
_DATA
309
CELLSTYLE_END
  0
ENDSEC
  0
EOF