0
SECTION
  2
HEADER
  9
$ACADVER
  1
AC1027
  9
$ACADMAINTVER
 70
     8
  9
$DWGCODEPAGE
  3
ANSI_1252
  9
$REQUIREDVERSIONS
160
                 0
  9
$COMMENTS
  1
File was created by Cadenas
  9
$CUSTOMPROPERTYTAG
  1
NN
  9
$CUSTOMPROPERTY
  1
Set Screw Extreme Duty Narrow Slot Take Up Inch Bore
  9
$CUSTOMPROPERTYTAG
  1
NT
  9
$CUSTOMPROPERTY
  1
SCED Take-Up Bearings -Narrow Slot -(Normal Duty)
  9
$CUSTOMPROPERTYTAG
  1
NB
  9
$CUSTOMPROPERTY
  1
076090
  9
$CUSTOMPROPERTYTAG
  1
NBSYN
  9
$CUSTOMPROPERTY
  1
$PN.
  9
$CUSTOMPROPERTYTAG
  1
LINA
  9
$CUSTOMPROPERTY
  1
076090
  9
$CUSTOMPROPERTYTAG
  1
SERIES
  9
$CUSTOMPROPERTY
  1
212
  9
$CUSTOMPROPERTYTAG
  1
SS
  9
$CUSTOMPROPERTY
  1
2-7/16
  9
$CUSTOMPROPERTYTAG
  1
PN
  9
$CUSTOMPROPERTY
  1
076090
  9
$CUSTOMPROPERTYTAG
  1
DESCRIPTION
  9
$CUSTOMPROPERTY
  1
NSTU-SCED-207
  9
$CUSTOMPROPERTYTAG
  1
W
  9
$CUSTOMPROPERTY
  1
8.4
  9
$CUSTOMPROPERTYTAG
  1
FS
  9
$CUSTOMPROPERTY
  1
NS415
  9
$CUSTOMPROPERTYTAG
  1
A
  9
$CUSTOMPROPERTY
  1
2.31
  9
$CUSTOMPROPERTYTAG
  1
B
  9
$CUSTOMPROPERTY
  1
6.69
  9
$CUSTOMPROPERTYTAG
  1
C
  9
$CUSTOMPROPERTY
  1
0.313
  9
$CUSTOMPROPERTYTAG
  1
D
  9
$CUSTOMPROPERTY
  1
3.75
  9
$CUSTOMPROPERTYTAG
  1
E
  9
$CUSTOMPROPERTY
  1
3.88
  9
$CUSTOMPROPERTYTAG
  1
F
  9
$CUSTOMPROPERTY
  1
1
  9
$CUSTOMPROPERTYTAG
  1
G
  9
$CUSTOMPROPERTY
  1
0.69
  9
$CUSTOMPROPERTYTAG
  1
H
  9
$CUSTOMPROPERTY
  1
1.28
  9
$CUSTOMPROPERTYTAG
  1
J
  9
$CUSTOMPROPERTY
  1
1.63
  9
$CUSTOMPROPERTYTAG
  1
L
  9
$CUSTOMPROPERTY
  1
2.97
  9
$CUSTOMPROPERTYTAG
  1
M
  9
$CUSTOMPROPERTY
  1
4.947 / 4.917
  9
$CUSTOMPROPERTYTAG
  1
N
  9
$CUSTOMPROPERTY
  1
5.75
  9
$CUSTOMPROPERTYTAG
  1
P
  9
$CUSTOMPROPERTY
  1
0.44
  9
$CUSTOMPROPERTYTAG
  1
R
  9
$CUSTOMPROPERTY
  1
0.90
  9
$CUSTOMPROPERTYTAG
  1
S
  9
$CUSTOMPROPERTY
  1
1.41
  9
$CUSTOMPROPERTYTAG
  1
COMPANY
  9
$CUSTOMPROPERTY
  1
baldor
  9
$INSBASE
 10
0.0
 20
0.0
 30
0.0
  9
$EXTMIN
 10
1.000000000000000E+20
 20
1.000000000000000E+20
 30
1.000000000000000E+20
  9
$EXTMAX
 10
-1.000000000000000E+20
 20
-1.000000000000000E+20
 30
-1.000000000000000E+20
  9
$LIMMIN
 10
0.0
 20
0.0
  9
$LIMMAX
 10
12.0
 20
9.0
  9
$ORTHOMODE
 70
     0
  9
$REGENMODE
 70
     1
  9
$FILLMODE
 70
     1
  9
$QTEXTMODE
 70
     0
  9
$MIRRTEXT
 70
     1
  9
$LTSCALE
 40
1.0
  9
$ATTMODE
 70
     1
  9
$TEXTSIZE
 40
0.2
  9
$TRACEWID
 40
0.05
  9
$TEXTSTYLE
  7
Standard
  9
$CLAYER
  8
0
  9
$CELTYPE
  6
ByLayer
  9
$CECOLOR
 62
   256
  9
$CELTSCALE
 40
1.0
  9
$DISPSILH
 70
     0
  9
$DIMSCALE
 40
1.0
  9
$DIMASZ
 40
0.18
  9
$DIMEXO
 40
0.0625
  9
$DIMDLI
 40
0.38
  9
$DIMRND
 40
0.0
  9
$DIMDLE
 40
0.0
  9
$DIMEXE
 40
0.18
  9
$DIMTP
 40
0.0
  9
$DIMTM
 40
0.0
  9
$DIMTXT
 40
0.18
  9
$DIMCEN
 40
0.09
  9
$DIMTSZ
 40
0.0
  9
$DIMTOL
 70
     0
  9
$DIMLIM
 70
     0
  9
$DIMTIH
 70
     1
  9
$DIMTOH
 70
     1
  9
$DIMSE1
 70
     0
  9
$DIMSE2
 70
     0
  9
$DIMTAD
 70
     0
  9
$DIMZIN
 70
     0
  9
$DIMBLK
  1

  9
$DIMASO
 70
     1
  9
$DIMSHO
 70
     1
  9
$DIMPOST
  1

  9
$DIMAPOST
  1

  9
$DIMALT
 70
     0
  9
$DIMALTD
 70
     2
  9
$DIMALTF
 40
25.4
  9
$DIMLFAC
 40
1.0
  9
$DIMTOFL
 70
     0
  9
$DIMTVP
 40
0.0
  9
$DIMTIX
 70
     0
  9
$DIMSOXD
 70
     0
  9
$DIMSAH
 70
     0
  9
$DIMBLK1
  1

  9
$DIMBLK2
  1

  9
$DIMSTYLE
  2
Standard
  9
$DIMCLRD
 70
     0
  9
$DIMCLRE
 70
     0
  9
$DIMCLRT
 70
     0
  9
$DIMTFAC
 40
1.0
  9
$DIMGAP
 40
0.09
  9
$DIMJUST
 70
     0
  9
$DIMSD1
 70
     0
  9
$DIMSD2
 70
     0
  9
$DIMTOLJ
 70
     1
  9
$DIMTZIN
 70
     0
  9
$DIMALTZ
 70
     0
  9
$DIMALTTZ
 70
     0
  9
$DIMUPT
 70
     0
  9
$DIMDEC
 70
     4
  9
$DIMTDEC
 70
     4
  9
$DIMALTU
 70
     2
  9
$DIMALTTD
 70
     2
  9
$DIMTXSTY
  7
Standard
  9
$DIMAUNIT
 70
     0
  9
$DIMADEC
 70
     0
  9
$DIMALTRND
 40
0.0
  9
$DIMAZIN
 70
     0
  9
$DIMDSEP
 70
    46
  9
$DIMATFIT
 70
     3
  9
$DIMFRAC
 70
     0
  9
$DIMLDRBLK
  1

  9
$DIMLUNIT
 70
     2
  9
$DIMLWD
 70
    -2
  9
$DIMLWE
 70
    -2
  9
$DIMTMOVE
 70
     0
  9
$DIMFXL
 40
1.0
  9
$DIMFXLON
 70
     0
  9
$DIMJOGANG
 40
0.7853981633974483
  9
$DIMTFILL
 70
     0
  9
$DIMTFILLCLR
 70
     0
  9
$DIMARCSYM
 70
     0
  9
$DIMLTYPE
  6

  9
$DIMLTEX1
  6

  9
$DIMLTEX2
  6

  9
$DIMTXTDIRECTION
 70
     0
  9
$LUNITS
 70
     2
  9
$LUPREC
 70
     4
  9
$SKETCHINC
 40
0.1
  9
$FILLETRAD
 40
0.5
  9
$AUNITS
 70
     0
  9
$AUPREC
 70
     0
  9
$MENU
  1
.
  9
$ELEVATION
 40
0.0
  9
$PELEVATION
 40
0.0
  9
$THICKNESS
 40
0.0
  9
$LIMCHECK
 70
     0
  9
$CHAMFERA
 40
0.0
  9
$CHAMFERB
 40
0.0
  9
$CHAMFERC
 40
0.0
  9
$CHAMFERD
 40
0.0
  9
$SKPOLY
 70
     0
  9
$TDCREATE
 40
2458168.889850209
  9
$TDUCREATE
 40
2458168.848183542
  9
$TDUPDATE
 40
2458168.889850209
  9
$TDUUPDATE
 40
2458168.848183542
  9
$TDINDWG
 40
0.0000000116
  9
$TDUSRTIMER
 40
0.0000000116
  9
$USRTIMER
 70
     1
  9
$ANGBASE
 50
0.0
  9
$ANGDIR
 70
     0
  9
$PDMODE
 70
     0
  9
$PDSIZE
 40
0.0
  9
$PLINEWID
 40
0.0
  9
$SPLFRAME
 70
     0
  9
$SPLINETYPE
 70
     6
  9
$SPLINESEGS
 70
     8
  9
$HANDSEED
  5
1D2
  9
$SURFTAB1
 70
     6
  9
$SURFTAB2
 70
     6
  9
$SURFTYPE
 70
     6
  9
$SURFU
 70
     6
  9
$SURFV
 70
     6
  9
$UCSBASE
  2

  9
$UCSNAME
  2

  9
$UCSORG
 10
0.0
 20
0.0
 30
0.0
  9
$UCSXDIR
 10
1.0
 20
0.0
 30
0.0
  9
$UCSYDIR
 10
0.0
 20
1.0
 30
0.0
  9
$UCSORTHOREF
  2

  9
$UCSORTHOVIEW
 70
     0
  9
$UCSORGTOP
 10
0.0
 20
0.0
 30
0.0
  9
$UCSORGBOTTOM
 10
0.0
 20
0.0
 30
0.0
  9
$UCSORGLEFT
 10
0.0
 20
0.0
 30
0.0
  9
$UCSORGRIGHT
 10
0.0
 20
0.0
 30
0.0
  9
$UCSORGFRONT
 10
0.0
 20
0.0
 30
0.0
  9
$UCSORGBACK
 10
0.0
 20
0.0
 30
0.0
  9
$PUCSBASE
  2

  9
$PUCSNAME
  2

  9
$PUCSORG
 10
0.0
 20
0.0
 30
0.0
  9
$PUCSXDIR
 10
1.0
 20
0.0
 30
0.0
  9
$PUCSYDIR
 10
0.0
 20
1.0
 30
0.0
  9
$PUCSORTHOREF
  2

  9
$PUCSORTHOVIEW
 70
     0
  9
$PUCSORGTOP
 10
0.0
 20
0.0
 30
0.0
  9
$PUCSORGBOTTOM
 10
0.0
 20
0.0
 30
0.0
  9
$PUCSORGLEFT
 10
0.0
 20
0.0
 30
0.0
  9
$PUCSORGRIGHT
 10
0.0
 20
0.0
 30
0.0
  9
$PUCSORGFRONT
 10
0.0
 20
0.0
 30
0.0
  9
$PUCSORGBACK
 10
0.0
 20
0.0
 30
0.0
  9
$USERI1
 70
     0
  9
$USERI2
 70
     0
  9
$USERI3
 70
     0
  9
$USERI4
 70
     0
  9
$USERI5
 70
     0
  9
$USERR1
 40
0.0
  9
$USERR2
 40
0.0
  9
$USERR3
 40
0.0
  9
$USERR4
 40
0.0
  9
$USERR5
 40
0.0
  9
$WORLDVIEW
 70
     1
  9
$SHADEDGE
 70
     3
  9
$SHADEDIF
 70
    70
  9
$TILEMODE
 70
     1
  9
$MAXACTVP
 70
    64
  9
$PINSBASE
 10
0.0
 20
0.0
 30
0.0
  9
$PLIMCHECK
 70
     0
  9
$PEXTMIN
 10
1.000000000000000E+20
 20
1.000000000000000E+20
 30
1.000000000000000E+20
  9
$PEXTMAX
 10
-1.000000000000000E+20
 20
-1.000000000000000E+20
 30
-1.000000000000000E+20
  9
$PLIMMIN
 10
0.0
 20
0.0
  9
$PLIMMAX
 10
12.0
 20
9.0
  9
$UNITMODE
 70
     0
  9
$VISRETAIN
 70
     1
  9
$PLINEGEN
 70
     0
  9
$PSLTSCALE
 70
     1
  9
$TREEDEPTH
 70
  3020
  9
$CMLSTYLE
  2
Standard
  9
$CMLJUST
 70
     0
  9
$CMLSCALE
 40
1.0
  9
$PROXYGRAPHICS
 70
     1
  9
$MEASUREMENT
 70
     0
  9
$CELWEIGHT
370
    -1
  9
$ENDCAPS
280
     0
  9
$JOINSTYLE
280
     0
  9
$LWDISPLAY
290
     0
  9
$INSUNITS
 70
     1
  9
$HYPERLINKBASE
  1

  9
$STYLESHEET
  1

  9
$XEDIT
290
     1
  9
$CEPSNTYPE
380
     0
  9
$PSTYLEMODE
290
     1
  9
$FINGERPRINTGUID
  2
{394BEC0F-B98F-4C3E-95DE-882A3C917D45}
  9
$VERSIONGUID
  2
{FAEB1C32-E019-11D5-929B-00C0DF256EC4}
  9
$EXTNAMES
290
     1
  9
$PSVPSCALE
 40
0.0
  9
$OLESTARTUP
290
     0
  9
$SORTENTS
280
   127
  9
$INDEXCTL
280
     0
  9
$HIDETEXT
280
     1
  9
$XCLIPFRAME
280
     2
  9
$HALOGAP
280
     0
  9
$OBSCOLOR
 70
   257
  9
$OBSLTYPE
280
     0
  9
$INTERSECTIONDISPLAY
280
     0
  9
$INTERSECTIONCOLOR
 70
   257
  9
$DIMASSOC
280
     2
  9
$PROJECTNAME
  1

  9
$CAMERADISPLAY
290
     0
  9
$LENSLENGTH
 40
50.0
  9
$CAMERAHEIGHT
 40
0.0
  9
$STEPSPERSEC
 40
2.0
  9
$STEPSIZE
 40
6.0
  9
$3DDWFPREC
 40
2.0
  9
$PSOLWIDTH
 40
0.25
  9
$PSOLHEIGHT
 40
4.0
  9
$LOFTANG1
 40
1.570796326794897
  9
$LOFTANG2
 40
1.570796326794897
  9
$LOFTMAG1
 40
0.0
  9
$LOFTMAG2
 40
0.0
  9
$LOFTPARAM
 70
     7
  9
$LOFTNORMALS
280
     1
  9
$LATITUDE
 40
37.795
  9
$LONGITUDE
 40
-122.394
  9
$NORTHDIRECTION
 40
0.0
  9
$TIMEZONE
 70
 -8000
  9
$LIGHTGLYPHDISPLAY
280
     1
  9
$TILEMODELIGHTSYNCH
280
     1
  9
$CMATERIAL
347
44
  9
$SOLIDHIST
280
     0
  9
$SHOWHIST
280
     1
  9
$DWFFRAME
280
     2
  9
$DGNFRAME
280
     2
  9
$REALWORLDSCALE
290
     1
  9
$INTERFERECOLOR
 62
   256
  9
$CSHADOW
280
     0
  9
$SHADOWPLANELOCATION
 40
0.0
  0
ENDSEC
  0
SECTION
  2
CLASSES
  0
CLASS
  1
ACDBDICTIONARYWDFLT
  2
AcDbDictionaryWithDefault
  3
ObjectDBX Classes
 90
        0
 91
        4
280
     0
281
     0
  0
CLASS
  1
VISUALSTYLE
  2
AcDbVisualStyle
  3
ObjectDBX Classes
 90
     4095
 91
        4
280
     0
281
     0
  0
CLASS
  1
MATERIAL
  2
AcDbMaterial
  3
ObjectDBX Classes
 90
     1153
 91
        4
280
     0
281
     0
  0
CLASS
  1
SCALE
  2
AcDbScale
  3
ObjectDBX Classes
 90
     1153
 91
        4
280
     0
281
     0
  0
CLASS
  1
TABLESTYLE
  2
AcDbTableStyle
  3
ObjectDBX Classes
 90
     4095
 91
        4
280
     0
281
     0
  0
CLASS
  1
MLEADERSTYLE
  2
AcDbMLeaderStyle
  3
ACDB_MLEADERSTYLE_CLASS
 90
     4095
 91
        4
280
     0
281
     0
  0
CLASS
  1
SUN
  2
AcDbSun
  3
SCENEOE
 90
     1153
 91
        4
280
     0
281
     0
  0
CLASS
  1
DICTIONARYVAR
  2
AcDbDictionaryVar
  3
ObjectDBX Classes
 90
        0
 91
        4
280
     0
281
     0
  0
CLASS
  1
CELLSTYLEMAP
  2
AcDbCellStyleMap
  3
ObjectDBX Classes
 90
     1152
 91
        4
280
     0
281
     0
  0
ENDSEC
  0
SECTION
  2
TABLES
  0
TABLE
  2
VPORT
  5
8
330
0
100
AcDbSymbolTable
 70
     1
  0
VPORT
  5
29
330
8
100
AcDbSymbolTableRecord
100
AcDbViewportTableRecord
  2
*Active
 70
     0
 10
0.0
 20
0.0
 11
1.0
 21
1.0
 12
-0.0741499999999995
 22
0.0
 13
0.0
 23
0.0
 14
0.5
 24
0.5
 15
0.5
 25
0.5
 16
0.0
 26
0.0
 36
1.0
 17
0.0
 27
0.0
 37
0.0
 40
5.865
 41
0.5048173913043483
 42
50.0
 43
0.0
 44
0.0
 50
0.0
 51
0.0
 71
     0
 72
   100
 73
     1
 74
     3
 75
     0
 76
     0
 77
     0
 78
     0
281
     0
 65
     1
110
0.0
120
0.0
130
0.0
111
1.0
121
0.0
131
0.0
112
0.0
122
1.0
132
0.0
 79
     0
146
0.0
348
2F
 60
     3
 61
     5
292
     1
282
     1
141
0.0
142
0.0
 63
   250
361
6D
  0
ENDTAB
  0
TABLE
  2
LTYPE
  5
5
330
0
100
AcDbSymbolTable
 70
     3
  0
LTYPE
  5
14
330
5
100
AcDbSymbolTableRecord
100
AcDbLinetypeTableRecord
  2
ByBlock
 70
     0
  3

 72
    65
 73
     0
 40
0.0
  0
LTYPE
  5
15
330
5
100
AcDbSymbolTableRecord
100
AcDbLinetypeTableRecord
  2
ByLayer
 70
     0
  3

 72
    65
 73
     0
 40
0.0
  0
LTYPE
  5
16
330
5
100
AcDbSymbolTableRecord
100
AcDbLinetypeTableRecord
  2
Continuous
 70
     0
  3
Solid line
 72
    65
 73
     0
 40
0.0
  0
LTYPE
  5
9F
330
5
100
AcDbSymbolTableRecord
100
AcDbLinetypeTableRecord
  2
Dashed
 70
     0
  3

 72
    65
 73
     2
 40
2.0
 49
1.0
 74
     0
 49
-1.0
 74
     0
  0
LTYPE
  5
14B
330
5
100
AcDbSymbolTableRecord
100
AcDbLinetypeTableRecord
  2
Center
 70
     0
  3

 72
    65
 73
     4
 40
1.5
 49
0.45
 74
     0
 49
-0.5
 74
     0
 49
0.05
 74
     0
 49
-0.5
 74
     0
  0
ENDTAB
  0
TABLE
  2
LAYER
  5
2
330
0
100
AcDbSymbolTable
 70
     7
  0
LAYER
  5
10
330
2
100
AcDbSymbolTableRecord
100
AcDbLayerTableRecord
  2
0
 70
     0
 62
     7
  6
Continuous
370
    -3
390
F
347
46
348
0
  0
LAYER
  5
72
330
2
100
AcDbSymbolTableRecord
100
AcDbLayerTableRecord
  2
AM_6
 70
     0
 62
    -2
  6
Continuous
370
    35
390
F
347
46
348
0
  0
LAYER
  5
A0
330
2
100
AcDbSymbolTableRecord
100
AcDbLayerTableRecord
  2
AM_9
 70
     0
 62
     6
  6
Dashed
370
    25
390
F
347
46
348
0
  0
LAYER
  5
148
330
2
100
AcDbSymbolTableRecord
100
AcDbLayerTableRecord
  2
AM_5
 70
     0
 62
     3
  6
Continuous
370
    25
390
F
347
46
348
0
  0
LAYER
  5
14C
330
2
100
AcDbSymbolTableRecord
100
AcDbLayerTableRecord
  2
AM_7
 70
     0
 62
     7
  6
Center
370
    25
390
F
347
46
348
0
  0
LAYER
  5
14E
330
2
100
AcDbSymbolTableRecord
100
AcDbLayerTableRecord
  2
AM_4
 70
     0
 62
     7
  6
Continuous
370
    50
390
F
347
46
348
0
  0
LAYER
  5
1C4
330
2
100
AcDbSymbolTableRecord
100
AcDbLayerTableRecord
  2
ConnectionPoints
 70
     0
 62
     7
  6
Continuous
370
    50
390
F
347
46
348
0
  0
ENDTAB
  0
TABLE
  2
STYLE
  5
3
330
0
100
AcDbSymbolTable
 70
     1
  0
STYLE
  5
11
330
3
100
AcDbSymbolTableRecord
100
AcDbTextStyleTableRecord
  2
Standard
 70
     0
 40
0.0
 41
1.0
 50
0.0
 71
     0
 42
0.2
  3
txt
  4

  0
ENDTAB
  0
TABLE
  2
VIEW
  5
6
330
0
100
AcDbSymbolTable
 70
     0
  0
ENDTAB
  0
TABLE
  2
UCS
  5
7
330
0
100
AcDbSymbolTable
 70
     0
  0
ENDTAB
  0
TABLE
  2
APPID
  5
9
330
0
100
AcDbSymbolTable
 70
     1
  0
APPID
  5
12
330
9
100
AcDbSymbolTableRecord
100
AcDbRegAppTableRecord
  2
ACAD
 70
     0
  0
ENDTAB
  0
TABLE
  2
DIMSTYLE
  5
A
330
0
100
AcDbSymbolTable
 70
     1
100
AcDbDimStyleTable
  0
DIMSTYLE
105
27
330
A
100
AcDbSymbolTableRecord
100
AcDbDimStyleTableRecord
  2
Standard
 70
     0
178
     0
340
11
  0
ENDTAB
  0
TABLE
  2
BLOCK_RECORD
  5
1
330
0
100
AcDbSymbolTable
 70
     5
  0
BLOCK_RECORD
  5
1F
330
1
100
AcDbSymbolTableRecord
100
AcDbBlockTableRecord
  2
*Model_Space
340
22
 70
     0
280
     1
281
     0
  0
BLOCK_RECORD
  5
1B
330
1
100
AcDbSymbolTableRecord
100
AcDbBlockTableRecord
  2
*Paper_Space
340
1E
 70
     0
280
     1
281
     0
  0
BLOCK_RECORD
  5
23
330
1
100
AcDbSymbolTableRecord
100
AcDbBlockTableRecord
  2
*Paper_Space0
340
26
 70
     0
280
     1
281
     0
  0
BLOCK_RECORD
  5
6E
330
1
100
AcDbSymbolTableRecord
100
AcDbBlockTableRecord
  2
1_076090_2
340
0
102
{BLKREFS
331
6F
102
}
 70
     0
280
     1
281
     0
  0
BLOCK_RECORD
  5
8E
330
1
100
AcDbSymbolTableRecord
100
AcDbBlockTableRecord
  2
2_405016_Inch_0_in_076090_2
340
0
102
{BLKREFS
331
8F
102
}
 70
     0
280
     1
281
     0
  0
BLOCK_RECORD
  5
104
330
1
100
AcDbSymbolTableRecord
100
AcDbBlockTableRecord
  2
3_076122_0_in_076090_2
340
0
102
{BLKREFS
331
105
102
}
 70
     0
280
     1
281
     0
  0
BLOCK_RECORD
  5
164
330
1
100
AcDbSymbolTableRecord
100
AcDbBlockTableRecord
  2
4_076090H_0_in_076090_2
340
0
102
{BLKREFS
331
165
102
}
 70
     0
280
     1
281
     0
  0
ENDTAB
  0
ENDSEC
  0
SECTION
  2
BLOCKS
  0
BLOCK
  5
20
330
1F
100
AcDbEntity
  8
0
100
AcDbBlockBegin
  2
*Model_Space
 70
     0
 10
0.0
 20
0.0
 30
0.0
  3
*Model_Space
  1

  0
ENDBLK
  5
21
330
1F
100
AcDbEntity
  8
0
100
AcDbBlockEnd
  0
BLOCK
  5
1C
330
1B
100
AcDbEntity
 67
     1
  8
0
100
AcDbBlockBegin
  2
*Paper_Space
 70
     0
 10
0.0
 20
0.0
 30
0.0
  3
*Paper_Space
  1

  0
ENDBLK
  5
1D
330
1B
100
AcDbEntity
 67
     1
  8
0
100
AcDbBlockEnd
  0
BLOCK
  5
24
330
23
100
AcDbEntity
  8
0
100
AcDbBlockBegin
  2
*Paper_Space0
 70
     0
 10
0.0
 20
0.0
 30
0.0
  3
*Paper_Space0
  1

  0
ENDBLK
  5
25
330
23
100
AcDbEntity
  8
0
100
AcDbBlockEnd
  0
BLOCK
  5
70
330
6E
100
AcDbEntity
  8
0
100
AcDbBlockBegin
  2
1_076090_2
 70
     2
 10
0.0
 20
0.0
 30
0.0
  3
1_076090_2
  1

  0
ATTDEF
  5
73
330
6E
100
AcDbEntity
  8
AM_6
100
AcDbText
 10
6.3772
 20
2.875
 30
0.0
 40
0.5
  1
Set Screw Extreme Duty Narrow Slot Take Up Inch Bore
100
AcDbAttributeDefinition
  3

  2
NN
 70
     8
280
     0
  0
ATTDEF
  5
74
330
6E
100
AcDbEntity
  8
AM_6
100
AcDbText
 10
6.3772
 20
2.375
 30
0.0
 40
0.5
  1
SCED Take-Up Bearings -Narrow Slot -(Normal Duty)
100
AcDbAttributeDefinition
  3

  2
NT
 70
     8
280
     0
  0
ATTDEF
  5
75
330
6E
100
AcDbEntity
  8
AM_6
100
AcDbText
 10
6.3772
 20
1.875
 30
0.0
 40
0.5
  1
076090
100
AcDbAttributeDefinition
  3

  2
NB
 70
     8
280
     0
  0
ATTDEF
  5
76
330
6E
100
AcDbEntity
  8
AM_6
100
AcDbText
 10
6.3772
 20
1.375
 30
0.0
 40
0.5
  1
$PN.
100
AcDbAttributeDefinition
  3

  2
NBSYN
 70
     8
280
     0
  0
ATTDEF
  5
77
330
6E
100
AcDbEntity
  8
AM_6
100
AcDbText
 10
6.3772
 20
0.875
 30
0.0
 40
0.5
  1
076090
100
AcDbAttributeDefinition
  3

  2
LINA
 70
     8
280
     0
  0
ATTDEF
  5
78
330
6E
100
AcDbEntity
  8
AM_6
100
AcDbText
 10
6.3772
 20
0.375
 30
0.0
 40
0.5
  1
212
100
AcDbAttributeDefinition
  3

  2
SERIES
 70
     8
280
     0
  0
ATTDEF
  5
79
330
6E
100
AcDbEntity
  8
AM_6
100
AcDbText
 10
6.3772
 20
-0.125
 30
0.0
 40
0.5
  1
2-7/16
100
AcDbAttributeDefinition
  3

  2
SS
 70
     8
280
     0
  0
ATTDEF
  5
7A
330
6E
100
AcDbEntity
  8
AM_6
100
AcDbText
 10
6.3772
 20
-0.625
 30
0.0
 40
0.5
  1
076090
100
AcDbAttributeDefinition
  3

  2
PN
 70
     8
280
     0
  0
ATTDEF
  5
7B
330
6E
100
AcDbEntity
  8
AM_6
100
AcDbText
 10
6.3772
 20
-1.125
 30
0.0
 40
0.5
  1
NSTU-SCED-207
100
AcDbAttributeDefinition
  3

  2
DESCRIPTION
 70
     8
280
     0
  0
ATTDEF
  5
7C
330
6E
100
AcDbEntity
  8
AM_6
100
AcDbText
 10
6.3772
 20
-1.625
 30
0.0
 40
0.5
  1
8.4
100
AcDbAttributeDefinition
  3

  2
W
 70
     8
280
     0
  0
ATTDEF
  5
7D
330
6E
100
AcDbEntity
  8
AM_6
100
AcDbText
 10
6.3772
 20
-2.125
 30
0.0
 40
0.5
  1
NS415
100
AcDbAttributeDefinition
  3

  2
FS
 70
     8
280
     0
  0
ATTDEF
  5
7E
330
6E
100
AcDbEntity
  8
AM_6
100
AcDbText
 10
6.3772
 20
-2.625
 30
0.0
 40
0.5
  1
2.31
100
AcDbAttributeDefinition
  3

  2
A
 70
     8
280
     0
  0
ATTDEF
  5
7F
330
6E
100
AcDbEntity
  8
AM_6
100
AcDbText
 10
6.3772
 20
-3.125
 30
0.0
 40
0.5
  1
6.69
100
AcDbAttributeDefinition
  3

  2
B
 70
     8
280
     0
  0
ATTDEF
  5
80
330
6E
100
AcDbEntity
  8
AM_6
100
AcDbText
 10
6.3772
 20
-3.625
 30
0.0
 40
0.5
  1
0.313
100
AcDbAttributeDefinition
  3

  2
C
 70
     8
280
     0
  0
ATTDEF
  5
81
330
6E
100
AcDbEntity
  8
AM_6
100
AcDbText
 10
6.3772
 20
-4.125
 30
0.0
 40
0.5
  1
3.75
100
AcDbAttributeDefinition
  3

  2
D
 70
     8
280
     0
  0
ATTDEF
  5
82
330
6E
100
AcDbEntity
  8
AM_6
100
AcDbText
 10
6.3772
 20
-4.625
 30
0.0
 40
0.5
  1
3.88
100
AcDbAttributeDefinition
  3

  2
E
 70
     8
280
     0
  0
ATTDEF
  5
83
330
6E
100
AcDbEntity
  8
AM_6
100
AcDbText
 10
6.3772
 20
-5.125
 30
0.0
 40
0.5
  1
1
100
AcDbAttributeDefinition
  3

  2
F
 70
     8
280
     0
  0
ATTDEF
  5
84
330
6E
100
AcDbEntity
  8
AM_6
100
AcDbText
 10
6.3772
 20
-5.625
 30
0.0
 40
0.5
  1
0.69
100
AcDbAttributeDefinition
  3

  2
G
 70
     8
280
     0
  0
ATTDEF
  5
85
330
6E
100
AcDbEntity
  8
AM_6
100
AcDbText
 10
6.3772
 20
-6.125
 30
0.0
 40
0.5
  1
1.28
100
AcDbAttributeDefinition
  3

  2
H
 70
     8
280
     0
  0
ATTDEF
  5
86
330
6E
100
AcDbEntity
  8
AM_6
100
AcDbText
 10
6.3772
 20
-6.625
 30
0.0
 40
0.5
  1
1.63
100
AcDbAttributeDefinition
  3

  2
J
 70
     8
280
     0
  0
ATTDEF
  5
87
330
6E
100
AcDbEntity
  8
AM_6
100
AcDbText
 10
6.3772
 20
-7.125
 30
0.0
 40
0.5
  1
2.97
100
AcDbAttributeDefinition
  3

  2
L
 70
     8
280
     0
  0
ATTDEF
  5
88
330
6E
100
AcDbEntity
  8
AM_6
100
AcDbText
 10
6.3772
 20
-7.625
 30
0.0
 40
0.5
  1
4.947 / 4.917
100
AcDbAttributeDefinition
  3

  2
M
 70
     8
280
     0
  0
ATTDEF
  5
89
330
6E
100
AcDbEntity
  8
AM_6
100
AcDbText
 10
6.3772
 20
-8.125
 30
0.0
 40
0.5
  1
5.75
100
AcDbAttributeDefinition
  3

  2
N
 70
     8
280
     0
  0
ATTDEF
  5
8A
330
6E
100
AcDbEntity
  8
AM_6
100
AcDbText
 10
6.3772
 20
-8.625
 30
0.0
 40
0.5
  1
0.44
100
AcDbAttributeDefinition
  3

  2
P
 70
     8
280
     0
  0
ATTDEF
  5
8B
330
6E
100
AcDbEntity
  8
AM_6
100
AcDbText
 10
6.3772
 20
-9.125
 30
0.0
 40
0.5
  1
0.90
100
AcDbAttributeDefinition
  3

  2
R
 70
     8
280
     0
  0
ATTDEF
  5
8C
330
6E
100
AcDbEntity
  8
AM_6
100
AcDbText
 10
6.3772
 20
-9.625
 30
0.0
 40
0.5
  1
1.41
100
AcDbAttributeDefinition
  3

  2
S
 70
     8
280
     0
  0
ATTDEF
  5
8D
330
6E
100
AcDbEntity
  8
AM_6
100
AcDbText
 10
6.3772
 20
-10.125
 30
0.0
 40
0.5
  1
baldor
100
AcDbAttributeDefinition
  3

  2
COMPANY
 70
     8
280
     0
  0
INSERT
  5
8F
330
6E
100
AcDbEntity
  8
0
100
AcDbBlockReference
  2
2_405016_Inch_0_in_076090_2
 10
0.0
 20
0.0
 30
0.0
  0
INSERT
  5
105
330
6E
100
AcDbEntity
  8
0
100
AcDbBlockReference
  2
3_076122_0_in_076090_2
 10
0.0
 20
0.0
 30
0.0
  0
INSERT
  5
165
330
6E
100
AcDbEntity
  8
0
100
AcDbBlockReference
  2
4_076090H_0_in_076090_2
 10
0.0
 20
0.0
 30
0.0
  0
ENDBLK
  5
71
330
6E
100
AcDbEntity
  8
0
100
AcDbBlockEnd
  0
BLOCK
  5
90
330
8E
100
AcDbEntity
  8
0
100
AcDbBlockBegin
  2
2_405016_Inch_0_in_076090_2
 70
     2
 10
0.0
 20
0.0
 30
0.0
  3
2_405016_Inch_0_in_076090_2
  1

  0
ATTDEF
  5
92
330
8E
100
AcDbEntity
  8
AM_6
100
AcDbText
 10
5.21875
 20
-1.14692569835516
 30
0.0
 40
0.5
  1
405016 -Inch
100
AcDbAttributeDefinition
  3

  2
NN
 70
     8
280
     0
  0
ATTDEF
  5
93
330
8E
100
AcDbEntity
  8
AM_6
100
AcDbText
 10
5.21875
 20
-1.64692569835516
 30
0.0
 40
0.5
  1
Grease Fitting
100
AcDbAttributeDefinition
  3

  2
NT
 70
     8
280
     0
  0
ATTDEF
  5
94
330
8E
100
AcDbEntity
  8
AM_6
100
AcDbText
 10
5.21875
 20
-2.14692569835516
 30
0.0
 40
0.5
  1
405016-Inch
100
AcDbAttributeDefinition
  3

  2
NB
 70
     8
280
     0
  0
ATTDEF
  5
95
330
8E
100
AcDbEntity
  8
AM_6
100
AcDbText
 10
5.21875
 20
-2.64692569835516
 30
0.0
 40
0.5
  1
$MN.-Inch
100
AcDbAttributeDefinition
  3

  2
NBSYN
 70
     8
280
     0
  0
ATTDEF
  5
96
330
8E
100
AcDbEntity
  8
AM_6
100
AcDbText
 10
5.21875
 20
-3.14692569835516
 30
0.0
 40
0.5
  1
405016
100
AcDbAttributeDefinition
  3

  2
LINA
 70
     8
280
     0
  0
ATTDEF
  5
97
330
8E
100
AcDbEntity
  8
AM_6
100
AcDbText
 10
5.21875
 20
-3.64692569835516
 30
0.0
 40
0.5
  1
405016
100
AcDbAttributeDefinition
  3

  2
MN
 70
     8
280
     0
  0
ATTDEF
  5
98
330
8E
100
AcDbEntity
  8
AM_6
100
AcDbText
 10
5.21875
 20
-4.14692569835516
 30
0.0
 40
0.5
  1
7/16 HEX
100
AcDbAttributeDefinition
  3

  2
H
 70
     8
280
     0
  0
ATTDEF
  5
99
330
8E
100
AcDbEntity
  8
AM_6
100
AcDbText
 10
5.21875
 20
-4.64692569835516
 30
0.0
 40
0.5
  1
0.383
100
AcDbAttributeDefinition
  3

  2
NDR
 70
     8
280
     0
  0
ATTDEF
  5
9A
330
8E
100
AcDbEntity
  8
AM_6
100
AcDbText
 10
5.21875
 20
-5.14692569835516
 30
0.0
 40
0.5
  1
0.337
100
AcDbAttributeDefinition
  3

  2
KDR
 70
     8
280
     0
  0
ATTDEF
  5
9B
330
8E
100
AcDbEntity
  8
AM_6
100
AcDbText
 10
5.21875
 20
-5.64692569835516
 30
0.0
 40
0.5
  1
0.1575
100
AcDbAttributeDefinition
  3

  2
BZE
 70
     8
280
     0
  0
ATTDEF
  5
9C
330
8E
100
AcDbEntity
  8
AM_6
100
AcDbText
 10
5.21875
 20
-6.14692569835516
 30
0.0
 40
0.5
  1
0.4375
100
AcDbAttributeDefinition
  3

  2
HEX
 70
     8
280
     0
  0
ATTDEF
  5
9D
330
8E
100
AcDbEntity
  8
AM_6
100
AcDbText
 10
5.21875
 20
-6.64692569835516
 30
0.0
 40
0.5
  1
0.281250
100
AcDbAttributeDefinition
  3

  2
HEX2
 70
     8
280
     0
  0
ATTDEF
  5
9E
330
8E
100
AcDbEntity
  8
AM_6
100
AcDbText
 10
5.21875
 20
-7.14692569835516
 30
0.0
 40
0.5
  1
baldor
100
AcDbAttributeDefinition
  3

  2
COMPANY
 70
     8
280
     0
  0
LWPOLYLINE
  5
A1
330
8E
100
AcDbEntity
  8
AM_9
100
AcDbPolyline
 90
        5
 70
     0
 43
0.0
 10
-0.1791093260592888
 20
-1.751738809059826
 10
-0.1842540823997055
 20
-1.718670119967152
 10
-0.1862220679364952
 20
-1.684312409178915
 10
-0.1844124966919382
 20
-1.648126446285356
 10
-0.1791093260592888
 20
-1.611113809059826
  0
LINE
  5
A2
330
8E
100
AcDbEntity
  8
AM_9
100
AcDbLine
 10
-0.1510741298357571
 20
-1.60457729571137
 30
0.0
 11
-0.1791093260592888
 21
-1.611113809059826
 31
0.0
  0
LWPOLYLINE
  5
A3
330
8E
100
AcDbEntity
  8
AM_9
100
AcDbPolyline
 90
        5
 70
     0
 43
0.0
 10
-0.1791093260592888
 20
-1.611113809059826
 10
-0.198835512140694
 20
-1.579688517736611
 10
-0.2156330920108726
 20
-1.546997724328327
 10
-0.2290462109660022
 20
-1.512506153690794
 10
-0.2389369657326277
 20
-1.477169092407283
  0
LINE
  5
A4
330
8E
100
AcDbEntity
  8
AM_9
100
AcDbLine
 10
-0.2099962668917054
 20
-1.470421457656344
 30
0.0
 11
-0.2389369657326277
 21
-1.477169092407283
 31
0.0
  0
LINE
  5
A5
330
8E
100
AcDbEntity
  8
AM_9
100
AcDbLine
 10
-0.2389369657326277
 20
-1.477169092407283
 30
0.0
 11
-0.2711532636537957
 21
-1.481618123437406
 31
0.0
  0
LWPOLYLINE
  5
A6
330
8E
100
AcDbEntity
  8
AM_9
100
AcDbPolyline
 90
        3
 70
     0
 43
0.0
 10
-0.2813919000363601
 20
-1.482753048956784
 10
-0.2911775952746244
 20
-1.48355559349426
 10
-0.2987675689889719
 20
-1.483850066725467
  0
LWPOLYLINE
  5
A7
330
8E
100
AcDbEntity
  8
AM_9
100
AcDbPolyline
 90
        5
 70
     0
 43
0.0
 10
-0.2389369657326277
 20
-1.758419092407283
 10
-0.2295338871417797
 20
-1.757998062136291
 10
-0.2166871171046321
 20
-1.756802555641742
 10
-0.1996402057054679
 20
-1.754676787031713
 10
-0.1791093260592888
 20
-1.751738809059826
  0
LINE
  5
A8
330
8E
100
AcDbEntity
  8
AM_9
100
AcDbLine
 10
-0.1510741298357571
 20
-1.74520229571137
 30
0.0
 11
-0.1791093260592888
 21
-1.751738809059826
 31
0.0
  0
LINE
  5
A9
330
8E
100
AcDbEntity
  8
AM_9
100
AcDbLine
 10
-0.452415808934145
 20
-1.771254016496842
 30
0.0
 11
-0.3774664534000949
 21
-1.789780662014441
 31
0.0
  0
LINE
  5
AA
330
8E
100
AcDbEntity
  8
AM_9
100
AcDbLine
 10
-0.4395859245204076
 20
-1.523349390582633
 30
0.0
 11
-0.4986131040655764
 21
-1.573113178260487
 31
0.0
  0
LWPOLYLINE
  5
AB
330
8E
100
AcDbEntity
  8
AM_9
100
AcDbPolyline
 90
        3
 70
     0
 43
0.0
 10
-0.2689146070947223
 20
-1.476889734350518
 10
-0.2512755937295761
 20
-1.474238843014548
 10
-0.2360765106845276
 20
-1.472187592413266
  0
LWPOLYLINE
  5
AC
330
8E
100
AcDbEntity
  8
AM_9
100
AcDbPolyline
 90
       10
 70
     0
 43
0.0
 10
-0.3775951447318768
 20
-1.528373175705289
 10
-0.3832420486475036
 20
-1.523804953864468
 10
-0.3911342122916929
 20
-1.518884988020927
 10
-0.3989730474534963
 20
-1.515578796337353
 10
-0.4068257008771057
 20
-1.513758673427826
 10
-0.414671077720664
 20
-1.513399046739671
 10
-0.4230940233507559
 20
-1.514692420470059
 10
-0.4307740880503902
 20
-1.517564216211299
 10
-0.4375839050993931
 20
-1.521755709020641
 10
-0.4400434662004766
 20
-1.523740267743479
  0
LWPOLYLINE
  5
AD
330
8E
100
AcDbEntity
  8
AM_9
100
AcDbPolyline
 90
       10
 70
     0
 43
0.0
 10
-0.3778889415317925
 20
-1.789674104110488
 10
-0.375799824672463
 20
-1.790159664989146
 10
-0.3679422362209465
 20
-1.791062169530315
 10
-0.3593013114719238
 20
-1.790341066021063
 10
-0.3513565544884791
 20
-1.7879563907803
 10
-0.3442552329207927
 20
-1.784170129624433
 10
-0.3380240936543445
 20
-1.779192289091599
 10
-0.3325773548714131
 20
-1.77308067479056
 10
-0.3278215154800215
 20
-1.765732485993902
 10
-0.3242493302908933
 20
-1.758248937413073
  0
LWPOLYLINE
  5
AE
330
8E
100
AcDbEntity
  8
AM_9
100
AcDbPolyline
 90
        3
 70
     0
 43
0.0
 10
-0.0000000000000002
 20
-1.270778700151693
 10
0.0544416102741494
 20
-1.301326042662265
 10
0.1093749999999998
 20
-1.33
  0
LWPOLYLINE
  5
AF
330
8E
100
AcDbEntity
  8
AM_9
100
AcDbPolyline
 90
        3
 70
     0
 43
0.0
 10
-0.1093750000000001
 20
-1.33
 10
-0.0546875000000001
 20
-1.301459559607483
 10
-0.0000000000000002
 20
-1.270778700151693
  0
LWPOLYLINE
  5
B0
330
8E
100
AcDbEntity
  8
AM_9
100
AcDbPolyline
 90
        6
 70
     0
 43
0.0
 10
-0.1510741298357571
 20
-1.74520229571137
 10
-0.1564222384464443
 20
-1.745146258798399
 10
-0.1639940363880806
 20
-1.745585121917566
 10
-0.1744063212866123
 20
-1.746646289109957
 10
-0.1876759562813859
 20
-1.748363121169831
 10
-0.2099962668917054
 20
-1.751671457656344
  0
LINE
  5
B1
330
8E
100
AcDbEntity
  8
AM_9
100
AcDbLine
 10
-0.1422047602700562
 20
-1.66166918507564
 30
0.0
 11
-0.1419585098156051
 21
-1.672769408754154
 31
0.0
  0
LWPOLYLINE
  5
B2
330
8E
100
AcDbEntity
  8
AM_9
100
AcDbPolyline
 90
        4
 70
     0
 43
0.0
 10
-0.1510741298357572
 20
-1.60457729571137
 10
-0.1458778226760521
 20
-1.628510622598914
 10
-0.1427138007556463
 20
-1.653367212109331
 10
-0.1422047602700562
 20
-1.66166918507564
  0
LINE
  5
B3
330
8E
100
AcDbEntity
  8
AM_9
100
AcDbLine
 10
-0.1781213396931917
 20
-1.521126060850715
 30
0.0
 11
-0.1765789831125444
 21
-1.524205855542361
 31
0.0
  0
LINE
  5
B4
330
8E
100
AcDbEntity
  8
AM_9
100
AcDbLine
 10
-0.1852744620592851
 20
-1.507904945642264
 30
0.0
 11
-0.1844922244855594
 21
-1.509276974431197
 31
0.0
  0
LWPOLYLINE
  5
B5
330
8E
100
AcDbEntity
  8
AM_9
100
AcDbPolyline
 90
        3
 70
     0
 43
0.0
 10
-0.2099962668917055
 20
-1.470421457656344
 10
-0.1943573015029059
 20
-1.492992854288234
 10
-0.1858039746425495
 20
-1.506985183221667
  0
LWPOLYLINE
  5
B6
330
8E
100
AcDbEntity
  8
AM_9
100
AcDbPolyline
 90
        4
 70
     0
 43
0.0
 10
-0.2258378743019628
 20
-1.471052666893888
 10
-0.2189176876709016
 20
-1.470510369847584
 10
-0.2138633349839128
 20
-1.4703309118622
 10
-0.2099962668917054
 20
-1.470421457656344
  0
LWPOLYLINE
  5
B7
330
8E
100
AcDbEntity
  8
AM_9
100
AcDbPolyline
 90
        3
 70
     0
 43
0.0
 10
-0.1420694882219307
 20
-1.680273157700758
 10
-0.1441228263802216
 20
-1.706595324422914
 10
-0.1510741298357571
 20
-1.74520229571137
  0
LWPOLYLINE
  5
B8
330
8E
100
AcDbEntity
  8
AM_9
100
AcDbPolyline
 90
        3
 70
     0
 43
0.0
 10
-0.1419585098156051
 20
-1.672769408754154
 10
-0.1420496512545707
 20
-1.679566312422038
 10
-0.1420694882219307
 20
-1.680273157700758
  0
LWPOLYLINE
  5
B9
330
8E
100
AcDbEntity
  8
AM_9
100
AcDbPolyline
 90
        4
 70
     0
 43
0.0
 10
-0.1661286689465907
 20
-1.548238820252114
 10
-0.1598729403210872
 20
-1.566768689712644
 10
-0.1549033058439657
 20
-1.585607171961479
 10
-0.1510741298357571
 20
-1.60457729571137
  0
LINE
  5
BA
330
8E
100
AcDbEntity
  8
AM_9
100
AcDbLine
 10
-0.1765789831125444
 20
-1.524205855542361
 30
0.0
 11
-0.1709067639808228
 21
-1.536453700787945
 31
0.0
  0
ELLIPSE
  5
BB
330
8E
100
AcDbEntity
  8
AM_9
100
AcDbEllipse
 10
-0.2013892028241882
 20
-1.60827024483734
 30
0.0
 11
-0.03193085011438276
 21
0.1369518580960938
 31
0.0
210
0.0
220
0.0
230
1.0
 40
0.3659981507706689
 41
2.150416404658204
 42
6.13994693963689
  0
LINE
  5
BC
330
8E
100
AcDbEntity
  8
AM_9
100
AcDbLine
 10
-0.300160447357812
 20
-1.617227923681266
 30
0.0
 11
-0.2987675689889719
 21
-1.624475066725467
 31
0.0
  0
LWPOLYLINE
  5
BD
330
8E
100
AcDbEntity
  8
AM_9
100
AcDbPolyline
 90
        3
 70
     0
 43
0.0
 10
-0.3055458577949632
 20
-1.572852494962034
 10
-0.3030753670497809
 20
-1.598922855181632
 10
-0.300160447357812
 20
-1.617227923681266
  0
LWPOLYLINE
  5
BE
330
8E
100
AcDbEntity
  8
AM_9
100
AcDbPolyline
 90
        4
 70
     0
 43
0.0
 10
-0.2602304684431209
 20
-1.528067949924796
 10
-0.2616913382589204
 20
-1.5134112730526
 10
-0.2647402074337707
 20
-1.49495477011276
 10
-0.2689146070947223
 20
-1.476889734350518
  0
LINE
  5
BF
330
8E
100
AcDbEntity
  8
AM_9
100
AcDbLine
 10
-0.2689146070947223
 20
-1.476889734350518
 30
0.0
 11
-0.2987675689889719
 21
-1.483850066725467
 31
0.0
  0
LWPOLYLINE
  5
C0
330
8E
100
AcDbEntity
  8
AM_9
100
AcDbPolyline
 90
        3
 70
     0
 43
0.0
 10
-0.3001593436617022
 20
-1.491740185070576
 10
-0.3030606061861224
 20
-1.511294122408012
 10
-0.3055458577949632
 20
-1.53863340646832
  0
LINE
  5
C1
330
8E
100
AcDbEntity
  8
AM_9
100
AcDbLine
 10
-0.2987675689889719
 20
-1.483850066725467
 30
0.0
 11
-0.3001593436617022
 21
-1.491740185070576
 31
0.0
  0
LINE
  5
C2
330
8E
100
AcDbEntity
  8
AM_9
100
AcDbLine
 10
-0.2711532636537957
 20
-1.481618123437406
 30
0.0
 11
-0.2813919000363601
 21
-1.482753048956784
 31
0.0
  0
ELLIPSE
  5
C3
330
8E
100
AcDbEntity
  8
AM_9
100
AcDbEllipse
 10
-0.2467045921760206
 20
-1.618835701380859
 30
0.0
 11
-0.03193085011438281
 21
0.1369518580960947
 31
0.0
210
0.0
220
0.0
230
1.0
 40
0.3659981507706653
 41
2.25034170999858
 42
6.139946939636897
  0
ELLIPSE
  5
C4
330
8E
100
AcDbEntity
  8
AM_9
100
AcDbEllipse
 10
-0.2467045921760184
 20
-1.618835701380857
 30
0.0
 11
-0.0319308501143831
 21
0.1369518580960973
 31
0.0
210
0.0
220
0.0
230
1.0
 40
0.365998150770678
 41
1.27235623901246
 42
1.9511567348505
  0
LWPOLYLINE
  5
C5
330
8E
100
AcDbEntity
  8
AM_9
100
AcDbPolyline
 90
        3
 70
     0
 43
0.0
 10
-0.3055458577949632
 20
-1.53863340646832
 10
-0.3064767622622303
 20
-1.555869806845232
 10
-0.3055458577949632
 20
-1.572852494962034
  0
ELLIPSE
  5
C6
330
8E
100
AcDbEntity
  8
AM_9
100
AcDbEllipse
 10
-0.2467045921760097
 20
-1.618835701380861
 30
0.0
 11
-0.0319308501143909
 21
0.1369518580961009
 31
0.0
210
0.0
220
0.0
230
1.0
 40
0.3659981507707055
 41
0.0560213022650675
 42
0.8626327579757509
  0
LWPOLYLINE
  5
C7
330
8E
100
AcDbEntity
  8
AM_9
100
AcDbPolyline
 90
       17
 70
     0
 43
0.0
 10
-0.3250058374521052
 20
-1.760025187890209
 10
-0.3246484683177227
 20
-1.759307891613221
 10
-0.323277828003737
 20
-1.757043934784244
 10
-0.320622293060346
 20
-1.753538505844971
 10
-0.3163962565474436
 20
-1.749141581583805
 10
-0.3103652102649742
 20
-1.744321587811648
 10
-0.3024917297328059
 20
-1.739709983190522
 10
-0.2931327537410663
 20
-1.73602980615343
 10
-0.2830634452564766
 20
-1.733840841724728
 10
-0.2732129858656284
 20
-1.733302687948915
 10
-0.2644431575163899
 20
-1.734162246531828
 10
-0.2572873502606061
 20
-1.735899965259009
 10
-0.2519623408738914
 20
-1.737931709670962
 10
-0.2483975210685311
 20
-1.739768728686806
 10
-0.2463887527617446
 20
-1.741064491646626
 10
-0.2457260813219367
 20
-1.741571027307199
 10
-0.2457249882508971
 20
-1.741571960916105
  0
LWPOLYLINE
  5
C8
330
8E
100
AcDbEntity
  8
AM_9
100
AcDbPolyline
 90
        3
 70
     0
 43
0.0
 10
-0.2457249882508971
 20
-1.741571960916105
 10
-0.2462362262337686
 20
-1.741089071005892
 10
-0.2470415568809116
 20
-1.740256207393253
  0
LWPOLYLINE
  5
C9
330
8E
100
AcDbEntity
  8
AM_9
100
AcDbPolyline
 90
        4
 70
     0
 43
0.0
 10
-0.300739270743681
 20
-1.510192828563773
 10
-0.3004503236552397
 20
-1.50926933250797
 10
-0.3001087878224222
 20
-1.508324008121874
 10
-0.3001080482840256
 20
-1.508322263717043
  0
LWPOLYLINE
  5
CA
330
8E
100
AcDbEntity
  8
AM_9
100
AcDbPolyline
 90
       15
 70
     0
 43
0.0
 10
-0.3004766346926013
 20
-1.509066650266868
 10
-0.301841344503015
 20
-1.511323354270995
 10
-0.3044894902548121
 20
-1.514823185512577
 10
-0.3087067123242593
 20
-1.519216574836959
 10
-0.3147280686363738
 20
-1.524035862985182
 10
-0.3225925324250352
 20
-1.52865040976924
 10
-0.3319455391626917
 20
-1.53233712026367
 10
-0.3420135683818065
 20
-1.53453459364961
 10
-0.3518677584570659
 20
-1.535080948066528
 10
-0.3606447683680002
 20
-1.534227397471283
 10
-0.3678097388873846
 20
-1.532492681359072
 10
-0.3731441928589103
 20
-1.530461073845489
 10
-0.3767176050813918
 20
-1.528622052450101
 10
-0.3787338289822851
 20
-1.527322804882667
 10
-0.3793692747444695
 20
-1.526839803784987
  0
LINE
  5
CB
330
8E
100
AcDbEntity
  8
AM_9
100
AcDbLine
 10
-0.177120771554662
 20
-1.489661692407327
 30
0.0
 11
-0.2263662233581053
 21
-1.501143458059951
 31
0.0
  0
LINE
  5
CC
330
8E
100
AcDbEntity
  8
AM_9
100
AcDbLine
 10
-0.176412182290271
 20
-1.71539703161473
 30
0.0
 11
-0.1343592486638227
 21
-1.705592229115782
 31
0.0
  0
LWPOLYLINE
  5
CD
330
8E
100
AcDbEntity
  8
AM_9
100
AcDbPolyline
 90
       20
 70
     0
 43
0.0
 10
-0.1343659249938089
 20
-1.70559378540361
 10
-0.1293028157827818
 20
-1.702990967168627
 10
-0.1247141396218193
 20
-1.697417196040507
 10
-0.1208880884981782
 20
-1.688797239076489
 10
-0.118154598914599
 20
-1.677880991490922
 10
-0.1164278875396129
 20
-1.664336212655024
 10
-0.1158549073091555
 20
-1.649330271317741
 10
-0.1164156227038168
 20
-1.632408286749774
 10
-0.1180609686233502
 20
-1.615004703027538
 10
-0.1208367673933813
 20
-1.596607393511457
 10
-0.1245107513506024
 20
-1.578747455120003
 10
-0.1291842652280563
 20
-1.560922481606625
 10
-0.134472979061152
 20
-1.5445960564441
 10
-0.140518627090196
 20
-1.529328872764631
 10
-0.1468270783017122
 20
-1.516370478489193
 10
-0.1535654953592166
 20
-1.505381372029879
 10
-0.1601799433259584
 20
-1.497268942862664
 10
-0.1668493358980662
 20
-1.491820477436415
 10
-0.1731116383367607
 20
-1.489480939756072
 10
-0.1771125901748264
 20
-1.489659785344162
  0
LINE
  5
CE
330
8E
100
AcDbEntity
  8
AM_9
100
AcDbLine
 10
-0.1771125901748264
 20
-1.489659785344162
 30
0.0
 11
-0.1790373738502115
 21
-1.490304054033761
 31
0.0
  0
LWPOLYLINE
  5
CF
330
8E
100
AcDbEntity
  8
AM_9
100
AcDbPolyline
 90
        3
 70
     0
 43
0.0
 10
-0.2689146070947223
 20
-1.617514734350518
 10
-0.2634308483997529
 20
-1.589890958955648
 10
-0.2602304684431306
 20
-1.562287038418517
  0
LWPOLYLINE
  5
D0
330
8E
100
AcDbEntity
  8
AM_9
100
AcDbPolyline
 90
        5
 70
     0
 43
0.0
 10
-0.179037373850178
 20
-1.644695945966246
 10
-0.1733931390117468
 20
-1.660209976006311
 10
-0.1670729780242512
 20
-1.67435797563067
 10
-0.1606047421316796
 20
-1.685955943415793
 10
-0.1545758322511345
 20
-1.69441061848486
  0
ARC
  5
D1
330
8E
100
AcDbEntity
  8
AM_9
100
AcDbCircle
 10
0.0
 20
-1.5675
 30
0.0
 40
0.1999999999999997
100
AcDbArc
 50
219.3568668268735
 51
0.0
  0
LWPOLYLINE
  5
D2
330
8E
100
AcDbEntity
  8
AM_9
100
AcDbPolyline
 90
        6
 70
     0
 43
0.0
 10
-0.1545758322511345
 20
-1.69441061848486
 10
-0.1538031670974778
 20
-1.695334802540261
 10
-0.1472336073736394
 20
-1.701712011960484
 10
-0.1407130262602577
 20
-1.70526170963818
 10
-0.1347930597680668
 20
-1.705684256104104
 10
-0.1343659249938089
 20
-1.70559378540361
  0
LINE
  5
D3
330
8E
100
AcDbEntity
  8
AM_9
100
AcDbLine
 10
-0.2360765106845276
 20
-1.472187592413266
 30
0.0
 11
-0.2258378743019628
 21
-1.471052666893888
 31
0.0
  0
ELLIPSE
  5
D4
330
8E
100
AcDbEntity
  8
AM_9
100
AcDbEllipse
 10
-0.2013892028241849
 20
-1.608270244837347
 30
0.0
 11
-0.03193085011438592
 21
0.1369518580961016
 31
0.0
210
0.0
220
0.0
230
1.0
 40
0.3659981507705712
 41
0.056021302265024
 42
0.8626327579757104
  0
LINE
  5
D5
330
8E
100
AcDbEntity
  8
AM_9
100
AcDbLine
 10
-0.2602304684431306
 20
-1.562287038418517
 30
0.0
 11
-0.2602304684431209
 21
-1.528067949924796
 31
0.0
  0
ELLIPSE
  5
D6
330
8E
100
AcDbEntity
  8
AM_9
100
AcDbEllipse
 10
-0.2013892028241895
 20
-1.608270244837341
 30
0.0
 11
-0.0319308501143826
 21
0.1369518580960938
 31
0.0
210
0.0
220
0.0
230
1.0
 40
0.365998150770658
 41
1.144545279139735
 42
1.951156734850496
  0
LWPOLYLINE
  5
D7
330
8E
100
AcDbEntity
  8
AM_9
100
AcDbPolyline
 90
        3
 70
     0
 43
0.0
 10
-0.2099962668917054
 20
-1.751671457656344
 10
-0.2163479371246914
 20
-1.722339189975666
 10
-0.225837874301963
 20
-1.693057477599441
  0
LINE
  5
D8
330
8E
100
AcDbEntity
  8
AM_9
100
AcDbLine
 10
-0.225837874301963
 20
-1.693057477599441
 30
0.0
 11
-0.2360765106845278
 21
-1.669965725501071
 31
0.0
  0
LWPOLYLINE
  5
D9
330
8E
100
AcDbEntity
  8
AM_9
100
AcDbPolyline
 90
        4
 70
     0
 43
0.0
 10
-0.2360765106845278
 20
-1.669965725501071
 10
-0.2462091938631852
 20
-1.651421611213501
 10
-0.2570505402207575
 20
-1.634284690571682
 10
-0.2689146070947223
 20
-1.617514734350518
  0
LINE
  5
DA
330
8E
100
AcDbEntity
  8
AM_9
100
AcDbLine
 10
-0.2689146070947223
 20
-1.617514734350518
 30
0.0
 11
-0.2987675689889719
 21
-1.624475066725467
 31
0.0
  0
LWPOLYLINE
  5
DB
330
8E
100
AcDbEntity
  8
AM_9
100
AcDbPolyline
 90
        3
 70
     0
 43
0.0
 10
-0.2987675689889719
 20
-1.624475066725467
 10
-0.2912216284034025
 20
-1.652576183495197
 10
-0.28139190003636
 20
-1.680531182044589
  0
LINE
  5
DC
330
8E
100
AcDbEntity
  8
AM_9
100
AcDbLine
 10
-0.28139190003636
 20
-1.680531182044589
 30
0.0
 11
-0.2711532636537957
 21
-1.703622934142958
 31
0.0
  0
LWPOLYLINE
  5
DD
330
8E
100
AcDbEntity
  8
AM_9
100
AcDbPolyline
 90
        3
 70
     0
 43
0.0
 10
-0.2711532636537957
 20
-1.703622934142958
 10
-0.2561815527589922
 20
-1.731327936735335
 10
-0.2389369657326277
 20
-1.758419092407283
  0
LINE
  5
DE
330
8E
100
AcDbEntity
  8
AM_9
100
AcDbLine
 10
-0.2099962668917054
 20
-1.751671457656344
 30
0.0
 11
-0.2389369657326277
 21
-1.758419092407283
 31
0.0
  0
LWPOLYLINE
  5
DF
330
8E
100
AcDbEntity
  8
AM_9
100
AcDbPolyline
 90
        3
 70
     0
 43
0.0
 10
0.1093749999999998
 20
-1.28
 10
0.0546874999999998
 20
-1.253852940392517
 10
-0.0000000000000002
 20
-1.229846299848307
  0
LWPOLYLINE
  5
E0
330
8E
100
AcDbEntity
  8
AM_9
100
AcDbPolyline
 90
        3
 70
     0
 43
0.0
 10
-0.0000000000000002
 20
-1.229846299848307
 10
-0.0544416102741497
 20
-1.253740567611885
 10
-0.1093750000000001
 20
-1.28
  0
LWPOLYLINE
  5
E1
330
8E
100
AcDbEntity
  8
AM_9
100
AcDbPolyline
 90
        3
 70
     0
 43
0.0
 10
-0.2187500000000001
 20
-1.380153700151693
 10
-0.1643083897258505
 20
-1.356259432388115
 10
-0.1093750000000001
 20
-1.33
  0
LWPOLYLINE
  5
E2
330
8E
100
AcDbEntity
  8
AM_9
100
AcDbPolyline
 90
        3
 70
     0
 43
0.0
 10
0.1093749999999998
 20
-1.33
 10
0.1640624999999998
 20
-1.356147059607482
 10
0.2187499999999999
 20
-1.380153700151693
  0
LINE
  5
E3
330
8E
100
AcDbEntity
  8
AM_9
100
AcDbLine
 10
-0.0000000000000002
 20
-1.270778700151693
 30
0.0
 11
-0.0000000000000002
 21
-1.229846299848307
 31
0.0
  0
LWPOLYLINE
  5
E4
330
8E
100
AcDbEntity
  8
AM_9
100
AcDbPolyline
 90
        3
 70
     0
 43
0.0
 10
-0.1093750000000001
 20
-1.28
 10
-0.1640625000000001
 20
-1.308540440392517
 10
-0.2187500000000001
 20
-1.339221299848307
  0
LWPOLYLINE
  5
E5
330
8E
100
AcDbEntity
  8
AM_9
100
AcDbPolyline
 90
        3
 70
     0
 43
0.0
 10
0.2187499999999999
 20
-1.339221299848307
 10
0.1643083897258503
 20
-1.308673957337735
 10
0.1093749999999998
 20
-1.28
  0
ELLIPSE
  5
E6
330
8E
100
AcDbEntity
  8
AM_9
100
AcDbEllipse
 10
-0.0000000000000001
 20
-1.5675
 30
0.0
 11
-0.2000000000000002
 21
2.449293598294709E-17
 31
0.0
210
0.0
220
0.0
230
1.0
 40
0.8660254037844397
 41
0.4619460205669652
 42
5.821239286612619
  0
LWPOLYLINE
  5
E7
330
8E
100
AcDbEntity
  8
AM_9
100
AcDbPolyline
 90
        7
 70
     0
 43
0.0
 10
-0.1790373738501785
 20
-1.644695945966246
 10
-0.1842628795203942
 20
-1.628701216295605
 10
-0.1891729979031394
 20
-1.612644458256412
 10
-0.1936098952159724
 20
-1.595877825105295
 10
-0.1971856748420372
 20
-1.578429808725254
 10
-0.1994144431868155
 20
-1.560957633207593
 10
-0.1999999999699529
 20
-1.54725755900097
  0
LINE
  5
E8
330
8E
100
AcDbEntity
  8
AM_9
100
AcDbLine
 10
0.1999999999999998
 20
-1.5675
 30
0.0
 11
0.1999999999999998
 21
-1.4940625
 31
0.0
  0
LWPOLYLINE
  5
E9
330
8E
100
AcDbEntity
  8
AM_9
100
AcDbPolyline
 90
        8
 70
     0
 43
0.0
 10
-0.1999999999699529
 20
-1.54725755900097
 10
-0.1999786710855128
 20
-1.544747492794572
 10
-0.1988321115509054
 20
-1.529477046299115
 10
-0.196164942998426
 20
-1.516547828583382
 10
-0.1920694300574959
 20
-1.505495849846331
 10
-0.1870948030566196
 20
-1.497226804053058
 10
-0.1815005947613931
 20
-1.491703487144151
 10
-0.1790373738501785
 20
-1.490304054033754
  0
LINE
  5
EA
330
8E
100
AcDbEntity
  8
AM_9
100
AcDbLine
 10
-0.2187500000000001
 20
-1.598903700151693
 30
0.0
 11
-0.2187500000000001
 21
-1.339221299848307
 31
0.0
  0
LWPOLYLINE
  5
EB
330
8E
100
AcDbEntity
  8
AM_9
100
AcDbPolyline
 90
        3
 70
     0
 43
0.0
 10
-0.1093750000000001
 20
-1.658125
 10
-0.1640625000000001
 20
-1.629584559607482
 10
-0.2187500000000001
 20
-1.598903700151693
  0
LWPOLYLINE
  5
EC
330
8E
100
AcDbEntity
  8
AM_9
100
AcDbPolyline
 90
        3
 70
     0
 43
0.0
 10
-0.0000000000000001
 20
-1.708278700151693
 10
-0.0544416102741497
 20
-1.684384432388115
 10
-0.1093750000000001
 20
-1.658125
  0
LWPOLYLINE
  5
ED
330
8E
100
AcDbEntity
  8
AM_9
100
AcDbPolyline
 90
        3
 70
     0
 43
0.0
 10
-0.2187500000000001
 20
-1.557971299848307
 10
-0.1643083897258505
 20
-1.581865567611885
 10
-0.1093750000000001
 20
-1.608125
  0
LWPOLYLINE
  5
EE
330
8E
100
AcDbEntity
  8
AM_9
100
AcDbPolyline
 90
        3
 70
     0
 43
0.0
 10
-0.1093750000000001
 20
-1.608125
 10
-0.0546875000000002
 20
-1.636665440392517
 10
-0.0000000000000001
 20
-1.667346299848307
  0
LINE
  5
EF
330
8E
100
AcDbEntity
  8
AM_9
100
AcDbLine
 10
-0.0000000000000001
 20
-1.708278700151693
 30
0.0
 11
-0.0000000000000001
 21
-1.667346299848307
 31
0.0
  0
LWPOLYLINE
  5
F0
330
8E
100
AcDbEntity
  8
AM_9
100
AcDbPolyline
 90
        3
 70
     0
 43
0.0
 10
0.1093749999999998
 20
-1.658125
 10
0.0546874999999998
 20
-1.684272059607483
 10
-0.0000000000000001
 20
-1.708278700151693
  0
LWPOLYLINE
  5
F1
330
8E
100
AcDbEntity
  8
AM_9
100
AcDbPolyline
 90
        3
 70
     0
 43
0.0
 10
0.2187499999999999
 20
-1.598903700151693
 10
0.1643083897258503
 20
-1.629451042662265
 10
0.1093749999999998
 20
-1.658125
  0
LINE
  5
F2
330
8E
100
AcDbEntity
  8
AM_9
100
AcDbLine
 10
0.2187499999999999
 20
-1.598903700151693
 30
0.0
 11
0.2187499999999999
 21
-1.339221299848307
 31
0.0
  0
LWPOLYLINE
  5
F3
330
8E
100
AcDbEntity
  8
AM_9
100
AcDbPolyline
 90
        3
 70
     0
 43
0.0
 10
0.1093749999999998
 20
-1.608125
 10
0.1640624999999998
 20
-1.581977940392517
 10
0.2187499999999999
 20
-1.557971299848307
  0
LWPOLYLINE
  5
F4
330
8E
100
AcDbEntity
  8
AM_9
100
AcDbPolyline
 90
        3
 70
     0
 43
0.0
 10
-0.0000000000000001
 20
-1.667346299848307
 10
0.0544416102741494
 20
-1.636798957337735
 10
0.1093749999999998
 20
-1.608125
  0
LINE
  5
F5
330
8E
100
AcDbEntity
  8
AM_9
100
AcDbLine
 10
0.1999999999999998
 20
-1.4440625
 30
0.0
 11
0.1999999999999998
 21
-1.405
 31
0.0
  0
LINE
  5
F6
330
8E
100
AcDbEntity
  8
AM_9
100
AcDbLine
 10
-0.1851454569549802
 20
-1.298809912570727
 30
0.0
 11
-0.1912304659644924
 21
-1.396022462287446
 31
0.0
  0
LINE
  5
F7
330
8E
100
AcDbEntity
  8
AM_9
100
AcDbLine
 10
0.1912304659644922
 20
-1.396022462287446
 30
0.0
 11
0.1851454569549799
 21
-1.298809912570727
 31
0.0
  0
ELLIPSE
  5
F8
330
8E
100
AcDbEntity
  8
AM_9
100
AcDbEllipse
 10
-0.0000000000000001
 20
-1.295625
 30
0.0
 11
0.1616637258772237
 21
0.0
 31
0.0
210
0.0
220
0.0
230
1.0
 40
0.8660254037844384
 41
0.0
 42
6.283185307179586
  0
ELLIPSE
  5
F9
330
8E
100
AcDbEntity
  8
AM_9
100
AcDbEllipse
 10
-0.4687499999999992
 20
-1.670606438444097
 30
0.0
 11
-0.02349716402074538
 21
0.100779661709673
 31
0.0
210
0.0
220
0.0
230
1.0
 40
0.3659981507706689
 41
0.0
 42
6.283185307179586
  0
ELLIPSE
  5
FA
330
8E
100
AcDbEntity
  8
AM_9
100
AcDbEllipse
 10
-0.3994303217889763
 20
-1.654444290038773
 30
0.0
 11
-0.03159560311146604
 21
0.1355139790604252
 31
0.0
210
0.0
220
0.0
230
1.0
 40
0.3659981507706682
 41
0.0
 42
6.283185307179586
  0
ELLIPSE
  5
FB
330
8E
100
AcDbEntity
  8
AM_9
100
AcDbEllipse
 10
-0.3729962569746643
 20
-1.648281086609234
 30
0.0
 11
-0.03024351534849257
 21
0.1297148559307586
 31
0.0
210
0.0
220
0.0
230
1.0
 40
0.3659981507706651
 41
0.0
 42
6.283185307179586
  0
ELLIPSE
  5
FC
330
8E
100
AcDbEntity
  8
AM_9
100
AcDbEllipse
 10
-0.2013892028241881
 20
-1.608270244837341
 30
0.0
 11
-0.02497702053391714
 21
0.1071267867773893
 31
0.0
210
0.0
220
0.0
230
1.0
 40
0.3659981507706677
 41
0.0
 42
6.283185307179586
  0
ELLIPSE
  5
FD
330
8E
100
AcDbEntity
  8
AM_9
100
AcDbEllipse
 10
-0.0000000000000002
 20
-1.4940625
 30
0.0
 11
-0.1999999999999998
 21
2.449293598294704E-17
 31
0.0
210
0.0
220
0.0
230
1.0
 40
0.8660254037844368
 41
0.0
 42
6.283185307179586
  0
ELLIPSE
  5
FE
330
8E
100
AcDbEntity
  8
AM_9
100
AcDbEllipse
 10
-0.0000000000000001
 20
-1.494062500000001
 30
0.0
 11
-0.2187499999999996
 21
3.259629037943317E-9
 31
0.0
210
0.0
220
0.0
230
1.0
 40
0.8660254037844334
 41
0.0
 42
6.283185307179586
  0
ELLIPSE
  5
FF
330
8E
100
AcDbEntity
  8
AM_9
100
AcDbEllipse
 10
-0.0000000000000001
 20
-1.4440625
 30
0.0
 11
-0.2187500000000001
 21
2.678914873134836E-17
 31
0.0
210
0.0
220
0.0
230
1.0
 40
0.8660254037844388
 41
0.0
 42
6.283185307179586
  0
ELLIPSE
  5
100
330
8E
100
AcDbEntity
  8
AM_9
100
AcDbEllipse
 10
-0.0000000000000005
 20
-1.4440625
 30
0.0
 11
-0.1999999999999997
 21
2.449293598294703E-17
 31
0.0
210
0.0
220
0.0
230
1.0
 40
0.8660254037844396
 41
0.0
 42
6.283185307179586
  0
ELLIPSE
  5
101
330
8E
100
AcDbEntity
  8
AM_9
100
AcDbEllipse
 10
-0.0000000000000001
 20
-1.405
 30
0.0
 11
-0.2
 21
2.449293598294707E-17
 31
0.0
210
0.0
220
0.0
230
1.0
 40
0.8660254037844384
 41
0.0
 42
6.283185307179586
  0
ELLIPSE
  5
102
330
8E
100
AcDbEntity
  8
AM_9
100
AcDbEllipse
 10
0.0000000000000004
 20
-1.404999999999999
 30
0.0
 11
-0.1915112338502299
 21
2.345336195354443E-17
 31
0.0
210
0.0
220
0.0
230
1.0
 40
0.8660254037844387
 41
0.0
 42
6.283185307179586
  0
ELLIPSE
  5
103
330
8E
100
AcDbEntity
  8
AM_9
100
AcDbEllipse
 10
-0.0000000000000001
 20
-1.307501782423881
 30
0.0
 11
-0.1854172907249858
 21
2.762932959926596E-9
 31
0.0
210
0.0
220
0.0
230
1.0
 40
0.8660254037844292
 41
0.0
 42
6.283185307179586
  0
ENDBLK
  5
91
330
8E
100
AcDbEntity
  8
0
100
AcDbBlockEnd
  0
BLOCK
  5
106
330
104
100
AcDbEntity
  8
0
100
AcDbBlockBegin
  2
3_076122_0_in_076090_2
 70
     2
 10
0.0
 20
0.0
 30
0.0
  3
3_076122_0_in_076090_2
  1

  0
ATTDEF
  5
108
330
104
100
AcDbEntity
  8
AM_6
100
AcDbText
 10
5.9
 20
2.16511503728896
 30
0.0
 40
0.5
  1
Set Screw Extreme Duty Insert Inch Bore
100
AcDbAttributeDefinition
  3

  2
NN
 70
     8
280
     0
  0
ATTDEF
  5
109
330
104
100
AcDbEntity
  8
AM_6
100
AcDbText
 10
5.9
 20
1.66511503728896
 30
0.0
 40
0.5
  1
SC Medium Duty Bearing Inserts
100
AcDbAttributeDefinition
  3

  2
NT
 70
     8
280
     0
  0
ATTDEF
  5
10A
330
104
100
AcDbEntity
  8
AM_6
100
AcDbText
 10
5.9
 20
1.16511503728896
 30
0.0
 40
0.5
  1
076122
100
AcDbAttributeDefinition
  3

  2
NB
 70
     8
280
     0
  0
ATTDEF
  5
10B
330
104
100
AcDbEntity
  8
AM_6
100
AcDbText
 10
5.9
 20
0.6651150372889596
 30
0.0
 40
0.5
  1
$PN.
100
AcDbAttributeDefinition
  3

  2
NBSYN
 70
     8
280
     0
  0
ATTDEF
  5
10C
330
104
100
AcDbEntity
  8
AM_6
100
AcDbText
 10
5.9
 20
0.1651150372889596
 30
0.0
 40
0.5
  1
076122
100
AcDbAttributeDefinition
  3

  2
LINA
 70
     8
280
     0
  0
ATTDEF
  5
10D
330
104
100
AcDbEntity
  8
AM_6
100
AcDbText
 10
5.9
 20
-0.3348849627110404
 30
0.0
 40
0.5
  1
212
100
AcDbAttributeDefinition
  3

  2
SERIES
 70
     8
280
     0
  0
ATTDEF
  5
10E
330
104
100
AcDbEntity
  8
AM_6
100
AcDbText
 10
5.9
 20
-0.8348849627110404
 30
0.0
 40
0.5
  1
2-7/16
100
AcDbAttributeDefinition
  3

  2
SS
 70
     8
280
     0
  0
ATTDEF
  5
10F
330
104
100
AcDbEntity
  8
AM_6
100
AcDbText
 10
5.9
 20
-1.33488496271104
 30
0.0
 40
0.5
  1
076122
100
AcDbAttributeDefinition
  3

  2
PN
 70
     8
280
     0
  0
ATTDEF
  5
110
330
104
100
AcDbEntity
  8
AM_6
100
AcDbText
 10
5.9
 20
-1.83488496271104
 30
0.0
 40
0.5
  1
INS-SCED-207
100
AcDbAttributeDefinition
  3

  2
DESCRIPTION
 70
     8
280
     0
  0
ATTDEF
  5
111
330
104
100
AcDbEntity
  8
AM_6
100
AcDbText
 10
5.9
 20
-2.33488496271104
 30
0.0
 40
0.5
  1
2.49
100
AcDbAttributeDefinition
  3

  2
WEIGHT
 70
     8
280
     0
  0
ATTDEF
  5
112
330
104
100
AcDbEntity
  8
AM_6
100
AcDbText
 10
5.9
 20
-2.83488496271104
 30
0.0
 40
0.5
  1
2.31
100
AcDbAttributeDefinition
  3

  2
A
 70
     8
280
     0
  0
ATTDEF
  5
113
330
104
100
AcDbEntity
  8
AM_6
100
AcDbText
 10
5.9
 20
-3.33488496271104
 30
0.0
 40
0.5
  1
1.02
100
AcDbAttributeDefinition
  3

  2
C
 70
     8
280
     0
  0
ATTDEF
  5
114
330
104
100
AcDbEntity
  8
AM_6
100
AcDbText
 10
5.9
 20
-3.83488496271104
 30
0.0
 40
0.5
  1
4.3307
100
AcDbAttributeDefinition
  3

  2
D
 70
     8
280
     0
  0
ATTDEF
  5
115
330
104
100
AcDbEntity
  8
AM_6
100
AcDbText
 10
5.9
 20
-4.33488496271104
 30
0.0
 40
0.5
  1
0.25
100
AcDbAttributeDefinition
  3

  2
J
 70
     8
280
     0
  0
ATTDEF
  5
116
330
104
100
AcDbEntity
  8
AM_6
100
AcDbText
 10
5.9
 20
-4.83488496271104
 30
0.0
 40
0.5
  1
2.97
100
AcDbAttributeDefinition
  3

  2
L
 70
     8
280
     0
  0
ATTDEF
  5
117
330
104
100
AcDbEntity
  8
AM_6
100
AcDbText
 10
5.9
 20
-5.33488496271104
 30
0.0
 40
0.5
  1
3/8 - 24
100
AcDbAttributeDefinition
  3

  2
N
 70
     8
280
     0
  0
ATTDEF
  5
118
330
104
100
AcDbEntity
  8
AM_6
100
AcDbText
 10
5.9
 20
-5.83488496271104
 30
0.0
 40
0.5
  1
0.90
100
AcDbAttributeDefinition
  3

  2
W
 70
     8
280
     0
  0
ATTDEF
  5
119
330
104
100
AcDbEntity
  8
AM_6
100
AcDbText
 10
5.9
 20
-6.33488496271104
 30
0.0
 40
0.5
  1
1.41
100
AcDbAttributeDefinition
  3

  2
Y
 70
     8
280
     0
  0
ATTDEF
  5
11A
330
104
100
AcDbEntity
  8
AM_6
100
AcDbText
 10
5.9
 20
-6.83488496271104
 30
0.0
 40
0.5
  1
baldor
100
AcDbAttributeDefinition
  3

  2
COMPANY
 70
     8
280
     0
  0
LINE
  5
11B
330
104
100
AcDbEntity
  8
AM_9
100
AcDbLine
 10
-1.085680543546108
 20
1.215540554249855
 30
0.0
 11
-0.8343194564538922
 21
1.215540554249855
 31
0.0
  0
LINE
  5
11C
330
104
100
AcDbEntity
  8
AM_9
100
AcDbLine
 10
-0.80635
 20
1.21875
 30
0.0
 11
-0.80635
 21
1.46181532135132
 31
0.0
  0
LINE
  5
11D
330
104
100
AcDbEntity
  8
AM_9
100
AcDbLine
 10
-1.11365
 20
1.46181532135132
 30
0.0
 11
-1.11365
 21
1.21875
 31
0.0
  0
LINE
  5
11E
330
104
100
AcDbEntity
  8
AM_9
100
AcDbLine
 10
-1.11365
 20
1.46181532135132
 30
0.0
 11
-0.80635
 21
1.46181532135132
 31
0.0
  0
LINE
  5
11F
330
104
100
AcDbEntity
  8
AM_9
100
AcDbLine
 10
-0.80635
 20
1.46181532135132
 30
0.0
 11
-0.78316532135132
 21
1.485
 31
0.0
  0
LINE
  5
120
330
104
100
AcDbEntity
  8
AM_9
100
AcDbLine
 10
-1.13683467864868
 20
1.485
 30
0.0
 11
-1.11365
 21
1.46181532135132
 31
0.0
  0
LWPOLYLINE
  5
121
330
104
100
AcDbEntity
  8
AM_9
100
AcDbPolyline
 90
       14
 70
     0
 43
0.0
 10
-1.085680543546108
 20
1.215540554249855
 10
-1.083774282484055
 20
1.215316601635696
 10
-1.066564975016053
 20
1.213446630623782
 10
-1.045728115754272
 20
1.211548541374835
 10
-1.023058030213322
 20
1.209949430956813
 10
-0.9982473122409089
 20
1.208748419093065
 10
-0.9740169514577378
 20
1.208148570540534
 10
-0.9493512820682922
 20
1.208104384385764
 10
-0.9262134693967274
 20
1.208598384234477
 10
-0.9040097807195916
 20
1.209545312952889
 10
-0.8831225674835361
 20
1.210866916061794
 10
-0.8642467798794726
 20
1.212410990579888
 10
-0.8479727747368041
 20
1.214010249488032
 10
-0.8343194564538922
 20
1.215540554249855
  0
LINE
  5
122
330
104
100
AcDbEntity
  8
AM_9
100
AcDbLine
 10
-0.8343194564538922
 20
1.215540554249855
 30
0.0
 11
-0.8063500000001397
 21
1.218749999999982
 31
0.0
  0
LWPOLYLINE
  5
123
330
104
100
AcDbEntity
  8
AM_9
100
AcDbPolyline
 90
       14
 70
     0
 43
0.0
 10
-0.8343194564538917
 20
0.5938178295788619
 10
-0.8508017280597548
 20
0.613218563356725
 10
-0.8708866474760965
 20
0.629686833959531
 10
-0.8932740686225323
 20
0.6422384706267249
 10
-0.9179340975923582
 20
0.6510866815181385
 10
-0.9421649246200012
 20
0.6555987964227199
 10
-0.9669547542684723
 20
0.6564395419785375
 10
-0.9902278840637148
 20
0.6537631329653436
 10
-1.012658912882743
 20
0.6478586383313767
 10
-1.033756155557568
 20
0.6388262609541604
 10
-1.052921233582266
 20
0.6270091416062977
 10
-1.070605479696159
 20
0.6118251232085771
 10
-1.085340578226317
 20
0.5943001189805864
 10
-1.085680543546108
 20
0.5938178295788619
  0
LWPOLYLINE
  5
124
330
104
100
AcDbEntity
  8
AM_9
100
AcDbPolyline
 90
       14
 70
     0
 43
0.0
 10
-1.085680543546108
 20
0.4336014426459375
 10
-1.075112331292351
 20
0.4193376275680978
 10
-1.062869126875847
 20
0.4062472959997586
 10
-1.041971109322984
 20
0.3895643337296092
 10
-1.018259827549733
 20
0.3766391665770935
 10
-0.9942320704840821
 20
0.3686115869784105
 10
-0.9690918755741034
 20
0.3647865231449608
 10
-0.9453156845487727
 20
0.3652634452197698
 10
-0.9219637462593003
 20
0.3695641063250119
 10
-0.9000416058133996
 20
0.377401119830945
 10
-0.8797076853396292
 20
0.3884392226734484
 10
-0.8651430404982362
 20
0.3991328950897799
 10
-0.8520203945576476
 20
0.4113458702142145
 10
-0.8343194564538922
 20
0.4336014426459375
  0
LINE
  5
125
330
104
100
AcDbEntity
  8
AM_9
100
AcDbLine
 10
-1.3506
 20
-1.21875
 30
0.0
 11
0.8406
 21
-1.21875
 31
0.0
  0
LINE
  5
126
330
104
100
AcDbEntity
  8
AM_9
100
AcDbLine
 10
0.8406
 20
1.21875
 30
0.0
 11
-0.80635
 21
1.21875
 31
0.0
  0
LINE
  5
127
330
104
100
AcDbEntity
  8
AM_9
100
AcDbLine
 10
-1.11365
 20
1.21875
 30
0.0
 11
-1.3506
 21
1.21875
 31
0.0
  0
LINE
  5
128
330
104
100
AcDbEntity
  8
AM_9
100
AcDbLine
 10
-1.11364999999986
 20
1.218749999999982
 30
0.0
 11
-1.085680543546108
 21
1.215540554249855
 31
0.0
  0
LINE
  5
129
330
104
100
AcDbEntity
  8
AM_9
100
AcDbLine
 10
0.8406
 20
-1.21875
 30
0.0
 11
0.8999999999999999
 21
-1.27815
 31
0.0
  0
LINE
  5
12A
330
104
100
AcDbEntity
  8
AM_9
100
AcDbLine
 10
0.8999999999999999
 20
1.27815
 30
0.0
 11
0.8406
 21
1.21875
 31
0.0
  0
LINE
  5
12B
330
104
100
AcDbEntity
  8
AM_9
100
AcDbLine
 10
-1.3506
 20
1.21875
 30
0.0
 11
-1.41
 21
1.27815
 31
0.0
  0
LINE
  5
12C
330
104
100
AcDbEntity
  8
AM_9
100
AcDbLine
 10
-1.41
 20
-1.27815
 30
0.0
 11
-1.3506
 21
-1.21875
 31
0.0
  0
LWPOLYLINE
  5
12D
330
104
100
AcDbEntity
  8
AM_9
100
AcDbPolyline
 90
        5
 70
     0
 43
0.0
 10
-0.8343194564538923
 20
0.4336014426459376
 10
-0.8214691254160064
 20
0.4540622960018578
 10
-0.8122010718712481
 20
0.4766973428224487
 10
-0.8072965589972403
 20
0.4995823504992652
 10
-0.8063500005597404
 20
0.5150778928668162
  0
ELLIPSE
  5
12E
330
104
100
AcDbEntity
  8
AM_9
100
AcDbEllipse
 10
-0.96
 20
0.5137096361124002
 30
0.0
 11
0.1536500000000002
 21
0.0
 31
0.0
210
0.0
220
0.0
230
1.0
 40
0.9063077870366498
 41
3.754521888782829
 42
5.67025607198655
  0
LWPOLYLINE
  5
12F
330
104
100
AcDbEntity
  8
AM_9
100
AcDbPolyline
 90
        4
 70
     0
 43
0.0
 10
-1.102720735459399
 20
0.566084987340168
 10
-1.107798928128752
 20
0.5528228669031856
 10
-1.11270344100276
 20
0.530449102490265
 10
-1.11364999944026
 20
0.5150541200664925
  0
LINE
  5
130
330
104
100
AcDbEntity
  8
AM_9
100
AcDbLine
 10
-0.80635
 20
0.5150389779607497
 30
0.0
 11
-0.8063499999999999
 21
0.6177898500954166
 31
0.0
  0
LINE
  5
131
330
104
100
AcDbEntity
  8
AM_9
100
AcDbLine
 10
-1.11365
 20
0.6177898500954166
 30
0.0
 11
-1.11365
 21
0.5150389779607496
 31
0.0
  0
LWPOLYLINE
  5
132
330
104
100
AcDbEntity
  8
AM_9
100
AcDbPolyline
 90
        4
 70
     0
 43
0.0
 10
-0.8063500005597404
 20
0.5150778928668162
 10
-0.8066232953390573
 20
0.5233534039125224
 10
-0.8102141421065494
 20
0.5458965263890183
 10
-0.8176357688782626
 20
0.5668703256837386
  0
LWPOLYLINE
  5
133
330
104
100
AcDbEntity
  8
AM_9
100
AcDbPolyline
 90
        6
 70
     0
 43
0.0
 10
-1.11364999944026
 20
0.5150541200664925
 10
-1.113376704660943
 20
0.506749512085352
 10
-1.10978585789345
 20
0.4838288192090228
 10
-1.101845658456524
 20
0.4609339655084694
 10
-1.094611488566916
 20
0.4469729478028777
 10
-1.085680543546107
 20
0.4336014426459376
  0
LINE
  5
134
330
104
100
AcDbEntity
  8
AM_9
100
AcDbLine
 10
-0.6259999999999998
 20
-1.485
 30
0.0
 11
-0.51
 21
-1.485
 31
0.0
  0
LINE
  5
135
330
104
100
AcDbEntity
  8
AM_9
100
AcDbLine
 10
-0.51
 20
1.485
 30
0.0
 11
-0.6259999999999998
 21
1.485
 31
0.0
  0
LINE
  5
136
330
104
100
AcDbEntity
  8
AM_9
100
AcDbLine
 10
0.51
 20
-1.485
 30
0.0
 11
0.6260000000000001
 21
-1.485
 31
0.0
  0
LINE
  5
137
330
104
100
AcDbEntity
  8
AM_9
100
AcDbLine
 10
0.6260000000000001
 20
1.485
 30
0.0
 11
0.51
 21
1.485
 31
0.0
  0
LINE
  5
138
330
104
100
AcDbEntity
  8
AM_9
100
AcDbLine
 10
-0.3000000000000001
 20
-2.082016666666667
 30
0.0
 11
-0.2
 21
-2.082016666666667
 31
0.0
  0
LINE
  5
139
330
104
100
AcDbEntity
  8
AM_9
100
AcDbLine
 10
-0.2
 20
2.082016666666667
 30
0.0
 11
-0.3000000000000001
 21
2.082016666666667
 31
0.0
  0
LINE
  5
13A
330
104
100
AcDbEntity
  8
AM_9
100
AcDbLine
 10
-0.51
 20
2.064728946496368
 30
0.0
 11
-0.51
 21
-2.064728946496368
 31
0.0
  0
ARC
  5
13B
330
104
100
AcDbEntity
  8
AM_9
100
AcDbCircle
 10
-0.4600000000000002
 20
-2.064728946496368
 30
0.0
 40
0.0499999999999998
100
AcDbArc
 50
180.0
 51
257.4402210663628
  0
ARC
  5
13C
330
104
100
AcDbEntity
  8
AM_9
100
AcDbCircle
 10
-0.4600000000000002
 20
2.064728946496368
 30
0.0
 40
0.05
100
AcDbArc
 50
102.5597789336372
 51
180.0
  0
LINE
  5
13D
330
104
100
AcDbEntity
  8
AM_9
100
AcDbLine
 10
0.51
 20
2.064728946496368
 30
0.0
 11
0.51
 21
-2.064728946496368
 31
0.0
  0
ARC
  5
13E
330
104
100
AcDbEntity
  8
AM_9
100
AcDbCircle
 10
0.459999999999999
 20
-2.064728946496367
 30
0.0
 40
0.0500000000000007
100
AcDbArc
 50
282.5597724420101
 51
0.0
  0
ARC
  5
13F
330
104
100
AcDbEntity
  8
AM_9
100
AcDbCircle
 10
0.459999999999999
 20
2.064728946496367
 30
0.0
 40
0.050000000000001
100
AcDbArc
 50
0.0
 51
77.44022755798986
  0
ARC
  5
140
330
104
100
AcDbEntity
  8
AM_9
100
AcDbCircle
 10
-0.000000000000015
 20
0.000000000000099
 30
0.0
 40
2.1653499999999
100
AcDbArc
 50
97.96370274086443
 51
102.5225635180784
  0
ARC
  5
141
330
104
100
AcDbEntity
  8
AM_9
100
AcDbCircle
 10
0.0000000000396784
 20
0.0000000001977569
 30
0.0
 40
2.16535000020103
100
AcDbArc
 50
257.4774364820278
 51
262.0362972588196
  0
LINE
  5
142
330
104
100
AcDbEntity
  8
AM_9
100
AcDbLine
 10
-0.4708729051929944
 20
2.113532429288728
 30
0.0
 11
-0.4708729051929944
 21
-2.113532429288407
 31
0.0
  0
LINE
  5
143
330
104
100
AcDbEntity
  8
AM_9
100
AcDbLine
 10
-0.2999999999999999
 20
2.144467444961569
 30
0.0
 11
-0.2999999999999999
 21
-2.144467444961249
 31
0.0
  0
ARC
  5
144
330
104
100
AcDbEntity
  8
AM_9
100
AcDbCircle
 10
0.0000000000000019
 20
0.0000000000000098
 30
0.0
 40
2.16534999999999
100
AcDbArc
 50
77.47743648192179
 51
95.29961065194142
  0
ARC
  5
145
330
104
100
AcDbEntity
  8
AM_9
100
AcDbCircle
 10
-0.0000000000002018
 20
0.0000000000014992
 30
0.0
 40
2.165350000001439
100
AcDbArc
 50
264.7003893480675
 51
282.5225635180752
  0
LINE
  5
146
330
104
100
AcDbEntity
  8
AM_9
100
AcDbLine
 10
-0.2000000000000002
 20
2.156093834344878
 30
0.0
 11
-0.2000000000000002
 21
-2.156093834344843
 31
0.0
  0
LINE
  5
147
330
104
100
AcDbEntity
  8
AM_9
100
AcDbLine
 10
0.4708728996635456
 20
2.11353243052063
 30
0.0
 11
0.4708728996635456
 21
-2.113532430520595
 31
0.0
  0
LINE
  5
149
330
104
100
AcDbEntity
  8
AM_5
100
AcDbLine
 10
-0.7725000000000001
 20
1.21875
 30
0.0
 11
-0.7725000000000001
 21
1.485
 31
0.0
  0
LINE
  5
14A
330
104
100
AcDbEntity
  8
AM_5
100
AcDbLine
 10
-1.1475
 20
1.21875
 30
0.0
 11
-1.1475
 21
1.485
 31
0.0
  0
LINE
  5
14D
330
104
100
AcDbEntity
  8
AM_7
100
AcDbLine
 10
-0.96
 20
1.511364059706393
 30
0.0
 11
-0.96
 21
1.165991815894781
 31
0.0
  0
ELLIPSE
  5
14F
330
104
100
AcDbEntity
  8
AM_4
100
AcDbEllipse
 10
-0.9600000000000001
 20
0.5137096361124001
 30
0.0
 11
0.1536500000000002
 21
0.0
 31
0.0
210
0.0
220
0.0
230
1.0
 40
0.9063077870366506
 41
0.612929235193028
 42
2.528663418396764
  0
LWPOLYLINE
  5
150
330
104
100
AcDbEntity
  8
AM_4
100
AcDbPolyline
 90
        3
 70
     0
 43
0.0
 10
-1.085680543546108
 20
0.5938178295788619
 10
-1.098530874583994
 20
0.5745367410117833
 10
-1.102720735459399
 20
0.566084987340168
  0
ELLIPSE
  5
151
330
104
100
AcDbEntity
  8
AM_4
100
AcDbEllipse
 10
-0.9599999999999999
 20
0.6177898500954165
 30
0.0
 11
0.1536500000000001
 21
0.0
 31
0.0
210
0.0
220
0.0
230
1.0
 40
0.9063077870366505
 41
3.141592653589793
 42
6.283185307179586
  0
ELLIPSE
  5
152
330
104
100
AcDbEntity
  8
AM_4
100
AcDbEllipse
 10
-0.9599999999999995
 20
0.6177898500954171
 30
0.0
 11
0.1536499999999996
 21
0.0
 31
0.0
210
0.0
220
0.0
230
1.0
 40
0.9063077870366495
 41
0.0
 42
1.570796326794897
  0
LWPOLYLINE
  5
153
330
104
100
AcDbEntity
  8
AM_4
100
AcDbPolyline
 90
        4
 70
     0
 43
0.0
 10
-0.8176357688782626
 20
0.5668703256837386
 10
-0.8181543415434751
 20
0.5679877790789176
 10
-0.8253885114330837
 20
0.5812542407309358
 10
-0.8343194564538917
 20
0.593817829578862
  0
ELLIPSE
  5
154
330
104
100
AcDbEntity
  8
AM_4
100
AcDbEllipse
 10
-0.9600000000000002
 20
0.6177898500954171
 30
0.0
 11
0.1536499999999996
 21
0.0
 31
0.0
210
0.0
220
0.0
230
1.0
 40
0.9063077870366495
 41
1.570796326794897
 42
3.141592653589793
  0
LINE
  5
155
330
104
100
AcDbEntity
  8
AM_4
100
AcDbLine
 10
0.8999999999999999
 20
1.4256
 30
0.0
 11
0.8406
 21
1.485
 31
0.0
  0
LINE
  5
156
330
104
100
AcDbEntity
  8
AM_4
100
AcDbLine
 10
0.8406
 20
-1.485
 30
0.0
 11
0.8999999999999999
 21
-1.4256
 31
0.0
  0
LINE
  5
157
330
104
100
AcDbEntity
  8
AM_4
100
AcDbLine
 10
0.8999999999999999
 20
1.4256
 30
0.0
 11
0.8999999999999999
 21
-1.4256
 31
0.0
  0
LWPOLYLINE
  5
158
330
104
100
AcDbEntity
  8
AM_4
100
AcDbPolyline
 90
       39
 70
     0
 43
0.0
 10
-0.7833551512438041
 20
0.6205617450074246
 10
-0.7868464916102483
 20
0.5967409536696188
 10
-0.7945578344633413
 20
0.5735848747311146
 10
-0.8064645542331053
 20
0.5514449005884112
 10
-0.8220329866545847
 20
0.5312152786859179
 10
-0.8416775216615385
 20
0.512734894515576
 10
-0.8641951818278882
 20
0.4973155333715778
 10
-0.8904111679918338
 20
0.4848022811537737
 10
-0.9184144331472363
 20
0.4763851666554837
 10
-0.9487116472664011
 20
0.4722407806413898
 10
-0.9793167230568942
 20
0.4728563114641241
 10
-1.009917438588704
 20
0.4784203678492801
 10
-1.039092845046893
 20
0.4887551295418813
 10
-1.065765281424757
 20
0.5035343535998541
 10
-1.089323490864366
 20
0.5223459231982466
 10
-1.1083031414811
 20
0.5438938153055134
 10
-1.122915893622857
 20
0.568060187609674
 10
-1.132099824000464
 20
0.5926324078237
 10
-1.136488396365212
 20
0.6180960541451601
 10
-1.135964308154624
 20
0.6424010098782538
 10
-1.130951771540441
 20
0.6660833174965539
 10
-1.121704246691212
 20
0.6882323359719372
 10
-1.108574573197473
 20
0.7086044971254583
 10
-1.091358725385485
 20
0.7272666184778013
 10
-1.070990171712435
 20
0.7432018384045973
 10
-1.046709574587937
 20
0.7567045202622603
 10
-1.020246509993973
 20
0.7666505288612874
 10
-0.9909093563912637
 20
0.7730494685478101
 10
-0.9607445008167083
 20
0.7752787845066763
 10
-0.929781566234549
 20
0.7731469713044069
 10
-0.8996701076157095
 20
0.766625826339271
 10
-0.8712665503528383
 20
0.7557518060607843
 10
-0.8454550390261398
 20
0.7407771563396144
 10
-0.8236397773833054
 20
0.722452141536556
 10
-0.8058610157047681
 20
0.7009068831858247
 10
-0.7934115910099517
 20
0.677911527489559
 10
-0.7857166617522288
 20
0.6531173389113155
 10
-0.7835080057427976
 20
0.6369468580675949
 10
-0.7833551453528516
 20
0.6205617397703995
  0
LINE
  5
159
330
104
100
AcDbEntity
  8
AM_4
100
AcDbLine
 10
-1.3506
 20
-1.485
 30
0.0
 11
-0.6259999999999998
 21
-1.485
 31
0.0
  0
LINE
  5
15A
330
104
100
AcDbEntity
  8
AM_4
100
AcDbLine
 10
-0.6259999999999998
 20
1.485
 30
0.0
 11
-0.78316532135132
 21
1.485
 31
0.0
  0
LINE
  5
15B
330
104
100
AcDbEntity
  8
AM_4
100
AcDbLine
 10
-1.13683467864868
 20
1.485
 30
0.0
 11
-1.3506
 21
1.485
 31
0.0
  0
LWPOLYLINE
  5
15C
330
104
100
AcDbEntity
  8
AM_4
100
AcDbPolyline
 90
       20
 70
     0
 43
0.0
 10
-0.7831653213513426
 20
1.484999999999997
 10
-0.7853833629849447
 20
1.484765426817268
 10
-0.7918407066992842
 20
1.484099014108017
 10
-0.8026533308270963
 20
1.483038244620513
 10
-0.8172006359053867
 20
1.481720384680772
 10
-0.8355976501206974
 20
1.480234187534502
 10
-0.8574855046160503
 20
1.478729848196094
 10
-0.8825213459295509
 20
1.477362591149939
 10
-0.910182163228175
 20
1.476292659054274
 10
-0.9399209370336876
 20
1.475660385171798
 10
-0.9703723701735613
 20
1.475570436625465
 10
-1.001391324579052
 20
1.476058933982045
 10
-1.030641899567236
 20
1.477055024726047
 10
-1.058678438536676
 20
1.478495839924674
 10
-1.082617337350709
 20
1.480100746865628
 10
-1.103601463401631
 20
1.481789772611394
 10
-1.118979881645085
 20
1.483194037022283
 10
-1.130127220408047
 20
1.484299504979203
 10
-1.135692947215456
 20
1.484878892524406
 10
-1.136834678648561
 20
1.484999999999987
  0
LINE
  5
15D
330
104
100
AcDbEntity
  8
AM_4
100
AcDbLine
 10
-1.41
 20
-1.4256
 30
0.0
 11
-1.3506
 21
-1.485
 31
0.0
  0
LINE
  5
15E
330
104
100
AcDbEntity
  8
AM_4
100
AcDbLine
 10
-1.3506
 20
1.485
 30
0.0
 11
-1.41
 21
1.4256
 31
0.0
  0
LINE
  5
15F
330
104
100
AcDbEntity
  8
AM_4
100
AcDbLine
 10
-1.41
 20
1.4256
 30
0.0
 11
-1.41
 21
-1.4256
 31
0.0
  0
LINE
  5
160
330
104
100
AcDbEntity
  8
AM_4
100
AcDbLine
 10
-1.3506
 20
1.485
 30
0.0
 11
-1.3506
 21
-1.485
 31
0.0
  0
LINE
  5
161
330
104
100
AcDbEntity
  8
AM_4
100
AcDbLine
 10
0.6260000000000001
 20
-1.485
 30
0.0
 11
0.8406
 21
-1.485
 31
0.0
  0
LINE
  5
162
330
104
100
AcDbEntity
  8
AM_4
100
AcDbLine
 10
0.8406
 20
1.485
 30
0.0
 11
0.6260000000000001
 21
1.485
 31
0.0
  0
LINE
  5
163
330
104
100
AcDbEntity
  8
AM_4
100
AcDbLine
 10
0.8406
 20
1.485
 30
0.0
 11
0.8406
 21
-1.485
 31
0.0
  0
ENDBLK
  5
107
330
104
100
AcDbEntity
  8
0
100
AcDbBlockEnd
  0
BLOCK
  5
166
330
164
100
AcDbEntity
  8
0
100
AcDbBlockBegin
  2
4_076090H_0_in_076090_2
 70
     2
 10
0.0
 20
0.0
 30
0.0
  3
4_076090H_0_in_076090_2
  1

  0
ATTDEF
  5
168
330
164
100
AcDbEntity
  8
AM_6
100
AcDbText
 10
6.3772
 20
2.875
 30
0.0
 40
0.5
  1
NSTU-SCED - Inch - Housing
100
AcDbAttributeDefinition
  3

  2
NN
 70
     8
280
     0
  0
ATTDEF
  5
169
330
164
100
AcDbEntity
  8
AM_6
100
AcDbText
 10
6.3772
 20
2.375
 30
0.0
 40
0.5
  1
SCED Take-Up Bearings -Narrow Slot -(Normal Duty)
100
AcDbAttributeDefinition
  3

  2
NT
 70
     8
280
     0
  0
ATTDEF
  5
16A
330
164
100
AcDbEntity
  8
AM_6
100
AcDbText
 10
6.3772
 20
1.875
 30
0.0
 40
0.5
  1
076090H
100
AcDbAttributeDefinition
  3

  2
NB
 70
     8
280
     0
  0
ATTDEF
  5
16B
330
164
100
AcDbEntity
  8
AM_6
100
AcDbText
 10
6.3772
 20
1.375
 30
0.0
 40
0.5
  1
$PN.H
100
AcDbAttributeDefinition
  3

  2
NBSYN
 70
     8
280
     0
  0
ATTDEF
  5
16C
330
164
100
AcDbEntity
  8
AM_6
100
AcDbText
 10
6.3772
 20
0.875
 30
0.0
 40
0.5
  1
076090
100
AcDbAttributeDefinition
  3

  2
LINA
 70
     8
280
     0
  0
ATTDEF
  5
16D
330
164
100
AcDbEntity
  8
AM_6
100
AcDbText
 10
6.3772
 20
0.375
 30
0.0
 40
0.5
  1
212
100
AcDbAttributeDefinition
  3

  2
SERIES
 70
     8
280
     0
  0
ATTDEF
  5
16E
330
164
100
AcDbEntity
  8
AM_6
100
AcDbText
 10
6.3772
 20
-0.125
 30
0.0
 40
0.5
  1
2-7/16
100
AcDbAttributeDefinition
  3

  2
SS
 70
     8
280
     0
  0
ATTDEF
  5
16F
330
164
100
AcDbEntity
  8
AM_6
100
AcDbText
 10
6.3772
 20
-0.625
 30
0.0
 40
0.5
  1
076090
100
AcDbAttributeDefinition
  3

  2
PN
 70
     8
280
     0
  0
ATTDEF
  5
170
330
164
100
AcDbEntity
  8
AM_6
100
AcDbText
 10
6.3772
 20
-1.125
 30
0.0
 40
0.5
  1
NSTU-SCED-207
100
AcDbAttributeDefinition
  3

  2
DESCRIPTION
 70
     8
280
     0
  0
ATTDEF
  5
171
330
164
100
AcDbEntity
  8
AM_6
100
AcDbText
 10
6.3772
 20
-1.625
 30
0.0
 40
0.5
  1
8.4
100
AcDbAttributeDefinition
  3

  2
W
 70
     8
280
     0
  0
ATTDEF
  5
172
330
164
100
AcDbEntity
  8
AM_6
100
AcDbText
 10
6.3772
 20
-2.125
 30
0.0
 40
0.5
  1
NS415
100
AcDbAttributeDefinition
  3

  2
FS
 70
     8
280
     0
  0
ATTDEF
  5
173
330
164
100
AcDbEntity
  8
AM_6
100
AcDbText
 10
6.3772
 20
-2.625
 30
0.0
 40
0.5
  1
2.31
100
AcDbAttributeDefinition
  3

  2
A
 70
     8
280
     0
  0
ATTDEF
  5
174
330
164
100
AcDbEntity
  8
AM_6
100
AcDbText
 10
6.3772
 20
-3.125
 30
0.0
 40
0.5
  1
6.69
100
AcDbAttributeDefinition
  3

  2
B
 70
     8
280
     0
  0
ATTDEF
  5
175
330
164
100
AcDbEntity
  8
AM_6
100
AcDbText
 10
6.3772
 20
-3.625
 30
0.0
 40
0.5
  1
0.313
100
AcDbAttributeDefinition
  3

  2
C
 70
     8
280
     0
  0
ATTDEF
  5
176
330
164
100
AcDbEntity
  8
AM_6
100
AcDbText
 10
6.3772
 20
-4.125
 30
0.0
 40
0.5
  1
3.75
100
AcDbAttributeDefinition
  3

  2
D
 70
     8
280
     0
  0
ATTDEF
  5
177
330
164
100
AcDbEntity
  8
AM_6
100
AcDbText
 10
6.3772
 20
-4.625
 30
0.0
 40
0.5
  1
3.88
100
AcDbAttributeDefinition
  3

  2
E
 70
     8
280
     0
  0
ATTDEF
  5
178
330
164
100
AcDbEntity
  8
AM_6
100
AcDbText
 10
6.3772
 20
-5.125
 30
0.0
 40
0.5
  1
1
100
AcDbAttributeDefinition
  3

  2
F
 70
     8
280
     0
  0
ATTDEF
  5
179
330
164
100
AcDbEntity
  8
AM_6
100
AcDbText
 10
6.3772
 20
-5.625
 30
0.0
 40
0.5
  1
0.69
100
AcDbAttributeDefinition
  3

  2
G
 70
     8
280
     0
  0
ATTDEF
  5
17A
330
164
100
AcDbEntity
  8
AM_6
100
AcDbText
 10
6.3772
 20
-6.125
 30
0.0
 40
0.5
  1
1.28
100
AcDbAttributeDefinition
  3

  2
H
 70
     8
280
     0
  0
ATTDEF
  5
17B
330
164
100
AcDbEntity
  8
AM_6
100
AcDbText
 10
6.3772
 20
-6.625
 30
0.0
 40
0.5
  1
1.63
100
AcDbAttributeDefinition
  3

  2
J
 70
     8
280
     0
  0
ATTDEF
  5
17C
330
164
100
AcDbEntity
  8
AM_6
100
AcDbText
 10
6.3772
 20
-7.125
 30
0.0
 40
0.5
  1
2.97
100
AcDbAttributeDefinition
  3

  2
L
 70
     8
280
     0
  0
ATTDEF
  5
17D
330
164
100
AcDbEntity
  8
AM_6
100
AcDbText
 10
6.3772
 20
-7.625
 30
0.0
 40
0.5
  1
4.947 / 4.917
100
AcDbAttributeDefinition
  3

  2
M
 70
     8
280
     0
  0
ATTDEF
  5
17E
330
164
100
AcDbEntity
  8
AM_6
100
AcDbText
 10
6.3772
 20
-8.125
 30
0.0
 40
0.5
  1
5.75
100
AcDbAttributeDefinition
  3

  2
N
 70
     8
280
     0
  0
ATTDEF
  5
17F
330
164
100
AcDbEntity
  8
AM_6
100
AcDbText
 10
6.3772
 20
-8.625
 30
0.0
 40
0.5
  1
0.44
100
AcDbAttributeDefinition
  3

  2
P
 70
     8
280
     0
  0
ATTDEF
  5
180
330
164
100
AcDbEntity
  8
AM_6
100
AcDbText
 10
6.3772
 20
-9.125
 30
0.0
 40
0.5
  1
0.90
100
AcDbAttributeDefinition
  3

  2
R
 70
     8
280
     0
  0
ATTDEF
  5
181
330
164
100
AcDbEntity
  8
AM_6
100
AcDbText
 10
6.3772
 20
-9.625
 30
0.0
 40
0.5
  1
1.41
100
AcDbAttributeDefinition
  3

  2
S
 70
     8
280
     0
  0
ATTDEF
  5
182
330
164
100
AcDbEntity
  8
AM_6
100
AcDbText
 10
6.3772
 20
-10.125
 30
0.0
 40
0.5
  1
6955
100
AcDbAttributeDefinition
  3

  2
CAPS
 70
     8
280
     0
  0
ATTDEF
  5
183
330
164
100
AcDbEntity
  8
AM_6
100
AcDbText
 10
6.3772
 20
-10.625
 30
0.0
 40
0.5
  1
11791
100
AcDbAttributeDefinition
  3

  2
CAPD
 70
     8
280
     0
  0
ATTDEF
  5
184
330
164
100
AcDbEntity
  8
AM_6
100
AcDbText
 10
6.3772
 20
-11.125
 30
0.0
 40
0.5
  1
baldor
100
AcDbAttributeDefinition
  3

  2
COMPANY
 70
     8
280
     0
  0
LINE
  5
185
330
164
100
AcDbEntity
  8
AM_9
100
AcDbLine
 10
-0.1878000000000001
 20
-2.138046292909721
 30
0.0
 11
0.626
 21
-2.138046292909721
 31
0.0
  0
LINE
  5
186
330
164
100
AcDbEntity
  8
AM_9
100
AcDbLine
 10
-0.1878000000000001
 20
-2.287225
 30
0.0
 11
0.626
 21
-2.287225
 31
0.0
  0
LINE
  5
187
330
164
100
AcDbEntity
  8
AM_9
100
AcDbLine
 10
-0.1878000000000001
 20
-2.287225
 30
0.0
 11
-0.1878000000000001
 21
-2.007133371876418
 31
0.0
  0
LINE
  5
188
330
164
100
AcDbEntity
  8
AM_9
100
AcDbLine
 10
-0.1878000000000001
 20
2.138046292909721
 30
0.0
 11
0.626
 21
2.138046292909721
 31
0.0
  0
LINE
  5
189
330
164
100
AcDbEntity
  8
AM_9
100
AcDbLine
 10
-0.1878000000000001
 20
2.007133371876418
 30
0.0
 11
-0.1878000000000001
 21
2.287225
 31
0.0
  0
LINE
  5
18A
330
164
100
AcDbEntity
  8
AM_9
100
AcDbLine
 10
0.626
 20
2.287225
 30
0.0
 11
-0.1878000000000001
 21
2.287225
 31
0.0
  0
LINE
  5
18B
330
164
100
AcDbEntity
  8
AM_9
100
AcDbLine
 10
-0.1878000000000001
 20
2.007133371876418
 30
0.0
 11
0.6260000000000001
 21
2.007133371876418
 31
0.0
  0
LINE
  5
18C
330
164
100
AcDbEntity
  8
AM_9
100
AcDbLine
 10
0.6260000000000001
 20
-2.007133371876418
 30
0.0
 11
-0.1878000000000001
 21
-2.007133371876418
 31
0.0
  0
LINE
  5
18D
330
164
100
AcDbEntity
  8
AM_9
100
AcDbLine
 10
-0.626
 20
-2.16535
 30
0.0
 11
-0.1878000000000001
 21
-2.16535
 31
0.0
  0
LINE
  5
18E
330
164
100
AcDbEntity
  8
AM_9
100
AcDbLine
 10
-0.1878000000000001
 20
2.16535
 30
0.0
 11
-0.626
 21
2.16535
 31
0.0
  0
LINE
  5
18F
330
164
100
AcDbEntity
  8
AM_9
100
AcDbLine
 10
-0.6259999999999998
 20
-0.5218706736347616
 30
0.0
 11
-0.6259999999999998
 21
0.5218706736347617
 31
0.0
  0
LINE
  5
190
330
164
100
AcDbEntity
  8
AM_9
100
AcDbLine
 10
0.6260000000000001
 20
0.5218706736347616
 30
0.0
 11
0.6260000000000001
 21
-0.5218706736347617
 31
0.0
  0
LINE
  5
191
330
164
100
AcDbEntity
  8
AM_9
100
AcDbLine
 10
-0.3923736194461882
 20
-0.7143304156779954
 30
0.0
 11
-0.3923736194461882
 21
0.7143304156779954
 31
0.0
  0
LINE
  5
192
330
164
100
AcDbEntity
  8
AM_9
100
AcDbLine
 10
0.3923736194461882
 20
-0.7143304156779954
 30
0.0
 11
0.3923736194461882
 21
0.7143304156779954
 31
0.0
  0
LINE
  5
193
330
164
100
AcDbEntity
  8
AM_9
100
AcDbLine
 10
-0.784961926560855
 20
-0.22
 30
0.0
 11
-0.4493854792233108
 21
-0.22
 31
0.0
  0
LINE
  5
194
330
164
100
AcDbEntity
  8
AM_9
100
AcDbLine
 10
-0.4492100513049677
 20
0.22
 30
0.0
 11
-0.7849142600892718
 21
0.22
 31
0.0
  0
LINE
  5
195
330
164
100
AcDbEntity
  8
AM_9
100
AcDbLine
 10
0.4492100513049681
 20
-0.22
 30
0.0
 11
0.7849142600892719
 21
-0.22
 31
0.0
  0
LINE
  5
196
330
164
100
AcDbEntity
  8
AM_9
100
AcDbLine
 10
0.7849619265608552
 20
0.22
 30
0.0
 11
0.4493854792233113
 21
0.22
 31
0.0
  0
LINE
  5
197
330
164
100
AcDbEntity
  8
AM_7
100
AcDbLine
 10
0.0000000000000002
 20
-0.85575
 30
0.0
 11
0.0000000000000002
 21
0.85575
 31
0.0
  0
LINE
  5
198
330
164
100
AcDbEntity
  8
AM_7
100
AcDbLine
 10
1.3772
 20
0.0
 30
0.0
 11
-1.5255
 21
0.0
 31
0.0
  0
LINE
  5
199
330
164
100
AcDbEntity
  8
AM_4
100
AcDbLine
 10
-0.4694999999999999
 20
2.8124
 30
0.0
 11
-0.4694999999999999
 21
2.065129399036674
 31
0.0
  0
LINE
  5
19A
330
164
100
AcDbEntity
  8
AM_4
100
AcDbLine
 10
-0.1564999999999999
 20
2.4735
 30
0.0
 11
-0.1564999999999999
 21
2.874999999999999
 31
0.0
  0
LINE
  5
19B
330
164
100
AcDbEntity
  8
AM_4
100
AcDbLine
 10
0.4695000000000001
 20
2.065129399036673
 30
0.0
 11
0.4695000000000001
 21
2.812399999999998
 31
0.0
  0
LINE
  5
19C
330
164
100
AcDbEntity
  8
AM_4
100
AcDbLine
 10
0.1565000000000001
 20
2.4735
 30
0.0
 11
-0.1564999999999999
 21
2.4735
 31
0.0
  0
LINE
  5
19D
330
164
100
AcDbEntity
  8
AM_4
100
AcDbLine
 10
0.1565000000000001
 20
2.874999999999999
 30
0.0
 11
0.1565000000000001
 21
2.4735
 31
0.0
  0
LWPOLYLINE
  5
19E
330
164
100
AcDbEntity
  8
AM_4
100
AcDbPolyline
 90
       19
 70
     0
 43
0.0
 10
0.4694999999999999
 20
-2.8124
 10
0.4692617881005431
 20
-2.817855949496003
 10
0.468548965338564
 20
-2.82327037592195
 10
0.4673669567256956
 20
-2.828602072223418
 10
0.4657247580611978
 20
-2.833810460972187
 10
0.4636348674684941
 20
-2.838855903184967
 10
0.4611131902769058
 20
-2.8437
 10
0.4581789179724908
 20
-2.848305884915575
 10
0.454854382139248
 20
-2.852638504366377
 10
0.4511648845022778
 20
-2.856664884502278
 10
0.4471385043663774
 20
-2.860354382139247
 10
0.4428058849155755
 20
-2.863678917972491
 10
0.4382
 20
-2.866613190276905
 10
0.4333559031849679
 20
-2.869134867468494
 10
0.4283104609721869
 20
-2.871224758061198
 10
0.4231020722234179
 20
-2.872866956725695
 10
0.41777037592195
 20
-2.874048965338563
 10
0.4123559494960036
 20
-2.874761788100543
 10
0.4069000000000003
 20
-2.874999999999999
  0
LINE
  5
19F
330
164
100
AcDbEntity
  8
AM_4
100
AcDbLine
 10
0.1565000000000001
 20
-2.875
 30
0.0
 11
0.1565000000000001
 21
-2.4735
 31
0.0
  0
LINE
  5
1A0
330
164
100
AcDbEntity
  8
AM_4
100
AcDbLine
 10
0.1565000000000001
 20
-2.875
 30
0.0
 11
0.4069000000000001
 21
-2.875
 31
0.0
  0
LWPOLYLINE
  5
1A1
330
164
100
AcDbEntity
  8
AM_4
100
AcDbPolyline
 90
       19
 70
     0
 43
0.0
 10
-0.4068999999999995
 20
-2.874999999999999
 10
-0.412355949496003
 20
-2.874761788100543
 10
-0.4177703759219493
 20
-2.874048965338563
 10
-0.4231020722234173
 20
-2.872866956725695
 10
-0.4283104609721863
 20
-2.871224758061198
 10
-0.4333559031849673
 20
-2.869134867468494
 10
-0.4381999999999994
 20
-2.866613190276905
 10
-0.4428058849155749
 20
-2.863678917972491
 10
-0.4471385043663768
 20
-2.860354382139248
 10
-0.4511648845022773
 20
-2.856664884502278
 10
-0.4548543821392474
 20
-2.852638504366377
 10
-0.4581789179724903
 20
-2.848305884915575
 10
-0.4611131902769053
 20
-2.8437
 10
-0.4636348674684937
 20
-2.838855903184967
 10
-0.4657247580611973
 20
-2.833810460972187
 10
-0.4673669567256952
 20
-2.828602072223418
 10
-0.4685489653385637
 20
-2.82327037592195
 10
-0.4692617881005429
 20
-2.817855949496004
 10
-0.4694999999999996
 20
-2.8124
  0
LINE
  5
1A2
330
164
100
AcDbEntity
  8
AM_4
100
AcDbLine
 10
-0.1564999999999999
 20
-2.4735
 30
0.0
 11
-0.1564999999999999
 21
-2.875
 31
0.0
  0
LINE
  5
1A3
330
164
100
AcDbEntity
  8
AM_4
100
AcDbLine
 10
-0.4068999999999998
 20
-2.875
 30
0.0
 11
-0.1564999999999999
 21
-2.875
 31
0.0
  0
LINE
  5
1A4
330
164
100
AcDbEntity
  8
AM_4
100
AcDbLine
 10
-0.1564999999999999
 20
-2.4735
 30
0.0
 11
0.1565000000000001
 21
-2.4735
 31
0.0
  0
LINE
  5
1A5
330
164
100
AcDbEntity
  8
AM_4
100
AcDbLine
 10
-0.4694999999999999
 20
-2.065129399036674
 30
0.0
 11
-0.4694999999999999
 21
-2.8124
 31
0.0
  0
LINE
  5
1A6
330
164
100
AcDbEntity
  8
AM_4
100
AcDbLine
 10
-0.1564999999999999
 20
-2.812399999533593
 30
0.0
 11
-0.4694999999999999
 21
-2.8124
 31
0.0
  0
LINE
  5
1A7
330
164
100
AcDbEntity
  8
AM_4
100
AcDbLine
 10
0.4695000000000001
 20
-2.812399999067187
 30
0.0
 11
0.1565000000000001
 21
-2.8124
 31
0.0
  0
LINE
  5
1A8
330
164
100
AcDbEntity
  8
AM_4
100
AcDbLine
 10
0.4695000000000001
 20
-2.812399999067187
 30
0.0
 11
0.4695000000000001
 21
-2.065129399036673
 31
0.0
  0
LWPOLYLINE
  5
1A9
330
164
100
AcDbEntity
  8
AM_4
100
AcDbPolyline
 90
       19
 70
     0
 43
0.0
 10
0.4069000000000008
 20
2.874999999999999
 10
0.4123559494960042
 20
2.874761788100543
 10
0.4177703759219505
 20
2.874048965338563
 10
0.4231020722234184
 20
2.872866956725695
 10
0.4283104609721875
 20
2.871224758061198
 10
0.4333559031849684
 20
2.869134867468494
 10
0.4382000000000006
 20
2.866613190276905
 10
0.4428058849155761
 20
2.863678917972491
 10
0.4471385043663779
 20
2.860354382139247
 10
0.4511648845022784
 20
2.856664884502278
 10
0.4548543821392486
 20
2.852638504366377
 10
0.4581789179724914
 20
2.848305884915575
 10
0.4611131902769063
 20
2.8437
 10
0.4636348674684947
 20
2.838855903184967
 10
0.4657247580611983
 20
2.833810460972187
 10
0.4673669567256962
 20
2.828602072223418
 10
0.4685489653385647
 20
2.82327037592195
 10
0.4692617881005438
 20
2.817855949496003
 10
0.4695000000000005
 20
2.8124
  0
LINE
  5
1AA
330
164
100
AcDbEntity
  8
AM_4
100
AcDbLine
 10
0.4695000000000001
 20
2.812399999999998
 30
0.0
 11
0.1565000000000001
 21
2.8124
 31
0.0
  0
LINE
  5
1AB
330
164
100
AcDbEntity
  8
AM_4
100
AcDbLine
 10
0.1565000000000001
 20
2.874999999999999
 30
0.0
 11
0.4069000000000008
 21
2.874999999999999
 31
0.0
  0
LWPOLYLINE
  5
1AC
330
164
100
AcDbEntity
  8
AM_4
100
AcDbPolyline
 90
       19
 70
     0
 43
0.0
 10
-0.4694999999999998
 20
2.8124
 10
-0.469261788100543
 20
2.817855949496003
 10
-0.4685489653385639
 20
2.82327037592195
 10
-0.4673669567256954
 20
2.828602072223418
 10
-0.4657247580611976
 20
2.833810460972187
 10
-0.463634867468494
 20
2.838855903184967
 10
-0.4611131902769056
 20
2.8437
 10
-0.4581789179724907
 20
2.848305884915575
 10
-0.4548543821392478
 20
2.852638504366377
 10
-0.4511648845022776
 20
2.856664884502278
 10
-0.4471385043663771
 20
2.860354382139248
 10
-0.4428058849155753
 20
2.863678917972491
 10
-0.4381999999999998
 20
2.866613190276905
 10
-0.4333559031849675
 20
2.869134867468494
 10
-0.4283104609721867
 20
2.871224758061198
 10
-0.4231020722234176
 20
2.872866956725695
 10
-0.4177703759219497
 20
2.874048965338564
 10
-0.4123559494960032
 20
2.874761788100543
 10
-0.4068999999999998
 20
2.875
  0
LINE
  5
1AD
330
164
100
AcDbEntity
  8
AM_4
100
AcDbLine
 10
-0.4068999999999998
 20
2.874999999999999
 30
0.0
 11
-0.1564999999999999
 21
2.874999999999999
 31
0.0
  0
LINE
  5
1AE
330
164
100
AcDbEntity
  8
AM_4
100
AcDbLine
 10
-0.1564999999999999
 20
2.8124
 30
0.0
 11
-0.4694999999999999
 21
2.8124
 31
0.0
  0
LINE
  5
1AF
330
164
100
AcDbEntity
  8
AM_4
100
AcDbLine
 10
-0.3923736194461881
 20
2.092958432458706
 30
0.0
 11
0.3923736194461884
 21
2.092958432458706
 31
0.0
  0
LINE
  5
1B0
330
164
100
AcDbEntity
  8
AM_4
100
AcDbLine
 10
0.3923736194461881
 20
-2.092958432458705
 30
0.0
 11
-0.3923736194461881
 21
-2.092958432458706
 31
0.0
  0
LINE
  5
1B1
330
164
100
AcDbEntity
  8
AM_4
100
AcDbLine
 10
-0.3923736194461881
 20
2.092958432458706
 30
0.0
 11
-0.3923736194461881
 21
0.7143304156779954
 31
0.0
  0
LINE
  5
1B2
330
164
100
AcDbEntity
  8
AM_4
100
AcDbLine
 10
-0.4694999999999999
 20
2.065129399036674
 30
0.0
 11
-0.3923736194461881
 21
2.092958432458706
 31
0.0
  0
LINE
  5
1B3
330
164
100
AcDbEntity
  8
AM_4
100
AcDbLine
 10
-0.3923736194461881
 20
-2.092958432458706
 30
0.0
 11
-0.4694999999999999
 21
-2.065129399036674
 31
0.0
  0
LINE
  5
1B4
330
164
100
AcDbEntity
  8
AM_4
100
AcDbLine
 10
-0.3923736194461881
 20
-0.7143304156779954
 30
0.0
 11
-0.3923736194461881
 21
-2.092958432458706
 31
0.0
  0
LINE
  5
1B5
330
164
100
AcDbEntity
  8
AM_4
100
AcDbLine
 10
-0.6259999999999998
 20
-0.5218706736347616
 30
0.0
 11
-0.626
 21
-2.7474
 31
0.0
  0
LINE
  5
1B6
330
164
100
AcDbEntity
  8
AM_4
100
AcDbLine
 10
-0.626
 20
-2.7474
 30
0.0
 11
-0.4695
 21
-2.789334048615471
 31
0.0
  0
LINE
  5
1B7
330
164
100
AcDbEntity
  8
AM_4
100
AcDbLine
 10
-0.4695
 20
2.789334048615471
 30
0.0
 11
-0.626
 21
2.7474
 31
0.0
  0
LINE
  5
1B8
330
164
100
AcDbEntity
  8
AM_4
100
AcDbLine
 10
-0.626
 20
2.7474
 30
0.0
 11
-0.6259999999999998
 21
0.5218706736347616
 31
0.0
  0
LINE
  5
1B9
330
164
100
AcDbEntity
  8
AM_4
100
AcDbLine
 10
0.6260000000000001
 20
-0.5218706736347616
 30
0.0
 11
0.626
 21
-2.7474
 31
0.0
  0
LINE
  5
1BA
330
164
100
AcDbEntity
  8
AM_4
100
AcDbLine
 10
0.3923736194461884
 20
-0.7143304156779954
 30
0.0
 11
0.3923736194461881
 21
-2.092958432458705
 31
0.0
  0
LINE
  5
1BB
330
164
100
AcDbEntity
  8
AM_4
100
AcDbLine
 10
0.4695000000000001
 20
-2.065129399036673
 30
0.0
 11
0.3923736194461881
 21
-2.092958432458705
 31
0.0
  0
LINE
  5
1BC
330
164
100
AcDbEntity
  8
AM_4
100
AcDbLine
 10
0.3923736194461884
 20
2.092958432458706
 30
0.0
 11
0.4695000000000001
 21
2.065129399036673
 31
0.0
  0
LINE
  5
1BD
330
164
100
AcDbEntity
  8
AM_4
100
AcDbLine
 10
0.3923736194461884
 20
2.092958432458706
 30
0.0
 11
0.3923736194461884
 21
0.7143304156779954
 31
0.0
  0
LINE
  5
1BE
330
164
100
AcDbEntity
  8
AM_4
100
AcDbLine
 10
0.626
 20
2.7474
 30
0.0
 11
0.4695
 21
2.789334048615471
 31
0.0
  0
LINE
  5
1BF
330
164
100
AcDbEntity
  8
AM_4
100
AcDbLine
 10
0.4695
 20
-2.789334048615471
 30
0.0
 11
0.626
 21
-2.7474
 31
0.0
  0
LINE
  5
1C0
330
164
100
AcDbEntity
  8
AM_4
100
AcDbLine
 10
0.626
 20
2.7474
 30
0.0
 11
0.6260000000000001
 21
0.5218706736347616
 31
0.0
  0
CIRCLE
  5
1C1
330
164
100
AcDbEntity
  8
AM_4
100
AcDbCircle
 10
0.0000000000000002
 20
0.0
 30
0.0
 40
0.5
  0
CIRCLE
  5
1C2
330
164
100
AcDbEntity
  8
AM_4
100
AcDbCircle
 10
0.0000000000000002
 20
0.0
 30
0.0
 40
0.815
  0
CIRCLE
  5
1C3
330
164
100
AcDbEntity
  8
AM_4
100
AcDbCircle
 10
0.0000000000000002
 20
0.0
 30
0.0
 40
0.7106666666666683
  0
ENDBLK
  5
167
330
164
100
AcDbEntity
  8
0
100
AcDbBlockEnd
  0
ENDSEC
  0
SECTION
  2
ENTITIES
  0
INSERT
  5
6F
330
1F
100
AcDbEntity
  8
0
100
AcDbBlockReference
  2
1_076090_2
 10
0.0
 20
0.0
 30
0.0
  0
POINT
  5
1C5
330
1F
100
AcDbEntity
  8
ConnectionPoints
100
AcDbPoint
 10
0.9
 20
0.0
 30
-0.0000000000000001
  0
POINT
  5
1C6
330
1F
100
AcDbEntity
  8
ConnectionPoints
100
AcDbPoint
 10
-1.41
 20
0.0
 30
0.0000000000000001
  0
POINT
  5
1C7
330
1F
100
AcDbEntity
  8
ConnectionPoints
100
AcDbPoint
 10
-0.0000000000000001
 20
-1.405
 30
-2.433531384634273
  0
POINT
  5
1C8
330
1F
100
AcDbEntity
  8
ConnectionPoints
100
AcDbPoint
 10
-1.41
 20
0.0
 30
0.0000000000000001
  0
ENDSEC
  0
SECTION
  2
OBJECTS
  0
DICTIONARY
  5
C
330
0
100
AcDbDictionary
281
     1
  3
ACAD_DETAILVIEWSTYLE
350
1D0
  3
ACAD_GROUP
350
D
  3
ACAD_LAYOUT
350
1A
  3
ACAD_MATERIAL
350
43
  3
ACAD_MLEADERSTYLE
350
6B
  3
ACAD_MLINESTYLE
350
17
  3
ACAD_PLOTSETTINGS
350
19
  3
ACAD_PLOTSTYLENAME
350
E
  3
ACAD_SCALELIST
350
47
  3
ACAD_SECTIONVIEWSTYLE
350
1D1
  3
ACAD_TABLESTYLE
350
69
  3
ACAD_VISUALSTYLE
350
2A
  3
ACDB_RECOMPOSE_DATA
350
1CD
  3
AcDbVariableDictionary
350
1C9
  0
SUN
  5
6D
330
29
100
AcDbSun
 90
        1
290
     0
 63
     7
421
 16777215
 40
1.0
291
     1
 91
  2455826
 92
 54000000
292
     0
 70
     2
 71
   256
280
     1
  0
DICTIONARY
  5
1D0
102
{ACAD_REACTORS
330
C
102
}
330
C
100
AcDbDictionary
281
     1
  0
DICTIONARY
  5
D
102
{ACAD_REACTORS
330
C
102
}
330
C
100
AcDbDictionary
281
     1
  0
DICTIONARY
  5
1A
102
{ACAD_REACTORS
330
C
102
}
330
C
100
AcDbDictionary
281
     1
  3
Layout1
350
1E
  3
Layout2
350
26
  3
Model
350
22
  0
DICTIONARY
  5
43
102
{ACAD_REACTORS
330
C
102
}
330
C
100
AcDbDictionary
281
     1
  3
ByBlock
350
45
  3
ByLayer
350
44
  3
Global
350
46
  0
DICTIONARY
  5
6B
102
{ACAD_REACTORS
330
C
102
}
330
C
100
AcDbDictionary
281
     1
  3
Standard
350
6C
  0
DICTIONARY
  5
17
102
{ACAD_REACTORS
330
C
102
}
330
C
100
AcDbDictionary
281
     1
  3
Standard
350
18
  0
DICTIONARY
  5
19
102
{ACAD_REACTORS
330
C
102
}
330
C
100
AcDbDictionary
281
     1
  0
ACDBDICTIONARYWDFLT
  5
E
102
{ACAD_REACTORS
330
C
102
}
330
C
100
AcDbDictionary
281
     1
  3
Normal
350
F
100
AcDbDictionaryWithDefault
340
F
  0
DICTIONARY
  5
47
102
{ACAD_REACTORS
330
C
102
}
330
C
100
AcDbDictionary
281
     1
  3
A0
350
48
  3
A1
350
49
  3
A2
350
4A
  3
A3
350
4B
  3
A4
350
4C
  3
A5
350
4D
  3
A6
350
4E
  3
A7
350
4F
  3
A8
350
50
  3
A9
350
51
  3
B0
350
52
  3
B1
350
53
  3
B2
350
54
  3
B3
350
55
  3
B4
350
56
  3
B5
350
57
  3
B6
350
58
  3
B7
350
59
  3
B8
350
5A
  3
B9
350
5B
  3
C0
350
5C
  3
C1
350
5D
  3
C2
350
5E
  3
C3
350
5F
  3
C4
350
60
  3
C5
350
61
  3
C6
350
62
  3
C7
350
63
  3
C8
350
64
  3
C9
350
65
  3
D0
350
66
  3
D1
350
67
  3
D2
350
68
  0
DICTIONARY
  5
1D1
102
{ACAD_REACTORS
330
C
102
}
330
C
100
AcDbDictionary
281
     1
  0
DICTIONARY
  5
69
102
{ACAD_REACTORS
330
C
102
}
330
C
100
AcDbDictionary
281
     1
  3
Standard
350
6A
  0
DICTIONARY
  5
2A
102
{ACAD_REACTORS
330
C
102
}
330
C
100
AcDbDictionary
281
     1
  3
2dWireframe
350
2F
  3
Basic
350
32
  3
Brighten
350
36
  3
ColorChange
350
3A
  3
Conceptual
350
34
  3
Dim
350
35
  3
EdgeColorOff
350
3D
  3
Facepattern
350
39
  3
Flat
350
2B
  3
FlatWithEdges
350
2C
  3
Gouraud
350
2D
  3
GouraudWithEdges
350
2E
  3
Hidden
350
31
  3
JitterOff
350
3B
  3
Linepattern
350
38
  3
OverhangOff
350
3C
  3
Realistic
350
33
  3
Shaded
350
42
  3
Shaded with edges
350
41
  3
Shades of Gray
350
3E
  3
Sketchy
350
3F
  3
Thicken
350
37
  3
Wireframe
350
30
  3
X-Ray
350
40
  0
XRECORD
  5
1CD
102
{ACAD_REACTORS
330
C
102
}
330
C
100
AcDbXrecord
280
     1
 90
        1
330
6A
  0
DICTIONARY
  5
1C9
102
{ACAD_REACTORS
330
C
102
}
330
C
100
AcDbDictionary
281
     1
  3
CANNOSCALE
350
1CA
  3
CMLEADERSTYLE
350
1CF
  3
CTABLESTYLE
350
1CE
  0
LAYOUT
  5
1E
102
{ACAD_REACTORS
330
1A
102
}
330
1A
100
AcDbPlotSettings
  1

  2
none_device
  4

  6

 40
0.0
 41
0.0
 42
0.0
 43
0.0
 44
0.0
 45
0.0
 46
0.0
 47
0.0
 48
0.0
 49
0.0
140
0.0
141
0.0
142
1.0
143
1.0
 70
   688
 72
     0
 73
     0
 74
     5
  7

 75
    16
 76
     0
 77
     2
 78
   300
147
1.0
148
0.0
149
0.0
100
AcDbLayout
  1
Layout1
 70
     1
 71
     1
 10
0.0
 20
0.0
 11
12.0
 21
9.0
 12
0.0
 22
0.0
 32
0.0
 14
1.000000000000000E+20
 24
1.000000000000000E+20
 34
1.000000000000000E+20
 15
-1.000000000000000E+20
 25
-1.000000000000000E+20
 35
-1.000000000000000E+20
146
0.0
 13
0.0
 23
0.0
 33
0.0
 16
1.0
 26
0.0
 36
0.0
 17
0.0
 27
1.0
 37
0.0
 76
     0
330
1B
  0
LAYOUT
  5
26
102
{ACAD_REACTORS
330
1A
102
}
330
1A
100
AcDbPlotSettings
  1

  2
none_device
  4

  6

 40
0.0
 41
0.0
 42
0.0
 43
0.0
 44
0.0
 45
0.0
 46
0.0
 47
0.0
 48
0.0
 49
0.0
140
0.0
141
0.0
142
1.0
143
1.0
 70
   688
 72
     0
 73
     0
 74
     5
  7

 75
    16
 76
     0
 77
     2
 78
   300
147
1.0
148
0.0
149
0.0
100
AcDbLayout
  1
Layout2
 70
     1
 71
     2
 10
0.0
 20
0.0
 11
0.0
 21
0.0
 12
0.0
 22
0.0
 32
0.0
 14
0.0
 24
0.0
 34
0.0
 15
0.0
 25
0.0
 35
0.0
146
0.0
 13
0.0
 23
0.0
 33
0.0
 16
1.0
 26
0.0
 36
0.0
 17
0.0
 27
1.0
 37
0.0
 76
     0
330
23
  0
LAYOUT
  5
22
102
{ACAD_REACTORS
330
1A
102
}
330
1A
100
AcDbPlotSettings
  1

  2
none_device
  4
Letter_(8.50_x_11.00_Inches)
  6

 40
6.35
 41
6.35
 42
6.35000508
 43
6.35000508
 44
215.9
 45
279.4
 46
0.0
 47
0.0
 48
0.0
 49
0.0
140
0.0
141
0.0
142
1.0
143
1.0
 70
  1712
 72
     0
 73
     0
 74
     0
  7

 75
     0
 76
     0
 77
     2
 78
   300
147
1.0
148
0.0
149
0.0
100
AcDbLayout
  1
Model
 70
     1
 71
     0
 10
0.0
 20
0.0
 11
12.0
 21
9.0
 12
0.0
 22
0.0
 32
0.0
 14
1.000000000000000E+20
 24
1.000000000000000E+20
 34
1.000000000000000E+20
 15
-1.000000000000000E+20
 25
-1.000000000000000E+20
 35
-1.000000000000000E+20
146
0.0
 13
0.0
 23
0.0
 33
0.0
 16
1.0
 26
0.0
 36
0.0
 17
0.0
 27
1.0
 37
0.0
 76
     0
330
1F
331
29
  0
MATERIAL
  5
45
102
{ACAD_REACTORS
330
43
102
}
330
43
100
AcDbMaterial
  1
ByBlock
 72
     1
 94
      127
  0
MATERIAL
  5
44
102
{ACAD_REACTORS
330
43
102
}
330
43
100
AcDbMaterial
  1
ByLayer
 72
     1
 94
      127
  0
MATERIAL
  5
46
102
{ACAD_REACTORS
330
43
102
}
330
43
100
AcDbMaterial
  1
Global
 72
     1
 94
      127
  0
MLEADERSTYLE
  5
6C
102
{ACAD_REACTORS
330
6B
102
}
330
6B
100
AcDbMLeaderStyle
179
     2
170
     2
171
     1
172
     0
 90
        2
 40
0.0
 41
0.0
173
     1
 91
-1056964608
340
14
 92
       -2
290
     1
 42
0.09
291
     1
 43
0.36
  3
Standard
341
0
 44
0.18
300

342
11
174
     1
178
     6
175
     1
176
     0
 93
-1056964608
 45
0.18
292
     0
297
     0
 46
0.18
343
0
 94
-1056964608
 47
1.0
 49
1.0
140
1.0
293
     1
141
0.0
294
     1
177
     0
142
1.0
295
     0
296
     0
143
0.125
271
     0
272
     9
273
     9
298
     0
  0
MLINESTYLE
  5
18
102
{ACAD_REACTORS
330
17
102
}
330
17
100
AcDbMlineStyle
  2
Standard
 70
     0
  3

 62
   256
 51
90.0
 52
90.0
 71
     2
 49
0.5
 62
   256
  6
BYLAYER
 49
-0.5
 62
   256
  6
BYLAYER
  0
ACDBPLACEHOLDER
  5
F
102
{ACAD_REACTORS
330
E
102
}
330
E
  0
SCALE
  5
48
102
{ACAD_REACTORS
330
47
102
}
330
47
100
AcDbScale
 70
     0
300
1:1
140
1.0
141
1.0
290
     1
  0
SCALE
  5
49
102
{ACAD_REACTORS
330
47
102
}
330
47
100
AcDbScale
 70
     0
300
1:2
140
1.0
141
2.0
290
     0
  0
SCALE
  5
4A
102
{ACAD_REACTORS
330
47
102
}
330
47
100
AcDbScale
 70
     0
300
1:4
140
1.0
141
4.0
290
     0
  0
SCALE
  5
4B
102
{ACAD_REACTORS
330
47
102
}
330
47
100
AcDbScale
 70
     0
300
1:5
140
1.0
141
5.0
290
     0
  0
SCALE
  5
4C
102
{ACAD_REACTORS
330
47
102
}
330
47
100
AcDbScale
 70
     0
300
1:8
140
1.0
141
8.0
290
     0
  0
SCALE
  5
4D
102
{ACAD_REACTORS
330
47
102
}
330
47
100
AcDbScale
 70
     0
300
1:10
140
1.0
141
10.0
290
     0
  0
SCALE
  5
4E
102
{ACAD_REACTORS
330
47
102
}
330
47
100
AcDbScale
 70
     0
300
1:16
140
1.0
141
16.0
290
     0
  0
SCALE
  5
4F
102
{ACAD_REACTORS
330
47
102
}
330
47
100
AcDbScale
 70
     0
300
1:20
140
1.0
141
20.0
290
     0
  0
SCALE
  5
50
102
{ACAD_REACTORS
330
47
102
}
330
47
100
AcDbScale
 70
     0
300
1:30
140
1.0
141
30.0
290
     0
  0
SCALE
  5
51
102
{ACAD_REACTORS
330
47
102
}
330
47
100
AcDbScale
 70
     0
300
1:40
140
1.0
141
40.0
290
     0
  0
SCALE
  5
52
102
{ACAD_REACTORS
330
47
102
}
330
47
100
AcDbScale
 70
     0
300
1:50
140
1.0
141
50.0
290
     0
  0
SCALE
  5
53
102
{ACAD_REACTORS
330
47
102
}
330
47
100
AcDbScale
 70
     0
300
1:100
140
1.0
141
100.0
290
     0
  0
SCALE
  5
54
102
{ACAD_REACTORS
330
47
102
}
330
47
100
AcDbScale
 70
     0
300
2:1
140
2.0
141
1.0
290
     0
  0
SCALE
  5
55
102
{ACAD_REACTORS
330
47
102
}
330
47
100
AcDbScale
 70
     0
300
4:1
140
4.0
141
1.0
290
     0
  0
SCALE
  5
56
102
{ACAD_REACTORS
330
47
102
}
330
47
100
AcDbScale
 70
     0
300
8:1
140
8.0
141
1.0
290
     0
  0
SCALE
  5
57
102
{ACAD_REACTORS
330
47
102
}
330
47
100
AcDbScale
 70
     0
300
10:1
140
10.0
141
1.0
290
     0
  0
SCALE
  5
58
102
{ACAD_REACTORS
330
47
102
}
330
47
100
AcDbScale
 70
     0
300
100:1
140
100.0
141
1.0
290
     0
  0
SCALE
  5
59
102
{ACAD_REACTORS
330
47
102
}
330
47
100
AcDbScale
 70
     0
300
1/128" = 1'-0"
140
0.0078125
141
12.0
290
     0
  0
SCALE
  5
5A
102
{ACAD_REACTORS
330
47
102
}
330
47
100
AcDbScale
 70
     0
300
1/64" = 1'-0"
140
0.015625
141
12.0
290
     0
  0
SCALE
  5
5B
102
{ACAD_REACTORS
330
47
102
}
330
47
100
AcDbScale
 70
     0
300
1/32" = 1'-0"
140
0.03125
141
12.0
290
     0
  0
SCALE
  5
5C
102
{ACAD_REACTORS
330
47
102
}
330
47
100
AcDbScale
 70
     0
300
1/16" = 1'-0"
140
0.0625
141
12.0
290
     0
  0
SCALE
  5
5D
102
{ACAD_REACTORS
330
47
102
}
330
47
100
AcDbScale
 70
     0
300
3/32" = 1'-0"
140
0.09375
141
12.0
290
     0
  0
SCALE
  5
5E
102
{ACAD_REACTORS
330
47
102
}
330
47
100
AcDbScale
 70
     0
300
1/8" = 1'-0"
140
0.125
141
12.0
290
     0
  0
SCALE
  5
5F
102
{ACAD_REACTORS
330
47
102
}
330
47
100
AcDbScale
 70
     0
300
3/16" = 1'-0"
140
0.1875
141
12.0
290
     0
  0
SCALE
  5
60
102
{ACAD_REACTORS
330
47
102
}
330
47
100
AcDbScale
 70
     0
300
1/4" = 1'-0"
140
0.25
141
12.0
290
     0
  0
SCALE
  5
61
102
{ACAD_REACTORS
330
47
102
}
330
47
100
AcDbScale
 70
     0
300
3/8" = 1'-0"
140
0.375
141
12.0
290
     0
  0
SCALE
  5
62
102
{ACAD_REACTORS
330
47
102
}
330
47
100
AcDbScale
 70
     0
300
1/2" = 1'-0"
140
0.5
141
12.0
290
     0
  0
SCALE
  5
63
102
{ACAD_REACTORS
330
47
102
}
330
47
100
AcDbScale
 70
     0
300
3/4" = 1'-0"
140
0.75
141
12.0
290
     0
  0
SCALE
  5
64
102
{ACAD_REACTORS
330
47
102
}
330
47
100
AcDbScale
 70
     0
300
1" = 1'-0"
140
1.0
141
12.0
290
     0
  0
SCALE
  5
65
102
{ACAD_REACTORS
330
47
102
}
330
47
100
AcDbScale
 70
     0
300
1-1/2" = 1'-0"
140
1.5
141
12.0
290
     0
  0
SCALE
  5
66
102
{ACAD_REACTORS
330
47
102
}
330
47
100
AcDbScale
 70
     0
300
3" = 1'-0"
140
3.0
141
12.0
290
     0
  0
SCALE
  5
67
102
{ACAD_REACTORS
330
47
102
}
330
47
100
AcDbScale
 70
     0
300
6" = 1'-0"
140
6.0
141
12.0
290
     0
  0
SCALE
  5
68
102
{ACAD_REACTORS
330
47
102
}
330
47
100
AcDbScale
 70
     0
300
1'-0" = 1'-0"
140
12.0
141
12.0
290
     0
  0
TABLESTYLE
  5
6A
102
{ACAD_REACTORS
330
69
102
}
102
{ACAD_XDICTIONARY
360
1CB
102
}
330
69
100
AcDbTableStyle
  3
Standard
 70
     0
 71
     0
 40
0.06
 41
0.06
280
     0
281
     0
  7
Standard
140
0.18
170
     2
 62
     0
 63
   257
283
     0
 90
        4
 91
        0
  1

274
    -2
284
     1
 64
     0
275
    -2
285
     1
 65
     0
276
    -2
286
     1
 66
     0
277
    -2
287
     1
 67
     0
278
    -2
288
     1
 68
     0
279
    -2
289
     1
 69
     0
  7
Standard
140
0.25
170
     5
 62
     0
 63
   257
283
     0
 90
        4
 91
        0
  1

274
    -2
284
     1
 64
     0
275
    -2
285
     1
 65
     0
276
    -2
286
     1
 66
     0
277
    -2
287
     1
 67
     0
278
    -2
288
     1
 68
     0
279
    -2
289
     1
 69
     0
  7
Standard
140
0.18
170
     5
 62
     0
 63
   257
283
     0
 90
        4
 91
        0
  1

274
    -2
284
     1
 64
     0
275
    -2
285
     1
 65
     0
276
    -2
286
     1
 66
     0
277
    -2
287
     1
 67
     0
278
    -2
288
     1
 68
     0
279
    -2
289
     1
 69
     0
  0
VISUALSTYLE
  5
2F
102
{ACAD_REACTORS
330
2A
102
}
330
2A
100
AcDbVisualStyle
  2
2dWireframe
 70
     4
177
     3
291
     0
 70
    58
 90
        0
176
     1
 90
        2
176
     1
 90
        0
176
     1
 90
        0
176
     1
 40
0.6
176
     1
 40
30.0
176
     1
 62
     7
420
 16777215
176
     1
 90
        1
176
     1
 90
        4
176
     1
 62
     7
176
     1
 62
   257
176
     1
 90
        1
176
     1
 90
        1
176
     1
 40
1.0
176
     1
 90
        0
176
     1
 62
   257
176
     1
 40
1.0
176
     1
 90
        1
176
     1
 90
        6
176
     1
 90
        2
176
     1
 62
     7
176
     1
 90
        5
176
     1
 90
        0
176
     1
 90
        0
176
     1
290
     0
176
     1
 90
        1
176
     1
 40
0.0
176
     1
 90
        0
176
     1
290
     1
176
     1
290
     1
176
     1
290
     0
176
     1
290
     0
176
     1
290
     0
176
     1
290
     0
176
     1
290
     0
176
     1
290
     0
176
     1
290
     0
176
     1
 90
       50
176
     1
 40
0.0
176
     1
 40
1.0
176
     1
 90
        0
176
     1
 62
    18
420
        0
176
     1
 90
       50
176
     1
 90
        3
176
     1
 62
     5
420
      255
176
     1
290
     0
176
     1
 90
       50
176
     1
 90
       50
176
     1
 90
       50
176
     1
290
     0
176
     1
 90
       50
176
     1
 62
   256
176
     0
 40
1.0
176
     0
 90
        2
176
     1
  1
strokes_ogs.tif
176
     1
290
     0
176
     1
 40
1.0
176
     1
 40
1.0
176
     1
  0
VISUALSTYLE
  5
32
102
{ACAD_REACTORS
330
2A
102
}
330
2A
100
AcDbVisualStyle
  2
Basic
 70
     7
177
     3
291
     1
 70
    58
 90
        1
176
     1
 90
        0
176
     1
 90
        1
176
     1
 90
        0
176
     1
 40
0.6
176
     1
 40
30.0
176
     1
 62
     7
420
 16777215
176
     1
 90
        0
176
     1
 90
        4
176
     1
 62
     7
176
     1
 62
   257
176
     1
 90
        1
176
     1
 90
        1
176
     1
 40
1.0
176
     1
 90
        8
176
     1
 62
     7
176
     1
 40
1.0
176
     1
 90
        1
176
     1
 90
        6
176
     1
 90
        2
176
     1
 62
     7
176
     1
 90
        5
176
     1
 90
        0
176
     1
 90
        0
176
     1
290
     0
176
     1
 90
        1
176
     1
 40
0.0
176
     1
 90
        0
176
     1
290
     0
176
     1
290
     1
176
     1
290
     1
176
     1
290
     0
176
     1
290
     0
176
     1
290
     0
176
     1
290
     0
176
     1
290
     0
176
     1
290
     0
176
     1
 90
       50
176
     1
 40
0.0
176
     1
 40
1.0
176
     1
 90
        0
176
     1
 62
    18
420
        0
176
     1
 90
       50
176
     1
 90
        3
176
     1
 62
     5
420
      255
176
     1
290
     0
176
     1
 90
       50
176
     1
 90
       50
176
     1
 90
       50
176
     1
290
     0
176
     1
 90
       50
176
     1
 62
   256
176
     0
 40
1.0
176
     0
 90
        2
176
     1
  1
strokes_ogs.tif
176
     1
290
     0
176
     1
 40
1.0
176
     1
 40
1.0
176
     1
  0
VISUALSTYLE
  5
36
102
{ACAD_REACTORS
330
2A
102
}
330
2A
100
AcDbVisualStyle
  2
Brighten
 70
    12
177
     3
291
     1
 70
    58
 90
        2
176
     1
 90
        2
176
     1
 90
        0
176
     1
 90
        0
176
     1
 40
0.6
176
     1
 40
30.0
176
     1
 62
     7
420
 16777215
176
     1
 90
        1
176
     1
 90
        4
176
     1
 62
     7
176
     1
 62
   257
176
     1
 90
        1
176
     1
 90
        1
176
     1
 40
1.0
176
     1
 90
        8
176
     1
 62
     7
176
     1
 40
1.0
176
     1
 90
        1
176
     1
 90
        6
176
     1
 90
        2
176
     1
 62
     7
176
     1
 90
        5
176
     1
 90
        0
176
     1
 90
        0
176
     1
290
     0
176
     1
 90
        1
176
     1
 40
50.0
176
     1
 90
        0
176
     1
290
     0
176
     1
290
     1
176
     1
290
     1
176
     1
290
     0
176
     1
290
     0
176
     1
290
     0
176
     1
290
     0
176
     1
290
     0
176
     1
290
     0
176
     1
 90
       50
176
     1
 40
0.0
176
     1
 40
1.0
176
     1
 90
        0
176
     1
 62
    18
420
        0
176
     1
 90
       50
176
     1
 90
        3
176
     1
 62
     5
420
      255
176
     1
290
     0
176
     1
 90
       50
176
     1
 90
       50
176
     1
 90
       50
176
     1
290
     0
176
     1
 90
       50
176
     1
 62
   256
176
     0
 40
1.0
176
     0
 90
        2
176
     1
  1
strokes_ogs.tif
176
     1
290
     0
176
     1
 40
1.0
176
     1
 40
1.0
176
     1
  0
VISUALSTYLE
  5
3A
102
{ACAD_REACTORS
330
2A
102
}
330
2A
100
AcDbVisualStyle
  2
ColorChange
 70
    16
177
     3
291
     1
 70
    58
 90
        2
176
     1
 90
        2
176
     1
 90
        3
176
     1
 90
        0
176
     1
 40
0.6
176
     1
 40
30.0
176
     1
 62
     8
420
  8421504
176
     1
 90
        1
176
     1
 90
        4
176
     1
 62
     7
176
     1
 62
   257
176
     1
 90
        1
176
     1
 90
        1
176
     1
 40
1.0
176
     1
 90
        8
176
     1
 62
     8
420
  8421504
176
     1
 40
1.0
176
     1
 90
        1
176
     1
 90
        6
176
     1
 90
        2
176
     1
 62
     7
176
     1
 90
        5
176
     1
 90
        0
176
     1
 90
        0
176
     1
290
     0
176
     1
 90
        1
176
     1
 40
0.0
176
     1
 90
        0
176
     1
290
     0
176
     1
290
     1
176
     1
290
     1
176
     1
290
     0
176
     1
290
     0
176
     1
290
     0
176
     1
290
     0
176
     1
290
     0
176
     1
290
     0
176
     1
 90
       50
176
     1
 40
0.0
176
     1
 40
1.0
176
     1
 90
        0
176
     1
 62
    18
420
        0
176
     1
 90
       50
176
     1
 90
        3
176
     1
 62
     5
420
      255
176
     1
290
     0
176
     1
 90
       50
176
     1
 90
       50
176
     1
 90
       50
176
     1
290
     0
176
     1
 90
       50
176
     1
 62
   256
176
     0
 40
1.0
176
     0
 90
        2
176
     1
  1
strokes_ogs.tif
176
     1
290
     0
176
     1
 40
1.0
176
     1
 40
1.0
176
     1
  0
VISUALSTYLE
  5
34
102
{ACAD_REACTORS
330
2A
102
}
330
2A
100
AcDbVisualStyle
  2
Conceptual
 70
     9
177
     3
291
     0
 70
    58
 90
        3
176
     1
 90
        2
176
     1
 90
        0
176
     1
 90
        0
176
     1
 40
0.6
176
     1
 40
30.0
176
     1
 62
     7
420
 16777215
176
     1
 90
        2
176
     1
 90
        2
176
     1
 62
     7
176
     1
 62
   257
176
     1
 90
        1
176
     1
 90
        1
176
     1
 40
179.0
176
     1
 90
        8
176
     1
 62
     7
176
     1
 40
1.0
176
     1
 90
        1
176
     1
 90
        6
176
     1
 90
        2
176
     1
 62
     7
176
     1
 90
        3
176
     1
 90
        0
176
     1
 90
        0
176
     1
290
     0
176
     1
 90
        1
176
     1
 40
0.0
176
     1
 90
        0
176
     1
290
     0
176
     1
290
     1
176
     1
290
     1
176
     1
290
     0
176
     1
290
     0
176
     1
290
     0
176
     1
290
     0
176
     1
290
     0
176
     1
290
     0
176
     1
 90
       50
176
     1
 40
0.0
176
     1
 40
1.0
176
     1
 90
        0
176
     1
 62
    18
420
        0
176
     1
 90
       50
176
     1
 90
        3
176
     1
 62
     5
420
      255
176
     1
290
     0
176
     1
 90
       50
176
     1
 90
       50
176
     1
 90
       50
176
     1
290
     0
176
     1
 90
       50
176
     1
 62
   256
176
     0
 40
1.0
176
     0
 90
        2
176
     1
  1
strokes_ogs.tif
176
     1
290
     0
176
     1
 40
1.0
176
     1
 40
1.0
176
     1
  0
VISUALSTYLE
  5
35
102
{ACAD_REACTORS
330
2A
102
}
330
2A
100
AcDbVisualStyle
  2
Dim
 70
    11
177
     3
291
     1
 70
    58
 90
        2
176
     1
 90
        2
176
     1
 90
        0
176
     1
 90
        0
176
     1
 40
0.6
176
     1
 40
30.0
176
     1
 62
     7
420
 16777215
176
     1
 90
        1
176
     1
 90
        4
176
     1
 62
     7
176
     1
 62
   257
176
     1
 90
        1
176
     1
 90
        1
176
     1
 40
1.0
176
     1
 90
        8
176
     1
 62
     7
176
     1
 40
1.0
176
     1
 90
        1
176
     1
 90
        6
176
     1
 90
        2
176
     1
 62
     7
176
     1
 90
        5
176
     1
 90
        0
176
     1
 90
        0
176
     1
290
     0
176
     1
 90
        1
176
     1
 40
-50.0
176
     1
 90
        0
176
     1
290
     0
176
     1
290
     1
176
     1
290
     1
176
     1
290
     0
176
     1
290
     0
176
     1
290
     0
176
     1
290
     0
176
     1
290
     0
176
     1
290
     0
176
     1
 90
       50
176
     1
 40
0.0
176
     1
 40
1.0
176
     1
 90
        0
176
     1
 62
    18
420
        0
176
     1
 90
       50
176
     1
 90
        3
176
     1
 62
     5
420
      255
176
     1
290
     0
176
     1
 90
       50
176
     1
 90
       50
176
     1
 90
       50
176
     1
290
     0
176
     1
 90
       50
176
     1
 62
   256
176
     0
 40
1.0
176
     0
 90
        2
176
     1
  1
strokes_ogs.tif
176
     1
290
     0
176
     1
 40
1.0
176
     1
 40
1.0
176
     1
  0
VISUALSTYLE
  5
3D
102
{ACAD_REACTORS
330
2A
102
}
330
2A
100
AcDbVisualStyle
  2
EdgeColorOff
 70
    22
177
     3
291
     1
 70
    58
 90
        2
176
     0
 90
        2
176
     0
 90
        0
176
     0
 90
        0
176
     0
 40
0.6
176
     0
 40
30.0
176
     0
 62
     7
420
 16777215
176
     0
 90
        1
176
     0
 90
        4
176
     0
 62
     7
176
     0
 62
   257
176
     0
 90
        1
176
     0
 90
        1
176
     0
 40
1.0
176
     0
 90
        8
176
     2
 62
     7
176
     0
 40
1.0
176
     0
 90
        1
176
     0
 90
        6
176
     0
 90
        2
176
     0
 62
     7
176
     0
 90
        5
176
     0
 90
        0
176
     0
 90
        0
176
     0
290
     0
176
     0
 90
        1
176
     0
 40
0.0
176
     0
 90
        0
176
     0
290
     0
176
     0
290
     1
176
     0
290
     1
176
     0
290
     0
176
     0
290
     0
176
     0
290
     0
176
     0
290
     0
176
     0
290
     0
176
     0
290
     0
176
     0
 90
       50
176
     0
 40
0.0
176
     0
 40
1.0
176
     0
 90
        0
176
     0
 62
    18
420
        0
176
     0
 90
       50
176
     0
 90
        3
176
     0
 62
     5
420
      255
176
     0
290
     0
176
     0
 90
       50
176
     0
 90
       50
176
     0
 90
       50
176
     0
290
     0
176
     0
 90
       50
176
     0
 62
   256
176
     0
 40
1.0
176
     0
 90
        2
176
     0
  1
strokes_ogs.tif
176
     0
290
     0
176
     0
 40
1.0
176
     0
 40
1.0
176
     0
  0
VISUALSTYLE
  5
39
102
{ACAD_REACTORS
330
2A
102
}
330
2A
100
AcDbVisualStyle
  2
Facepattern
 70
    15
177
     3
291
     1
 70
    58
 90
        2
176
     1
 90
        2
176
     1
 90
        0
176
     1
 90
        0
176
     1
 40
0.6
176
     1
 40
30.0
176
     1
 62
     7
420
 16777215
176
     1
 90
        1
176
     1
 90
        4
176
     1
 62
     7
176
     1
 62
   257
176
     1
 90
        1
176
     1
 90
        1
176
     1
 40
1.0
176
     1
 90
        8
176
     1
 62
     7
176
     1
 40
1.0
176
     1
 90
        1
176
     1
 90
        6
176
     1
 90
        2
176
     1
 62
     7
176
     1
 90
        5
176
     1
 90
        0
176
     1
 90
        0
176
     1
290
     0
176
     1
 90
        1
176
     1
 40
0.0
176
     1
 90
        0
176
     1
290
     0
176
     1
290
     1
176
     1
290
     1
176
     1
290
     0
176
     1
290
     0
176
     1
290
     0
176
     1
290
     0
176
     1
290
     0
176
     1
290
     0
176
     1
 90
       50
176
     1
 40
0.0
176
     1
 40
1.0
176
     1
 90
        0
176
     1
 62
    18
420
        0
176
     1
 90
       50
176
     1
 90
        3
176
     1
 62
     5
420
      255
176
     1
290
     0
176
     1
 90
       50
176
     1
 90
       50
176
     1
 90
       50
176
     1
290
     0
176
     1
 90
       50
176
     1
 62
   256
176
     0
 40
1.0
176
     0
 90
        2
176
     1
  1
strokes_ogs.tif
176
     1
290
     0
176
     1
 40
1.0
176
     1
 40
1.0
176
     1
  0
VISUALSTYLE
  5
2B
102
{ACAD_REACTORS
330
2A
102
}
330
2A
100
AcDbVisualStyle
  2
Flat
 70
     0
177
     3
291
     1
 70
    58
 90
        2
176
     1
 90
        1
176
     1
 90
        1
176
     1
 90
        2
176
     1
 40
0.6
176
     1
 40
30.0
176
     1
 62
     7
420
 16777215
176
     1
 90
        0
176
     1
 90
        0
176
     1
 62
     7
176
     1
 62
   257
176
     1
 90
        1
176
     1
 90
        1
176
     1
 40
1.0
176
     1
 90
        8
176
     1
 62
     7
176
     1
 40
1.0
176
     1
 90
        1
176
     1
 90
        6
176
     1
 90
        2
176
     1
 62
     7
176
     1
 90
        5
176
     1
 90
        0
176
     1
 90
        0
176
     1
290
     0
176
     1
 90
       13
176
     1
 40
0.0
176
     1
 90
        0
176
     1
290
     0
176
     1
290
     1
176
     1
290
     1
176
     1
290
     0
176
     1
290
     0
176
     1
290
     0
176
     1
290
     0
176
     1
290
     0
176
     1
290
     0
176
     1
 90
       50
176
     1
 40
0.0
176
     1
 40
1.0
176
     1
 90
        0
176
     1
 62
    18
420
        0
176
     1
 90
       50
176
     1
 90
        3
176
     1
 62
     5
420
      255
176
     1
290
     0
176
     1
 90
       50
176
     1
 90
       50
176
     1
 90
       50
176
     1
290
     0
176
     1
 90
       50
176
     1
 62
   256
176
     0
 40
1.0
176
     0
 90
        2
176
     1
  1
strokes_ogs.tif
176
     1
290
     0
176
     1
 40
1.0
176
     1
 40
1.0
176
     1
  0
VISUALSTYLE
  5
2C
102
{ACAD_REACTORS
330
2A
102
}
330
2A
100
AcDbVisualStyle
  2
FlatWithEdges
 70
     1
177
     3
291
     1
 70
    58
 90
        2
176
     1
 90
        1
176
     1
 90
        1
176
     1
 90
        2
176
     1
 40
0.6
176
     1
 40
30.0
176
     1
 62
     7
420
 16777215
176
     1
 90
        1
176
     1
 90
        0
176
     1
 62
     7
176
     1
 62
   257
176
     1
 90
        1
176
     1
 90
        1
176
     1
 40
1.0
176
     1
 90
        0
176
     1
 62
   257
176
     1
 40
1.0
176
     1
 90
        1
176
     1
 90
        6
176
     1
 90
        2
176
     1
 62
     7
176
     1
 90
        5
176
     1
 90
        0
176
     1
 90
        0
176
     1
290
     0
176
     1
 90
       13
176
     1
 40
0.0
176
     1
 90
        0
176
     1
290
     0
176
     1
290
     1
176
     1
290
     1
176
     1
290
     0
176
     1
290
     0
176
     1
290
     0
176
     1
290
     0
176
     1
290
     0
176
     1
290
     0
176
     1
 90
       50
176
     1
 40
0.0
176
     1
 40
1.0
176
     1
 90
        0
176
     1
 62
    18
420
        0
176
     1
 90
       50
176
     1
 90
        3
176
     1
 62
     5
420
      255
176
     1
290
     0
176
     1
 90
       50
176
     1
 90
       50
176
     1
 90
       50
176
     1
290
     0
176
     1
 90
       50
176
     1
 62
   256
176
     0
 40
1.0
176
     0
 90
        2
176
     1
  1
strokes_ogs.tif
176
     1
290
     0
176
     1
 40
1.0
176
     1
 40
1.0
176
     1
  0
VISUALSTYLE
  5
2D
102
{ACAD_REACTORS
330
2A
102
}
330
2A
100
AcDbVisualStyle
  2
Gouraud
 70
     2
177
     3
291
     1
 70
    58
 90
        2
176
     1
 90
        2
176
     1
 90
        1
176
     1
 90
        2
176
     1
 40
0.6
176
     1
 40
30.0
176
     1
 62
     7
420
 16777215
176
     1
 90
        0
176
     1
 90
        0
176
     1
 62
     7
176
     1
 62
   257
176
     1
 90
        1
176
     1
 90
        1
176
     1
 40
1.0
176
     1
 90
        0
176
     1
 62
     7
176
     1
 40
1.0
176
     1
 90
        1
176
     1
 90
        6
176
     1
 90
        2
176
     1
 62
     7
176
     1
 90
        5
176
     1
 90
        0
176
     1
 90
        0
176
     1
290
     0
176
     1
 90
       13
176
     1
 40
0.0
176
     1
 90
        0
176
     1
290
     0
176
     1
290
     1
176
     1
290
     1
176
     1
290
     0
176
     1
290
     0
176
     1
290
     0
176
     1
290
     0
176
     1
290
     0
176
     1
290
     0
176
     1
 90
       50
176
     1
 40
0.0
176
     1
 40
1.0
176
     1
 90
        0
176
     1
 62
    18
420
        0
176
     1
 90
       50
176
     1
 90
        3
176
     1
 62
     5
420
      255
176
     1
290
     0
176
     1
 90
       50
176
     1
 90
       50
176
     1
 90
       50
176
     1
290
     0
176
     1
 90
       50
176
     1
 62
   256
176
     0
 40
1.0
176
     0
 90
        2
176
     1
  1
strokes_ogs.tif
176
     1
290
     0
176
     1
 40
1.0
176
     1
 40
1.0
176
     1
  0
VISUALSTYLE
  5
2E
102
{ACAD_REACTORS
330
2A
102
}
330
2A
100
AcDbVisualStyle
  2
GouraudWithEdges
 70
     3
177
     3
291
     1
 70
    58
 90
        2
176
     1
 90
        2
176
     1
 90
        1
176
     1
 90
        2
176
     1
 40
0.6
176
     1
 40
30.0
176
     1
 62
     7
420
 16777215
176
     1
 90
        1
176
     1
 90
        0
176
     1
 62
     7
176
     1
 62
   257
176
     1
 90
        1
176
     1
 90
        1
176
     1
 40
1.0
176
     1
 90
        0
176
     1
 62
   257
176
     1
 40
1.0
176
     1
 90
        1
176
     1
 90
        6
176
     1
 90
        2
176
     1
 62
     7
176
     1
 90
        5
176
     1
 90
        0
176
     1
 90
        0
176
     1
290
     0
176
     1
 90
       13
176
     1
 40
0.0
176
     1
 90
        0
176
     1
290
     0
176
     1
290
     1
176
     1
290
     1
176
     1
290
     0
176
     1
290
     0
176
     1
290
     0
176
     1
290
     0
176
     1
290
     0
176
     1
290
     0
176
     1
 90
       50
176
     1
 40
0.0
176
     1
 40
1.0
176
     1
 90
        0
176
     1
 62
    18
420
        0
176
     1
 90
       50
176
     1
 90
        3
176
     1
 62
     5
420
      255
176
     1
290
     0
176
     1
 90
       50
176
     1
 90
       50
176
     1
 90
       50
176
     1
290
     0
176
     1
 90
       50
176
     1
 62
   256
176
     0
 40
1.0
176
     0
 90
        2
176
     1
  1
strokes_ogs.tif
176
     1
290
     0
176
     1
 40
1.0
176
     1
 40
1.0
176
     1
  0
VISUALSTYLE
  5
31
102
{ACAD_REACTORS
330
2A
102
}
330
2A
100
AcDbVisualStyle
  2
Hidden
 70
     6
177
     3
291
     0
 70
    58
 90
        1
176
     1
 90
        2
176
     1
 90
        2
176
     1
 90
        0
176
     1
 40
0.6
176
     1
 40
30.0
176
     1
 62
     7
420
 16777215
176
     1
 90
        2
176
     1
 90
        2
176
     1
 62
     7
176
     1
 62
   257
176
     1
 90
        2
176
     1
 90
        1
176
     1
 40
40.0
176
     1
 90
        0
176
     1
 62
   257
176
     1
 40
1.0
176
     1
 90
        1
176
     1
 90
        6
176
     1
 90
        2
176
     1
 62
     7
176
     1
 90
        3
176
     1
 90
        0
176
     1
 90
        0
176
     1
290
     0
176
     1
 90
        1
176
     1
 40
0.0
176
     1
 90
        0
176
     1
290
     0
176
     1
290
     1
176
     1
290
     1
176
     1
290
     0
176
     1
290
     0
176
     1
290
     0
176
     1
290
     0
176
     1
290
     0
176
     1
290
     0
176
     1
 90
       50
176
     1
 40
0.0
176
     1
 40
1.0
176
     1
 90
        0
176
     1
 62
    18
420
        0
176
     1
 90
       50
176
     1
 90
        3
176
     1
 62
     5
420
      255
176
     1
290
     0
176
     1
 90
       50
176
     1
 90
       50
176
     1
 90
       50
176
     1
290
     0
176
     1
 90
       50
176
     1
 62
   256
176
     0
 40
1.0
176
     0
 90
        2
176
     1
  1
strokes_ogs.tif
176
     1
290
     0
176
     1
 40
1.0
176
     1
 40
1.0
176
     1
  0
VISUALSTYLE
  5
3B
102
{ACAD_REACTORS
330
2A
102
}
330
2A
100
AcDbVisualStyle
  2
JitterOff
 70
    20
177
     3
291
     1
 70
    58
 90
        2
176
     0
 90
        2
176
     0
 90
        0
176
     0
 90
        0
176
     0
 40
0.6
176
     0
 40
30.0
176
     0
 62
     7
420
 16777215
176
     0
 90
        1
176
     0
 90
        4
176
     0
 62
     7
176
     0
 62
   257
176
     0
 90
        1
176
     0
 90
        1
176
     0
 40
1.0
176
     0
 90
       10
176
     2
 62
     7
176
     0
 40
1.0
176
     0
 90
        1
176
     0
 90
        6
176
     0
 90
        2
176
     0
 62
     7
176
     0
 90
        5
176
     0
 90
        0
176
     0
 90
        0
176
     0
290
     0
176
     0
 90
        1
176
     0
 40
0.0
176
     0
 90
        0
176
     0
290
     0
176
     0
290
     1
176
     0
290
     1
176
     0
290
     0
176
     0
290
     0
176
     0
290
     0
176
     0
290
     0
176
     0
290
     0
176
     0
290
     0
176
     0
 90
       50
176
     0
 40
0.0
176
     0
 40
1.0
176
     0
 90
        0
176
     0
 62
    18
420
        0
176
     0
 90
       50
176
     0
 90
        3
176
     0
 62
     5
420
      255
176
     0
290
     0
176
     0
 90
       50
176
     0
 90
       50
176
     0
 90
       50
176
     0
290
     0
176
     0
 90
       50
176
     0
 62
   256
176
     0
 40
1.0
176
     0
 90
        2
176
     0
  1
strokes_ogs.tif
176
     0
290
     0
176
     0
 40
1.0
176
     0
 40
1.0
176
     0
  0
VISUALSTYLE
  5
38
102
{ACAD_REACTORS
330
2A
102
}
330
2A
100
AcDbVisualStyle
  2
Linepattern
 70
    14
177
     3
291
     1
 70
    58
 90
        2
176
     1
 90
        2
176
     1
 90
        0
176
     1
 90
        0
176
     1
 40
0.6
176
     1
 40
30.0
176
     1
 62
     7
420
 16777215
176
     1
 90
        1
176
     1
 90
        4
176
     1
 62
     7
176
     1
 62
   257
176
     1
 90
        7
176
     1
 90
        7
176
     1
 40
1.0
176
     1
 90
        8
176
     1
 62
     7
176
     1
 40
1.0
176
     1
 90
        1
176
     1
 90
        6
176
     1
 90
        2
176
     1
 62
     7
176
     1
 90
        5
176
     1
 90
        0
176
     1
 90
        0
176
     1
290
     0
176
     1
 90
        1
176
     1
 40
0.0
176
     1
 90
        0
176
     1
290
     0
176
     1
290
     1
176
     1
290
     1
176
     1
290
     0
176
     1
290
     0
176
     1
290
     0
176
     1
290
     0
176
     1
290
     0
176
     1
290
     0
176
     1
 90
       50
176
     1
 40
0.0
176
     1
 40
1.0
176
     1
 90
        0
176
     1
 62
    18
420
        0
176
     1
 90
       50
176
     1
 90
        3
176
     1
 62
     5
420
      255
176
     1
290
     0
176
     1
 90
       50
176
     1
 90
       50
176
     1
 90
       50
176
     1
290
     0
176
     1
 90
       50
176
     1
 62
   256
176
     0
 40
1.0
176
     0
 90
        2
176
     1
  1
strokes_ogs.tif
176
     1
290
     0
176
     1
 40
1.0
176
     1
 40
1.0
176
     1
  0
VISUALSTYLE
  5
3C
102
{ACAD_REACTORS
330
2A
102
}
330
2A
100
AcDbVisualStyle
  2
OverhangOff
 70
    21
177
     3
291
     1
 70
    58
 90
        2
176
     0
 90
        2
176
     0
 90
        0
176
     0
 90
        0
176
     0
 40
0.6
176
     0
 40
30.0
176
     0
 62
     7
420
 16777215
176
     0
 90
        1
176
     0
 90
        4
176
     0
 62
     7
176
     0
 62
   257
176
     0
 90
        1
176
     0
 90
        1
176
     0
 40
1.0
176
     0
 90
        9
176
     2
 62
     7
176
     0
 40
1.0
176
     0
 90
        1
176
     0
 90
        6
176
     0
 90
        2
176
     0
 62
     7
176
     0
 90
        5
176
     0
 90
        0
176
     0
 90
        0
176
     0
290
     0
176
     0
 90
        1
176
     0
 40
0.0
176
     0
 90
        0
176
     0
290
     0
176
     0
290
     1
176
     0
290
     1
176
     0
290
     0
176
     0
290
     0
176
     0
290
     0
176
     0
290
     0
176
     0
290
     0
176
     0
290
     0
176
     0
 90
       50
176
     0
 40
0.0
176
     0
 40
1.0
176
     0
 90
        0
176
     0
 62
    18
420
        0
176
     0
 90
       50
176
     0
 90
        3
176
     0
 62
     5
420
      255
176
     0
290
     0
176
     0
 90
       50
176
     0
 90
       50
176
     0
 90
       50
176
     0
290
     0
176
     0
 90
       50
176
     0
 62
   256
176
     0
 40
1.0
176
     0
 90
        2
176
     0
  1
strokes_ogs.tif
176
     0
290
     0
176
     0
 40
1.0
176
     0
 40
1.0
176
     0
  0
VISUALSTYLE
  5
33
102
{ACAD_REACTORS
330
2A
102
}
330
2A
100
AcDbVisualStyle
  2
Realistic
 70
     8
177
     3
291
     0
 70
    58
 90
        2
176
     1
 90
        3
176
     1
 90
        0
176
     1
 90
        2
176
     1
 40
0.6
176
     1
 40
30.0
176
     1
 62
     7
420
 16777215
176
     1
 90
        0
176
     1
 90
        0
176
     1
 62
     7
176
     1
 62
   257
176
     1
 90
        1
176
     1
 90
        1
176
     1
 40
1.0
176
     1
 90
        8
176
     1
 62
   257
176
     1
 40
1.0
176
     1
 90
        1
176
     1
 90
        6
176
     1
 90
        2
176
     1
 62
     7
176
     1
 90
        3
176
     1
 90
        0
176
     1
 90
        0
176
     1
290
     0
176
     1
 90
       13
176
     1
 40
0.0
176
     1
 90
        0
176
     1
290
     0
176
     1
290
     1
176
     1
290
     1
176
     1
290
     0
176
     1
290
     0
176
     1
290
     0
176
     1
290
     0
176
     1
290
     0
176
     1
290
     0
176
     1
 90
       50
176
     1
 40
0.0
176
     1
 40
1.0
176
     1
 90
        0
176
     1
 62
    18
420
        0
176
     1
 90
       50
176
     1
 90
        3
176
     1
 62
     5
420
      255
176
     1
290
     0
176
     1
 90
       50
176
     1
 90
       50
176
     1
 90
       50
176
     1
290
     0
176
     1
 90
       50
176
     1
 62
   256
176
     0
 40
1.0
176
     0
 90
        2
176
     1
  1
strokes_ogs.tif
176
     1
290
     0
176
     1
 40
1.0
176
     1
 40
1.0
176
     1
  0
VISUALSTYLE
  5
42
102
{ACAD_REACTORS
330
2A
102
}
330
2A
100
AcDbVisualStyle
  2
Shaded
 70
    27
177
     3
291
     0
 70
    58
 90
        2
176
     1
 90
        2
176
     1
 90
        1
176
     1
 90
        2
176
     1
 40
0.6
176
     1
 40
30.0
176
     1
 62
     7
420
 16777215
176
     1
 90
        0
176
     1
 90
        4
176
     1
 62
     7
176
     1
 62
   257
176
     1
 90
        1
176
     1
 90
        1
176
     1
 40
1.0
176
     1
 90
        8
176
     1
 62
   257
176
     1
 40
1.0
176
     1
 90
        1
176
     1
 90
        6
176
     1
 90
        2
176
     1
 62
     8
420
  7895160
176
     1
 90
        3
176
     1
 90
        0
176
     1
 90
        0
176
     1
290
     0
176
     1
 90
        5
176
     1
 40
0.0
176
     1
 90
        0
176
     1
290
     0
176
     1
290
     1
176
     1
290
     1
176
     1
290
     0
176
     1
290
     0
176
     1
290
     0
176
     1
290
     0
176
     1
290
     0
176
     1
290
     0
176
     1
 90
       50
176
     1
 40
0.0
176
     1
 40
1.0
176
     1
 90
        0
176
     1
 62
    18
420
        0
176
     1
 90
       50
176
     1
 90
        3
176
     1
 62
     5
420
      255
176
     1
290
     0
176
     1
 90
       50
176
     1
 90
       50
176
     1
 90
       50
176
     1
290
     0
176
     1
 90
       50
176
     1
 62
   256
176
     0
 40
1.0
176
     0
 90
        2
176
     1
  1
strokes_ogs.tif
176
     1
290
     0
176
     1
 40
1.0
176
     1
 40
1.0
176
     1
  0
VISUALSTYLE
  5
41
102
{ACAD_REACTORS
330
2A
102
}
330
2A
100
AcDbVisualStyle
  2
Shaded with edges
 70
    26
177
     3
291
     0
 70
    58
 90
        2
176
     1
 90
        2
176
     1
 90
        1
176
     1
 90
        2
176
     1
 40
0.6
176
     1
 40
30.0
176
     1
 62
     7
420
 16777215
176
     1
 90
        1
176
     1
 90
       10
176
     1
 62
     7
176
     1
 62
   257
176
     1
 90
        2
176
     1
 90
        1
176
     1
 40
1.0
176
     1
 90
        8
176
     1
 62
   257
176
     1
 40
1.0
176
     1
 90
        1
176
     1
 90
        6
176
     1
 90
        2
176
     1
 62
     7
176
     1
 90
        3
176
     1
 90
        0
176
     1
 90
        0
176
     1
290
     0
176
     1
 90
        5
176
     1
 40
0.0
176
     1
 90
        0
176
     1
290
     0
176
     1
290
     1
176
     1
290
     1
176
     1
290
     0
176
     1
290
     0
176
     1
290
     0
176
     1
290
     0
176
     1
290
     0
176
     1
290
     0
176
     1
 90
       50
176
     1
 40
0.0
176
     1
 40
1.0
176
     1
 90
        0
176
     1
 62
    18
420
        0
176
     1
 90
       50
176
     1
 90
        3
176
     1
 62
     5
420
      255
176
     1
290
     0
176
     1
 90
       50
176
     1
 90
       50
176
     1
 90
       50
176
     1
290
     0
176
     1
 90
       50
176
     1
 62
   256
176
     0
 40
1.0
176
     0
 90
        2
176
     1
  1
strokes_ogs.tif
176
     1
290
     0
176
     1
 40
1.0
176
     1
 40
1.0
176
     1
  0
VISUALSTYLE
  5
3E
102
{ACAD_REACTORS
330
2A
102
}
330
2A
100
AcDbVisualStyle
  2
Shades of Gray
 70
    23
177
     3
291
     0
 70
    58
 90
        2
176
     1
 90
        2
176
     1
 90
        3
176
     1
 90
        0
176
     1
 40
0.6
176
     1
 40
30.0
176
     1
 62
     7
420
 16777215
176
     1
 90
        2
176
     1
 90
        2
176
     1
 62
     7
176
     1
 62
     7
176
     1
 90
        1
176
     1
 90
        1
176
     1
 40
40.0
176
     1
 90
        8
176
     1
 62
     7
176
     1
 40
1.0
176
     1
 90
        1
176
     1
 90
        6
176
     1
 90
        2
176
     1
 62
     7
176
     1
 90
        3
176
     1
 90
        0
176
     1
 90
        0
176
     1
290
     0
176
     1
 90
        1
176
     1
 40
0.0
176
     1
 90
        0
176
     1
290
     0
176
     1
290
     1
176
     1
290
     1
176
     1
290
     0
176
     1
290
     0
176
     1
290
     0
176
     1
290
     0
176
     1
290
     0
176
     1
290
     0
176
     1
 90
       50
176
     1
 40
0.0
176
     1
 40
1.0
176
     1
 90
        0
176
     1
 62
    18
420
        0
176
     1
 90
       50
176
     1
 90
        3
176
     1
 62
     5
420
      255
176
     1
290
     0
176
     1
 90
       50
176
     1
 90
       50
176
     1
 90
       50
176
     1
290
     0
176
     1
 90
       50
176
     1
 62
   256
176
     0
 40
1.0
176
     0
 90
        2
176
     1
  1
strokes_ogs.tif
176
     1
290
     0
176
     1
 40
1.0
176
     1
 40
1.0
176
     1
  0
VISUALSTYLE
  5
3F
102
{ACAD_REACTORS
330
2A
102
}
330
2A
100
AcDbVisualStyle
  2
Sketchy
 70
    24
177
     3
291
     0
 70
    58
 90
        1
176
     1
 90
        2
176
     1
 90
        2
176
     1
 90
        0
176
     1
 40
0.6
176
     1
 40
30.0
176
     1
 62
     7
420
 16777215
176
     1
 90
        2
176
     1
 90
        2
176
     1
 62
     7
176
     1
 62
     7
176
     1
 90
        1
176
     1
 90
        1
176
     1
 40
40.0
176
     1
 90
       11
176
     1
 62
     7
176
     1
 40
1.0
176
     1
 90
        1
176
     1
 90
        6
176
     1
 90
        2
176
     1
 62
     7
176
     1
 90
        6
176
     1
 90
        0
176
     1
 90
        0
176
     1
290
     0
176
     1
 90
        1
176
     1
 40
0.0
176
     1
 90
        0
176
     1
290
     0
176
     1
290
     1
176
     1
290
     1
176
     1
290
     0
176
     1
290
     0
176
     1
290
     0
176
     1
290
     0
176
     1
290
     0
176
     1
290
     0
176
     1
 90
       50
176
     1
 40
0.0
176
     1
 40
1.0
176
     1
 90
        0
176
     1
 62
    18
420
        0
176
     1
 90
       50
176
     1
 90
        3
176
     1
 62
     5
420
      255
176
     1
290
     0
176
     1
 90
       50
176
     1
 90
       50
176
     1
 90
       50
176
     1
290
     0
176
     1
 90
       50
176
     1
 62
   256
176
     0
 40
1.0
176
     0
 90
        2
176
     1
  1
strokes_ogs.tif
176
     1
290
     0
176
     1
 40
1.0
176
     1
 40
1.0
176
     1
  0
VISUALSTYLE
  5
37
102
{ACAD_REACTORS
330
2A
102
}
330
2A
100
AcDbVisualStyle
  2
Thicken
 70
    13
177
     3
291
     1
 70
    58
 90
        2
176
     1
 90
        2
176
     1
 90
        0
176
     1
 90
        0
176
     1
 40
0.6
176
     1
 40
30.0
176
     1
 62
     7
420
 16777215
176
     1
 90
        1
176
     1
 90
        4
176
     1
 62
     7
176
     1
 62
   257
176
     1
 90
        1
176
     1
 90
        1
176
     1
 40
1.0
176
     1
 90
       12
176
     1
 62
     7
176
     1
 40
1.0
176
     1
 90
        1
176
     1
 90
        6
176
     1
 90
        2
176
     1
 62
     7
176
     1
 90
        5
176
     1
 90
        0
176
     1
 90
        0
176
     1
290
     0
176
     1
 90
        1
176
     1
 40
0.0
176
     1
 90
        0
176
     1
290
     0
176
     1
290
     1
176
     1
290
     1
176
     1
290
     0
176
     1
290
     0
176
     1
290
     0
176
     1
290
     0
176
     1
290
     0
176
     1
290
     0
176
     1
 90
       50
176
     1
 40
0.0
176
     1
 40
1.0
176
     1
 90
        0
176
     1
 62
    18
420
        0
176
     1
 90
       50
176
     1
 90
        3
176
     1
 62
     5
420
      255
176
     1
290
     0
176
     1
 90
       50
176
     1
 90
       50
176
     1
 90
       50
176
     1
290
     0
176
     1
 90
       50
176
     1
 62
   256
176
     0
 40
1.0
176
     0
 90
        2
176
     1
  1
strokes_ogs.tif
176
     1
290
     0
176
     1
 40
1.0
176
     1
 40
1.0
176
     1
  0
VISUALSTYLE
  5
30
102
{ACAD_REACTORS
330
2A
102
}
330
2A
100
AcDbVisualStyle
  2
Wireframe
 70
     5
177
     3
291
     0
 70
    58
 90
        0
176
     1
 90
        2
176
     1
 90
        0
176
     1
 90
        0
176
     1
 40
0.6
176
     1
 40
30.0
176
     1
 62
     7
420
 16777215
176
     1
 90
        1
176
     1
 90
        4
176
     1
 62
     7
176
     1
 62
   257
176
     1
 90
        1
176
     1
 90
        1
176
     1
 40
1.0
176
     1
 90
        0
176
     1
 62
   257
176
     1
 40
1.0
176
     1
 90
        1
176
     1
 90
        6
176
     1
 90
        2
176
     1
 62
     7
176
     1
 90
        3
176
     1
 90
        0
176
     1
 90
        0
176
     1
290
     0
176
     1
 90
        1
176
     1
 40
0.0
176
     1
 90
        0
176
     1
290
     0
176
     1
290
     1
176
     1
290
     1
176
     1
290
     0
176
     1
290
     0
176
     1
290
     0
176
     1
290
     0
176
     1
290
     0
176
     1
290
     0
176
     1
 90
       50
176
     1
 40
0.0
176
     1
 40
1.0
176
     1
 90
        0
176
     1
 62
    18
420
        0
176
     1
 90
       50
176
     1
 90
        3
176
     1
 62
     5
420
      255
176
     1
290
     0
176
     1
 90
       50
176
     1
 90
       50
176
     1
 90
       50
176
     1
290
     0
176
     1
 90
       50
176
     1
 62
   256
176
     0
 40
1.0
176
     0
 90
        2
176
     1
  1
strokes_ogs.tif
176
     1
290
     0
176
     1
 40
1.0
176
     1
 40
1.0
176
     1
  0
VISUALSTYLE
  5
40
102
{ACAD_REACTORS
330
2A
102
}
330
2A
100
AcDbVisualStyle
  2
X-Ray
 70
    25
177
     3
291
     0
 70
    58
 90
        2
176
     1
 90
        2
176
     1
 90
        1
176
     1
 90
        1
176
     1
 40
0.5
176
     1
 40
30.0
176
     1
 62
     7
420
 16777215
176
     1
 90
        1
176
     1
 90
        0
176
     1
 62
     7
176
     1
 62
   257
176
     1
 90
        1
176
     1
 90
        1
176
     1
 40
1.0
176
     1
 90
        8
176
     1
 62
     7
176
     1
 40
1.0
176
     1
 90
        1
176
     1
 90
        6
176
     1
 90
        2
176
     1
 62
     7
176
     1
 90
        3
176
     1
 90
        0
176
     1
 90
        0
176
     1
290
     0
176
     1
 90
       13
176
     1
 40
0.0
176
     1
 90
        0
176
     1
290
     0
176
     1
290
     1
176
     1
290
     1
176
     1
290
     0
176
     1
290
     0
176
     1
290
     0
176
     1
290
     0
176
     1
290
     0
176
     1
290
     0
176
     1
 90
       50
176
     1
 40
0.0
176
     1
 40
1.0
176
     1
 90
        0
176
     1
 62
    18
420
        0
176
     1
 90
       50
176
     1
 90
        3
176
     1
 62
     5
420
      255
176
     1
290
     0
176
     1
 90
       50
176
     1
 90
       50
176
     1
 90
       50
176
     1
290
     0
176
     1
 90
       50
176
     1
 62
   256
176
     0
 40
1.0
176
     0
 90
        2
176
     1
  1
strokes_ogs.tif
176
     1
290
     0
176
     1
 40
1.0
176
     1
 40
1.0
176
     1
  0
DICTIONARYVAR
  5
1CA
102
{ACAD_REACTORS
330
1C9
102
}
330
1C9
100
DictionaryVariables
280
     0
  1
1:1
  0
DICTIONARYVAR
  5
1CF
102
{ACAD_REACTORS
330
1C9
102
}
330
1C9
100
DictionaryVariables
280
     0
  1
Standard
  0
DICTIONARYVAR
  5
1CE
102
{ACAD_REACTORS
330
1C9
102
}
330
1C9
100
DictionaryVariables
280
     0
  1
Standard
  0
DICTIONARY
  5
1CB
330
6A
100
AcDbDictionary
280
     1
281
     1
  3
ACAD_ROUNDTRIP_2008_TABLESTYLE_CELLSTYLEMAP
360
1CC
  0
CELLSTYLEMAP
  5
1CC
102
{ACAD_REACTORS
330
1CB
102
}
330
1CB
100
AcDbCellStyleMap
 90
        3
300
CELLSTYLE
  1
TABLEFORMAT_BEGIN
 90
        5
170
     1
 91
        0
 92
    32768
 62
   257
 93
        1
300
CONTENTFORMAT
  1
CONTENTFORMAT_BEGIN
 90
        0
 91
        0
 92
        4
 93
        0
300

 40
0.0
140
1.0
 94
        5
 62
     0
340
11
144
0.25
309
CONTENTFORMAT_END
171
     1
301
MARGIN
  1
CELLMARGIN_BEGIN
 40
0.06
 40
0.06
 40
0.06
 40
0.06
 40
0.06
 40
0.06
309
CELLMARGIN_END
 94
        6
 95
        1
302
GRIDFORMAT
  1
GRIDFORMAT_BEGIN
 90
        0
 91
        1
 62
     0
 92
       -2
340
14
 93
        0
 40
0.045
309
GRIDFORMAT_END
 95
        2
302
GRIDFORMAT
  1
GRIDFORMAT_BEGIN
 90
        0
 91
        1
 62
     0
 92
       -2
340
14
 93
        0
 40
0.045
309
GRIDFORMAT_END
 95
        4
302
GRIDFORMAT
  1
GRIDFORMAT_BEGIN
 90
        0
 91
        1
 62
     0
 92
       -2
340
14
 93
        0
 40
0.045
309
GRIDFORMAT_END
 95
        8
302
GRIDFORMAT
  1
GRIDFORMAT_BEGIN
 90
        0
 91
        1
 62
     0
 92
       -2
340
14
 93
        0
 40
0.045
309
GRIDFORMAT_END
 95
       16
302
GRIDFORMAT
  1
GRIDFORMAT_BEGIN
 90
        0
 91
        1
 62
     0
 92
       -2
340
14
 93
        0
 40
0.045
309
GRIDFORMAT_END
 95
       32
302
GRIDFORMAT
  1
GRIDFORMAT_BEGIN
 90
        0
 91
        1
 62
     0
 92
       -2
340
14
 93
        0
 40
0.045
309
GRIDFORMAT_END
309
TABLEFORMAT_END
  1
CELLSTYLE_BEGIN
 90
        1
 91
        1
300
_TITLE
309
CELLSTYLE_END
300
CELLSTYLE
  1
TABLEFORMAT_BEGIN
 90
        5
170
     1
 91
        0
 92
        0
 62
   257
 93
        1
300
CONTENTFORMAT
  1
CONTENTFORMAT_BEGIN
 90
        0
 91
        0
 92
        4
 93
        0
300

 40
0.0
140
1.0
 94
        5
 62
     0
340
11
144
0.18
309
CONTENTFORMAT_END
171
     1
301
MARGIN
  1
CELLMARGIN_BEGIN
 40
0.06
 40
0.06
 40
0.06
 40
0.06
 40
0.06
 40
0.06
309
CELLMARGIN_END
 94
        6
 95
        1
302
GRIDFORMAT
  1
GRIDFORMAT_BEGIN
 90
        0
 91
        1
 62
     0
 92
       -2
340
14
 93
        0
 40
0.045
309
GRIDFORMAT_END
 95
        2
302
GRIDFORMAT
  1
GRIDFORMAT_BEGIN
 90
        0
 91
        1
 62
     0
 92
       -2
340
14
 93
        0
 40
0.045
309
GRIDFORMAT_END
 95
        4
302
GRIDFORMAT
  1
GRIDFORMAT_BEGIN
 90
        0
 91
        1
 62
     0
 92
       -2
340
14
 93
        0
 40
0.045
309
GRIDFORMAT_END
 95
        8
302
GRIDFORMAT
  1
GRIDFORMAT_BEGIN
 90
        0
 91
        1
 62
     0
 92
       -2
340
14
 93
        0
 40
0.045
309
GRIDFORMAT_END
 95
       16
302
GRIDFORMAT
  1
GRIDFORMAT_BEGIN
 90
        0
 91
        1
 62
     0
 92
       -2
340
14
 93
        0
 40
0.045
309
GRIDFORMAT_END
 95
       32
302
GRIDFORMAT
  1
GRIDFORMAT_BEGIN
 90
        0
 91
        1
 62
     0
 92
       -2
340
14
 93
        0
 40
0.045
309
GRIDFORMAT_END
309
TABLEFORMAT_END
  1
CELLSTYLE_BEGIN
 90
        2
 91
        1
300
_HEADER
309
CELLSTYLE_END
300
CELLSTYLE
  1
TABLEFORMAT_BEGIN
 90
        5
170
     1
 91
        0
 92
        0
 62
   257
 93
        1
300
CONTENTFORMAT
  1
CONTENTFORMAT_BEGIN
 90
        0
 91
        0
 92
        4
 93
        0
300

 40
0.0
140
1.0
 94
        2
 62
     0
340
11
144
0.18
309
CONTENTFORMAT_END
171
     1
301
MARGIN
  1
CELLMARGIN_BEGIN
 40
0.06
 40
0.06
 40
0.06
 40
0.06
 40
0.06
 40
0.06
309
CELLMARGIN_END
 94
        6
 95
        1
302
GRIDFORMAT
  1
GRIDFORMAT_BEGIN
 90
        0
 91
        1
 62
     0
 92
       -2
340
14
 93
        0
 40
0.045
309
GRIDFORMAT_END
 95
        2
302
GRIDFORMAT
  1
GRIDFORMAT_BEGIN
 90
        0
 91
        1
 62
     0
 92
       -2
340
14
 93
        0
 40
0.045
309
GRIDFORMAT_END
 95
        4
302
GRIDFORMAT
  1
GRIDFORMAT_BEGIN
 90
        0
 91
        1
 62
     0
 92
       -2
340
14
 93
        0
 40
0.045
309
GRIDFORMAT_END
 95
        8
302
GRIDFORMAT
  1
GRIDFORMAT_BEGIN
 90
        0
 91
        1
 62
     0
 92
       -2
340
14
 93
        0
 40
0.045
309
GRIDFORMAT_END
 95
       16
302
GRIDFORMAT
  1
GRIDFORMAT_BEGIN
 90
        0
 91
        1
 62
     0
 92
       -2
340
14
 93
        0
 40
0.045
309
GRIDFORMAT_END
 95
       32
302
GRIDFORMAT
  1
GRIDFORMAT_BEGIN
 90
        0
 91
        1
 62
     0
 92
       -2
340
14
 93
        0
 40
0.045
309
GRIDFORMAT_END
309
TABLEFORMAT_END
  1
CELLSTYLE_BEGIN
 90
        3
 91
        2
300
_DATA
309
CELLSTYLE_END
  0
ENDSEC
  0
EOF