0
SECTION
  2
HEADER
  9
$ACADVER
  1
AC1027
  9
$ACADMAINTVER
 70
     8
  9
$DWGCODEPAGE
  3
ANSI_1252
  9
$REQUIREDVERSIONS
160
                 0
  9
$COMMENTS
  1
File was created by Cadenas
  9
$CUSTOMPROPERTYTAG
  1
NN
  9
$CUSTOMPROPERTY
  1
Set Screw Extreme Duty Two-Bolt Flange Inch Bore
  9
$CUSTOMPROPERTYTAG
  1
NT
  9
$CUSTOMPROPERTY
  1
SC 2 Bolt Flange Bearings -(Normal Duty)
  9
$CUSTOMPROPERTYTAG
  1
NB
  9
$CUSTOMPROPERTY
  1
076032
  9
$CUSTOMPROPERTYTAG
  1
NBSYN
  9
$CUSTOMPROPERTY
  1
$PN.
  9
$CUSTOMPROPERTYTAG
  1
LINA
  9
$CUSTOMPROPERTY
  1
076032
  9
$CUSTOMPROPERTYTAG
  1
SERIES
  9
$CUSTOMPROPERTY
  1
205
  9
$CUSTOMPROPERTYTAG
  1
SS
  9
$CUSTOMPROPERTY
  1
1
  9
$CUSTOMPROPERTYTAG
  1
PN
  9
$CUSTOMPROPERTY
  1
076032
  9
$CUSTOMPROPERTYTAG
  1
DESCRIPTION
  9
$CUSTOMPROPERTY
  1
F2B-SCED-100
  9
$CUSTOMPROPERTYTAG
  1
W
  9
$CUSTOMPROPERTY
  1
1.4
  9
$CUSTOMPROPERTYTAG
  1
A
  9
$CUSTOMPROPERTY
  1
1.34
  9
$CUSTOMPROPERTYTAG
  1
B
  9
$CUSTOMPROPERTY
  1
4.88
  9
$CUSTOMPROPERTYTAG
  1
C
  9
$CUSTOMPROPERTY
  1
1.37
  9
$CUSTOMPROPERTYTAG
  1
D
  9
$CUSTOMPROPERTY
  1
3.89
  9
$CUSTOMPROPERTYTAG
  1
F
  9
$CUSTOMPROPERTY
  1
7/16
  9
$CUSTOMPROPERTYTAG
  1
H
  9
$CUSTOMPROPERTY
  1
0.52
  9
$CUSTOMPROPERTYTAG
  1
J
  9
$CUSTOMPROPERTY
  1
0.42
  9
$CUSTOMPROPERTYTAG
  1
L
  9
$CUSTOMPROPERTY
  1
1.32
  9
$CUSTOMPROPERTYTAG
  1
M
  9
$CUSTOMPROPERTY
  1
2.75
  9
$CUSTOMPROPERTYTAG
  1
N
  9
$CUSTOMPROPERTY
  1
1.44
  9
$CUSTOMPROPERTYTAG
  1
COMPANY
  9
$CUSTOMPROPERTY
  1
baldor
  9
$INSBASE
 10
0.0
 20
0.0
 30
0.0
  9
$EXTMIN
 10
1.000000000000000E+20
 20
1.000000000000000E+20
 30
1.000000000000000E+20
  9
$EXTMAX
 10
-1.000000000000000E+20
 20
-1.000000000000000E+20
 30
-1.000000000000000E+20
  9
$LIMMIN
 10
0.0
 20
0.0
  9
$LIMMAX
 10
12.0
 20
9.0
  9
$ORTHOMODE
 70
     0
  9
$REGENMODE
 70
     1
  9
$FILLMODE
 70
     1
  9
$QTEXTMODE
 70
     0
  9
$MIRRTEXT
 70
     1
  9
$LTSCALE
 40
1.0
  9
$ATTMODE
 70
     1
  9
$TEXTSIZE
 40
0.2
  9
$TRACEWID
 40
0.05
  9
$TEXTSTYLE
  7
Standard
  9
$CLAYER
  8
0
  9
$CELTYPE
  6
ByLayer
  9
$CECOLOR
 62
   256
  9
$CELTSCALE
 40
1.0
  9
$DISPSILH
 70
     0
  9
$DIMSCALE
 40
1.0
  9
$DIMASZ
 40
0.18
  9
$DIMEXO
 40
0.0625
  9
$DIMDLI
 40
0.38
  9
$DIMRND
 40
0.0
  9
$DIMDLE
 40
0.0
  9
$DIMEXE
 40
0.18
  9
$DIMTP
 40
0.0
  9
$DIMTM
 40
0.0
  9
$DIMTXT
 40
0.18
  9
$DIMCEN
 40
0.09
  9
$DIMTSZ
 40
0.0
  9
$DIMTOL
 70
     0
  9
$DIMLIM
 70
     0
  9
$DIMTIH
 70
     1
  9
$DIMTOH
 70
     1
  9
$DIMSE1
 70
     0
  9
$DIMSE2
 70
     0
  9
$DIMTAD
 70
     0
  9
$DIMZIN
 70
     0
  9
$DIMBLK
  1

  9
$DIMASO
 70
     1
  9
$DIMSHO
 70
     1
  9
$DIMPOST
  1

  9
$DIMAPOST
  1

  9
$DIMALT
 70
     0
  9
$DIMALTD
 70
     2
  9
$DIMALTF
 40
25.4
  9
$DIMLFAC
 40
1.0
  9
$DIMTOFL
 70
     0
  9
$DIMTVP
 40
0.0
  9
$DIMTIX
 70
     0
  9
$DIMSOXD
 70
     0
  9
$DIMSAH
 70
     0
  9
$DIMBLK1
  1

  9
$DIMBLK2
  1

  9
$DIMSTYLE
  2
Standard
  9
$DIMCLRD
 70
     0
  9
$DIMCLRE
 70
     0
  9
$DIMCLRT
 70
     0
  9
$DIMTFAC
 40
1.0
  9
$DIMGAP
 40
0.09
  9
$DIMJUST
 70
     0
  9
$DIMSD1
 70
     0
  9
$DIMSD2
 70
     0
  9
$DIMTOLJ
 70
     1
  9
$DIMTZIN
 70
     0
  9
$DIMALTZ
 70
     0
  9
$DIMALTTZ
 70
     0
  9
$DIMUPT
 70
     0
  9
$DIMDEC
 70
     4
  9
$DIMTDEC
 70
     4
  9
$DIMALTU
 70
     2
  9
$DIMALTTD
 70
     2
  9
$DIMTXSTY
  7
Standard
  9
$DIMAUNIT
 70
     0
  9
$DIMADEC
 70
     0
  9
$DIMALTRND
 40
0.0
  9
$DIMAZIN
 70
     0
  9
$DIMDSEP
 70
    46
  9
$DIMATFIT
 70
     3
  9
$DIMFRAC
 70
     0
  9
$DIMLDRBLK
  1

  9
$DIMLUNIT
 70
     2
  9
$DIMLWD
 70
    -2
  9
$DIMLWE
 70
    -2
  9
$DIMTMOVE
 70
     0
  9
$DIMFXL
 40
1.0
  9
$DIMFXLON
 70
     0
  9
$DIMJOGANG
 40
0.7853981633974483
  9
$DIMTFILL
 70
     0
  9
$DIMTFILLCLR
 70
     0
  9
$DIMARCSYM
 70
     0
  9
$DIMLTYPE
  6

  9
$DIMLTEX1
  6

  9
$DIMLTEX2
  6

  9
$DIMTXTDIRECTION
 70
     0
  9
$LUNITS
 70
     2
  9
$LUPREC
 70
     4
  9
$SKETCHINC
 40
0.1
  9
$FILLETRAD
 40
0.5
  9
$AUNITS
 70
     0
  9
$AUPREC
 70
     0
  9
$MENU
  1
.
  9
$ELEVATION
 40
0.0
  9
$PELEVATION
 40
0.0
  9
$THICKNESS
 40
0.0
  9
$LIMCHECK
 70
     0
  9
$CHAMFERA
 40
0.0
  9
$CHAMFERB
 40
0.0
  9
$CHAMFERC
 40
0.0
  9
$CHAMFERD
 40
0.0
  9
$SKPOLY
 70
     0
  9
$TDCREATE
 40
2458168.893997048
  9
$TDUCREATE
 40
2458168.852330382
  9
$TDUPDATE
 40
2458168.893997048
  9
$TDUUPDATE
 40
2458168.852330382
  9
$TDINDWG
 40
0.0000000116
  9
$TDUSRTIMER
 40
0.0000000116
  9
$USRTIMER
 70
     1
  9
$ANGBASE
 50
0.0
  9
$ANGDIR
 70
     0
  9
$PDMODE
 70
     0
  9
$PDSIZE
 40
0.0
  9
$PLINEWID
 40
0.0
  9
$SPLFRAME
 70
     0
  9
$SPLINETYPE
 70
     6
  9
$SPLINESEGS
 70
     8
  9
$HANDSEED
  5
193
  9
$SURFTAB1
 70
     6
  9
$SURFTAB2
 70
     6
  9
$SURFTYPE
 70
     6
  9
$SURFU
 70
     6
  9
$SURFV
 70
     6
  9
$UCSBASE
  2

  9
$UCSNAME
  2

  9
$UCSORG
 10
0.0
 20
0.0
 30
0.0
  9
$UCSXDIR
 10
1.0
 20
0.0
 30
0.0
  9
$UCSYDIR
 10
0.0
 20
1.0
 30
0.0
  9
$UCSORTHOREF
  2

  9
$UCSORTHOVIEW
 70
     0
  9
$UCSORGTOP
 10
0.0
 20
0.0
 30
0.0
  9
$UCSORGBOTTOM
 10
0.0
 20
0.0
 30
0.0
  9
$UCSORGLEFT
 10
0.0
 20
0.0
 30
0.0
  9
$UCSORGRIGHT
 10
0.0
 20
0.0
 30
0.0
  9
$UCSORGFRONT
 10
0.0
 20
0.0
 30
0.0
  9
$UCSORGBACK
 10
0.0
 20
0.0
 30
0.0
  9
$PUCSBASE
  2

  9
$PUCSNAME
  2

  9
$PUCSORG
 10
0.0
 20
0.0
 30
0.0
  9
$PUCSXDIR
 10
1.0
 20
0.0
 30
0.0
  9
$PUCSYDIR
 10
0.0
 20
1.0
 30
0.0
  9
$PUCSORTHOREF
  2

  9
$PUCSORTHOVIEW
 70
     0
  9
$PUCSORGTOP
 10
0.0
 20
0.0
 30
0.0
  9
$PUCSORGBOTTOM
 10
0.0
 20
0.0
 30
0.0
  9
$PUCSORGLEFT
 10
0.0
 20
0.0
 30
0.0
  9
$PUCSORGRIGHT
 10
0.0
 20
0.0
 30
0.0
  9
$PUCSORGFRONT
 10
0.0
 20
0.0
 30
0.0
  9
$PUCSORGBACK
 10
0.0
 20
0.0
 30
0.0
  9
$USERI1
 70
     0
  9
$USERI2
 70
     0
  9
$USERI3
 70
     0
  9
$USERI4
 70
     0
  9
$USERI5
 70
     0
  9
$USERR1
 40
0.0
  9
$USERR2
 40
0.0
  9
$USERR3
 40
0.0
  9
$USERR4
 40
0.0
  9
$USERR5
 40
0.0
  9
$WORLDVIEW
 70
     1
  9
$SHADEDGE
 70
     3
  9
$SHADEDIF
 70
    70
  9
$TILEMODE
 70
     1
  9
$MAXACTVP
 70
    64
  9
$PINSBASE
 10
0.0
 20
0.0
 30
0.0
  9
$PLIMCHECK
 70
     0
  9
$PEXTMIN
 10
1.000000000000000E+20
 20
1.000000000000000E+20
 30
1.000000000000000E+20
  9
$PEXTMAX
 10
-1.000000000000000E+20
 20
-1.000000000000000E+20
 30
-1.000000000000000E+20
  9
$PLIMMIN
 10
0.0
 20
0.0
  9
$PLIMMAX
 10
12.0
 20
9.0
  9
$UNITMODE
 70
     0
  9
$VISRETAIN
 70
     1
  9
$PLINEGEN
 70
     0
  9
$PSLTSCALE
 70
     1
  9
$TREEDEPTH
 70
  3020
  9
$CMLSTYLE
  2
Standard
  9
$CMLJUST
 70
     0
  9
$CMLSCALE
 40
1.0
  9
$PROXYGRAPHICS
 70
     1
  9
$MEASUREMENT
 70
     0
  9
$CELWEIGHT
370
    -1
  9
$ENDCAPS
280
     0
  9
$JOINSTYLE
280
     0
  9
$LWDISPLAY
290
     0
  9
$INSUNITS
 70
     1
  9
$HYPERLINKBASE
  1

  9
$STYLESHEET
  1

  9
$XEDIT
290
     1
  9
$CEPSNTYPE
380
     0
  9
$PSTYLEMODE
290
     1
  9
$FINGERPRINTGUID
  2
{0BD7DC2A-C3C6-4EF7-9E1A-8D4EB75D58B4}
  9
$VERSIONGUID
  2
{FAEB1C32-E019-11D5-929B-00C0DF256EC4}
  9
$EXTNAMES
290
     1
  9
$PSVPSCALE
 40
0.0
  9
$OLESTARTUP
290
     0
  9
$SORTENTS
280
   127
  9
$INDEXCTL
280
     0
  9
$HIDETEXT
280
     1
  9
$XCLIPFRAME
280
     2
  9
$HALOGAP
280
     0
  9
$OBSCOLOR
 70
   257
  9
$OBSLTYPE
280
     0
  9
$INTERSECTIONDISPLAY
280
     0
  9
$INTERSECTIONCOLOR
 70
   257
  9
$DIMASSOC
280
     2
  9
$PROJECTNAME
  1

  9
$CAMERADISPLAY
290
     0
  9
$LENSLENGTH
 40
50.0
  9
$CAMERAHEIGHT
 40
0.0
  9
$STEPSPERSEC
 40
2.0
  9
$STEPSIZE
 40
6.0
  9
$3DDWFPREC
 40
2.0
  9
$PSOLWIDTH
 40
0.25
  9
$PSOLHEIGHT
 40
4.0
  9
$LOFTANG1
 40
1.570796326794897
  9
$LOFTANG2
 40
1.570796326794897
  9
$LOFTMAG1
 40
0.0
  9
$LOFTMAG2
 40
0.0
  9
$LOFTPARAM
 70
     7
  9
$LOFTNORMALS
280
     1
  9
$LATITUDE
 40
37.795
  9
$LONGITUDE
 40
-122.394
  9
$NORTHDIRECTION
 40
0.0
  9
$TIMEZONE
 70
 -8000
  9
$LIGHTGLYPHDISPLAY
280
     1
  9
$TILEMODELIGHTSYNCH
280
     1
  9
$CMATERIAL
347
44
  9
$SOLIDHIST
280
     0
  9
$SHOWHIST
280
     1
  9
$DWFFRAME
280
     2
  9
$DGNFRAME
280
     2
  9
$REALWORLDSCALE
290
     1
  9
$INTERFERECOLOR
 62
   256
  9
$CSHADOW
280
     0
  9
$SHADOWPLANELOCATION
 40
0.0
  0
ENDSEC
  0
SECTION
  2
CLASSES
  0
CLASS
  1
ACDBDICTIONARYWDFLT
  2
AcDbDictionaryWithDefault
  3
ObjectDBX Classes
 90
        0
 91
        4
280
     0
281
     0
  0
CLASS
  1
VISUALSTYLE
  2
AcDbVisualStyle
  3
ObjectDBX Classes
 90
     4095
 91
        4
280
     0
281
     0
  0
CLASS
  1
MATERIAL
  2
AcDbMaterial
  3
ObjectDBX Classes
 90
     1153
 91
        4
280
     0
281
     0
  0
CLASS
  1
SCALE
  2
AcDbScale
  3
ObjectDBX Classes
 90
     1153
 91
        4
280
     0
281
     0
  0
CLASS
  1
TABLESTYLE
  2
AcDbTableStyle
  3
ObjectDBX Classes
 90
     4095
 91
        4
280
     0
281
     0
  0
CLASS
  1
MLEADERSTYLE
  2
AcDbMLeaderStyle
  3
ACDB_MLEADERSTYLE_CLASS
 90
     4095
 91
        4
280
     0
281
     0
  0
CLASS
  1
SUN
  2
AcDbSun
  3
SCENEOE
 90
     1153
 91
        4
280
     0
281
     0
  0
CLASS
  1
DICTIONARYVAR
  2
AcDbDictionaryVar
  3
ObjectDBX Classes
 90
        0
 91
        4
280
     0
281
     0
  0
CLASS
  1
CELLSTYLEMAP
  2
AcDbCellStyleMap
  3
ObjectDBX Classes
 90
     1152
 91
        4
280
     0
281
     0
  0
ENDSEC
  0
SECTION
  2
TABLES
  0
TABLE
  2
VPORT
  5
8
330
0
100
AcDbSymbolTable
 70
     1
  0
VPORT
  5
29
330
8
100
AcDbSymbolTableRecord
100
AcDbViewportTableRecord
  2
*Active
 70
     0
 10
0.0
 20
0.0
 11
1.0
 21
1.0
 12
0.0506055032597033
 22
-0.69475
 13
0.0
 23
0.0
 14
0.5
 24
0.5
 15
0.5
 25
0.5
 16
0.0
 26
0.0
 36
1.0
 17
0.0
 27
0.0
 37
0.0
 40
1.514190000000001
 41
1.920654096678623
 42
50.0
 43
0.0
 44
0.0
 50
0.0
 51
0.0
 71
     0
 72
   100
 73
     1
 74
     3
 75
     0
 76
     0
 77
     0
 78
     0
281
     0
 65
     1
110
0.0
120
0.0
130
0.0
111
1.0
121
0.0
131
0.0
112
0.0
122
1.0
132
0.0
 79
     0
146
0.0
348
2F
 60
     3
 61
     5
292
     1
282
     1
141
0.0
142
0.0
 63
   250
361
6D
  0
ENDTAB
  0
TABLE
  2
LTYPE
  5
5
330
0
100
AcDbSymbolTable
 70
     3
  0
LTYPE
  5
14
330
5
100
AcDbSymbolTableRecord
100
AcDbLinetypeTableRecord
  2
ByBlock
 70
     0
  3

 72
    65
 73
     0
 40
0.0
  0
LTYPE
  5
15
330
5
100
AcDbSymbolTableRecord
100
AcDbLinetypeTableRecord
  2
ByLayer
 70
     0
  3

 72
    65
 73
     0
 40
0.0
  0
LTYPE
  5
16
330
5
100
AcDbSymbolTableRecord
100
AcDbLinetypeTableRecord
  2
Continuous
 70
     0
  3
Solid line
 72
    65
 73
     0
 40
0.0
  0
LTYPE
  5
94
330
5
100
AcDbSymbolTableRecord
100
AcDbLinetypeTableRecord
  2
Dashed
 70
     0
  3

 72
    65
 73
     2
 40
2.0
 49
1.0
 74
     0
 49
-1.0
 74
     0
  0
LTYPE
  5
11A
330
5
100
AcDbSymbolTableRecord
100
AcDbLinetypeTableRecord
  2
Center
 70
     0
  3

 72
    65
 73
     4
 40
1.5
 49
0.45
 74
     0
 49
-0.5
 74
     0
 49
0.05
 74
     0
 49
-0.5
 74
     0
  0
ENDTAB
  0
TABLE
  2
LAYER
  5
2
330
0
100
AcDbSymbolTable
 70
     7
  0
LAYER
  5
10
330
2
100
AcDbSymbolTableRecord
100
AcDbLayerTableRecord
  2
0
 70
     0
 62
     7
  6
Continuous
370
    -3
390
F
347
46
348
0
  0
LAYER
  5
72
330
2
100
AcDbSymbolTableRecord
100
AcDbLayerTableRecord
  2
AM_6
 70
     0
 62
    -2
  6
Continuous
370
    35
390
F
347
46
348
0
  0
LAYER
  5
95
330
2
100
AcDbSymbolTableRecord
100
AcDbLayerTableRecord
  2
AM_9
 70
     0
 62
     6
  6
Dashed
370
    25
390
F
347
46
348
0
  0
LAYER
  5
B5
330
2
100
AcDbSymbolTableRecord
100
AcDbLayerTableRecord
  2
AM_4
 70
     0
 62
     7
  6
Continuous
370
    50
390
F
347
46
348
0
  0
LAYER
  5
11B
330
2
100
AcDbSymbolTableRecord
100
AcDbLayerTableRecord
  2
AM_7
 70
     0
 62
     7
  6
Center
370
    25
390
F
347
46
348
0
  0
LAYER
  5
129
330
2
100
AcDbSymbolTableRecord
100
AcDbLayerTableRecord
  2
AM_5
 70
     0
 62
     3
  6
Continuous
370
    25
390
F
347
46
348
0
  0
LAYER
  5
185
330
2
100
AcDbSymbolTableRecord
100
AcDbLayerTableRecord
  2
ConnectionPoints
 70
     0
 62
     7
  6
Continuous
370
    50
390
F
347
46
348
0
  0
ENDTAB
  0
TABLE
  2
STYLE
  5
3
330
0
100
AcDbSymbolTable
 70
     1
  0
STYLE
  5
11
330
3
100
AcDbSymbolTableRecord
100
AcDbTextStyleTableRecord
  2
Standard
 70
     0
 40
0.0
 41
1.0
 50
0.0
 71
     0
 42
0.2
  3
txt
  4

  0
ENDTAB
  0
TABLE
  2
VIEW
  5
6
330
0
100
AcDbSymbolTable
 70
     0
  0
ENDTAB
  0
TABLE
  2
UCS
  5
7
330
0
100
AcDbSymbolTable
 70
     0
  0
ENDTAB
  0
TABLE
  2
APPID
  5
9
330
0
100
AcDbSymbolTable
 70
     1
  0
APPID
  5
12
330
9
100
AcDbSymbolTableRecord
100
AcDbRegAppTableRecord
  2
ACAD
 70
     0
  0
ENDTAB
  0
TABLE
  2
DIMSTYLE
  5
A
330
0
100
AcDbSymbolTable
 70
     1
100
AcDbDimStyleTable
  0
DIMSTYLE
105
27
330
A
100
AcDbSymbolTableRecord
100
AcDbDimStyleTableRecord
  2
Standard
 70
     0
178
     0
340
11
  0
ENDTAB
  0
TABLE
  2
BLOCK_RECORD
  5
1
330
0
100
AcDbSymbolTable
 70
     5
  0
BLOCK_RECORD
  5
1F
330
1
100
AcDbSymbolTableRecord
100
AcDbBlockTableRecord
  2
*Model_Space
340
22
 70
     0
280
     1
281
     0
  0
BLOCK_RECORD
  5
1B
330
1
100
AcDbSymbolTableRecord
100
AcDbBlockTableRecord
  2
*Paper_Space
340
1E
 70
     0
280
     1
281
     0
  0
BLOCK_RECORD
  5
23
330
1
100
AcDbSymbolTableRecord
100
AcDbBlockTableRecord
  2
*Paper_Space0
340
26
 70
     0
280
     1
281
     0
  0
BLOCK_RECORD
  5
6E
330
1
100
AcDbSymbolTableRecord
100
AcDbBlockTableRecord
  2
1_076032_4
340
0
102
{BLKREFS
331
6F
102
}
 70
     0
280
     1
281
     0
  0
BLOCK_RECORD
  5
88
330
1
100
AcDbSymbolTableRecord
100
AcDbBlockTableRecord
  2
2_405015E_Inch_0_in_076032_4
340
0
102
{BLKREFS
331
89
102
}
 70
     0
280
     1
281
     0
  0
BLOCK_RECORD
  5
D8
330
1
100
AcDbSymbolTableRecord
100
AcDbBlockTableRecord
  2
3_076109_0_in_076032_4
340
0
102
{BLKREFS
331
D9
102
}
 70
     0
280
     1
281
     0
  0
BLOCK_RECORD
  5
12C
330
1
100
AcDbSymbolTableRecord
100
AcDbBlockTableRecord
  2
4_076032h_0_in_076032_4
340
0
102
{BLKREFS
331
12D
102
}
 70
     0
280
     1
281
     0
  0
ENDTAB
  0
ENDSEC
  0
SECTION
  2
BLOCKS
  0
BLOCK
  5
20
330
1F
100
AcDbEntity
  8
0
100
AcDbBlockBegin
  2
*Model_Space
 70
     0
 10
0.0
 20
0.0
 30
0.0
  3
*Model_Space
  1

  0
ENDBLK
  5
21
330
1F
100
AcDbEntity
  8
0
100
AcDbBlockEnd
  0
BLOCK
  5
1C
330
1B
100
AcDbEntity
 67
     1
  8
0
100
AcDbBlockBegin
  2
*Paper_Space
 70
     0
 10
0.0
 20
0.0
 30
0.0
  3
*Paper_Space
  1

  0
ENDBLK
  5
1D
330
1B
100
AcDbEntity
 67
     1
  8
0
100
AcDbBlockEnd
  0
BLOCK
  5
24
330
23
100
AcDbEntity
  8
0
100
AcDbBlockBegin
  2
*Paper_Space0
 70
     0
 10
0.0
 20
0.0
 30
0.0
  3
*Paper_Space0
  1

  0
ENDBLK
  5
25
330
23
100
AcDbEntity
  8
0
100
AcDbBlockEnd
  0
BLOCK
  5
70
330
6E
100
AcDbEntity
  8
0
100
AcDbBlockBegin
  2
1_076032_4
 70
     2
 10
0.0
 20
0.0
 30
0.0
  3
1_076032_4
  1

  0
ATTDEF
  5
73
330
6E
100
AcDbEntity
  8
AM_6
100
AcDbText
 10
6.476211006519411
 20
0.0475
 30
0.0
 40
0.5
  1
Set Screw Extreme Duty Two-Bolt Flange Inch Bore
100
AcDbAttributeDefinition
  3

  2
NN
 70
     8
280
     0
  0
ATTDEF
  5
74
330
6E
100
AcDbEntity
  8
AM_6
100
AcDbText
 10
6.476211006519411
 20
-0.4525
 30
0.0
 40
0.5
  1
SC 2 Bolt Flange Bearings -(Normal Duty)
100
AcDbAttributeDefinition
  3

  2
NT
 70
     8
280
     0
  0
ATTDEF
  5
75
330
6E
100
AcDbEntity
  8
AM_6
100
AcDbText
 10
6.476211006519411
 20
-0.9525
 30
0.0
 40
0.5
  1
076032
100
AcDbAttributeDefinition
  3

  2
NB
 70
     8
280
     0
  0
ATTDEF
  5
76
330
6E
100
AcDbEntity
  8
AM_6
100
AcDbText
 10
6.476211006519411
 20
-1.4525
 30
0.0
 40
0.5
  1
$PN.
100
AcDbAttributeDefinition
  3

  2
NBSYN
 70
     8
280
     0
  0
ATTDEF
  5
77
330
6E
100
AcDbEntity
  8
AM_6
100
AcDbText
 10
6.476211006519411
 20
-1.9525
 30
0.0
 40
0.5
  1
076032
100
AcDbAttributeDefinition
  3

  2
LINA
 70
     8
280
     0
  0
ATTDEF
  5
78
330
6E
100
AcDbEntity
  8
AM_6
100
AcDbText
 10
6.476211006519411
 20
-2.4525
 30
0.0
 40
0.5
  1
205
100
AcDbAttributeDefinition
  3

  2
SERIES
 70
     8
280
     0
  0
ATTDEF
  5
79
330
6E
100
AcDbEntity
  8
AM_6
100
AcDbText
 10
6.476211006519411
 20
-2.9525
 30
0.0
 40
0.5
  1
1
100
AcDbAttributeDefinition
  3

  2
SS
 70
     8
280
     0
  0
ATTDEF
  5
7A
330
6E
100
AcDbEntity
  8
AM_6
100
AcDbText
 10
6.476211006519411
 20
-3.4525
 30
0.0
 40
0.5
  1
076032
100
AcDbAttributeDefinition
  3

  2
PN
 70
     8
280
     0
  0
ATTDEF
  5
7B
330
6E
100
AcDbEntity
  8
AM_6
100
AcDbText
 10
6.476211006519411
 20
-3.9525
 30
0.0
 40
0.5
  1
F2B-SCED-100
100
AcDbAttributeDefinition
  3

  2
DESCRIPTION
 70
     8
280
     0
  0
ATTDEF
  5
7C
330
6E
100
AcDbEntity
  8
AM_6
100
AcDbText
 10
6.476211006519411
 20
-4.452500000000001
 30
0.0
 40
0.5
  1
1.4
100
AcDbAttributeDefinition
  3

  2
W
 70
     8
280
     0
  0
ATTDEF
  5
7D
330
6E
100
AcDbEntity
  8
AM_6
100
AcDbText
 10
6.476211006519411
 20
-4.952500000000001
 30
0.0
 40
0.5
  1
1.34
100
AcDbAttributeDefinition
  3

  2
A
 70
     8
280
     0
  0
ATTDEF
  5
7E
330
6E
100
AcDbEntity
  8
AM_6
100
AcDbText
 10
6.476211006519411
 20
-5.452500000000001
 30
0.0
 40
0.5
  1
4.88
100
AcDbAttributeDefinition
  3

  2
B
 70
     8
280
     0
  0
ATTDEF
  5
7F
330
6E
100
AcDbEntity
  8
AM_6
100
AcDbText
 10
6.476211006519411
 20
-5.952500000000001
 30
0.0
 40
0.5
  1
1.37
100
AcDbAttributeDefinition
  3

  2
C
 70
     8
280
     0
  0
ATTDEF
  5
80
330
6E
100
AcDbEntity
  8
AM_6
100
AcDbText
 10
6.476211006519411
 20
-6.452500000000001
 30
0.0
 40
0.5
  1
3.89
100
AcDbAttributeDefinition
  3

  2
D
 70
     8
280
     0
  0
ATTDEF
  5
81
330
6E
100
AcDbEntity
  8
AM_6
100
AcDbText
 10
6.476211006519411
 20
-6.952500000000001
 30
0.0
 40
0.5
  1
7/16
100
AcDbAttributeDefinition
  3

  2
F
 70
     8
280
     0
  0
ATTDEF
  5
82
330
6E
100
AcDbEntity
  8
AM_6
100
AcDbText
 10
6.476211006519411
 20
-7.452500000000001
 30
0.0
 40
0.5
  1
0.52
100
AcDbAttributeDefinition
  3

  2
H
 70
     8
280
     0
  0
ATTDEF
  5
83
330
6E
100
AcDbEntity
  8
AM_6
100
AcDbText
 10
6.476211006519411
 20
-7.952500000000001
 30
0.0
 40
0.5
  1
0.42
100
AcDbAttributeDefinition
  3

  2
J
 70
     8
280
     0
  0
ATTDEF
  5
84
330
6E
100
AcDbEntity
  8
AM_6
100
AcDbText
 10
6.476211006519411
 20
-8.4525
 30
0.0
 40
0.5
  1
1.32
100
AcDbAttributeDefinition
  3

  2
L
 70
     8
280
     0
  0
ATTDEF
  5
85
330
6E
100
AcDbEntity
  8
AM_6
100
AcDbText
 10
6.476211006519411
 20
-8.9525
 30
0.0
 40
0.5
  1
2.75
100
AcDbAttributeDefinition
  3

  2
M
 70
     8
280
     0
  0
ATTDEF
  5
86
330
6E
100
AcDbEntity
  8
AM_6
100
AcDbText
 10
6.476211006519411
 20
-9.4525
 30
0.0
 40
0.5
  1
1.44
100
AcDbAttributeDefinition
  3

  2
N
 70
     8
280
     0
  0
ATTDEF
  5
87
330
6E
100
AcDbEntity
  8
AM_6
100
AcDbText
 10
6.476211006519411
 20
-9.9525
 30
0.0
 40
0.5
  1
baldor
100
AcDbAttributeDefinition
  3

  2
COMPANY
 70
     8
280
     0
  0
INSERT
  5
89
330
6E
100
AcDbEntity
  8
0
100
AcDbBlockReference
  2
2_405015E_Inch_0_in_076032_4
 10
0.0
 20
0.0
 30
0.0
  0
INSERT
  5
D9
330
6E
100
AcDbEntity
  8
0
100
AcDbBlockReference
  2
3_076109_0_in_076032_4
 10
0.0
 20
0.0
 30
0.0
  0
INSERT
  5
12D
330
6E
100
AcDbEntity
  8
0
100
AcDbBlockReference
  2
4_076032h_0_in_076032_4
 10
0.0
 20
0.0
 30
0.0
  0
ENDBLK
  5
71
330
6E
100
AcDbEntity
  8
0
100
AcDbBlockEnd
  0
BLOCK
  5
8A
330
88
100
AcDbEntity
  8
0
100
AcDbBlockBegin
  2
2_405015E_Inch_0_in_076032_4
 70
     2
 10
0.0
 20
0.0
 30
0.0
  3
2_405015E_Inch_0_in_076032_4
  1

  0
ATTDEF
  5
8C
330
88
100
AcDbEntity
  8
AM_6
100
AcDbText
 10
6.476211006519411
 20
-0.410742590562872
 30
0.0
 40
0.5
  1
405015E -Inch
100
AcDbAttributeDefinition
  3

  2
NN
 70
     8
280
     0
  0
ATTDEF
  5
8D
330
88
100
AcDbEntity
  8
AM_6
100
AcDbText
 10
6.476211006519411
 20
-0.9107425905628721
 30
0.0
 40
0.5
  1
Grease Fitting
100
AcDbAttributeDefinition
  3

  2
NT
 70
     8
280
     0
  0
ATTDEF
  5
8E
330
88
100
AcDbEntity
  8
AM_6
100
AcDbText
 10
6.476211006519411
 20
-1.410742590562872
 30
0.0
 40
0.5
  1
405015E-Inch
100
AcDbAttributeDefinition
  3

  2
NB
 70
     8
280
     0
  0
ATTDEF
  5
8F
330
88
100
AcDbEntity
  8
AM_6
100
AcDbText
 10
6.476211006519411
 20
-1.910742590562872
 30
0.0
 40
0.5
  1
$MN.-Inch
100
AcDbAttributeDefinition
  3

  2
NBSYN
 70
     8
280
     0
  0
ATTDEF
  5
90
330
88
100
AcDbEntity
  8
AM_6
100
AcDbText
 10
6.476211006519411
 20
-2.410742590562872
 30
0.0
 40
0.5
  1
405015E
100
AcDbAttributeDefinition
  3

  2
LINA
 70
     8
280
     0
  0
ATTDEF
  5
91
330
88
100
AcDbEntity
  8
AM_6
100
AcDbText
 10
6.476211006519411
 20
-2.910742590562872
 30
0.0
 40
0.5
  1
405015E
100
AcDbAttributeDefinition
  3

  2
MN
 70
     8
280
     0
  0
ATTDEF
  5
92
330
88
100
AcDbEntity
  8
AM_6
100
AcDbText
 10
6.476211006519411
 20
-3.410742590562872
 30
0.0
 40
0.5
  1
1/8 x 27PTF
100
AcDbAttributeDefinition
  3

  2
T
 70
     8
280
     0
  0
ATTDEF
  5
93
330
88
100
AcDbEntity
  8
AM_6
100
AcDbText
 10
6.476211006519411
 20
-3.910742590562872
 30
0.0
 40
0.5
  1
baldor
100
AcDbAttributeDefinition
  3

  2
COMPANY
 70
     8
280
     0
  0
LINE
  5
96
330
88
100
AcDbEntity
  8
AM_9
100
AcDbLine
 10
1.357420248108143
 20
-0.789628704718564
 30
0.0
 11
1.29953309245861
 21
-0.789628704718564
 31
0.0
  0
LINE
  5
97
330
88
100
AcDbEntity
  8
AM_9
100
AcDbLine
 10
1.357420248108143
 20
-0.5370379619481026
 30
0.0
 11
1.29953309245861
 21
-0.5370379619481026
 31
0.0
  0
LWPOLYLINE
  5
98
330
88
100
AcDbEntity
  8
AM_9
100
AcDbPolyline
 90
        4
 70
     0
 43
0.0
 10
1.29953309245861
 20
-0.5370379619481026
 10
1.294828658189269
 20
-0.5999017186418966
 10
1.293555892050348
 20
-0.6315732962847189
 10
1.293121331224049
 20
-0.6633333333333332
  0
LWPOLYLINE
  5
99
330
88
100
AcDbEntity
  8
AM_9
100
AcDbPolyline
 90
        4
 70
     0
 43
0.0
 10
1.293121331224049
 20
-0.6633333333333332
 10
1.294123698019881
 20
-0.7117331493892322
 10
1.296997982292678
 20
-0.7601329654451311
 10
1.29953309245861
 20
-0.789628704718564
  0
ELLIPSE
  5
9A
330
88
100
AcDbEntity
  8
AM_9
100
AcDbEllipse
 10
0.9510584258250567
 20
-0.6633333333333332
 30
0.0
 11
9.913691727296317E-18
 21
0.161902872472269
 31
0.0
210
0.0
220
0.0
230
1.0
 40
0.7071067811865478
 41
0.0
 42
6.283185307179586
  0
LWPOLYLINE
  5
9B
330
88
100
AcDbEntity
  8
AM_9
100
AcDbPolyline
 90
        4
 70
     0
 43
0.0
 10
1.29953309245861
 20
-0.789628704718564
 10
1.256332626385703
 20
-0.8210605830654608
 10
1.235665059103317
 20
-0.8368963718868722
 10
1.21578152703177
 20
-0.8527763904111791
  0
LWPOLYLINE
  5
9C
330
88
100
AcDbEntity
  8
AM_9
100
AcDbPolyline
 90
        4
 70
     0
 43
0.0
 10
1.21578152703177
 20
-0.4738902762554873
 10
1.235545984641056
 20
-0.4896771976786412
 10
1.256143804910969
 20
-0.5054641191017949
 10
1.29953309245861
 20
-0.5370379619481026
  0
LINE
  5
9D
330
88
100
AcDbEntity
  8
AM_9
100
AcDbLine
 10
1.357420248108143
 20
-0.5370379619481026
 30
0.0
 11
1.348476595494168
 21
-0.528481342995607
 31
0.0
  0
LWPOLYLINE
  5
9E
330
88
100
AcDbEntity
  8
AM_9
100
AcDbPolyline
 90
        4
 70
     0
 43
0.0
 10
1.363832009342704
 20
-0.6633333333333332
 10
1.363402502781488
 20
-0.6317594904870256
 10
1.362139633559644
 20
-0.6001856476407179
 10
1.357420248108143
 20
-0.5370379619481026
  0
LINE
  5
9F
330
88
100
AcDbEntity
  8
AM_9
100
AcDbLine
 10
1.348940289275077
 20
-0.7977457925016267
 30
0.0
 11
1.357420248108143
 21
-0.789628704718564
 31
0.0
  0
LWPOLYLINE
  5
A0
330
88
100
AcDbEntity
  8
AM_9
100
AcDbPolyline
 90
        4
 70
     0
 43
0.0
 10
1.357420248108143
 20
-0.789628704718564
 10
1.359955358274075
 20
-0.7601329654451311
 10
1.36282379652322
 20
-0.7118757745810876
 10
1.363832009342704
 20
-0.6633333333333332
  0
LWPOLYLINE
  5
A1
330
88
100
AcDbEntity
  8
AM_9
100
AcDbPolyline
 90
        4
 70
     0
 43
0.0
 10
1.144853484074053
 20
-0.410742590562872
 10
1.178645081608279
 20
-0.442174468909769
 10
1.19676711661282
 20
-0.4580102577311802
 10
1.21578152703177
 20
-0.4738902762554873
  0
LWPOLYLINE
  5
A2
330
88
100
AcDbEntity
  8
AM_9
100
AcDbPolyline
 90
        4
 70
     0
 43
0.0
 10
1.21578152703177
 20
-0.8527763904111791
 10
1.196876082544916
 20
-0.868563311834333
 10
1.178804000718691
 20
-0.8843502332574869
 10
1.144853484074053
 20
-0.9159240761037946
  0
LINE
  5
A3
330
88
100
AcDbEntity
  8
AM_9
100
AcDbLine
 10
0.9726305872734836
 20
-0.8618539454646721
 30
0.0
 11
1.133894978074142
 21
-0.8689847311767959
 31
0.0
  0
LINE
  5
A4
330
88
100
AcDbEntity
  8
AM_9
100
AcDbLine
 10
1.133894978074142
 20
-0.4576819354898707
 30
0.0
 11
0.9726305872734836
 21
-0.4648127212019945
 31
0.0
  0
ELLIPSE
  5
A5
330
88
100
AcDbEntity
  8
AM_9
100
AcDbEllipse
 10
1.209152400958144
 20
-0.6633333333333326
 30
0.0
 11
-4.018372309702293E-17
 21
-0.2187500000000022
 31
0.0
210
0.0
220
0.0
230
1.0
 40
0.7071067811865521
 41
0.9156936017146551
 42
2.225899051875121
  0
LINE
  5
A6
330
88
100
AcDbEntity
  8
AM_9
100
AcDbLine
 10
1.315218418136129
 20
-0.5684650035282819
 30
0.0
 11
1.296604551707063
 21
-0.5559784423304344
 31
0.0
  0
LINE
  5
A7
330
88
100
AcDbEntity
  8
AM_9
100
AcDbLine
 10
1.296604551707063
 20
-0.7706882243362322
 30
0.0
 11
1.315218418136129
 21
-0.7582016631383847
 31
0.0
  0
ELLIPSE
  5
A8
330
88
100
AcDbEntity
  8
AM_9
100
AcDbEllipse
 10
1.283398612982734
 20
-0.6633333333333332
 30
0.0
 11
-1.928818708657083E-17
 21
-0.1050000000000001
 31
0.0
210
0.0
220
0.0
230
1.0
 40
0.7071067811865447
 41
0.0
 42
3.141592653589793
  0
ELLIPSE
  5
A9
330
88
100
AcDbEntity
  8
AM_9
100
AcDbEllipse
 10
1.260596626607036
 20
-0.6633333333333095
 30
0.0
 11
-2.182689656892882E-17
 21
-0.1188200907348718
 31
0.0
210
0.0
220
0.0
230
1.0
 40
0.7071067811868698
 41
0.3762206261017189
 42
2.765372027487928
  0
ELLIPSE
  5
AA
330
88
100
AcDbEntity
  8
AM_9
100
AcDbEllipse
 10
1.209152400958147
 20
-0.6633333333333332
 30
0.0
 11
-3.926523799766197E-17
 21
-0.2137499999999998
 31
0.0
210
0.0
220
0.0
230
1.0
 40
0.7071067811865483
 41
0.9036552188405906
 42
2.237937434749332
  0
LINE
  5
AB
330
88
100
AcDbEntity
  8
AM_9
100
AcDbLine
 10
1.284717603865272
 20
-0.7683333333333332
 30
0.0
 11
1.30461181641833
 21
-0.7683333333333332
 31
0.0
  0
LINE
  5
AC
330
88
100
AcDbEntity
  8
AM_9
100
AcDbLine
 10
1.30461181641833
 20
-0.5583333333333332
 30
0.0
 11
1.284717603865272
 21
-0.5583333333333332
 31
0.0
  0
ELLIPSE
  5
AD
330
88
100
AcDbEntity
  8
AM_9
100
AcDbEllipse
 10
1.30461181641833
 20
-0.6633333333333332
 30
0.0
 11
-1.928818708657083E-17
 21
-0.1050000000000001
 31
0.0
210
0.0
220
0.0
230
1.0
 40
0.7071067811865489
 41
5.759586531581291
 42
9.948376736367676
  0
LINE
  5
AE
330
88
100
AcDbEntity
  8
AM_9
100
AcDbLine
 10
1.343502339926807
 20
-0.6440590146641807
 30
0.0
 11
1.342489499735815
 21
-0.6353458414564171
 31
0.0
  0
LINE
  5
AF
330
88
100
AcDbEntity
  8
AM_9
100
AcDbLine
 10
1.342489499735815
 20
-0.6913208252102493
 30
0.0
 11
1.343502339926807
 21
-0.6826076520024859
 31
0.0
  0
ELLIPSE
  5
B0
330
88
100
AcDbEntity
  8
AM_9
100
AcDbEllipse
 10
1.222105323365525
 20
-0.6633333333333347
 30
0.0
 11
-3.169399141454512E-17
 21
-0.1725340532830185
 31
0.0
210
0.0
220
0.0
230
1.0
 40
0.7071067811865411
 41
0.7772913431421795
 42
2.364301310447675
  0
ELLIPSE
  5
B1
330
88
100
AcDbEntity
  8
AM_9
100
AcDbEllipse
 10
1.347038223289523
 20
-0.6633333333333332
 30
0.0
 11
-2.479909768273386E-17
 21
-0.1349999999999998
 31
0.0
210
0.0
220
0.0
230
1.0
 40
0.7071067811865476
 41
0.4159140521025444
 42
2.72567860148725
  0
ELLIPSE
  5
B2
330
88
100
AcDbEntity
  8
AM_9
100
AcDbEllipse
 10
1.138441722839492
 20
-0.6633333333333329
 30
0.0
 11
-4.018372309702261E-17
 21
-0.2187500000000004
 31
0.0
210
0.0
220
0.0
230
1.0
 40
0.7071067811865477
 41
0.0
 42
6.283185307179586
  0
ELLIPSE
  5
B3
330
88
100
AcDbEntity
  8
AM_9
100
AcDbEllipse
 10
1.138441722840394
 20
-0.6633333333327827
 30
0.0
 11
-3.779601035280795E-17
 21
-0.205751897222519
 31
0.0
210
0.0
220
0.0
230
1.0
 40
0.707106781186617
 41
0.0
 42
6.283185307179586
  0
ELLIPSE
  5
B4
330
88
100
AcDbEntity
  8
AM_9
100
AcDbEllipse
 10
0.9770196775665014
 20
-0.6633333333324831
 30
0.0
 11
-3.648546613362268E-17
 21
-0.1986176267803652
 31
0.0
210
0.0
220
0.0
230
1.0
 40
0.7071067811865471
 41
0.0
 42
6.283185307179586
  0
LWPOLYLINE
  5
B6
330
88
100
AcDbEntity
  8
AM_4
100
AcDbPolyline
 90
        4
 70
     0
 43
0.0
 10
1.347776825230019
 20
-0.5278188963573124
 10
1.323628650573917
 20
-0.5056060836012057
 10
1.305506615569375
 20
-0.4897702947797945
 10
1.286492205150425
 20
-0.4738902762554873
  0
LWPOLYLINE
  5
B7
330
88
100
AcDbEntity
  8
AM_4
100
AcDbPolyline
 90
        4
 70
     0
 43
0.0
 10
1.286492205150425
 20
-0.8527763904111791
 10
1.305397649637279
 20
-0.8369894689880254
 10
1.323469731463505
 20
-0.8212025475648717
 10
1.348940289275077
 20
-0.7977457925016267
  0
LWPOLYLINE
  5
B8
330
88
100
AcDbEntity
  8
AM_4
100
AcDbPolyline
 90
        4
 70
     0
 43
0.0
 10
1.286492205150425
 20
-0.4738902762554873
 10
1.26672774754114
 20
-0.4581033548323336
 10
1.246129927271227
 20
-0.4423164334091797
 10
1.202740639723586
 20
-0.410742590562872
  0
LWPOLYLINE
  5
B9
330
88
100
AcDbEntity
  8
AM_4
100
AcDbPolyline
 90
        4
 70
     0
 43
0.0
 10
1.202740639723586
 20
-0.9159240761037946
 10
1.245941105796492
 20
-0.8844921977568976
 10
1.266608673078878
 20
-0.8686564089354863
 10
1.286492205150425
 20
-0.8527763904111791
  0
LWPOLYLINE
  5
BA
330
88
100
AcDbEntity
  8
AM_4
100
AcDbPolyline
 90
        4
 70
     0
 43
0.0
 10
1.202740639723586
 20
-0.410742590562872
 10
1.16894904218936
 20
-0.4421744689097689
 10
1.150827007184818
 20
-0.4580102577311802
 10
1.131812596765868
 20
-0.4738902762554873
  0
LINE
  5
BB
330
88
100
AcDbEntity
  8
AM_4
100
AcDbLine
 10
1.202740639723586
 20
-0.410742590562872
 30
0.0
 11
1.144853484074053
 21
-0.410742590562872
 31
0.0
  0
LWPOLYLINE
  5
BC
330
88
100
AcDbEntity
  8
AM_4
100
AcDbPolyline
 90
        4
 70
     0
 43
0.0
 10
1.061101918647213
 20
-0.4738902762554873
 10
1.080866376256498
 20
-0.4581033548323336
 10
1.101464196526412
 20
-0.4423164334091797
 10
1.144853484074053
 20
-0.410742590562872
  0
LWPOLYLINE
  5
BD
330
88
100
AcDbEntity
  8
AM_4
100
AcDbPolyline
 90
        4
 70
     0
 43
0.0
 10
0.9901738756894958
 20
-0.5370379619481026
 10
1.023965473223721
 20
-0.5056060836012057
 10
1.042087508228263
 20
-0.4897702947797944
 10
1.061101918647213
 20
-0.4738902762554873
  0
LWPOLYLINE
  5
BE
330
88
100
AcDbEntity
  8
AM_4
100
AcDbPolyline
 90
        4
 70
     0
 43
0.0
 10
1.131812596765868
 20
-0.4738902762554873
 10
1.112048139156583
 20
-0.4896771976786411
 10
1.091450318886669
 20
-0.5054641191017949
 10
1.048061031339028
 20
-0.5370379619481026
  0
LINE
  5
BF
330
88
100
AcDbEntity
  8
AM_4
100
AcDbLine
 10
1.202740639723586
 20
-0.9159240761037946
 30
0.0
 11
1.144853484074053
 21
-0.9159240761037946
 31
0.0
  0
LWPOLYLINE
  5
C0
330
88
100
AcDbEntity
  8
AM_4
100
AcDbPolyline
 90
        4
 70
     0
 43
0.0
 10
1.131812596765868
 20
-0.8527763904111791
 10
1.150718041252722
 20
-0.868563311834333
 10
1.168790123078948
 20
-0.8843502332574869
 10
1.202740639723586
 20
-0.9159240761037946
  0
LWPOLYLINE
  5
C1
330
88
100
AcDbEntity
  8
AM_4
100
AcDbPolyline
 90
        4
 70
     0
 43
0.0
 10
1.048061031339028
 20
-0.789628704718564
 10
1.091261497411935
 20
-0.8210605830654608
 10
1.111929064694321
 20
-0.8368963718868722
 10
1.131812596765868
 20
-0.8527763904111791
  0
LWPOLYLINE
  5
C2
330
88
100
AcDbEntity
  8
AM_4
100
AcDbPolyline
 90
        4
 70
     0
 43
0.0
 10
1.061101918647213
 20
-0.8527763904111791
 10
1.042196474160359
 20
-0.8369894689880253
 10
1.024124392334133
 20
-0.8212025475648717
 10
0.9901738756894958
 20
-0.789628704718564
  0
LWPOLYLINE
  5
C3
330
88
100
AcDbEntity
  8
AM_4
100
AcDbPolyline
 90
        4
 70
     0
 43
0.0
 10
1.144853484074053
 20
-0.9159240761037946
 10
1.101653018001146
 20
-0.8844921977568976
 10
1.08098545071876
 20
-0.8686564089354863
 10
1.061101918647213
 20
-0.8527763904111791
  0
ELLIPSE
  5
C4
330
88
100
AcDbEntity
  8
AM_4
100
AcDbEllipse
 10
1.209152400958147
 20
-0.6633333333333332
 30
0.0
 11
-4.018372309702246E-17
 21
-0.2187499999999997
 31
0.0
210
0.0
220
0.0
230
1.0
 40
0.7071067811865512
 41
2.225899051875135
 42
7.198878908894232
  0
LINE
  5
C5
330
88
100
AcDbEntity
  8
AM_4
100
AcDbLine
 10
1.048061031339028
 20
-0.789628704718564
 30
0.0
 11
0.9901738756894958
 21
-0.789628704718564
 31
0.0
  0
LWPOLYLINE
  5
C6
330
88
100
AcDbEntity
  8
AM_4
100
AcDbPolyline
 90
        4
 70
     0
 43
0.0
 10
1.054472792573589
 20
-0.6633333333333332
 10
1.053470425777758
 20
-0.7117331493892322
 10
1.05059614150496
 20
-0.7601329654451311
 10
1.048061031339028
 20
-0.789628704718564
  0
LWPOLYLINE
  5
C7
330
88
100
AcDbEntity
  8
AM_4
100
AcDbPolyline
 90
        4
 70
     0
 43
0.0
 10
1.048061031339028
 20
-0.5370379619481026
 10
1.052765465608369
 20
-0.5999017186418965
 10
1.054038231747291
 20
-0.6315732962847189
 10
1.054472792573589
 20
-0.6633333333333332
  0
LINE
  5
C8
330
88
100
AcDbEntity
  8
AM_4
100
AcDbLine
 10
1.048061031339028
 20
-0.5370379619481026
 30
0.0
 11
0.9901738756894958
 21
-0.5370379619481026
 31
0.0
  0
LWPOLYLINE
  5
C9
330
88
100
AcDbEntity
  8
AM_4
100
AcDbPolyline
 90
        4
 70
     0
 43
0.0
 10
0.9837621144549346
 20
-0.6633333333333332
 10
0.98419162101615
 20
-0.6317594904870256
 10
0.9854544902379941
 20
-0.6001856476407179
 10
0.9901738756894958
 20
-0.5370379619481026
  0
LWPOLYLINE
  5
CA
330
88
100
AcDbEntity
  8
AM_4
100
AcDbPolyline
 90
        4
 70
     0
 43
0.0
 10
0.9901738756894958
 20
-0.789628704718564
 10
0.9876387655235639
 20
-0.7601329654451311
 10
0.9847703272744179
 20
-0.7118757745810876
 10
0.9837621144549346
 20
-0.6633333333333332
  0
ELLIPSE
  5
CB
330
88
100
AcDbEntity
  8
AM_4
100
AcDbEllipse
 10
1.260596626607126
 20
-0.6633333333333322
 30
0.0
 11
-2.182689656893336E-17
 21
-0.1188200907348965
 31
0.0
210
0.0
220
0.0
230
1.0
 40
0.7071067811865506
 41
2.765372027488839
 42
6.659405933280533
  0
ELLIPSE
  5
CC
330
88
100
AcDbEntity
  8
AM_4
100
AcDbEllipse
 10
1.209152400958147
 20
-0.6633333333333332
 30
0.0
 11
-3.926523799766201E-17
 21
-0.21375
 31
0.0
210
0.0
220
0.0
230
1.0
 40
0.7071067811865466
 41
2.237937434749332
 42
7.186840526020176
  0
ELLIPSE
  5
CD
330
88
100
AcDbEntity
  8
AM_4
100
AcDbEllipse
 10
1.283398612982734
 20
-0.6633333333333332
 30
0.0
 11
-1.928818708657087E-17
 21
-0.1050000000000003
 31
0.0
210
0.0
220
0.0
230
1.0
 40
0.7071067811865474
 41
3.141592653589793
 42
6.283185307179586
  0
LINE
  5
CE
330
88
100
AcDbEntity
  8
AM_4
100
AcDbLine
 10
1.283398612982734
 20
-0.7683333333333332
 30
0.0
 11
1.284717603865272
 21
-0.7683333333333332
 31
0.0
  0
LINE
  5
CF
330
88
100
AcDbEntity
  8
AM_4
100
AcDbLine
 10
1.284717603865272
 20
-0.5583333333333332
 30
0.0
 11
1.283398612982734
 21
-0.5583333333333332
 31
0.0
  0
ELLIPSE
  5
D0
330
88
100
AcDbEntity
  8
AM_4
100
AcDbEllipse
 10
1.222105323365526
 20
-0.6633333333333331
 30
0.0
 11
-3.169399141454455E-17
 21
-0.1725340532830154
 31
0.0
210
0.0
220
0.0
230
1.0
 40
0.7071067811865475
 41
2.364301310447678
 42
7.06047665032175
  0
LINE
  5
D1
330
88
100
AcDbEntity
  8
AM_4
100
AcDbLine
 10
1.267488710406037
 20
-0.7542660007306993
 30
0.0
 11
1.299308515559431
 21
-0.7802467628442324
 31
0.0
  0
LINE
  5
D2
330
88
100
AcDbEntity
  8
AM_4
100
AcDbLine
 10
1.299308515559431
 20
-0.546419903822434
 30
0.0
 11
1.267488710406037
 21
-0.5724006659359672
 31
0.0
  0
ELLIPSE
  5
D3
330
88
100
AcDbEntity
  8
AM_4
100
AcDbEllipse
 10
1.347038223289523
 20
-0.6633333333333332
 30
0.0
 11
-2.479909768273386E-17
 21
-0.1349999999999998
 31
0.0
210
0.0
220
0.0
230
1.0
 40
0.7071067811865476
 41
2.725678601487244
 42
6.699099359282136
  0
ELLIPSE
  5
D4
330
88
100
AcDbEntity
  8
AM_4
100
AcDbEllipse
 10
1.30461181641833
 20
-0.6633333333333332
 30
0.0
 11
-1.928818708657079E-17
 21
-0.1049999999999999
 31
0.0
210
0.0
220
0.0
230
1.0
 40
0.7071067811865482
 41
3.665191429188088
 42
5.759586531581292
  0
LINE
  5
D5
330
88
100
AcDbEntity
  8
AM_4
100
AcDbLine
 10
1.432940783148222
 20
-0.5694089893324046
 30
0.0
 11
1.385606330638331
 21
-0.5398424341096998
 31
0.0
  0
LINE
  5
D6
330
88
100
AcDbEntity
  8
AM_4
100
AcDbLine
 10
1.385606330638331
 20
-0.7868242325569667
 30
0.0
 11
1.432940783148222
 21
-0.757257677334262
 31
0.0
  0
ELLIPSE
  5
D7
330
88
100
AcDbEntity
  8
AM_4
100
AcDbEllipse
 10
1.403606765784447
 20
-0.6633333333333333
 30
0.0
 11
-1.886162459184652E-17
 21
-0.1026779019331872
 31
0.0
210
0.0
220
0.0
230
1.0
 40
0.7071067811865487
 41
0.0
 42
6.283185307179586
  0
ENDBLK
  5
8B
330
88
100
AcDbEntity
  8
0
100
AcDbBlockEnd
  0
BLOCK
  5
DA
330
D8
100
AcDbEntity
  8
0
100
AcDbBlockBegin
  2
3_076109_0_in_076032_4
 70
     2
 10
0.0
 20
0.0
 30
0.0
  3
3_076109_0_in_076032_4
  1

  0
ATTDEF
  5
DC
330
D8
100
AcDbEntity
  8
AM_6
100
AcDbText
 10
6.023071041524569
 20
-0.03
 30
0.0
 40
0.5
  1
Set Screw Extreme Duty Insert Inch Bore
100
AcDbAttributeDefinition
  3

  2
NN
 70
     8
280
     0
  0
ATTDEF
  5
DD
330
D8
100
AcDbEntity
  8
AM_6
100
AcDbText
 10
6.023071041524569
 20
-0.53
 30
0.0
 40
0.5
  1
SC Medium Duty Bearing Inserts
100
AcDbAttributeDefinition
  3

  2
NT
 70
     8
280
     0
  0
ATTDEF
  5
DE
330
D8
100
AcDbEntity
  8
AM_6
100
AcDbText
 10
6.023071041524569
 20
-1.03
 30
0.0
 40
0.5
  1
076109
100
AcDbAttributeDefinition
  3

  2
NB
 70
     8
280
     0
  0
ATTDEF
  5
DF
330
D8
100
AcDbEntity
  8
AM_6
100
AcDbText
 10
6.023071041524569
 20
-1.53
 30
0.0
 40
0.5
  1
$PN.
100
AcDbAttributeDefinition
  3

  2
NBSYN
 70
     8
280
     0
  0
ATTDEF
  5
E0
330
D8
100
AcDbEntity
  8
AM_6
100
AcDbText
 10
6.023071041524569
 20
-2.03
 30
0.0
 40
0.5
  1
076109
100
AcDbAttributeDefinition
  3

  2
LINA
 70
     8
280
     0
  0
ATTDEF
  5
E1
330
D8
100
AcDbEntity
  8
AM_6
100
AcDbText
 10
6.023071041524569
 20
-2.53
 30
0.0
 40
0.5
  1
205
100
AcDbAttributeDefinition
  3

  2
SERIES
 70
     8
280
     0
  0
ATTDEF
  5
E2
330
D8
100
AcDbEntity
  8
AM_6
100
AcDbText
 10
6.023071041524569
 20
-3.03
 30
0.0
 40
0.5
  1
1
100
AcDbAttributeDefinition
  3

  2
SS
 70
     8
280
     0
  0
ATTDEF
  5
E3
330
D8
100
AcDbEntity
  8
AM_6
100
AcDbText
 10
6.023071041524569
 20
-3.53
 30
0.0
 40
0.5
  1
076109
100
AcDbAttributeDefinition
  3

  2
PN
 70
     8
280
     0
  0
ATTDEF
  5
E4
330
D8
100
AcDbEntity
  8
AM_6
100
AcDbText
 10
6.023071041524569
 20
-4.03
 30
0.0
 40
0.5
  1
INS-SCED-100
100
AcDbAttributeDefinition
  3

  2
DESCRIPTION
 70
     8
280
     0
  0
ATTDEF
  5
E5
330
D8
100
AcDbEntity
  8
AM_6
100
AcDbText
 10
6.023071041524569
 20
-4.53
 30
0.0
 40
0.5
  1
0.37
100
AcDbAttributeDefinition
  3

  2
WEIGHT
 70
     8
280
     0
  0
ATTDEF
  5
E6
330
D8
100
AcDbEntity
  8
AM_6
100
AcDbText
 10
6.023071041524569
 20
-5.03
 30
0.0
 40
0.5
  1
1.34
100
AcDbAttributeDefinition
  3

  2
A
 70
     8
280
     0
  0
ATTDEF
  5
E7
330
D8
100
AcDbEntity
  8
AM_6
100
AcDbText
 10
6.023071041524569
 20
-5.53
 30
0.0
 40
0.5
  1
0.59
100
AcDbAttributeDefinition
  3

  2
C
 70
     8
280
     0
  0
ATTDEF
  5
E8
330
D8
100
AcDbEntity
  8
AM_6
100
AcDbText
 10
6.023071041524569
 20
-6.03
 30
0.0
 40
0.5
  1
2.0472
100
AcDbAttributeDefinition
  3

  2
D
 70
     8
280
     0
  0
ATTDEF
  5
E9
330
D8
100
AcDbEntity
  8
AM_6
100
AcDbText
 10
6.023071041524569
 20
-6.53
 30
0.0
 40
0.5
  1
0.16
100
AcDbAttributeDefinition
  3

  2
J
 70
     8
280
     0
  0
ATTDEF
  5
EA
330
D8
100
AcDbEntity
  8
AM_6
100
AcDbText
 10
6.023071041524569
 20
-7.03
 30
0.0
 40
0.5
  1
1.32
100
AcDbAttributeDefinition
  3

  2
L
 70
     8
280
     0
  0
ATTDEF
  5
EB
330
D8
100
AcDbEntity
  8
AM_6
100
AcDbText
 10
6.023071041524569
 20
-7.53
 30
0.0
 40
0.5
  1
1/4-28
100
AcDbAttributeDefinition
  3

  2
N
 70
     8
280
     0
  0
ATTDEF
  5
EC
330
D8
100
AcDbEntity
  8
AM_6
100
AcDbText
 10
6.023071041524569
 20
-8.030000000000001
 30
0.0
 40
0.5
  1
0.56
100
AcDbAttributeDefinition
  3

  2
W
 70
     8
280
     0
  0
ATTDEF
  5
ED
330
D8
100
AcDbEntity
  8
AM_6
100
AcDbText
 10
6.023071041524569
 20
-8.530000000000001
 30
0.0
 40
0.5
  1
0.78
100
AcDbAttributeDefinition
  3

  2
Y
 70
     8
280
     0
  0
ATTDEF
  5
EE
330
D8
100
AcDbEntity
  8
AM_6
100
AcDbText
 10
6.023071041524569
 20
-9.030000000000001
 30
0.0
 40
0.5
  1
baldor
100
AcDbAttributeDefinition
  3

  2
COMPANY
 70
     8
280
     0
  0
ELLIPSE
  5
EF
330
D8
100
AcDbEntity
  8
AM_9
100
AcDbEllipse
 10
0.4451538406149887
 20
-1.1275
 30
0.0
 11
-1.799312309647244E-17
 21
-0.09794999999999976
 31
0.0
210
0.0
220
0.0
230
1.0
 40
0.4226182617406998
 41
1.269478020290367
 42
1.872114633299429
  0
ELLIPSE
  5
F0
330
D8
100
AcDbEntity
  8
AM_9
100
AcDbEllipse
 10
0.4451538406149886
 20
-1.1275
 30
0.0
 11
-1.799312309647248E-17
 21
-0.09794999999999998
 31
0.0
210
0.0
220
0.0
230
1.0
 40
0.4226182617406977
 41
4.411070673880165
 42
5.013707286889217
  0
LINE
  5
F1
330
D8
100
AcDbEntity
  8
AM_9
100
AcDbLine
 10
0.4530908334611127
 20
-1.22545
 30
0.0
 11
0.5809476251235367
 21
-1.22545
 31
0.0
  0
LINE
  5
F2
330
D8
100
AcDbEntity
  8
AM_9
100
AcDbLine
 10
0.5809476251235367
 20
-1.02955
 30
0.0
 11
0.4530908334611127
 21
-1.02955
 31
0.0
  0
LWPOLYLINE
  5
F3
330
D8
100
AcDbEntity
  8
AM_9
100
AcDbPolyline
 90
        9
 70
     0
 43
0.0
 10
0.4531545857921168
 20
-1.225449999986303
 10
0.4564382978613794
 20
-1.225130446044221
 10
0.4626531443861816
 20
-1.222544423927626
 10
0.4683356704137182
 20
-1.217251544934478
 10
0.4731076000030047
 20
-1.209658142408354
 10
0.4771800233218457
 20
-1.199576123498015
 10
0.4803840890195936
 20
-1.18761157017426
 10
0.4828621813340028
 20
-1.173566240400947
 10
0.4846842713711406
 20
-1.156569539860314
  0
LWPOLYLINE
  5
F4
330
D8
100
AcDbEntity
  8
AM_9
100
AcDbPolyline
 90
        9
 70
     0
 43
0.0
 10
0.4531532012396694
 20
-1.029550000013697
 10
0.4497561963303008
 20
-1.029869553955779
 10
0.4426376297566304
 20
-1.032455576072375
 10
0.435178444445416
 20
-1.037748455065522
 10
0.4280299218899098
 20
-1.045341857591646
 10
0.4211182498597251
 20
-1.055423876501985
 10
0.4150171792461275
 20
-1.06738842982574
 10
0.4097988098153025
 20
-1.081433759599054
 10
0.4056234098588367
 20
-1.098430460139686
  0
ELLIPSE
  5
F5
330
D8
100
AcDbEntity
  8
AM_9
100
AcDbEllipse
 10
0.5809476251235366
 20
-1.1275
 30
0.0
 11
-1.799312309647252E-17
 21
-0.0979500000000002
 31
0.0
210
0.0
220
0.0
230
1.0
 40
0.4226182617406973
 41
3.479907458037591
 42
5.945163117322257
  0
LINE
  5
F6
330
D8
100
AcDbEntity
  8
AM_9
100
AcDbLine
 10
0.5616446057014006
 20
-1.214148784971865
 30
0.0
 11
0.5734664300541958
 21
-1.228893987905576
 31
0.0
  0
LINE
  5
F7
330
D8
100
AcDbEntity
  8
AM_9
100
AcDbLine
 10
0.573531197299674
 20
-1.026025228777947
 30
0.0
 11
0.5616446057014006
 21
-1.040851215028135
 31
0.0
  0
LWPOLYLINE
  5
F8
330
D8
100
AcDbEntity
  8
AM_9
100
AcDbPolyline
 90
        6
 70
     0
 43
0.0
 10
-0.093536967837907
 20
-1.098430460139687
 10
-0.0974069524299465
 20
-1.111558553609789
 10
-0.0990046274577461
 20
-1.125600740526458
 10
-0.0982192759838211
 20
-1.138779730807909
 10
-0.0951530869736242
 20
-1.152015722121509
 10
-0.093536967837907
 20
-1.156569539860313
  0
LWPOLYLINE
  5
F9
330
D8
100
AcDbEntity
  8
AM_9
100
AcDbPolyline
 90
        5
 70
     0
 43
0.0
 10
0.4846842713711406
 20
-1.156569539860314
 10
0.4856880418381708
 20
-1.142388522356218
 10
0.4860260673617529
 20
-1.128671041078072
 10
0.4857680803665017
 20
-1.114461815497943
 10
0.4846842713711406
 20
-1.098430460139686
  0
LWPOLYLINE
  5
FA
330
D8
100
AcDbEntity
  8
AM_9
100
AcDbPolyline
 90
        9
 70
     0
 43
0.0
 10
0.4846842713711406
 20
-1.098430460139686
 10
0.483121771521471
 20
-1.083338702984084
 10
0.4807480966583074
 20
-1.06910245783757
 10
0.4776542380890331
 20
-1.056911947042992
 10
0.4736234449573115
 20
-1.046397806247676
 10
0.4688378434605909
 20
-1.038389358883015
 10
0.4630666854987195
 20
-1.032734366091722
 10
0.4568030715706999
 20
-1.029946177235964
 10
0.4531532012396694
 20
-1.029550000013697
  0
LWPOLYLINE
  5
FB
330
D8
100
AcDbEntity
  8
AM_9
100
AcDbPolyline
 90
        6
 70
     0
 43
0.0
 10
0.4056234098588368
 20
-1.098430460139686
 10
0.4034531979056714
 20
-1.110446182944241
 10
0.4024080428259212
 20
-1.122889256978227
 10
0.4026167230629143
 20
-1.136194674004854
 10
0.4042245769324393
 20
-1.149641340978088
 10
0.4056234098588368
 20
-1.156569539860314
  0
LWPOLYLINE
  5
FC
330
D8
100
AcDbEntity
  8
AM_9
100
AcDbPolyline
 90
        9
 70
     0
 43
0.0
 10
0.4056234098588367
 20
-1.156569539860314
 10
0.4092228512954915
 20
-1.171661297015916
 10
0.4142804163465814
 20
-1.18589754216243
 10
0.4202557120275398
 20
-1.198088052957008
 10
0.4271997442197851
 20
-1.208602193752324
 10
0.434467818484067
 20
-1.216610641116985
 10
0.4421280573452552
 20
-1.222265633908278
 10
0.4493643099659505
 20
-1.225053822764036
 10
0.4531545857921168
 20
-1.225449999986303
  0
LINE
  5
FD
330
D8
100
AcDbEntity
  8
AM_9
100
AcDbLine
 10
0.5
 20
-1.3436
 30
0.0
 11
0.5
 21
-0.0563999999999999
 31
0.0
  0
LINE
  5
FE
330
D8
100
AcDbEntity
  8
AM_9
100
AcDbLine
 10
-0.5
 20
-0.0563999999999999
 30
0.0
 11
-0.5
 21
-1.3436
 31
0.0
  0
LINE
  5
FF
330
D8
100
AcDbEntity
  8
AM_9
100
AcDbLine
 10
0.5
 20
-0.0563999999999999
 30
0.0
 11
0.5264
 21
-0.03
 31
0.0
  0
LINE
  5
100
330
D8
100
AcDbEntity
  8
AM_9
100
AcDbLine
 10
-0.5264
 20
-0.03
 30
0.0
 11
-0.5
 21
-0.0563999999999999
 31
0.0
  0
LINE
  5
101
330
D8
100
AcDbEntity
  8
AM_9
100
AcDbLine
 10
-0.4999999999999999
 20
-1.3436
 30
0.0
 11
-0.5264
 21
-1.37
 31
0.0
  0
LINE
  5
102
330
D8
100
AcDbEntity
  8
AM_9
100
AcDbLine
 10
0.5264
 20
-1.37
 30
0.0
 11
0.4999999999999999
 21
-1.3436
 31
0.0
  0
LINE
  5
103
330
D8
100
AcDbEntity
  8
AM_9
100
AcDbLine
 10
0.6599999999999998
 20
-0.295
 30
0.0
 11
0.6599999999999998
 21
-0.0564
 31
0.0
  0
LINE
  5
104
330
D8
100
AcDbEntity
  8
AM_9
100
AcDbLine
 10
-0.6599999999999998
 20
-0.0564
 30
0.0
 11
-0.6599999999999998
 21
-0.295
 31
0.0
  0
LINE
  5
105
330
D8
100
AcDbEntity
  8
AM_9
100
AcDbLine
 10
-0.66
 20
-0.0564
 30
0.0
 11
0.66
 21
-0.0564
 31
0.0
  0
LINE
  5
106
330
D8
100
AcDbEntity
  8
AM_9
100
AcDbLine
 10
-0.6336
 20
-0.03
 30
0.0
 11
-0.66
 21
-0.0564
 31
0.0
  0
LINE
  5
107
330
D8
100
AcDbEntity
  8
AM_9
100
AcDbLine
 10
0.66
 20
-0.0564
 30
0.0
 11
0.6336
 21
-0.03
 31
0.0
  0
LINE
  5
108
330
D8
100
AcDbEntity
  8
AM_9
100
AcDbLine
 10
0.6599999999999998
 20
-0.95
 30
0.0
 11
0.6599999999999998
 21
-0.885
 31
0.0
  0
LINE
  5
109
330
D8
100
AcDbEntity
  8
AM_9
100
AcDbLine
 10
-0.6599999999999998
 20
-0.885
 30
0.0
 11
-0.6599999999999998
 21
-0.95
 31
0.0
  0
LINE
  5
10A
330
D8
100
AcDbEntity
  8
AM_9
100
AcDbLine
 10
0.9702666666666667
 20
-0.782
 30
0.0
 11
0.9702666666666667
 21
-0.7180000000000001
 31
0.0
  0
LINE
  5
10B
330
D8
100
AcDbEntity
  8
AM_9
100
AcDbLine
 10
-0.9702666666666667
 20
-0.7180000000000001
 30
0.0
 11
-0.9702666666666667
 21
-0.782
 31
0.0
  0
LINE
  5
10C
330
D8
100
AcDbEntity
  8
AM_9
100
AcDbLine
 10
-0.9560865860370598
 20
-0.295
 30
0.0
 11
0.9560865860362099
 21
-0.295
 31
0.0
  0
ARC
  5
10D
330
D8
100
AcDbEntity
  8
AM_9
100
AcDbCircle
 10
0.9560865860370601
 20
-0.3269999999999997
 30
0.0
 40
0.0319999999999997
100
AcDbArc
 50
15.38049883735811
 51
90.0
  0
ARC
  5
10E
330
D8
100
AcDbEntity
  8
AM_9
100
AcDbCircle
 10
-0.9560865860370601
 20
-0.3269999999999997
 30
0.0
 40
0.0319999999999997
100
AcDbArc
 50
90.0
 51
164.6195011626419
  0
LINE
  5
10F
330
D8
100
AcDbEntity
  8
AM_9
100
AcDbLine
 10
-0.9560865860370598
 20
-0.885
 30
0.0
 11
0.9560865860362099
 21
-0.885
 31
0.0
  0
ARC
  5
110
330
D8
100
AcDbEntity
  8
AM_9
100
AcDbCircle
 10
0.9560865860370594
 20
-0.8529999999999995
 30
0.0
 40
0.0320000000000005
100
AcDbArc
 50
270.0
 51
342.7788446732816
  0
ARC
  5
111
330
D8
100
AcDbEntity
  8
AM_9
100
AcDbCircle
 10
-0.9560865860370599
 20
-0.8530000000000002
 30
0.0
 40
0.0319999999999999
100
AcDbArc
 50
195.3804959491176
 51
270.0
  0
LINE
  5
112
330
D8
100
AcDbEntity
  8
AM_9
100
AcDbLine
 10
-0.9869405299188527
 20
-0.8614872932634128
 30
0.0
 11
0.9869405299187886
 21
-0.8614872932634128
 31
0.0
  0
LINE
  5
113
330
D8
100
AcDbEntity
  8
AM_9
100
AcDbLine
 10
-1.005431728164573
 20
-0.782
 30
0.0
 11
1.005431728164509
 21
-0.782
 31
0.0
  0
ARC
  5
114
330
D8
100
AcDbEntity
  8
AM_9
100
AcDbCircle
 10
0.0000000002359842
 20
-0.5900000000549137
 30
0.0
 40
1.023599999757841
100
AcDbArc
 50
344.6195040503417
 51
349.1888031876883
  0
ARC
  5
115
330
D8
100
AcDbEntity
  8
AM_9
100
AcDbCircle
 10
0.0000000000769396
 20
-0.589999999982118
 30
0.0
 40
1.023600000078865
100
AcDbArc
 50
190.8111968130285
 51
195.3804959489415
  0
LINE
  5
116
330
D8
100
AcDbEntity
  8
AM_9
100
AcDbLine
 10
-1.015565340093881
 20
-0.7179999999999999
 30
0.0
 11
1.015565340093876
 21
-0.7179999999999999
 31
0.0
  0
LINE
  5
117
330
D8
100
AcDbEntity
  8
AM_9
100
AcDbLine
 10
-0.9869405294910142
 20
-0.3185127051812613
 30
0.0
 11
0.9869405294910095
 21
-0.3185127051812613
 31
0.0
  0
ARC
  5
118
330
D8
100
AcDbEntity
  8
AM_9
100
AcDbCircle
 10
-0.0000000000002187
 20
-0.5900000000000156
 30
0.0
 40
1.023600000000211
100
AcDbArc
 50
352.8164233462917
 51
15.38049603940815
  0
ARC
  5
119
330
D8
100
AcDbEntity
  8
AM_9
100
AcDbCircle
 10
0.0000000000000961
 20
-0.5900000000000069
 30
0.0
 40
1.02360000000009
100
AcDbArc
 50
164.6195039605905
 51
187.1835766537097
  0
LINE
  5
11C
330
D8
100
AcDbEntity
  8
AM_7
100
AcDbLine
 10
-0.1028475
 20
-1.1275
 30
0.0
 11
0.1028475
 21
-1.1275
 31
0.0
  0
ELLIPSE
  5
11D
330
D8
100
AcDbEntity
  8
AM_4
100
AcDbEllipse
 10
0.5809476251235368
 20
-1.1275
 30
0.0
 11
-1.799312309647244E-17
 21
-0.09794999999999976
 31
0.0
210
0.0
220
0.0
230
1.0
 40
0.4226182617406992
 41
5.945163117322257
 42
9.76309276521718
  0
LWPOLYLINE
  5
11E
330
D8
100
AcDbEntity
  8
AM_4
100
AcDbPolyline
 90
       14
 70
     0
 43
0.0
 10
0.5735647753842176
 20
-1.229016649718777
 10
0.5714078384851522
 20
-1.226194647718621
 10
0.564493955429526
 20
-1.21519732793276
 10
0.5583292772178639
 20
-1.202241683316725
 10
0.552755787069226
 20
-1.18644574307289
 10
0.5484903232467624
 20
-1.169228919764286
 10
0.5455757897833863
 20
-1.149766506256269
 10
0.544444707839863
 20
-1.129716684261795
 10
0.5452287542830803
 20
-1.108940280368348
 10
0.5479314580195819
 20
-1.088685776923959
 10
0.5524785465026274
 20
-1.069501830047856
 10
0.5586349173397498
 20
-1.052024590524754
 10
0.5659117852474523
 20
-1.037291218718429
 10
0.573573374736823
 20
-1.025972621519201
  0
LWPOLYLINE
  5
11F
330
D8
100
AcDbEntity
  8
AM_4
100
AcDbPolyline
 90
        6
 70
     0
 43
0.0
 10
0.573573374736823
 20
-1.025972621519201
 10
0.5741291591790436
 20
-1.025287806208792
 10
0.5822966305390332
 20
-1.01708916634594
 10
0.5906195405783191
 20
-1.012081376444722
 10
0.5954217324961038
 20
-1.010764578441331
 10
0.600093835093711
 20
-1.010661460712388
  0
CIRCLE
  5
120
330
D8
100
AcDbEntity
  8
AM_4
100
AcDbCircle
 10
0.0
 20
-1.1275
 30
0.0
 40
0.09795
  0
LINE
  5
121
330
D8
100
AcDbEntity
  8
AM_4
100
AcDbLine
 10
-0.6336
 20
-1.37
 30
0.0
 11
0.6336
 21
-1.37
 31
0.0
  0
LINE
  5
122
330
D8
100
AcDbEntity
  8
AM_4
100
AcDbLine
 10
0.6336
 20
-1.37
 30
0.0
 11
0.66
 21
-1.3436
 31
0.0
  0
LINE
  5
123
330
D8
100
AcDbEntity
  8
AM_4
100
AcDbLine
 10
-0.66
 20
-1.3436
 30
0.0
 11
-0.6336
 21
-1.37
 31
0.0
  0
LINE
  5
124
330
D8
100
AcDbEntity
  8
AM_4
100
AcDbLine
 10
-0.66
 20
-1.3436
 30
0.0
 11
0.6599999999999998
 21
-1.3436
 31
0.0
  0
LWPOLYLINE
  5
125
330
D8
100
AcDbEntity
  8
AM_4
100
AcDbPolyline
 90
       39
 70
     0
 43
0.0
 10
-0.078372397382643
 20
-1.047103772698602
 10
-0.0666725202215014
 20
-1.035561487303534
 10
-0.0530605573468765
 20
-1.025688150578882
 10
-0.0366246876224394
 20
-1.017509133337858
 10
-0.0183638534476256
 20
-1.012264359585832
 10
-0.0014324577735071
 20
-1.010565109640859
 10
0.0160733748159454
 20
-1.01186226962869
 10
0.0319451048237399
 20
-1.0158068200913
 10
0.0473681808570583
 20
-1.022441661049538
 10
0.0615551786911433
 20
-1.031465764128041
 10
0.0744698822521896
 20
-1.042869123517471
 10
0.0859750476588404
 20
-1.056783926965304
 10
0.0954056181904357
 20
-1.072721640052605
 10
0.1025612426178792
 20
-1.090806114771612
 10
0.1068642140846471
 20
-1.110320626995202
 10
0.1080024346267457
 20
-1.130654510009623
 10
0.105737249842032
 20
-1.15147020688523
 10
0.1001467462707013
 20
-1.171292320159568
 10
0.0910127902952815
 20
-1.190411433840605
 10
0.0792829211409849
 20
-1.206843687088498
 10
0.0643403169641321
 20
-1.221367623867852
 10
0.0485033915562791
 20
-1.231947943830126
 10
0.0303718446689342
 20
-1.239708239114298
 10
0.0133216343427603
 20
-1.243548644503008
 10
-0.0047222394345463
 20
-1.244332930022738
 10
-0.0210342924869955
 20
-1.242197162323772
 10
-0.0372101995574243
 20
-1.237259533513843
 10
-0.0520425802124549
 20
-1.229927158676186
 10
-0.0658722295680686
 20
-1.220112722371478
 10
-0.0784419582158523
 20
-1.207816725917032
 10
-0.0892103666313062
 20
-1.193361355745229
 10
-0.0980442467245212
 20
-1.176534339117186
 10
-0.1042757911488217
 20
-1.158038856796416
 10
-0.1075882896617938
 20
-1.138179764054706
 10
-0.1076428351619991
 20
-1.117481601382781
 10
-0.104325811778742
 20
-1.097161117633265
 10
-0.0974630625648359
 20
-1.077130536932985
 10
-0.0891610675405079
 20
-1.061560612086923
 10
-0.0783723974908383
 20
-1.047103772627045
  0
LWPOLYLINE
  5
126
330
D8
100
AcDbEntity
  8
AM_4
100
AcDbPolyline
 90
       23
 70
     0
 43
0.0
 10
0.600093835093711
 20
-1.010661460712388
 10
0.6070854292907434
 20
-1.013006819058029
 10
0.6134254883492534
 20
-1.018276128652837
 10
0.6187846031090378
 20
-1.025934902515988
 10
0.62338170833554
 20
-1.035823652189493
 10
0.6274252766237699
 20
-1.048496280114024
 10
0.6306227019786164
 20
-1.06296994817518
 10
0.6331674045721869
 20
-1.080196411308244
 10
0.6348299550721147
 20
-1.098599959255026
 10
0.635672056341646
 20
-1.118816094441522
 10
0.6356043176383895
 20
-1.139267126662734
 10
0.6345884299822036
 20
-1.159835029701715
 10
0.6325858683756777
 20
-1.179478796956315
 10
0.6295551891949768
 20
-1.197465628912856
 10
0.6254257090881933
 20
-1.213365888499601
 10
0.6203761349632002
 20
-1.226043947361664
 10
0.6142594007258597
 20
-1.235752302949632
 10
0.6077215355497608
 20
-1.241610434439099
 10
0.6004574620119325
 20
-1.244294110804165
 10
0.5932493495697903
 20
-1.24377593986702
 10
0.5858069061982869
 20
-1.24044152159019
 10
0.578484889228133
 20
-1.234504045401551
 10
0.5735647753842176
 20
-1.229016649718777
  0
LINE
  5
127
330
D8
100
AcDbEntity
  8
AM_4
100
AcDbLine
 10
0.6599999999999998
 20
-1.3436
 30
0.0
 11
0.6599999999999998
 21
-0.95
 31
0.0
  0
LINE
  5
128
330
D8
100
AcDbEntity
  8
AM_4
100
AcDbLine
 10
-0.6599999999999998
 20
-0.95
 30
0.0
 11
-0.6599999999999998
 21
-1.3436
 31
0.0
  0
ARC
  5
12A
330
D8
100
AcDbEntity
  8
AM_5
100
AcDbCircle
 10
0.0000000000000001
 20
-1.1275
 30
0.0
 40
0.1250000000000001
100
AcDbArc
 50
75.00000000000006
 51
15.00000000000004
  0
ARC
  5
12B
330
D8
100
AcDbEntity
  8
AM_5
100
AcDbCircle
 10
-0.0000000000000001
 20
-1.12
 30
0.0
 40
0.125
100
AcDbArc
 50
74.99999999999994
 51
14.99999999999992
  0
ENDBLK
  5
DB
330
D8
100
AcDbEntity
  8
0
100
AcDbBlockEnd
  0
BLOCK
  5
12E
330
12C
100
AcDbEntity
  8
0
100
AcDbBlockBegin
  2
4_076032h_0_in_076032_4
 70
     2
 10
0.0
 20
0.0
 30
0.0
  3
4_076032h_0_in_076032_4
  1

  0
ATTDEF
  5
130
330
12C
100
AcDbEntity
  8
AM_6
100
AcDbText
 10
6.455987970757829
 20
0.0475
 30
0.0
 40
0.5
  1
F2B-SCED -Inch - housing
100
AcDbAttributeDefinition
  3

  2
NN
 70
     8
280
     0
  0
ATTDEF
  5
131
330
12C
100
AcDbEntity
  8
AM_6
100
AcDbText
 10
6.455987970757829
 20
-0.4525
 30
0.0
 40
0.5
  1
SC 2 Bolt Flange Bearings -(Normal Duty)
100
AcDbAttributeDefinition
  3

  2
NT
 70
     8
280
     0
  0
ATTDEF
  5
132
330
12C
100
AcDbEntity
  8
AM_6
100
AcDbText
 10
6.455987970757829
 20
-0.9525
 30
0.0
 40
0.5
  1
076032h
100
AcDbAttributeDefinition
  3

  2
NB
 70
     8
280
     0
  0
ATTDEF
  5
133
330
12C
100
AcDbEntity
  8
AM_6
100
AcDbText
 10
6.455987970757829
 20
-1.4525
 30
0.0
 40
0.5
  1
$PN.h
100
AcDbAttributeDefinition
  3

  2
NBSYN
 70
     8
280
     0
  0
ATTDEF
  5
134
330
12C
100
AcDbEntity
  8
AM_6
100
AcDbText
 10
6.455987970757829
 20
-1.9525
 30
0.0
 40
0.5
  1
076032
100
AcDbAttributeDefinition
  3

  2
LINA
 70
     8
280
     0
  0
ATTDEF
  5
135
330
12C
100
AcDbEntity
  8
AM_6
100
AcDbText
 10
6.455987970757829
 20
-2.4525
 30
0.0
 40
0.5
  1
205
100
AcDbAttributeDefinition
  3

  2
SERIES
 70
     8
280
     0
  0
ATTDEF
  5
136
330
12C
100
AcDbEntity
  8
AM_6
100
AcDbText
 10
6.455987970757829
 20
-2.9525
 30
0.0
 40
0.5
  1
1
100
AcDbAttributeDefinition
  3

  2
SS
 70
     8
280
     0
  0
ATTDEF
  5
137
330
12C
100
AcDbEntity
  8
AM_6
100
AcDbText
 10
6.455987970757829
 20
-3.4525
 30
0.0
 40
0.5
  1
076032
100
AcDbAttributeDefinition
  3

  2
PN
 70
     8
280
     0
  0
ATTDEF
  5
138
330
12C
100
AcDbEntity
  8
AM_6
100
AcDbText
 10
6.455987970757829
 20
-3.9525
 30
0.0
 40
0.5
  1
F2B-SCED-100
100
AcDbAttributeDefinition
  3

  2
DESCRIPTION
 70
     8
280
     0
  0
ATTDEF
  5
139
330
12C
100
AcDbEntity
  8
AM_6
100
AcDbText
 10
6.455987970757829
 20
-4.452500000000001
 30
0.0
 40
0.5
  1
1.4
100
AcDbAttributeDefinition
  3

  2
W
 70
     8
280
     0
  0
ATTDEF
  5
13A
330
12C
100
AcDbEntity
  8
AM_6
100
AcDbText
 10
6.455987970757829
 20
-4.952500000000001
 30
0.0
 40
0.5
  1
1.34
100
AcDbAttributeDefinition
  3

  2
A
 70
     8
280
     0
  0
ATTDEF
  5
13B
330
12C
100
AcDbEntity
  8
AM_6
100
AcDbText
 10
6.455987970757829
 20
-5.452500000000001
 30
0.0
 40
0.5
  1
4.88
100
AcDbAttributeDefinition
  3

  2
B
 70
     8
280
     0
  0
ATTDEF
  5
13C
330
12C
100
AcDbEntity
  8
AM_6
100
AcDbText
 10
6.455987970757829
 20
-5.952500000000001
 30
0.0
 40
0.5
  1
1.37
100
AcDbAttributeDefinition
  3

  2
C
 70
     8
280
     0
  0
ATTDEF
  5
13D
330
12C
100
AcDbEntity
  8
AM_6
100
AcDbText
 10
6.455987970757829
 20
-6.452500000000001
 30
0.0
 40
0.5
  1
3.89
100
AcDbAttributeDefinition
  3

  2
D
 70
     8
280
     0
  0
ATTDEF
  5
13E
330
12C
100
AcDbEntity
  8
AM_6
100
AcDbText
 10
6.455987970757829
 20
-6.952500000000001
 30
0.0
 40
0.5
  1
7/16
100
AcDbAttributeDefinition
  3

  2
F
 70
     8
280
     0
  0
ATTDEF
  5
13F
330
12C
100
AcDbEntity
  8
AM_6
100
AcDbText
 10
6.455987970757829
 20
-7.452500000000001
 30
0.0
 40
0.5
  1
0.52
100
AcDbAttributeDefinition
  3

  2
H
 70
     8
280
     0
  0
ATTDEF
  5
140
330
12C
100
AcDbEntity
  8
AM_6
100
AcDbText
 10
6.455987970757829
 20
-7.952500000000001
 30
0.0
 40
0.5
  1
0.42
100
AcDbAttributeDefinition
  3

  2
J
 70
     8
280
     0
  0
ATTDEF
  5
141
330
12C
100
AcDbEntity
  8
AM_6
100
AcDbText
 10
6.455987970757829
 20
-8.4525
 30
0.0
 40
0.5
  1
1.32
100
AcDbAttributeDefinition
  3

  2
L
 70
     8
280
     0
  0
ATTDEF
  5
142
330
12C
100
AcDbEntity
  8
AM_6
100
AcDbText
 10
6.455987970757829
 20
-8.9525
 30
0.0
 40
0.5
  1
2.75
100
AcDbAttributeDefinition
  3

  2
M
 70
     8
280
     0
  0
ATTDEF
  5
143
330
12C
100
AcDbEntity
  8
AM_6
100
AcDbText
 10
6.455987970757829
 20
-9.4525
 30
0.0
 40
0.5
  1
1.44
100
AcDbAttributeDefinition
  3

  2
N
 70
     8
280
     0
  0
ATTDEF
  5
144
330
12C
100
AcDbEntity
  8
AM_6
100
AcDbText
 10
6.455987970757829
 20
-9.9525
 30
0.0
 40
0.5
  1
1565
100
AcDbAttributeDefinition
  3

  2
CAPS
 70
     8
280
     0
  0
ATTDEF
  5
145
330
12C
100
AcDbEntity
  8
AM_6
100
AcDbText
 10
6.455987970757829
 20
-10.4525
 30
0.0
 40
0.5
  1
3146
100
AcDbAttributeDefinition
  3

  2
CAPD
 70
     8
280
     0
  0
ATTDEF
  5
146
330
12C
100
AcDbEntity
  8
AM_6
100
AcDbText
 10
6.455987970757829
 20
-10.9525
 30
0.0
 40
0.5
  1
baldor
100
AcDbAttributeDefinition
  3

  2
COMPANY
 70
     8
280
     0
  0
LINE
  5
147
330
12C
100
AcDbEntity
  8
AM_9
100
AcDbLine
 10
0.8285795999748801
 20
-0.0000000000000001
 30
0.0
 11
0.82857959997488
 21
-0.0300000000000001
 31
0.0
  0
LINE
  5
148
330
12C
100
AcDbEntity
  8
AM_9
100
AcDbLine
 10
1.455987970757829
 20
-0.7344330539830964
 30
0.0
 11
1.455987970757829
 21
-0.5922336126835701
 31
0.0
  0
LINE
  5
149
330
12C
100
AcDbEntity
  8
AM_9
100
AcDbLine
 10
-0.4949999999999999
 20
-0.6175000000000002
 30
0.0
 11
-0.4949999999999999
 21
-0.1796999999999999
 31
0.0
  0
LINE
  5
14A
330
12C
100
AcDbEntity
  8
AM_9
100
AcDbLine
 10
0.4949999999999999
 20
-0.6175000000000002
 30
0.0
 11
0.4949999999999999
 21
-0.1797
 31
0.0
  0
LINE
  5
14B
330
12C
100
AcDbEntity
  8
AM_9
100
AcDbLine
 10
1.0236
 20
-0.8743
 30
0.0
 11
1.0236
 21
-0.1797
 31
0.0
  0
LINE
  5
14C
330
12C
100
AcDbEntity
  8
AM_9
100
AcDbLine
 10
-1.0236
 20
-0.1797
 30
0.0
 11
-1.0236
 21
-0.8743
 31
0.0
  0
LINE
  5
14D
330
12C
100
AcDbEntity
  8
AM_9
100
AcDbLine
 10
0.4949999999999999
 20
-0.6175000000000002
 30
0.0
 11
-0.4949999999999999
 21
-0.6175000000000002
 31
0.0
  0
LINE
  5
14E
330
12C
100
AcDbEntity
  8
AM_9
100
AcDbLine
 10
-1.1236
 20
-0.1797000000000001
 30
0.0
 11
1.1236
 21
-0.1797000000000001
 31
0.0
  0
LINE
  5
14F
330
12C
100
AcDbEntity
  8
AM_9
100
AcDbLine
 10
1.1236
 20
-0.1797000000000001
 30
0.0
 11
1.1236
 21
-0.03
 31
0.0
  0
LINE
  5
150
330
12C
100
AcDbEntity
  8
AM_9
100
AcDbLine
 10
-1.1236
 20
-0.03
 30
0.0
 11
-1.1236
 21
-0.1797000000000001
 31
0.0
  0
LINE
  5
151
330
12C
100
AcDbEntity
  8
AM_9
100
AcDbLine
 10
-1.123600000000001
 20
-0.8743
 30
0.0
 11
1.123600000000001
 21
-0.8743
 31
0.0
  0
LINE
  5
152
330
12C
100
AcDbEntity
  8
AM_9
100
AcDbLine
 10
1.123600000000001
 20
-0.9500000000000001
 30
0.0
 11
1.123600000000001
 21
-0.8743
 31
0.0
  0
LINE
  5
153
330
12C
100
AcDbEntity
  8
AM_9
100
AcDbLine
 10
-1.123600000000001
 20
-0.8743
 30
0.0
 11
-1.123600000000001
 21
-0.9500000000000001
 31
0.0
  0
LWPOLYLINE
  5
154
330
12C
100
AcDbEntity
  8
AM_9
100
AcDbPolyline
 90
       11
 70
     0
 43
0.0
 10
1.263543336267376
 20
-0.8979999999999999
 10
1.263055025940055
 20
-0.9061414437030573
 10
1.26155183959132
 20
-0.9142828874061144
 10
1.25917724402133
 20
-0.9217338104695252
 10
1.255887952431377
 20
-0.9287253237476599
 10
1.251839365328832
 20
-0.9348960607880864
 10
1.247036767017196
 20
-0.9402248406664597
 10
1.241482045170442
 20
-0.9445994146851268
 10
1.235360122195422
 20
-0.9477691344620154
 10
1.229700517398726
 20
-0.9494310170919494
 10
1.223824609007535
 20
-0.9500000000000001
  0
ARC
  5
155
330
12C
100
AcDbEntity
  8
AM_9
100
AcDbCircle
 10
1.323
 20
-0.8979999999999998
 30
0.0
 40
0.0520000000000003
100
AcDbArc
 50
270.0
 51
0.0000008537736463
  0
LINE
  5
156
330
12C
100
AcDbEntity
  8
AM_9
100
AcDbLine
 10
0.7209304797556555
 20
-0.52
 30
0.0
 11
0.6665799219918989
 21
-0.52
 31
0.0
  0
LINE
  5
157
330
12C
100
AcDbEntity
  8
AM_9
100
AcDbLine
 10
0.7209304797556556
 20
-0.468
 30
0.0
 11
0.7209304797556555
 21
-0.52
 31
0.0
  0
LINE
  5
158
330
12C
100
AcDbEntity
  8
AM_9
100
AcDbLine
 10
1.226216406152675
 20
-0.468
 30
0.0
 11
0.8069672654229277
 21
-0.468
 31
0.0
  0
LINE
  5
159
330
12C
100
AcDbEntity
  8
AM_9
100
AcDbLine
 10
1.226216406152675
 20
-0.468
 30
0.0
 11
1.226216406152676
 21
-0.0300000000000001
 31
0.0
  0
LINE
  5
15A
330
12C
100
AcDbEntity
  8
AM_9
100
AcDbLine
 10
1.263543336267376
 20
-0.8979999999999999
 30
0.0
 11
1.263543336267375
 21
-0.0300000000000001
 31
0.0
  0
LINE
  5
15B
330
12C
100
AcDbEntity
  8
AM_9
100
AcDbLine
 10
0.5521576560435663
 20
-0.8979999999999999
 30
0.0
 11
1.375
 21
-0.8979999999999999
 31
0.0
  0
LINE
  5
15C
330
12C
100
AcDbEntity
  8
AM_9
100
AcDbLine
 10
1.375
 20
-0.8979999999999999
 30
0.0
 11
1.375
 21
-0.03
 31
0.0
  0
LINE
  5
15D
330
12C
100
AcDbEntity
  8
AM_9
100
AcDbLine
 10
-0.6254202257058727
 20
-0.03
 30
0.0
 11
-0.6254202257058727
 21
0.0000000000000001
 31
0.0
  0
LINE
  5
15E
330
12C
100
AcDbEntity
  8
AM_9
100
AcDbLine
 10
-0.8285795999748811
 20
-0.0299999999999999
 30
0.0
 11
0.8082408488423685
 21
-0.0299999999999999
 31
0.0
  0
LINE
  5
15F
330
12C
100
AcDbEntity
  8
AM_9
100
AcDbLine
 10
0.6254202329378334
 20
-0.03
 30
0.0
 11
0.6254202329378334
 21
0.0000000000000001
 31
0.0
  0
LINE
  5
160
330
12C
100
AcDbEntity
  8
AM_9
100
AcDbLine
 10
1.42552707600123
 20
-0.7618885068916693
 30
0.0
 11
1.42552707600123
 21
-0.5647781597749972
 31
0.0
  0
LINE
  5
161
330
12C
100
AcDbEntity
  8
AM_9
100
AcDbLine
 10
0.21875
 20
-0.5199999999999998
 30
0.0
 11
0.21875
 21
0.0000000000000001
 31
0.0
  0
LINE
  5
162
330
12C
100
AcDbEntity
  8
AM_9
100
AcDbLine
 10
-0.21875
 20
0.0000000000000001
 30
0.0
 11
-0.21875
 21
-0.5199999999999998
 31
0.0
  0
LINE
  5
163
330
12C
100
AcDbEntity
  8
AM_7
100
AcDbLine
 10
0.0
 20
-1.437
 30
0.0
 11
0.0
 21
0.0475
 31
0.0
  0
LINE
  5
164
330
12C
100
AcDbEntity
  8
AM_4
100
AcDbLine
 10
1.455987970757829
 20
-0.5922336126835701
 30
0.0
 11
1.455987970757829
 21
-0.03
 31
0.0
  0
LINE
  5
165
330
12C
100
AcDbEntity
  8
AM_4
100
AcDbLine
 10
1.455987970757829
 20
-0.9500000000000001
 30
0.0
 11
1.455987970757829
 21
-0.7344330539830964
 31
0.0
  0
LINE
  5
166
330
12C
100
AcDbEntity
  8
AM_4
100
AcDbLine
 10
1.455987970757829
 20
-0.9500000000000001
 30
0.0
 11
-1.323
 21
-0.9500000000000001
 31
0.0
  0
ARC
  5
167
330
12C
100
AcDbEntity
  8
AM_4
100
AcDbCircle
 10
-1.323
 20
-0.8979999999999997
 30
0.0
 40
0.0520000000000005
100
AcDbArc
 50
180.0
 51
270.0
  0
LINE
  5
168
330
12C
100
AcDbEntity
  8
AM_4
100
AcDbLine
 10
-0.8285795999748811
 20
-0.0299999999999999
 30
0.0
 11
-1.375000000000006
 21
-0.03
 31
0.0
  0
LINE
  5
169
330
12C
100
AcDbEntity
  8
AM_4
100
AcDbLine
 10
-1.375000000000006
 20
-0.03
 30
0.0
 11
-1.375000000000006
 21
-0.8979999999999999
 31
0.0
  0
LINE
  5
16A
330
12C
100
AcDbEntity
  8
AM_4
100
AcDbLine
 10
-1.375000000000006
 20
-0.8979999999999999
 30
0.0
 11
0.5521576560435663
 21
-0.8979999999999998
 31
0.0
  0
LINE
  5
16B
330
12C
100
AcDbEntity
  8
AM_4
100
AcDbLine
 10
0.8375378084974998
 20
0.0000000000000001
 30
0.0
 11
-0.8375378084975001
 21
0.0000000000000001
 31
0.0
  0
LINE
  5
16C
330
12C
100
AcDbEntity
  8
AM_4
100
AcDbLine
 10
-0.8375378084975001
 20
0.0000000000000001
 30
0.0
 11
-0.8375378084975001
 21
-0.0299999999999999
 31
0.0
  0
LINE
  5
16D
330
12C
100
AcDbEntity
  8
AM_4
100
AcDbLine
 10
0.8375378084974998
 20
-0.0299999999999999
 30
0.0
 11
0.8375378084974998
 21
0.0000000000000001
 31
0.0
  0
LINE
  5
16E
330
12C
100
AcDbEntity
  8
AM_4
100
AcDbLine
 10
0.5521576560435664
 20
-0.5199999999999999
 30
0.0
 11
0.5521576560435663
 21
-0.8979999999999998
 31
0.0
  0
LWPOLYLINE
  5
16F
330
12C
100
AcDbEntity
  8
AM_4
100
AcDbPolyline
 90
       11
 70
     0
 43
0.0
 10
0.5125669821032702
 20
-0.95
 10
0.514659788075894
 20
-0.949927727534006
 10
0.5217001344600447
 20
-0.948604206892099
 10
0.528679486885207
 20
-0.9455160053521414
 10
0.5348973488823221
 20
-0.9409659184687148
 10
0.5406214877279709
 20
-0.9347238308511701
 10
0.545034904649859
 20
-0.9277895115135398
 10
0.5486008319320083
 20
-0.919569572717422
 10
0.5508036748180865
 20
-0.9115021738651348
 10
0.5519937761882068
 20
-0.9027335186941327
 10
0.5521576560435663
 20
-0.8979999999999998
  0
LINE
  5
170
330
12C
100
AcDbEntity
  8
AM_4
100
AcDbLine
 10
1.42552707600123
 20
-0.5647781597749972
 30
0.0
 11
1.42552707600123
 21
-0.03
 31
0.0
  0
LINE
  5
171
330
12C
100
AcDbEntity
  8
AM_4
100
AcDbLine
 10
1.42552707600123
 20
-0.9500000000000001
 30
0.0
 11
1.42552707600123
 21
-0.7618885068916693
 31
0.0
  0
LINE
  5
172
330
12C
100
AcDbEntity
  8
AM_4
100
AcDbLine
 10
0.8217577303621778
 20
-0.0299999999999999
 30
0.0
 11
0.8217577303621778
 21
0.0000000000000001
 31
0.0
  0
LINE
  5
173
330
12C
100
AcDbEntity
  8
AM_4
100
AcDbLine
 10
1.455987970757829
 20
-0.03
 30
0.0
 11
0.8082408488423685
 21
-0.03
 31
0.0
  0
LINE
  5
174
330
12C
100
AcDbEntity
  8
AM_4
100
AcDbLine
 10
0.8082408488423685
 20
-0.03
 30
0.0
 11
0.8082408488423685
 21
0.0000000000000001
 31
0.0
  0
LINE
  5
175
330
12C
100
AcDbEntity
  8
AM_4
100
AcDbLine
 10
0.714851089157265
 20
-0.95
 30
0.0
 11
0.7148510891572651
 21
-0.4679999999999999
 31
0.0
  0
LINE
  5
176
330
12C
100
AcDbEntity
  8
AM_4
100
AcDbLine
 10
0.8549255753351714
 20
-0.95
 30
0.0
 11
0.8549255753351714
 21
-0.03
 31
0.0
  0
LINE
  5
177
330
12C
100
AcDbEntity
  8
AM_4
100
AcDbLine
 10
-0.720930479755656
 20
-0.4679999999999999
 30
0.0
 11
-0.7209304797556558
 21
-0.5199999999999999
 31
0.0
  0
LINE
  5
178
330
12C
100
AcDbEntity
  8
AM_4
100
AcDbLine
 10
0.6665799219918989
 20
-0.5199999999999999
 30
0.0
 11
0.6665799219918989
 21
-0.4679999999999999
 31
0.0
  0
LINE
  5
179
330
12C
100
AcDbEntity
  8
AM_4
100
AcDbLine
 10
-0.4790992098393778
 20
-0.4679999999999998
 30
0.0
 11
-0.4790992098393778
 21
-0.5199999999999998
 31
0.0
  0
LINE
  5
17A
330
12C
100
AcDbEntity
  8
AM_4
100
AcDbLine
 10
0.4790992098393778
 20
-0.4679999999999998
 30
0.0
 11
0.4790992098393778
 21
-0.5199999999999998
 31
0.0
  0
LINE
  5
17B
330
12C
100
AcDbEntity
  8
AM_4
100
AcDbLine
 10
0.8069672654229277
 20
0.0000000000000001
 30
0.0
 11
0.8069672654229277
 21
-0.4679999999999999
 31
0.0
  0
LINE
  5
17C
330
12C
100
AcDbEntity
  8
AM_4
100
AcDbLine
 10
0.455680854379542
 20
-0.4679999999999998
 30
0.0
 11
0.4556808543795431
 21
-0.5199999999999998
 31
0.0
  0
LINE
  5
17D
330
12C
100
AcDbEntity
  8
AM_4
100
AcDbLine
 10
0.8069672654229277
 20
-0.4679999999999999
 30
0.0
 11
0.455680854379542
 21
-0.4679999999999998
 31
0.0
  0
LINE
  5
17E
330
12C
100
AcDbEntity
  8
AM_4
100
AcDbLine
 10
0.6665799219918989
 20
-0.5199999999999999
 30
0.0
 11
-0.7209304797556558
 21
-0.5199999999999999
 31
0.0
  0
LINE
  5
17F
330
12C
100
AcDbEntity
  8
AM_4
100
AcDbLine
 10
-0.828579599974881
 20
0.0000000000000001
 30
0.0
 11
-0.8285795999748811
 21
-0.0299999999999999
 31
0.0
  0
LINE
  5
180
330
12C
100
AcDbEntity
  8
AM_4
100
AcDbLine
 10
-1.226216406152676
 20
-0.4679999999999999
 30
0.0
 11
-1.226216406152681
 21
-0.03
 31
0.0
  0
LINE
  5
181
330
12C
100
AcDbEntity
  8
AM_4
100
AcDbLine
 10
-0.4556808543795436
 20
-0.4679999999999998
 30
0.0
 11
-1.226216406152676
 21
-0.4679999999999999
 31
0.0
  0
LINE
  5
182
330
12C
100
AcDbEntity
  8
AM_4
100
AcDbLine
 10
-0.4556808543795436
 20
-0.5199999999999998
 30
0.0
 11
-0.4556808543795436
 21
-0.4679999999999998
 31
0.0
  0
LINE
  5
183
330
12C
100
AcDbEntity
  8
AM_4
100
AcDbLine
 10
-0.4414379062149632
 20
-0.5199999999999998
 30
0.0
 11
-0.4414379062149632
 21
0.0000000000000001
 31
0.0
  0
LINE
  5
184
330
12C
100
AcDbEntity
  8
AM_4
100
AcDbLine
 10
0.4414379062149633
 20
-0.5199999999999998
 30
0.0
 11
0.4414379062149633
 21
0.0000000000000001
 31
0.0
  0
ENDBLK
  5
12F
330
12C
100
AcDbEntity
  8
0
100
AcDbBlockEnd
  0
ENDSEC
  0
SECTION
  2
ENTITIES
  0
INSERT
  5
6F
330
1F
100
AcDbEntity
  8
0
100
AcDbBlockReference
  2
1_076032_4
 10
0.0
 20
0.0
 30
0.0
  0
POINT
  5
186
330
1F
100
AcDbEntity
  8
ConnectionPoints
100
AcDbPoint
 10
0.0
 20
-0.03
 30
0.0
  0
POINT
  5
187
330
1F
100
AcDbEntity
  8
ConnectionPoints
100
AcDbPoint
 10
0.0
 20
-1.37
 30
0.0000000000000001
  0
POINT
  5
188
330
1F
100
AcDbEntity
  8
ConnectionPoints
100
AcDbPoint
 10
1.138441722839492
 20
-0.6633333333333333
 30
1.138441722839492
  0
POINT
  5
189
330
1F
100
AcDbEntity
  8
ConnectionPoints
100
AcDbPoint
 10
0.0
 20
-1.37
 30
0.0000000000000001
  0
ENDSEC
  0
SECTION
  2
OBJECTS
  0
DICTIONARY
  5
C
330
0
100
AcDbDictionary
281
     1
  3
ACAD_DETAILVIEWSTYLE
350
191
  3
ACAD_GROUP
350
D
  3
ACAD_LAYOUT
350
1A
  3
ACAD_MATERIAL
350
43
  3
ACAD_MLEADERSTYLE
350
6B
  3
ACAD_MLINESTYLE
350
17
  3
ACAD_PLOTSETTINGS
350
19
  3
ACAD_PLOTSTYLENAME
350
E
  3
ACAD_SCALELIST
350
47
  3
ACAD_SECTIONVIEWSTYLE
350
192
  3
ACAD_TABLESTYLE
350
69
  3
ACAD_VISUALSTYLE
350
2A
  3
ACDB_RECOMPOSE_DATA
350
18E
  3
AcDbVariableDictionary
350
18A
  0
SUN
  5
6D
330
29
100
AcDbSun
 90
        1
290
     0
 63
     7
421
 16777215
 40
1.0
291
     1
 91
  2455826
 92
 54000000
292
     0
 70
     2
 71
   256
280
     1
  0
DICTIONARY
  5
191
102
{ACAD_REACTORS
330
C
102
}
330
C
100
AcDbDictionary
281
     1
  0
DICTIONARY
  5
D
102
{ACAD_REACTORS
330
C
102
}
330
C
100
AcDbDictionary
281
     1
  0
DICTIONARY
  5
1A
102
{ACAD_REACTORS
330
C
102
}
330
C
100
AcDbDictionary
281
     1
  3
Layout1
350
1E
  3
Layout2
350
26
  3
Model
350
22
  0
DICTIONARY
  5
43
102
{ACAD_REACTORS
330
C
102
}
330
C
100
AcDbDictionary
281
     1
  3
ByBlock
350
45
  3
ByLayer
350
44
  3
Global
350
46
  0
DICTIONARY
  5
6B
102
{ACAD_REACTORS
330
C
102
}
330
C
100
AcDbDictionary
281
     1
  3
Standard
350
6C
  0
DICTIONARY
  5
17
102
{ACAD_REACTORS
330
C
102
}
330
C
100
AcDbDictionary
281
     1
  3
Standard
350
18
  0
DICTIONARY
  5
19
102
{ACAD_REACTORS
330
C
102
}
330
C
100
AcDbDictionary
281
     1
  0
ACDBDICTIONARYWDFLT
  5
E
102
{ACAD_REACTORS
330
C
102
}
330
C
100
AcDbDictionary
281
     1
  3
Normal
350
F
100
AcDbDictionaryWithDefault
340
F
  0
DICTIONARY
  5
47
102
{ACAD_REACTORS
330
C
102
}
330
C
100
AcDbDictionary
281
     1
  3
A0
350
48
  3
A1
350
49
  3
A2
350
4A
  3
A3
350
4B
  3
A4
350
4C
  3
A5
350
4D
  3
A6
350
4E
  3
A7
350
4F
  3
A8
350
50
  3
A9
350
51
  3
B0
350
52
  3
B1
350
53
  3
B2
350
54
  3
B3
350
55
  3
B4
350
56
  3
B5
350
57
  3
B6
350
58
  3
B7
350
59
  3
B8
350
5A
  3
B9
350
5B
  3
C0
350
5C
  3
C1
350
5D
  3
C2
350
5E
  3
C3
350
5F
  3
C4
350
60
  3
C5
350
61
  3
C6
350
62
  3
C7
350
63
  3
C8
350
64
  3
C9
350
65
  3
D0
350
66
  3
D1
350
67
  3
D2
350
68
  0
DICTIONARY
  5
192
102
{ACAD_REACTORS
330
C
102
}
330
C
100
AcDbDictionary
281
     1
  0
DICTIONARY
  5
69
102
{ACAD_REACTORS
330
C
102
}
330
C
100
AcDbDictionary
281
     1
  3
Standard
350
6A
  0
DICTIONARY
  5
2A
102
{ACAD_REACTORS
330
C
102
}
330
C
100
AcDbDictionary
281
     1
  3
2dWireframe
350
2F
  3
Basic
350
32
  3
Brighten
350
36
  3
ColorChange
350
3A
  3
Conceptual
350
34
  3
Dim
350
35
  3
EdgeColorOff
350
3D
  3
Facepattern
350
39
  3
Flat
350
2B
  3
FlatWithEdges
350
2C
  3
Gouraud
350
2D
  3
GouraudWithEdges
350
2E
  3
Hidden
350
31
  3
JitterOff
350
3B
  3
Linepattern
350
38
  3
OverhangOff
350
3C
  3
Realistic
350
33
  3
Shaded
350
42
  3
Shaded with edges
350
41
  3
Shades of Gray
350
3E
  3
Sketchy
350
3F
  3
Thicken
350
37
  3
Wireframe
350
30
  3
X-Ray
350
40
  0
XRECORD
  5
18E
102
{ACAD_REACTORS
330
C
102
}
330
C
100
AcDbXrecord
280
     1
 90
        1
330
6A
  0
DICTIONARY
  5
18A
102
{ACAD_REACTORS
330
C
102
}
330
C
100
AcDbDictionary
281
     1
  3
CANNOSCALE
350
18B
  3
CMLEADERSTYLE
350
190
  3
CTABLESTYLE
350
18F
  0
LAYOUT
  5
1E
102
{ACAD_REACTORS
330
1A
102
}
330
1A
100
AcDbPlotSettings
  1

  2
none_device
  4

  6

 40
0.0
 41
0.0
 42
0.0
 43
0.0
 44
0.0
 45
0.0
 46
0.0
 47
0.0
 48
0.0
 49
0.0
140
0.0
141
0.0
142
1.0
143
1.0
 70
   688
 72
     0
 73
     0
 74
     5
  7

 75
    16
 76
     0
 77
     2
 78
   300
147
1.0
148
0.0
149
0.0
100
AcDbLayout
  1
Layout1
 70
     1
 71
     1
 10
0.0
 20
0.0
 11
12.0
 21
9.0
 12
0.0
 22
0.0
 32
0.0
 14
1.000000000000000E+20
 24
1.000000000000000E+20
 34
1.000000000000000E+20
 15
-1.000000000000000E+20
 25
-1.000000000000000E+20
 35
-1.000000000000000E+20
146
0.0
 13
0.0
 23
0.0
 33
0.0
 16
1.0
 26
0.0
 36
0.0
 17
0.0
 27
1.0
 37
0.0
 76
     0
330
1B
  0
LAYOUT
  5
26
102
{ACAD_REACTORS
330
1A
102
}
330
1A
100
AcDbPlotSettings
  1

  2
none_device
  4

  6

 40
0.0
 41
0.0
 42
0.0
 43
0.0
 44
0.0
 45
0.0
 46
0.0
 47
0.0
 48
0.0
 49
0.0
140
0.0
141
0.0
142
1.0
143
1.0
 70
   688
 72
     0
 73
     0
 74
     5
  7

 75
    16
 76
     0
 77
     2
 78
   300
147
1.0
148
0.0
149
0.0
100
AcDbLayout
  1
Layout2
 70
     1
 71
     2
 10
0.0
 20
0.0
 11
0.0
 21
0.0
 12
0.0
 22
0.0
 32
0.0
 14
0.0
 24
0.0
 34
0.0
 15
0.0
 25
0.0
 35
0.0
146
0.0
 13
0.0
 23
0.0
 33
0.0
 16
1.0
 26
0.0
 36
0.0
 17
0.0
 27
1.0
 37
0.0
 76
     0
330
23
  0
LAYOUT
  5
22
102
{ACAD_REACTORS
330
1A
102
}
330
1A
100
AcDbPlotSettings
  1

  2
none_device
  4
Letter_(8.50_x_11.00_Inches)
  6

 40
6.35
 41
6.35
 42
6.35000508
 43
6.35000508
 44
215.9
 45
279.4
 46
0.0
 47
0.0
 48
0.0
 49
0.0
140
0.0
141
0.0
142
1.0
143
1.0
 70
  1712
 72
     0
 73
     0
 74
     0
  7

 75
     0
 76
     0
 77
     2
 78
   300
147
1.0
148
0.0
149
0.0
100
AcDbLayout
  1
Model
 70
     1
 71
     0
 10
0.0
 20
0.0
 11
12.0
 21
9.0
 12
0.0
 22
0.0
 32
0.0
 14
1.000000000000000E+20
 24
1.000000000000000E+20
 34
1.000000000000000E+20
 15
-1.000000000000000E+20
 25
-1.000000000000000E+20
 35
-1.000000000000000E+20
146
0.0
 13
0.0
 23
0.0
 33
0.0
 16
1.0
 26
0.0
 36
0.0
 17
0.0
 27
1.0
 37
0.0
 76
     0
330
1F
331
29
  0
MATERIAL
  5
45
102
{ACAD_REACTORS
330
43
102
}
330
43
100
AcDbMaterial
  1
ByBlock
 72
     1
 94
      127
  0
MATERIAL
  5
44
102
{ACAD_REACTORS
330
43
102
}
330
43
100
AcDbMaterial
  1
ByLayer
 72
     1
 94
      127
  0
MATERIAL
  5
46
102
{ACAD_REACTORS
330
43
102
}
330
43
100
AcDbMaterial
  1
Global
 72
     1
 94
      127
  0
MLEADERSTYLE
  5
6C
102
{ACAD_REACTORS
330
6B
102
}
330
6B
100
AcDbMLeaderStyle
179
     2
170
     2
171
     1
172
     0
 90
        2
 40
0.0
 41
0.0
173
     1
 91
-1056964608
340
14
 92
       -2
290
     1
 42
0.09
291
     1
 43
0.36
  3
Standard
341
0
 44
0.18
300

342
11
174
     1
178
     6
175
     1
176
     0
 93
-1056964608
 45
0.18
292
     0
297
     0
 46
0.18
343
0
 94
-1056964608
 47
1.0
 49
1.0
140
1.0
293
     1
141
0.0
294
     1
177
     0
142
1.0
295
     0
296
     0
143
0.125
271
     0
272
     9
273
     9
298
     0
  0
MLINESTYLE
  5
18
102
{ACAD_REACTORS
330
17
102
}
330
17
100
AcDbMlineStyle
  2
Standard
 70
     0
  3

 62
   256
 51
90.0
 52
90.0
 71
     2
 49
0.5
 62
   256
  6
BYLAYER
 49
-0.5
 62
   256
  6
BYLAYER
  0
ACDBPLACEHOLDER
  5
F
102
{ACAD_REACTORS
330
E
102
}
330
E
  0
SCALE
  5
48
102
{ACAD_REACTORS
330
47
102
}
330
47
100
AcDbScale
 70
     0
300
1:1
140
1.0
141
1.0
290
     1
  0
SCALE
  5
49
102
{ACAD_REACTORS
330
47
102
}
330
47
100
AcDbScale
 70
     0
300
1:2
140
1.0
141
2.0
290
     0
  0
SCALE
  5
4A
102
{ACAD_REACTORS
330
47
102
}
330
47
100
AcDbScale
 70
     0
300
1:4
140
1.0
141
4.0
290
     0
  0
SCALE
  5
4B
102
{ACAD_REACTORS
330
47
102
}
330
47
100
AcDbScale
 70
     0
300
1:5
140
1.0
141
5.0
290
     0
  0
SCALE
  5
4C
102
{ACAD_REACTORS
330
47
102
}
330
47
100
AcDbScale
 70
     0
300
1:8
140
1.0
141
8.0
290
     0
  0
SCALE
  5
4D
102
{ACAD_REACTORS
330
47
102
}
330
47
100
AcDbScale
 70
     0
300
1:10
140
1.0
141
10.0
290
     0
  0
SCALE
  5
4E
102
{ACAD_REACTORS
330
47
102
}
330
47
100
AcDbScale
 70
     0
300
1:16
140
1.0
141
16.0
290
     0
  0
SCALE
  5
4F
102
{ACAD_REACTORS
330
47
102
}
330
47
100
AcDbScale
 70
     0
300
1:20
140
1.0
141
20.0
290
     0
  0
SCALE
  5
50
102
{ACAD_REACTORS
330
47
102
}
330
47
100
AcDbScale
 70
     0
300
1:30
140
1.0
141
30.0
290
     0
  0
SCALE
  5
51
102
{ACAD_REACTORS
330
47
102
}
330
47
100
AcDbScale
 70
     0
300
1:40
140
1.0
141
40.0
290
     0
  0
SCALE
  5
52
102
{ACAD_REACTORS
330
47
102
}
330
47
100
AcDbScale
 70
     0
300
1:50
140
1.0
141
50.0
290
     0
  0
SCALE
  5
53
102
{ACAD_REACTORS
330
47
102
}
330
47
100
AcDbScale
 70
     0
300
1:100
140
1.0
141
100.0
290
     0
  0
SCALE
  5
54
102
{ACAD_REACTORS
330
47
102
}
330
47
100
AcDbScale
 70
     0
300
2:1
140
2.0
141
1.0
290
     0
  0
SCALE
  5
55
102
{ACAD_REACTORS
330
47
102
}
330
47
100
AcDbScale
 70
     0
300
4:1
140
4.0
141
1.0
290
     0
  0
SCALE
  5
56
102
{ACAD_REACTORS
330
47
102
}
330
47
100
AcDbScale
 70
     0
300
8:1
140
8.0
141
1.0
290
     0
  0
SCALE
  5
57
102
{ACAD_REACTORS
330
47
102
}
330
47
100
AcDbScale
 70
     0
300
10:1
140
10.0
141
1.0
290
     0
  0
SCALE
  5
58
102
{ACAD_REACTORS
330
47
102
}
330
47
100
AcDbScale
 70
     0
300
100:1
140
100.0
141
1.0
290
     0
  0
SCALE
  5
59
102
{ACAD_REACTORS
330
47
102
}
330
47
100
AcDbScale
 70
     0
300
1/128" = 1'-0"
140
0.0078125
141
12.0
290
     0
  0
SCALE
  5
5A
102
{ACAD_REACTORS
330
47
102
}
330
47
100
AcDbScale
 70
     0
300
1/64" = 1'-0"
140
0.015625
141
12.0
290
     0
  0
SCALE
  5
5B
102
{ACAD_REACTORS
330
47
102
}
330
47
100
AcDbScale
 70
     0
300
1/32" = 1'-0"
140
0.03125
141
12.0
290
     0
  0
SCALE
  5
5C
102
{ACAD_REACTORS
330
47
102
}
330
47
100
AcDbScale
 70
     0
300
1/16" = 1'-0"
140
0.0625
141
12.0
290
     0
  0
SCALE
  5
5D
102
{ACAD_REACTORS
330
47
102
}
330
47
100
AcDbScale
 70
     0
300
3/32" = 1'-0"
140
0.09375
141
12.0
290
     0
  0
SCALE
  5
5E
102
{ACAD_REACTORS
330
47
102
}
330
47
100
AcDbScale
 70
     0
300
1/8" = 1'-0"
140
0.125
141
12.0
290
     0
  0
SCALE
  5
5F
102
{ACAD_REACTORS
330
47
102
}
330
47
100
AcDbScale
 70
     0
300
3/16" = 1'-0"
140
0.1875
141
12.0
290
     0
  0
SCALE
  5
60
102
{ACAD_REACTORS
330
47
102
}
330
47
100
AcDbScale
 70
     0
300
1/4" = 1'-0"
140
0.25
141
12.0
290
     0
  0
SCALE
  5
61
102
{ACAD_REACTORS
330
47
102
}
330
47
100
AcDbScale
 70
     0
300
3/8" = 1'-0"
140
0.375
141
12.0
290
     0
  0
SCALE
  5
62
102
{ACAD_REACTORS
330
47
102
}
330
47
100
AcDbScale
 70
     0
300
1/2" = 1'-0"
140
0.5
141
12.0
290
     0
  0
SCALE
  5
63
102
{ACAD_REACTORS
330
47
102
}
330
47
100
AcDbScale
 70
     0
300
3/4" = 1'-0"
140
0.75
141
12.0
290
     0
  0
SCALE
  5
64
102
{ACAD_REACTORS
330
47
102
}
330
47
100
AcDbScale
 70
     0
300
1" = 1'-0"
140
1.0
141
12.0
290
     0
  0
SCALE
  5
65
102
{ACAD_REACTORS
330
47
102
}
330
47
100
AcDbScale
 70
     0
300
1-1/2" = 1'-0"
140
1.5
141
12.0
290
     0
  0
SCALE
  5
66
102
{ACAD_REACTORS
330
47
102
}
330
47
100
AcDbScale
 70
     0
300
3" = 1'-0"
140
3.0
141
12.0
290
     0
  0
SCALE
  5
67
102
{ACAD_REACTORS
330
47
102
}
330
47
100
AcDbScale
 70
     0
300
6" = 1'-0"
140
6.0
141
12.0
290
     0
  0
SCALE
  5
68
102
{ACAD_REACTORS
330
47
102
}
330
47
100
AcDbScale
 70
     0
300
1'-0" = 1'-0"
140
12.0
141
12.0
290
     0
  0
TABLESTYLE
  5
6A
102
{ACAD_REACTORS
330
69
102
}
102
{ACAD_XDICTIONARY
360
18C
102
}
330
69
100
AcDbTableStyle
  3
Standard
 70
     0
 71
     0
 40
0.06
 41
0.06
280
     0
281
     0
  7
Standard
140
0.18
170
     2
 62
     0
 63
   257
283
     0
 90
        4
 91
        0
  1

274
    -2
284
     1
 64
     0
275
    -2
285
     1
 65
     0
276
    -2
286
     1
 66
     0
277
    -2
287
     1
 67
     0
278
    -2
288
     1
 68
     0
279
    -2
289
     1
 69
     0
  7
Standard
140
0.25
170
     5
 62
     0
 63
   257
283
     0
 90
        4
 91
        0
  1

274
    -2
284
     1
 64
     0
275
    -2
285
     1
 65
     0
276
    -2
286
     1
 66
     0
277
    -2
287
     1
 67
     0
278
    -2
288
     1
 68
     0
279
    -2
289
     1
 69
     0
  7
Standard
140
0.18
170
     5
 62
     0
 63
   257
283
     0
 90
        4
 91
        0
  1

274
    -2
284
     1
 64
     0
275
    -2
285
     1
 65
     0
276
    -2
286
     1
 66
     0
277
    -2
287
     1
 67
     0
278
    -2
288
     1
 68
     0
279
    -2
289
     1
 69
     0
  0
VISUALSTYLE
  5
2F
102
{ACAD_REACTORS
330
2A
102
}
330
2A
100
AcDbVisualStyle
  2
2dWireframe
 70
     4
177
     3
291
     0
 70
    58
 90
        0
176
     1
 90
        2
176
     1
 90
        0
176
     1
 90
        0
176
     1
 40
0.6
176
     1
 40
30.0
176
     1
 62
     7
420
 16777215
176
     1
 90
        1
176
     1
 90
        4
176
     1
 62
     7
176
     1
 62
   257
176
     1
 90
        1
176
     1
 90
        1
176
     1
 40
1.0
176
     1
 90
        0
176
     1
 62
   257
176
     1
 40
1.0
176
     1
 90
        1
176
     1
 90
        6
176
     1
 90
        2
176
     1
 62
     7
176
     1
 90
        5
176
     1
 90
        0
176
     1
 90
        0
176
     1
290
     0
176
     1
 90
        1
176
     1
 40
0.0
176
     1
 90
        0
176
     1
290
     1
176
     1
290
     1
176
     1
290
     0
176
     1
290
     0
176
     1
290
     0
176
     1
290
     0
176
     1
290
     0
176
     1
290
     0
176
     1
290
     0
176
     1
 90
       50
176
     1
 40
0.0
176
     1
 40
1.0
176
     1
 90
        0
176
     1
 62
    18
420
        0
176
     1
 90
       50
176
     1
 90
        3
176
     1
 62
     5
420
      255
176
     1
290
     0
176
     1
 90
       50
176
     1
 90
       50
176
     1
 90
       50
176
     1
290
     0
176
     1
 90
       50
176
     1
 62
   256
176
     0
 40
1.0
176
     0
 90
        2
176
     1
  1
strokes_ogs.tif
176
     1
290
     0
176
     1
 40
1.0
176
     1
 40
1.0
176
     1
  0
VISUALSTYLE
  5
32
102
{ACAD_REACTORS
330
2A
102
}
330
2A
100
AcDbVisualStyle
  2
Basic
 70
     7
177
     3
291
     1
 70
    58
 90
        1
176
     1
 90
        0
176
     1
 90
        1
176
     1
 90
        0
176
     1
 40
0.6
176
     1
 40
30.0
176
     1
 62
     7
420
 16777215
176
     1
 90
        0
176
     1
 90
        4
176
     1
 62
     7
176
     1
 62
   257
176
     1
 90
        1
176
     1
 90
        1
176
     1
 40
1.0
176
     1
 90
        8
176
     1
 62
     7
176
     1
 40
1.0
176
     1
 90
        1
176
     1
 90
        6
176
     1
 90
        2
176
     1
 62
     7
176
     1
 90
        5
176
     1
 90
        0
176
     1
 90
        0
176
     1
290
     0
176
     1
 90
        1
176
     1
 40
0.0
176
     1
 90
        0
176
     1
290
     0
176
     1
290
     1
176
     1
290
     1
176
     1
290
     0
176
     1
290
     0
176
     1
290
     0
176
     1
290
     0
176
     1
290
     0
176
     1
290
     0
176
     1
 90
       50
176
     1
 40
0.0
176
     1
 40
1.0
176
     1
 90
        0
176
     1
 62
    18
420
        0
176
     1
 90
       50
176
     1
 90
        3
176
     1
 62
     5
420
      255
176
     1
290
     0
176
     1
 90
       50
176
     1
 90
       50
176
     1
 90
       50
176
     1
290
     0
176
     1
 90
       50
176
     1
 62
   256
176
     0
 40
1.0
176
     0
 90
        2
176
     1
  1
strokes_ogs.tif
176
     1
290
     0
176
     1
 40
1.0
176
     1
 40
1.0
176
     1
  0
VISUALSTYLE
  5
36
102
{ACAD_REACTORS
330
2A
102
}
330
2A
100
AcDbVisualStyle
  2
Brighten
 70
    12
177
     3
291
     1
 70
    58
 90
        2
176
     1
 90
        2
176
     1
 90
        0
176
     1
 90
        0
176
     1
 40
0.6
176
     1
 40
30.0
176
     1
 62
     7
420
 16777215
176
     1
 90
        1
176
     1
 90
        4
176
     1
 62
     7
176
     1
 62
   257
176
     1
 90
        1
176
     1
 90
        1
176
     1
 40
1.0
176
     1
 90
        8
176
     1
 62
     7
176
     1
 40
1.0
176
     1
 90
        1
176
     1
 90
        6
176
     1
 90
        2
176
     1
 62
     7
176
     1
 90
        5
176
     1
 90
        0
176
     1
 90
        0
176
     1
290
     0
176
     1
 90
        1
176
     1
 40
50.0
176
     1
 90
        0
176
     1
290
     0
176
     1
290
     1
176
     1
290
     1
176
     1
290
     0
176
     1
290
     0
176
     1
290
     0
176
     1
290
     0
176
     1
290
     0
176
     1
290
     0
176
     1
 90
       50
176
     1
 40
0.0
176
     1
 40
1.0
176
     1
 90
        0
176
     1
 62
    18
420
        0
176
     1
 90
       50
176
     1
 90
        3
176
     1
 62
     5
420
      255
176
     1
290
     0
176
     1
 90
       50
176
     1
 90
       50
176
     1
 90
       50
176
     1
290
     0
176
     1
 90
       50
176
     1
 62
   256
176
     0
 40
1.0
176
     0
 90
        2
176
     1
  1
strokes_ogs.tif
176
     1
290
     0
176
     1
 40
1.0
176
     1
 40
1.0
176
     1
  0
VISUALSTYLE
  5
3A
102
{ACAD_REACTORS
330
2A
102
}
330
2A
100
AcDbVisualStyle
  2
ColorChange
 70
    16
177
     3
291
     1
 70
    58
 90
        2
176
     1
 90
        2
176
     1
 90
        3
176
     1
 90
        0
176
     1
 40
0.6
176
     1
 40
30.0
176
     1
 62
     8
420
  8421504
176
     1
 90
        1
176
     1
 90
        4
176
     1
 62
     7
176
     1
 62
   257
176
     1
 90
        1
176
     1
 90
        1
176
     1
 40
1.0
176
     1
 90
        8
176
     1
 62
     8
420
  8421504
176
     1
 40
1.0
176
     1
 90
        1
176
     1
 90
        6
176
     1
 90
        2
176
     1
 62
     7
176
     1
 90
        5
176
     1
 90
        0
176
     1
 90
        0
176
     1
290
     0
176
     1
 90
        1
176
     1
 40
0.0
176
     1
 90
        0
176
     1
290
     0
176
     1
290
     1
176
     1
290
     1
176
     1
290
     0
176
     1
290
     0
176
     1
290
     0
176
     1
290
     0
176
     1
290
     0
176
     1
290
     0
176
     1
 90
       50
176
     1
 40
0.0
176
     1
 40
1.0
176
     1
 90
        0
176
     1
 62
    18
420
        0
176
     1
 90
       50
176
     1
 90
        3
176
     1
 62
     5
420
      255
176
     1
290
     0
176
     1
 90
       50
176
     1
 90
       50
176
     1
 90
       50
176
     1
290
     0
176
     1
 90
       50
176
     1
 62
   256
176
     0
 40
1.0
176
     0
 90
        2
176
     1
  1
strokes_ogs.tif
176
     1
290
     0
176
     1
 40
1.0
176
     1
 40
1.0
176
     1
  0
VISUALSTYLE
  5
34
102
{ACAD_REACTORS
330
2A
102
}
330
2A
100
AcDbVisualStyle
  2
Conceptual
 70
     9
177
     3
291
     0
 70
    58
 90
        3
176
     1
 90
        2
176
     1
 90
        0
176
     1
 90
        0
176
     1
 40
0.6
176
     1
 40
30.0
176
     1
 62
     7
420
 16777215
176
     1
 90
        2
176
     1
 90
        2
176
     1
 62
     7
176
     1
 62
   257
176
     1
 90
        1
176
     1
 90
        1
176
     1
 40
179.0
176
     1
 90
        8
176
     1
 62
     7
176
     1
 40
1.0
176
     1
 90
        1
176
     1
 90
        6
176
     1
 90
        2
176
     1
 62
     7
176
     1
 90
        3
176
     1
 90
        0
176
     1
 90
        0
176
     1
290
     0
176
     1
 90
        1
176
     1
 40
0.0
176
     1
 90
        0
176
     1
290
     0
176
     1
290
     1
176
     1
290
     1
176
     1
290
     0
176
     1
290
     0
176
     1
290
     0
176
     1
290
     0
176
     1
290
     0
176
     1
290
     0
176
     1
 90
       50
176
     1
 40
0.0
176
     1
 40
1.0
176
     1
 90
        0
176
     1
 62
    18
420
        0
176
     1
 90
       50
176
     1
 90
        3
176
     1
 62
     5
420
      255
176
     1
290
     0
176
     1
 90
       50
176
     1
 90
       50
176
     1
 90
       50
176
     1
290
     0
176
     1
 90
       50
176
     1
 62
   256
176
     0
 40
1.0
176
     0
 90
        2
176
     1
  1
strokes_ogs.tif
176
     1
290
     0
176
     1
 40
1.0
176
     1
 40
1.0
176
     1
  0
VISUALSTYLE
  5
35
102
{ACAD_REACTORS
330
2A
102
}
330
2A
100
AcDbVisualStyle
  2
Dim
 70
    11
177
     3
291
     1
 70
    58
 90
        2
176
     1
 90
        2
176
     1
 90
        0
176
     1
 90
        0
176
     1
 40
0.6
176
     1
 40
30.0
176
     1
 62
     7
420
 16777215
176
     1
 90
        1
176
     1
 90
        4
176
     1
 62
     7
176
     1
 62
   257
176
     1
 90
        1
176
     1
 90
        1
176
     1
 40
1.0
176
     1
 90
        8
176
     1
 62
     7
176
     1
 40
1.0
176
     1
 90
        1
176
     1
 90
        6
176
     1
 90
        2
176
     1
 62
     7
176
     1
 90
        5
176
     1
 90
        0
176
     1
 90
        0
176
     1
290
     0
176
     1
 90
        1
176
     1
 40
-50.0
176
     1
 90
        0
176
     1
290
     0
176
     1
290
     1
176
     1
290
     1
176
     1
290
     0
176
     1
290
     0
176
     1
290
     0
176
     1
290
     0
176
     1
290
     0
176
     1
290
     0
176
     1
 90
       50
176
     1
 40
0.0
176
     1
 40
1.0
176
     1
 90
        0
176
     1
 62
    18
420
        0
176
     1
 90
       50
176
     1
 90
        3
176
     1
 62
     5
420
      255
176
     1
290
     0
176
     1
 90
       50
176
     1
 90
       50
176
     1
 90
       50
176
     1
290
     0
176
     1
 90
       50
176
     1
 62
   256
176
     0
 40
1.0
176
     0
 90
        2
176
     1
  1
strokes_ogs.tif
176
     1
290
     0
176
     1
 40
1.0
176
     1
 40
1.0
176
     1
  0
VISUALSTYLE
  5
3D
102
{ACAD_REACTORS
330
2A
102
}
330
2A
100
AcDbVisualStyle
  2
EdgeColorOff
 70
    22
177
     3
291
     1
 70
    58
 90
        2
176
     0
 90
        2
176
     0
 90
        0
176
     0
 90
        0
176
     0
 40
0.6
176
     0
 40
30.0
176
     0
 62
     7
420
 16777215
176
     0
 90
        1
176
     0
 90
        4
176
     0
 62
     7
176
     0
 62
   257
176
     0
 90
        1
176
     0
 90
        1
176
     0
 40
1.0
176
     0
 90
        8
176
     2
 62
     7
176
     0
 40
1.0
176
     0
 90
        1
176
     0
 90
        6
176
     0
 90
        2
176
     0
 62
     7
176
     0
 90
        5
176
     0
 90
        0
176
     0
 90
        0
176
     0
290
     0
176
     0
 90
        1
176
     0
 40
0.0
176
     0
 90
        0
176
     0
290
     0
176
     0
290
     1
176
     0
290
     1
176
     0
290
     0
176
     0
290
     0
176
     0
290
     0
176
     0
290
     0
176
     0
290
     0
176
     0
290
     0
176
     0
 90
       50
176
     0
 40
0.0
176
     0
 40
1.0
176
     0
 90
        0
176
     0
 62
    18
420
        0
176
     0
 90
       50
176
     0
 90
        3
176
     0
 62
     5
420
      255
176
     0
290
     0
176
     0
 90
       50
176
     0
 90
       50
176
     0
 90
       50
176
     0
290
     0
176
     0
 90
       50
176
     0
 62
   256
176
     0
 40
1.0
176
     0
 90
        2
176
     0
  1
strokes_ogs.tif
176
     0
290
     0
176
     0
 40
1.0
176
     0
 40
1.0
176
     0
  0
VISUALSTYLE
  5
39
102
{ACAD_REACTORS
330
2A
102
}
330
2A
100
AcDbVisualStyle
  2
Facepattern
 70
    15
177
     3
291
     1
 70
    58
 90
        2
176
     1
 90
        2
176
     1
 90
        0
176
     1
 90
        0
176
     1
 40
0.6
176
     1
 40
30.0
176
     1
 62
     7
420
 16777215
176
     1
 90
        1
176
     1
 90
        4
176
     1
 62
     7
176
     1
 62
   257
176
     1
 90
        1
176
     1
 90
        1
176
     1
 40
1.0
176
     1
 90
        8
176
     1
 62
     7
176
     1
 40
1.0
176
     1
 90
        1
176
     1
 90
        6
176
     1
 90
        2
176
     1
 62
     7
176
     1
 90
        5
176
     1
 90
        0
176
     1
 90
        0
176
     1
290
     0
176
     1
 90
        1
176
     1
 40
0.0
176
     1
 90
        0
176
     1
290
     0
176
     1
290
     1
176
     1
290
     1
176
     1
290
     0
176
     1
290
     0
176
     1
290
     0
176
     1
290
     0
176
     1
290
     0
176
     1
290
     0
176
     1
 90
       50
176
     1
 40
0.0
176
     1
 40
1.0
176
     1
 90
        0
176
     1
 62
    18
420
        0
176
     1
 90
       50
176
     1
 90
        3
176
     1
 62
     5
420
      255
176
     1
290
     0
176
     1
 90
       50
176
     1
 90
       50
176
     1
 90
       50
176
     1
290
     0
176
     1
 90
       50
176
     1
 62
   256
176
     0
 40
1.0
176
     0
 90
        2
176
     1
  1
strokes_ogs.tif
176
     1
290
     0
176
     1
 40
1.0
176
     1
 40
1.0
176
     1
  0
VISUALSTYLE
  5
2B
102
{ACAD_REACTORS
330
2A
102
}
330
2A
100
AcDbVisualStyle
  2
Flat
 70
     0
177
     3
291
     1
 70
    58
 90
        2
176
     1
 90
        1
176
     1
 90
        1
176
     1
 90
        2
176
     1
 40
0.6
176
     1
 40
30.0
176
     1
 62
     7
420
 16777215
176
     1
 90
        0
176
     1
 90
        0
176
     1
 62
     7
176
     1
 62
   257
176
     1
 90
        1
176
     1
 90
        1
176
     1
 40
1.0
176
     1
 90
        8
176
     1
 62
     7
176
     1
 40
1.0
176
     1
 90
        1
176
     1
 90
        6
176
     1
 90
        2
176
     1
 62
     7
176
     1
 90
        5
176
     1
 90
        0
176
     1
 90
        0
176
     1
290
     0
176
     1
 90
       13
176
     1
 40
0.0
176
     1
 90
        0
176
     1
290
     0
176
     1
290
     1
176
     1
290
     1
176
     1
290
     0
176
     1
290
     0
176
     1
290
     0
176
     1
290
     0
176
     1
290
     0
176
     1
290
     0
176
     1
 90
       50
176
     1
 40
0.0
176
     1
 40
1.0
176
     1
 90
        0
176
     1
 62
    18
420
        0
176
     1
 90
       50
176
     1
 90
        3
176
     1
 62
     5
420
      255
176
     1
290
     0
176
     1
 90
       50
176
     1
 90
       50
176
     1
 90
       50
176
     1
290
     0
176
     1
 90
       50
176
     1
 62
   256
176
     0
 40
1.0
176
     0
 90
        2
176
     1
  1
strokes_ogs.tif
176
     1
290
     0
176
     1
 40
1.0
176
     1
 40
1.0
176
     1
  0
VISUALSTYLE
  5
2C
102
{ACAD_REACTORS
330
2A
102
}
330
2A
100
AcDbVisualStyle
  2
FlatWithEdges
 70
     1
177
     3
291
     1
 70
    58
 90
        2
176
     1
 90
        1
176
     1
 90
        1
176
     1
 90
        2
176
     1
 40
0.6
176
     1
 40
30.0
176
     1
 62
     7
420
 16777215
176
     1
 90
        1
176
     1
 90
        0
176
     1
 62
     7
176
     1
 62
   257
176
     1
 90
        1
176
     1
 90
        1
176
     1
 40
1.0
176
     1
 90
        0
176
     1
 62
   257
176
     1
 40
1.0
176
     1
 90
        1
176
     1
 90
        6
176
     1
 90
        2
176
     1
 62
     7
176
     1
 90
        5
176
     1
 90
        0
176
     1
 90
        0
176
     1
290
     0
176
     1
 90
       13
176
     1
 40
0.0
176
     1
 90
        0
176
     1
290
     0
176
     1
290
     1
176
     1
290
     1
176
     1
290
     0
176
     1
290
     0
176
     1
290
     0
176
     1
290
     0
176
     1
290
     0
176
     1
290
     0
176
     1
 90
       50
176
     1
 40
0.0
176
     1
 40
1.0
176
     1
 90
        0
176
     1
 62
    18
420
        0
176
     1
 90
       50
176
     1
 90
        3
176
     1
 62
     5
420
      255
176
     1
290
     0
176
     1
 90
       50
176
     1
 90
       50
176
     1
 90
       50
176
     1
290
     0
176
     1
 90
       50
176
     1
 62
   256
176
     0
 40
1.0
176
     0
 90
        2
176
     1
  1
strokes_ogs.tif
176
     1
290
     0
176
     1
 40
1.0
176
     1
 40
1.0
176
     1
  0
VISUALSTYLE
  5
2D
102
{ACAD_REACTORS
330
2A
102
}
330
2A
100
AcDbVisualStyle
  2
Gouraud
 70
     2
177
     3
291
     1
 70
    58
 90
        2
176
     1
 90
        2
176
     1
 90
        1
176
     1
 90
        2
176
     1
 40
0.6
176
     1
 40
30.0
176
     1
 62
     7
420
 16777215
176
     1
 90
        0
176
     1
 90
        0
176
     1
 62
     7
176
     1
 62
   257
176
     1
 90
        1
176
     1
 90
        1
176
     1
 40
1.0
176
     1
 90
        0
176
     1
 62
     7
176
     1
 40
1.0
176
     1
 90
        1
176
     1
 90
        6
176
     1
 90
        2
176
     1
 62
     7
176
     1
 90
        5
176
     1
 90
        0
176
     1
 90
        0
176
     1
290
     0
176
     1
 90
       13
176
     1
 40
0.0
176
     1
 90
        0
176
     1
290
     0
176
     1
290
     1
176
     1
290
     1
176
     1
290
     0
176
     1
290
     0
176
     1
290
     0
176
     1
290
     0
176
     1
290
     0
176
     1
290
     0
176
     1
 90
       50
176
     1
 40
0.0
176
     1
 40
1.0
176
     1
 90
        0
176
     1
 62
    18
420
        0
176
     1
 90
       50
176
     1
 90
        3
176
     1
 62
     5
420
      255
176
     1
290
     0
176
     1
 90
       50
176
     1
 90
       50
176
     1
 90
       50
176
     1
290
     0
176
     1
 90
       50
176
     1
 62
   256
176
     0
 40
1.0
176
     0
 90
        2
176
     1
  1
strokes_ogs.tif
176
     1
290
     0
176
     1
 40
1.0
176
     1
 40
1.0
176
     1
  0
VISUALSTYLE
  5
2E
102
{ACAD_REACTORS
330
2A
102
}
330
2A
100
AcDbVisualStyle
  2
GouraudWithEdges
 70
     3
177
     3
291
     1
 70
    58
 90
        2
176
     1
 90
        2
176
     1
 90
        1
176
     1
 90
        2
176
     1
 40
0.6
176
     1
 40
30.0
176
     1
 62
     7
420
 16777215
176
     1
 90
        1
176
     1
 90
        0
176
     1
 62
     7
176
     1
 62
   257
176
     1
 90
        1
176
     1
 90
        1
176
     1
 40
1.0
176
     1
 90
        0
176
     1
 62
   257
176
     1
 40
1.0
176
     1
 90
        1
176
     1
 90
        6
176
     1
 90
        2
176
     1
 62
     7
176
     1
 90
        5
176
     1
 90
        0
176
     1
 90
        0
176
     1
290
     0
176
     1
 90
       13
176
     1
 40
0.0
176
     1
 90
        0
176
     1
290
     0
176
     1
290
     1
176
     1
290
     1
176
     1
290
     0
176
     1
290
     0
176
     1
290
     0
176
     1
290
     0
176
     1
290
     0
176
     1
290
     0
176
     1
 90
       50
176
     1
 40
0.0
176
     1
 40
1.0
176
     1
 90
        0
176
     1
 62
    18
420
        0
176
     1
 90
       50
176
     1
 90
        3
176
     1
 62
     5
420
      255
176
     1
290
     0
176
     1
 90
       50
176
     1
 90
       50
176
     1
 90
       50
176
     1
290
     0
176
     1
 90
       50
176
     1
 62
   256
176
     0
 40
1.0
176
     0
 90
        2
176
     1
  1
strokes_ogs.tif
176
     1
290
     0
176
     1
 40
1.0
176
     1
 40
1.0
176
     1
  0
VISUALSTYLE
  5
31
102
{ACAD_REACTORS
330
2A
102
}
330
2A
100
AcDbVisualStyle
  2
Hidden
 70
     6
177
     3
291
     0
 70
    58
 90
        1
176
     1
 90
        2
176
     1
 90
        2
176
     1
 90
        0
176
     1
 40
0.6
176
     1
 40
30.0
176
     1
 62
     7
420
 16777215
176
     1
 90
        2
176
     1
 90
        2
176
     1
 62
     7
176
     1
 62
   257
176
     1
 90
        2
176
     1
 90
        1
176
     1
 40
40.0
176
     1
 90
        0
176
     1
 62
   257
176
     1
 40
1.0
176
     1
 90
        1
176
     1
 90
        6
176
     1
 90
        2
176
     1
 62
     7
176
     1
 90
        3
176
     1
 90
        0
176
     1
 90
        0
176
     1
290
     0
176
     1
 90
        1
176
     1
 40
0.0
176
     1
 90
        0
176
     1
290
     0
176
     1
290
     1
176
     1
290
     1
176
     1
290
     0
176
     1
290
     0
176
     1
290
     0
176
     1
290
     0
176
     1
290
     0
176
     1
290
     0
176
     1
 90
       50
176
     1
 40
0.0
176
     1
 40
1.0
176
     1
 90
        0
176
     1
 62
    18
420
        0
176
     1
 90
       50
176
     1
 90
        3
176
     1
 62
     5
420
      255
176
     1
290
     0
176
     1
 90
       50
176
     1
 90
       50
176
     1
 90
       50
176
     1
290
     0
176
     1
 90
       50
176
     1
 62
   256
176
     0
 40
1.0
176
     0
 90
        2
176
     1
  1
strokes_ogs.tif
176
     1
290
     0
176
     1
 40
1.0
176
     1
 40
1.0
176
     1
  0
VISUALSTYLE
  5
3B
102
{ACAD_REACTORS
330
2A
102
}
330
2A
100
AcDbVisualStyle
  2
JitterOff
 70
    20
177
     3
291
     1
 70
    58
 90
        2
176
     0
 90
        2
176
     0
 90
        0
176
     0
 90
        0
176
     0
 40
0.6
176
     0
 40
30.0
176
     0
 62
     7
420
 16777215
176
     0
 90
        1
176
     0
 90
        4
176
     0
 62
     7
176
     0
 62
   257
176
     0
 90
        1
176
     0
 90
        1
176
     0
 40
1.0
176
     0
 90
       10
176
     2
 62
     7
176
     0
 40
1.0
176
     0
 90
        1
176
     0
 90
        6
176
     0
 90
        2
176
     0
 62
     7
176
     0
 90
        5
176
     0
 90
        0
176
     0
 90
        0
176
     0
290
     0
176
     0
 90
        1
176
     0
 40
0.0
176
     0
 90
        0
176
     0
290
     0
176
     0
290
     1
176
     0
290
     1
176
     0
290
     0
176
     0
290
     0
176
     0
290
     0
176
     0
290
     0
176
     0
290
     0
176
     0
290
     0
176
     0
 90
       50
176
     0
 40
0.0
176
     0
 40
1.0
176
     0
 90
        0
176
     0
 62
    18
420
        0
176
     0
 90
       50
176
     0
 90
        3
176
     0
 62
     5
420
      255
176
     0
290
     0
176
     0
 90
       50
176
     0
 90
       50
176
     0
 90
       50
176
     0
290
     0
176
     0
 90
       50
176
     0
 62
   256
176
     0
 40
1.0
176
     0
 90
        2
176
     0
  1
strokes_ogs.tif
176
     0
290
     0
176
     0
 40
1.0
176
     0
 40
1.0
176
     0
  0
VISUALSTYLE
  5
38
102
{ACAD_REACTORS
330
2A
102
}
330
2A
100
AcDbVisualStyle
  2
Linepattern
 70
    14
177
     3
291
     1
 70
    58
 90
        2
176
     1
 90
        2
176
     1
 90
        0
176
     1
 90
        0
176
     1
 40
0.6
176
     1
 40
30.0
176
     1
 62
     7
420
 16777215
176
     1
 90
        1
176
     1
 90
        4
176
     1
 62
     7
176
     1
 62
   257
176
     1
 90
        7
176
     1
 90
        7
176
     1
 40
1.0
176
     1
 90
        8
176
     1
 62
     7
176
     1
 40
1.0
176
     1
 90
        1
176
     1
 90
        6
176
     1
 90
        2
176
     1
 62
     7
176
     1
 90
        5
176
     1
 90
        0
176
     1
 90
        0
176
     1
290
     0
176
     1
 90
        1
176
     1
 40
0.0
176
     1
 90
        0
176
     1
290
     0
176
     1
290
     1
176
     1
290
     1
176
     1
290
     0
176
     1
290
     0
176
     1
290
     0
176
     1
290
     0
176
     1
290
     0
176
     1
290
     0
176
     1
 90
       50
176
     1
 40
0.0
176
     1
 40
1.0
176
     1
 90
        0
176
     1
 62
    18
420
        0
176
     1
 90
       50
176
     1
 90
        3
176
     1
 62
     5
420
      255
176
     1
290
     0
176
     1
 90
       50
176
     1
 90
       50
176
     1
 90
       50
176
     1
290
     0
176
     1
 90
       50
176
     1
 62
   256
176
     0
 40
1.0
176
     0
 90
        2
176
     1
  1
strokes_ogs.tif
176
     1
290
     0
176
     1
 40
1.0
176
     1
 40
1.0
176
     1
  0
VISUALSTYLE
  5
3C
102
{ACAD_REACTORS
330
2A
102
}
330
2A
100
AcDbVisualStyle
  2
OverhangOff
 70
    21
177
     3
291
     1
 70
    58
 90
        2
176
     0
 90
        2
176
     0
 90
        0
176
     0
 90
        0
176
     0
 40
0.6
176
     0
 40
30.0
176
     0
 62
     7
420
 16777215
176
     0
 90
        1
176
     0
 90
        4
176
     0
 62
     7
176
     0
 62
   257
176
     0
 90
        1
176
     0
 90
        1
176
     0
 40
1.0
176
     0
 90
        9
176
     2
 62
     7
176
     0
 40
1.0
176
     0
 90
        1
176
     0
 90
        6
176
     0
 90
        2
176
     0
 62
     7
176
     0
 90
        5
176
     0
 90
        0
176
     0
 90
        0
176
     0
290
     0
176
     0
 90
        1
176
     0
 40
0.0
176
     0
 90
        0
176
     0
290
     0
176
     0
290
     1
176
     0
290
     1
176
     0
290
     0
176
     0
290
     0
176
     0
290
     0
176
     0
290
     0
176
     0
290
     0
176
     0
290
     0
176
     0
 90
       50
176
     0
 40
0.0
176
     0
 40
1.0
176
     0
 90
        0
176
     0
 62
    18
420
        0
176
     0
 90
       50
176
     0
 90
        3
176
     0
 62
     5
420
      255
176
     0
290
     0
176
     0
 90
       50
176
     0
 90
       50
176
     0
 90
       50
176
     0
290
     0
176
     0
 90
       50
176
     0
 62
   256
176
     0
 40
1.0
176
     0
 90
        2
176
     0
  1
strokes_ogs.tif
176
     0
290
     0
176
     0
 40
1.0
176
     0
 40
1.0
176
     0
  0
VISUALSTYLE
  5
33
102
{ACAD_REACTORS
330
2A
102
}
330
2A
100
AcDbVisualStyle
  2
Realistic
 70
     8
177
     3
291
     0
 70
    58
 90
        2
176
     1
 90
        3
176
     1
 90
        0
176
     1
 90
        2
176
     1
 40
0.6
176
     1
 40
30.0
176
     1
 62
     7
420
 16777215
176
     1
 90
        0
176
     1
 90
        0
176
     1
 62
     7
176
     1
 62
   257
176
     1
 90
        1
176
     1
 90
        1
176
     1
 40
1.0
176
     1
 90
        8
176
     1
 62
   257
176
     1
 40
1.0
176
     1
 90
        1
176
     1
 90
        6
176
     1
 90
        2
176
     1
 62
     7
176
     1
 90
        3
176
     1
 90
        0
176
     1
 90
        0
176
     1
290
     0
176
     1
 90
       13
176
     1
 40
0.0
176
     1
 90
        0
176
     1
290
     0
176
     1
290
     1
176
     1
290
     1
176
     1
290
     0
176
     1
290
     0
176
     1
290
     0
176
     1
290
     0
176
     1
290
     0
176
     1
290
     0
176
     1
 90
       50
176
     1
 40
0.0
176
     1
 40
1.0
176
     1
 90
        0
176
     1
 62
    18
420
        0
176
     1
 90
       50
176
     1
 90
        3
176
     1
 62
     5
420
      255
176
     1
290
     0
176
     1
 90
       50
176
     1
 90
       50
176
     1
 90
       50
176
     1
290
     0
176
     1
 90
       50
176
     1
 62
   256
176
     0
 40
1.0
176
     0
 90
        2
176
     1
  1
strokes_ogs.tif
176
     1
290
     0
176
     1
 40
1.0
176
     1
 40
1.0
176
     1
  0
VISUALSTYLE
  5
42
102
{ACAD_REACTORS
330
2A
102
}
330
2A
100
AcDbVisualStyle
  2
Shaded
 70
    27
177
     3
291
     0
 70
    58
 90
        2
176
     1
 90
        2
176
     1
 90
        1
176
     1
 90
        2
176
     1
 40
0.6
176
     1
 40
30.0
176
     1
 62
     7
420
 16777215
176
     1
 90
        0
176
     1
 90
        4
176
     1
 62
     7
176
     1
 62
   257
176
     1
 90
        1
176
     1
 90
        1
176
     1
 40
1.0
176
     1
 90
        8
176
     1
 62
   257
176
     1
 40
1.0
176
     1
 90
        1
176
     1
 90
        6
176
     1
 90
        2
176
     1
 62
     8
420
  7895160
176
     1
 90
        3
176
     1
 90
        0
176
     1
 90
        0
176
     1
290
     0
176
     1
 90
        5
176
     1
 40
0.0
176
     1
 90
        0
176
     1
290
     0
176
     1
290
     1
176
     1
290
     1
176
     1
290
     0
176
     1
290
     0
176
     1
290
     0
176
     1
290
     0
176
     1
290
     0
176
     1
290
     0
176
     1
 90
       50
176
     1
 40
0.0
176
     1
 40
1.0
176
     1
 90
        0
176
     1
 62
    18
420
        0
176
     1
 90
       50
176
     1
 90
        3
176
     1
 62
     5
420
      255
176
     1
290
     0
176
     1
 90
       50
176
     1
 90
       50
176
     1
 90
       50
176
     1
290
     0
176
     1
 90
       50
176
     1
 62
   256
176
     0
 40
1.0
176
     0
 90
        2
176
     1
  1
strokes_ogs.tif
176
     1
290
     0
176
     1
 40
1.0
176
     1
 40
1.0
176
     1
  0
VISUALSTYLE
  5
41
102
{ACAD_REACTORS
330
2A
102
}
330
2A
100
AcDbVisualStyle
  2
Shaded with edges
 70
    26
177
     3
291
     0
 70
    58
 90
        2
176
     1
 90
        2
176
     1
 90
        1
176
     1
 90
        2
176
     1
 40
0.6
176
     1
 40
30.0
176
     1
 62
     7
420
 16777215
176
     1
 90
        1
176
     1
 90
       10
176
     1
 62
     7
176
     1
 62
   257
176
     1
 90
        2
176
     1
 90
        1
176
     1
 40
1.0
176
     1
 90
        8
176
     1
 62
   257
176
     1
 40
1.0
176
     1
 90
        1
176
     1
 90
        6
176
     1
 90
        2
176
     1
 62
     7
176
     1
 90
        3
176
     1
 90
        0
176
     1
 90
        0
176
     1
290
     0
176
     1
 90
        5
176
     1
 40
0.0
176
     1
 90
        0
176
     1
290
     0
176
     1
290
     1
176
     1
290
     1
176
     1
290
     0
176
     1
290
     0
176
     1
290
     0
176
     1
290
     0
176
     1
290
     0
176
     1
290
     0
176
     1
 90
       50
176
     1
 40
0.0
176
     1
 40
1.0
176
     1
 90
        0
176
     1
 62
    18
420
        0
176
     1
 90
       50
176
     1
 90
        3
176
     1
 62
     5
420
      255
176
     1
290
     0
176
     1
 90
       50
176
     1
 90
       50
176
     1
 90
       50
176
     1
290
     0
176
     1
 90
       50
176
     1
 62
   256
176
     0
 40
1.0
176
     0
 90
        2
176
     1
  1
strokes_ogs.tif
176
     1
290
     0
176
     1
 40
1.0
176
     1
 40
1.0
176
     1
  0
VISUALSTYLE
  5
3E
102
{ACAD_REACTORS
330
2A
102
}
330
2A
100
AcDbVisualStyle
  2
Shades of Gray
 70
    23
177
     3
291
     0
 70
    58
 90
        2
176
     1
 90
        2
176
     1
 90
        3
176
     1
 90
        0
176
     1
 40
0.6
176
     1
 40
30.0
176
     1
 62
     7
420
 16777215
176
     1
 90
        2
176
     1
 90
        2
176
     1
 62
     7
176
     1
 62
     7
176
     1
 90
        1
176
     1
 90
        1
176
     1
 40
40.0
176
     1
 90
        8
176
     1
 62
     7
176
     1
 40
1.0
176
     1
 90
        1
176
     1
 90
        6
176
     1
 90
        2
176
     1
 62
     7
176
     1
 90
        3
176
     1
 90
        0
176
     1
 90
        0
176
     1
290
     0
176
     1
 90
        1
176
     1
 40
0.0
176
     1
 90
        0
176
     1
290
     0
176
     1
290
     1
176
     1
290
     1
176
     1
290
     0
176
     1
290
     0
176
     1
290
     0
176
     1
290
     0
176
     1
290
     0
176
     1
290
     0
176
     1
 90
       50
176
     1
 40
0.0
176
     1
 40
1.0
176
     1
 90
        0
176
     1
 62
    18
420
        0
176
     1
 90
       50
176
     1
 90
        3
176
     1
 62
     5
420
      255
176
     1
290
     0
176
     1
 90
       50
176
     1
 90
       50
176
     1
 90
       50
176
     1
290
     0
176
     1
 90
       50
176
     1
 62
   256
176
     0
 40
1.0
176
     0
 90
        2
176
     1
  1
strokes_ogs.tif
176
     1
290
     0
176
     1
 40
1.0
176
     1
 40
1.0
176
     1
  0
VISUALSTYLE
  5
3F
102
{ACAD_REACTORS
330
2A
102
}
330
2A
100
AcDbVisualStyle
  2
Sketchy
 70
    24
177
     3
291
     0
 70
    58
 90
        1
176
     1
 90
        2
176
     1
 90
        2
176
     1
 90
        0
176
     1
 40
0.6
176
     1
 40
30.0
176
     1
 62
     7
420
 16777215
176
     1
 90
        2
176
     1
 90
        2
176
     1
 62
     7
176
     1
 62
     7
176
     1
 90
        1
176
     1
 90
        1
176
     1
 40
40.0
176
     1
 90
       11
176
     1
 62
     7
176
     1
 40
1.0
176
     1
 90
        1
176
     1
 90
        6
176
     1
 90
        2
176
     1
 62
     7
176
     1
 90
        6
176
     1
 90
        0
176
     1
 90
        0
176
     1
290
     0
176
     1
 90
        1
176
     1
 40
0.0
176
     1
 90
        0
176
     1
290
     0
176
     1
290
     1
176
     1
290
     1
176
     1
290
     0
176
     1
290
     0
176
     1
290
     0
176
     1
290
     0
176
     1
290
     0
176
     1
290
     0
176
     1
 90
       50
176
     1
 40
0.0
176
     1
 40
1.0
176
     1
 90
        0
176
     1
 62
    18
420
        0
176
     1
 90
       50
176
     1
 90
        3
176
     1
 62
     5
420
      255
176
     1
290
     0
176
     1
 90
       50
176
     1
 90
       50
176
     1
 90
       50
176
     1
290
     0
176
     1
 90
       50
176
     1
 62
   256
176
     0
 40
1.0
176
     0
 90
        2
176
     1
  1
strokes_ogs.tif
176
     1
290
     0
176
     1
 40
1.0
176
     1
 40
1.0
176
     1
  0
VISUALSTYLE
  5
37
102
{ACAD_REACTORS
330
2A
102
}
330
2A
100
AcDbVisualStyle
  2
Thicken
 70
    13
177
     3
291
     1
 70
    58
 90
        2
176
     1
 90
        2
176
     1
 90
        0
176
     1
 90
        0
176
     1
 40
0.6
176
     1
 40
30.0
176
     1
 62
     7
420
 16777215
176
     1
 90
        1
176
     1
 90
        4
176
     1
 62
     7
176
     1
 62
   257
176
     1
 90
        1
176
     1
 90
        1
176
     1
 40
1.0
176
     1
 90
       12
176
     1
 62
     7
176
     1
 40
1.0
176
     1
 90
        1
176
     1
 90
        6
176
     1
 90
        2
176
     1
 62
     7
176
     1
 90
        5
176
     1
 90
        0
176
     1
 90
        0
176
     1
290
     0
176
     1
 90
        1
176
     1
 40
0.0
176
     1
 90
        0
176
     1
290
     0
176
     1
290
     1
176
     1
290
     1
176
     1
290
     0
176
     1
290
     0
176
     1
290
     0
176
     1
290
     0
176
     1
290
     0
176
     1
290
     0
176
     1
 90
       50
176
     1
 40
0.0
176
     1
 40
1.0
176
     1
 90
        0
176
     1
 62
    18
420
        0
176
     1
 90
       50
176
     1
 90
        3
176
     1
 62
     5
420
      255
176
     1
290
     0
176
     1
 90
       50
176
     1
 90
       50
176
     1
 90
       50
176
     1
290
     0
176
     1
 90
       50
176
     1
 62
   256
176
     0
 40
1.0
176
     0
 90
        2
176
     1
  1
strokes_ogs.tif
176
     1
290
     0
176
     1
 40
1.0
176
     1
 40
1.0
176
     1
  0
VISUALSTYLE
  5
30
102
{ACAD_REACTORS
330
2A
102
}
330
2A
100
AcDbVisualStyle
  2
Wireframe
 70
     5
177
     3
291
     0
 70
    58
 90
        0
176
     1
 90
        2
176
     1
 90
        0
176
     1
 90
        0
176
     1
 40
0.6
176
     1
 40
30.0
176
     1
 62
     7
420
 16777215
176
     1
 90
        1
176
     1
 90
        4
176
     1
 62
     7
176
     1
 62
   257
176
     1
 90
        1
176
     1
 90
        1
176
     1
 40
1.0
176
     1
 90
        0
176
     1
 62
   257
176
     1
 40
1.0
176
     1
 90
        1
176
     1
 90
        6
176
     1
 90
        2
176
     1
 62
     7
176
     1
 90
        3
176
     1
 90
        0
176
     1
 90
        0
176
     1
290
     0
176
     1
 90
        1
176
     1
 40
0.0
176
     1
 90
        0
176
     1
290
     0
176
     1
290
     1
176
     1
290
     1
176
     1
290
     0
176
     1
290
     0
176
     1
290
     0
176
     1
290
     0
176
     1
290
     0
176
     1
290
     0
176
     1
 90
       50
176
     1
 40
0.0
176
     1
 40
1.0
176
     1
 90
        0
176
     1
 62
    18
420
        0
176
     1
 90
       50
176
     1
 90
        3
176
     1
 62
     5
420
      255
176
     1
290
     0
176
     1
 90
       50
176
     1
 90
       50
176
     1
 90
       50
176
     1
290
     0
176
     1
 90
       50
176
     1
 62
   256
176
     0
 40
1.0
176
     0
 90
        2
176
     1
  1
strokes_ogs.tif
176
     1
290
     0
176
     1
 40
1.0
176
     1
 40
1.0
176
     1
  0
VISUALSTYLE
  5
40
102
{ACAD_REACTORS
330
2A
102
}
330
2A
100
AcDbVisualStyle
  2
X-Ray
 70
    25
177
     3
291
     0
 70
    58
 90
        2
176
     1
 90
        2
176
     1
 90
        1
176
     1
 90
        1
176
     1
 40
0.5
176
     1
 40
30.0
176
     1
 62
     7
420
 16777215
176
     1
 90
        1
176
     1
 90
        0
176
     1
 62
     7
176
     1
 62
   257
176
     1
 90
        1
176
     1
 90
        1
176
     1
 40
1.0
176
     1
 90
        8
176
     1
 62
     7
176
     1
 40
1.0
176
     1
 90
        1
176
     1
 90
        6
176
     1
 90
        2
176
     1
 62
     7
176
     1
 90
        3
176
     1
 90
        0
176
     1
 90
        0
176
     1
290
     0
176
     1
 90
       13
176
     1
 40
0.0
176
     1
 90
        0
176
     1
290
     0
176
     1
290
     1
176
     1
290
     1
176
     1
290
     0
176
     1
290
     0
176
     1
290
     0
176
     1
290
     0
176
     1
290
     0
176
     1
290
     0
176
     1
 90
       50
176
     1
 40
0.0
176
     1
 40
1.0
176
     1
 90
        0
176
     1
 62
    18
420
        0
176
     1
 90
       50
176
     1
 90
        3
176
     1
 62
     5
420
      255
176
     1
290
     0
176
     1
 90
       50
176
     1
 90
       50
176
     1
 90
       50
176
     1
290
     0
176
     1
 90
       50
176
     1
 62
   256
176
     0
 40
1.0
176
     0
 90
        2
176
     1
  1
strokes_ogs.tif
176
     1
290
     0
176
     1
 40
1.0
176
     1
 40
1.0
176
     1
  0
DICTIONARYVAR
  5
18B
102
{ACAD_REACTORS
330
18A
102
}
330
18A
100
DictionaryVariables
280
     0
  1
1:1
  0
DICTIONARYVAR
  5
190
102
{ACAD_REACTORS
330
18A
102
}
330
18A
100
DictionaryVariables
280
     0
  1
Standard
  0
DICTIONARYVAR
  5
18F
102
{ACAD_REACTORS
330
18A
102
}
330
18A
100
DictionaryVariables
280
     0
  1
Standard
  0
DICTIONARY
  5
18C
330
6A
100
AcDbDictionary
280
     1
281
     1
  3
ACAD_ROUNDTRIP_2008_TABLESTYLE_CELLSTYLEMAP
360
18D
  0
CELLSTYLEMAP
  5
18D
102
{ACAD_REACTORS
330
18C
102
}
330
18C
100
AcDbCellStyleMap
 90
        3
300
CELLSTYLE
  1
TABLEFORMAT_BEGIN
 90
        5
170
     1
 91
        0
 92
    32768
 62
   257
 93
        1
300
CONTENTFORMAT
  1
CONTENTFORMAT_BEGIN
 90
        0
 91
        0
 92
        4
 93
        0
300

 40
0.0
140
1.0
 94
        5
 62
     0
340
11
144
0.25
309
CONTENTFORMAT_END
171
     1
301
MARGIN
  1
CELLMARGIN_BEGIN
 40
0.06
 40
0.06
 40
0.06
 40
0.06
 40
0.06
 40
0.06
309
CELLMARGIN_END
 94
        6
 95
        1
302
GRIDFORMAT
  1
GRIDFORMAT_BEGIN
 90
        0
 91
        1
 62
     0
 92
       -2
340
14
 93
        0
 40
0.045
309
GRIDFORMAT_END
 95
        2
302
GRIDFORMAT
  1
GRIDFORMAT_BEGIN
 90
        0
 91
        1
 62
     0
 92
       -2
340
14
 93
        0
 40
0.045
309
GRIDFORMAT_END
 95
        4
302
GRIDFORMAT
  1
GRIDFORMAT_BEGIN
 90
        0
 91
        1
 62
     0
 92
       -2
340
14
 93
        0
 40
0.045
309
GRIDFORMAT_END
 95
        8
302
GRIDFORMAT
  1
GRIDFORMAT_BEGIN
 90
        0
 91
        1
 62
     0
 92
       -2
340
14
 93
        0
 40
0.045
309
GRIDFORMAT_END
 95
       16
302
GRIDFORMAT
  1
GRIDFORMAT_BEGIN
 90
        0
 91
        1
 62
     0
 92
       -2
340
14
 93
        0
 40
0.045
309
GRIDFORMAT_END
 95
       32
302
GRIDFORMAT
  1
GRIDFORMAT_BEGIN
 90
        0
 91
        1
 62
     0
 92
       -2
340
14
 93
        0
 40
0.045
309
GRIDFORMAT_END
309
TABLEFORMAT_END
  1
CELLSTYLE_BEGIN
 90
        1
 91
        1
300
_TITLE
309
CELLSTYLE_END
300
CELLSTYLE
  1
TABLEFORMAT_BEGIN
 90
        5
170
     1
 91
        0
 92
        0
 62
   257
 93
        1
300
CONTENTFORMAT
  1
CONTENTFORMAT_BEGIN
 90
        0
 91
        0
 92
        4
 93
        0
300

 40
0.0
140
1.0
 94
        5
 62
     0
340
11
144
0.18
309
CONTENTFORMAT_END
171
     1
301
MARGIN
  1
CELLMARGIN_BEGIN
 40
0.06
 40
0.06
 40
0.06
 40
0.06
 40
0.06
 40
0.06
309
CELLMARGIN_END
 94
        6
 95
        1
302
GRIDFORMAT
  1
GRIDFORMAT_BEGIN
 90
        0
 91
        1
 62
     0
 92
       -2
340
14
 93
        0
 40
0.045
309
GRIDFORMAT_END
 95
        2
302
GRIDFORMAT
  1
GRIDFORMAT_BEGIN
 90
        0
 91
        1
 62
     0
 92
       -2
340
14
 93
        0
 40
0.045
309
GRIDFORMAT_END
 95
        4
302
GRIDFORMAT
  1
GRIDFORMAT_BEGIN
 90
        0
 91
        1
 62
     0
 92
       -2
340
14
 93
        0
 40
0.045
309
GRIDFORMAT_END
 95
        8
302
GRIDFORMAT
  1
GRIDFORMAT_BEGIN
 90
        0
 91
        1
 62
     0
 92
       -2
340
14
 93
        0
 40
0.045
309
GRIDFORMAT_END
 95
       16
302
GRIDFORMAT
  1
GRIDFORMAT_BEGIN
 90
        0
 91
        1
 62
     0
 92
       -2
340
14
 93
        0
 40
0.045
309
GRIDFORMAT_END
 95
       32
302
GRIDFORMAT
  1
GRIDFORMAT_BEGIN
 90
        0
 91
        1
 62
     0
 92
       -2
340
14
 93
        0
 40
0.045
309
GRIDFORMAT_END
309
TABLEFORMAT_END
  1
CELLSTYLE_BEGIN
 90
        2
 91
        1
300
_HEADER
309
CELLSTYLE_END
300
CELLSTYLE
  1
TABLEFORMAT_BEGIN
 90
        5
170
     1
 91
        0
 92
        0
 62
   257
 93
        1
300
CONTENTFORMAT
  1
CONTENTFORMAT_BEGIN
 90
        0
 91
        0
 92
        4
 93
        0
300

 40
0.0
140
1.0
 94
        2
 62
     0
340
11
144
0.18
309
CONTENTFORMAT_END
171
     1
301
MARGIN
  1
CELLMARGIN_BEGIN
 40
0.06
 40
0.06
 40
0.06
 40
0.06
 40
0.06
 40
0.06
309
CELLMARGIN_END
 94
        6
 95
        1
302
GRIDFORMAT
  1
GRIDFORMAT_BEGIN
 90
        0
 91
        1
 62
     0
 92
       -2
340
14
 93
        0
 40
0.045
309
GRIDFORMAT_END
 95
        2
302
GRIDFORMAT
  1
GRIDFORMAT_BEGIN
 90
        0
 91
        1
 62
     0
 92
       -2
340
14
 93
        0
 40
0.045
309
GRIDFORMAT_END
 95
        4
302
GRIDFORMAT
  1
GRIDFORMAT_BEGIN
 90
        0
 91
        1
 62
     0
 92
       -2
340
14
 93
        0
 40
0.045
309
GRIDFORMAT_END
 95
        8
302
GRIDFORMAT
  1
GRIDFORMAT_BEGIN
 90
        0
 91
        1
 62
     0
 92
       -2
340
14
 93
        0
 40
0.045
309
GRIDFORMAT_END
 95
       16
302
GRIDFORMAT
  1
GRIDFORMAT_BEGIN
 90
        0
 91
        1
 62
     0
 92
       -2
340
14
 93
        0
 40
0.045
309
GRIDFORMAT_END
 95
       32
302
GRIDFORMAT
  1
GRIDFORMAT_BEGIN
 90
        0
 91
        1
 62
     0
 92
       -2
340
14
 93
        0
 40
0.045
309
GRIDFORMAT_END
309
TABLEFORMAT_END
  1
CELLSTYLE_BEGIN
 90
        3
 91
        2
300
_DATA
309
CELLSTYLE_END
  0
ENDSEC
  0
EOF