0
SECTION
  2
HEADER
  9
$ACADVER
  1
AC1027
  9
$ACADMAINTVER
 70
     8
  9
$DWGCODEPAGE
  3
ANSI_1252
  9
$REQUIREDVERSIONS
160
                 0
  9
$COMMENTS
  1
File was created by Cadenas
  9
$CUSTOMPROPERTYTAG
  1
NN
  9
$CUSTOMPROPERTY
  1
Set Screw Extreme Duty Tapped Base Inch Bore
  9
$CUSTOMPROPERTYTAG
  1
NT
  9
$CUSTOMPROPERTY
  1
SC Pillow Block Bearings -(Normal Duty) -Tapped Base Housing
  9
$CUSTOMPROPERTYTAG
  1
NB
  9
$CUSTOMPROPERTY
  1
076030
  9
$CUSTOMPROPERTYTAG
  1
NBSYN
  9
$CUSTOMPROPERTY
  1
$PN.
  9
$CUSTOMPROPERTYTAG
  1
LINA
  9
$CUSTOMPROPERTY
  1
076030
  9
$CUSTOMPROPERTYTAG
  1
SERIES
  9
$CUSTOMPROPERTY
  1
211
  9
$CUSTOMPROPERTYTAG
  1
SS
  9
$CUSTOMPROPERTY
  1
2-3/16
  9
$CUSTOMPROPERTYTAG
  1
PN
  9
$CUSTOMPROPERTY
  1
076030
  9
$CUSTOMPROPERTYTAG
  1
DESCRIPTION
  9
$CUSTOMPROPERTY
  1
TB-SCED-203
  9
$CUSTOMPROPERTYTAG
  1
W
  9
$CUSTOMPROPERTY
  1
6.50
  9
$CUSTOMPROPERTYTAG
  1
A
  9
$CUSTOMPROPERTY
  1
2.22
  9
$CUSTOMPROPERTYTAG
  1
B
  9
$CUSTOMPROPERTY
  1
5.50
  9
$CUSTOMPROPERTYTAG
  1
C
  9
$CUSTOMPROPERTY
  1
2.00
  9
$CUSTOMPROPERTYTAG
  1
D
  9
$CUSTOMPROPERTY
  1
4.00
  9
$CUSTOMPROPERTYTAG
  1
J
  9
$CUSTOMPROPERTY
  1
4.63
  9
$CUSTOMPROPERTYTAG
  1
L
  9
$CUSTOMPROPERTY
  1
2.71
  9
$CUSTOMPROPERTYTAG
  1
M
  9
$CUSTOMPROPERTY
  1
2.25
  9
$CUSTOMPROPERTYTAG
  1
N
  9
$CUSTOMPROPERTY
  1
0.88
  9
$CUSTOMPROPERTYTAG
  1
R
  9
$CUSTOMPROPERTY
  1
5/8-11
  9
$CUSTOMPROPERTYTAG
  1
S
  9
$CUSTOMPROPERTY
  1
1.35
  9
$CUSTOMPROPERTYTAG
  1
COMPANY
  9
$CUSTOMPROPERTY
  1
baldor
  9
$INSBASE
 10
0.0
 20
0.0
 30
0.0
  9
$EXTMIN
 10
1.000000000000000E+20
 20
1.000000000000000E+20
 30
1.000000000000000E+20
  9
$EXTMAX
 10
-1.000000000000000E+20
 20
-1.000000000000000E+20
 30
-1.000000000000000E+20
  9
$LIMMIN
 10
0.0
 20
0.0
  9
$LIMMAX
 10
12.0
 20
9.0
  9
$ORTHOMODE
 70
     0
  9
$REGENMODE
 70
     1
  9
$FILLMODE
 70
     1
  9
$QTEXTMODE
 70
     0
  9
$MIRRTEXT
 70
     1
  9
$LTSCALE
 40
1.0
  9
$ATTMODE
 70
     1
  9
$TEXTSIZE
 40
0.2
  9
$TRACEWID
 40
0.05
  9
$TEXTSTYLE
  7
Standard
  9
$CLAYER
  8
0
  9
$CELTYPE
  6
ByLayer
  9
$CECOLOR
 62
   256
  9
$CELTSCALE
 40
1.0
  9
$DISPSILH
 70
     0
  9
$DIMSCALE
 40
1.0
  9
$DIMASZ
 40
0.18
  9
$DIMEXO
 40
0.0625
  9
$DIMDLI
 40
0.38
  9
$DIMRND
 40
0.0
  9
$DIMDLE
 40
0.0
  9
$DIMEXE
 40
0.18
  9
$DIMTP
 40
0.0
  9
$DIMTM
 40
0.0
  9
$DIMTXT
 40
0.18
  9
$DIMCEN
 40
0.09
  9
$DIMTSZ
 40
0.0
  9
$DIMTOL
 70
     0
  9
$DIMLIM
 70
     0
  9
$DIMTIH
 70
     1
  9
$DIMTOH
 70
     1
  9
$DIMSE1
 70
     0
  9
$DIMSE2
 70
     0
  9
$DIMTAD
 70
     0
  9
$DIMZIN
 70
     0
  9
$DIMBLK
  1

  9
$DIMASO
 70
     1
  9
$DIMSHO
 70
     1
  9
$DIMPOST
  1

  9
$DIMAPOST
  1

  9
$DIMALT
 70
     0
  9
$DIMALTD
 70
     2
  9
$DIMALTF
 40
25.4
  9
$DIMLFAC
 40
1.0
  9
$DIMTOFL
 70
     0
  9
$DIMTVP
 40
0.0
  9
$DIMTIX
 70
     0
  9
$DIMSOXD
 70
     0
  9
$DIMSAH
 70
     0
  9
$DIMBLK1
  1

  9
$DIMBLK2
  1

  9
$DIMSTYLE
  2
Standard
  9
$DIMCLRD
 70
     0
  9
$DIMCLRE
 70
     0
  9
$DIMCLRT
 70
     0
  9
$DIMTFAC
 40
1.0
  9
$DIMGAP
 40
0.09
  9
$DIMJUST
 70
     0
  9
$DIMSD1
 70
     0
  9
$DIMSD2
 70
     0
  9
$DIMTOLJ
 70
     1
  9
$DIMTZIN
 70
     0
  9
$DIMALTZ
 70
     0
  9
$DIMALTTZ
 70
     0
  9
$DIMUPT
 70
     0
  9
$DIMDEC
 70
     4
  9
$DIMTDEC
 70
     4
  9
$DIMALTU
 70
     2
  9
$DIMALTTD
 70
     2
  9
$DIMTXSTY
  7
Standard
  9
$DIMAUNIT
 70
     0
  9
$DIMADEC
 70
     0
  9
$DIMALTRND
 40
0.0
  9
$DIMAZIN
 70
     0
  9
$DIMDSEP
 70
    46
  9
$DIMATFIT
 70
     3
  9
$DIMFRAC
 70
     0
  9
$DIMLDRBLK
  1

  9
$DIMLUNIT
 70
     2
  9
$DIMLWD
 70
    -2
  9
$DIMLWE
 70
    -2
  9
$DIMTMOVE
 70
     0
  9
$DIMFXL
 40
1.0
  9
$DIMFXLON
 70
     0
  9
$DIMJOGANG
 40
0.7853981633974483
  9
$DIMTFILL
 70
     0
  9
$DIMTFILLCLR
 70
     0
  9
$DIMARCSYM
 70
     0
  9
$DIMLTYPE
  6

  9
$DIMLTEX1
  6

  9
$DIMLTEX2
  6

  9
$DIMTXTDIRECTION
 70
     0
  9
$LUNITS
 70
     2
  9
$LUPREC
 70
     4
  9
$SKETCHINC
 40
0.1
  9
$FILLETRAD
 40
0.5
  9
$AUNITS
 70
     0
  9
$AUPREC
 70
     0
  9
$MENU
  1
.
  9
$ELEVATION
 40
0.0
  9
$PELEVATION
 40
0.0
  9
$THICKNESS
 40
0.0
  9
$LIMCHECK
 70
     0
  9
$CHAMFERA
 40
0.0
  9
$CHAMFERB
 40
0.0
  9
$CHAMFERC
 40
0.0
  9
$CHAMFERD
 40
0.0
  9
$SKPOLY
 70
     0
  9
$TDCREATE
 40
2458168.889521458
  9
$TDUCREATE
 40
2458168.847854792
  9
$TDUPDATE
 40
2458168.889521644
  9
$TDUUPDATE
 40
2458168.847854977
  9
$TDINDWG
 40
0.0000000116
  9
$TDUSRTIMER
 40
0.0000000116
  9
$USRTIMER
 70
     1
  9
$ANGBASE
 50
0.0
  9
$ANGDIR
 70
     0
  9
$PDMODE
 70
     0
  9
$PDSIZE
 40
0.0
  9
$PLINEWID
 40
0.0
  9
$SPLFRAME
 70
     0
  9
$SPLINETYPE
 70
     6
  9
$SPLINESEGS
 70
     8
  9
$HANDSEED
  5
199
  9
$SURFTAB1
 70
     6
  9
$SURFTAB2
 70
     6
  9
$SURFTYPE
 70
     6
  9
$SURFU
 70
     6
  9
$SURFV
 70
     6
  9
$UCSBASE
  2

  9
$UCSNAME
  2

  9
$UCSORG
 10
0.0
 20
0.0
 30
0.0
  9
$UCSXDIR
 10
1.0
 20
0.0
 30
0.0
  9
$UCSYDIR
 10
0.0
 20
1.0
 30
0.0
  9
$UCSORTHOREF
  2

  9
$UCSORTHOVIEW
 70
     0
  9
$UCSORGTOP
 10
0.0
 20
0.0
 30
0.0
  9
$UCSORGBOTTOM
 10
0.0
 20
0.0
 30
0.0
  9
$UCSORGLEFT
 10
0.0
 20
0.0
 30
0.0
  9
$UCSORGRIGHT
 10
0.0
 20
0.0
 30
0.0
  9
$UCSORGFRONT
 10
0.0
 20
0.0
 30
0.0
  9
$UCSORGBACK
 10
0.0
 20
0.0
 30
0.0
  9
$PUCSBASE
  2

  9
$PUCSNAME
  2

  9
$PUCSORG
 10
0.0
 20
0.0
 30
0.0
  9
$PUCSXDIR
 10
1.0
 20
0.0
 30
0.0
  9
$PUCSYDIR
 10
0.0
 20
1.0
 30
0.0
  9
$PUCSORTHOREF
  2

  9
$PUCSORTHOVIEW
 70
     0
  9
$PUCSORGTOP
 10
0.0
 20
0.0
 30
0.0
  9
$PUCSORGBOTTOM
 10
0.0
 20
0.0
 30
0.0
  9
$PUCSORGLEFT
 10
0.0
 20
0.0
 30
0.0
  9
$PUCSORGRIGHT
 10
0.0
 20
0.0
 30
0.0
  9
$PUCSORGFRONT
 10
0.0
 20
0.0
 30
0.0
  9
$PUCSORGBACK
 10
0.0
 20
0.0
 30
0.0
  9
$USERI1
 70
     0
  9
$USERI2
 70
     0
  9
$USERI3
 70
     0
  9
$USERI4
 70
     0
  9
$USERI5
 70
     0
  9
$USERR1
 40
0.0
  9
$USERR2
 40
0.0
  9
$USERR3
 40
0.0
  9
$USERR4
 40
0.0
  9
$USERR5
 40
0.0
  9
$WORLDVIEW
 70
     1
  9
$SHADEDGE
 70
     3
  9
$SHADEDIF
 70
    70
  9
$TILEMODE
 70
     1
  9
$MAXACTVP
 70
    64
  9
$PINSBASE
 10
0.0
 20
0.0
 30
0.0
  9
$PLIMCHECK
 70
     0
  9
$PEXTMIN
 10
1.000000000000000E+20
 20
1.000000000000000E+20
 30
1.000000000000000E+20
  9
$PEXTMAX
 10
-1.000000000000000E+20
 20
-1.000000000000000E+20
 30
-1.000000000000000E+20
  9
$PLIMMIN
 10
0.0
 20
0.0
  9
$PLIMMAX
 10
12.0
 20
9.0
  9
$UNITMODE
 70
     0
  9
$VISRETAIN
 70
     1
  9
$PLINEGEN
 70
     0
  9
$PSLTSCALE
 70
     1
  9
$TREEDEPTH
 70
  3020
  9
$CMLSTYLE
  2
Standard
  9
$CMLJUST
 70
     0
  9
$CMLSCALE
 40
1.0
  9
$PROXYGRAPHICS
 70
     1
  9
$MEASUREMENT
 70
     0
  9
$CELWEIGHT
370
    -1
  9
$ENDCAPS
280
     0
  9
$JOINSTYLE
280
     0
  9
$LWDISPLAY
290
     0
  9
$INSUNITS
 70
     1
  9
$HYPERLINKBASE
  1

  9
$STYLESHEET
  1

  9
$XEDIT
290
     1
  9
$CEPSNTYPE
380
     0
  9
$PSTYLEMODE
290
     1
  9
$FINGERPRINTGUID
  2
{1A10077A-7384-488A-9129-CFCB5C627414}
  9
$VERSIONGUID
  2
{FAEB1C32-E019-11D5-929B-00C0DF256EC4}
  9
$EXTNAMES
290
     1
  9
$PSVPSCALE
 40
0.0
  9
$OLESTARTUP
290
     0
  9
$SORTENTS
280
   127
  9
$INDEXCTL
280
     0
  9
$HIDETEXT
280
     1
  9
$XCLIPFRAME
280
     2
  9
$HALOGAP
280
     0
  9
$OBSCOLOR
 70
   257
  9
$OBSLTYPE
280
     0
  9
$INTERSECTIONDISPLAY
280
     0
  9
$INTERSECTIONCOLOR
 70
   257
  9
$DIMASSOC
280
     2
  9
$PROJECTNAME
  1

  9
$CAMERADISPLAY
290
     0
  9
$LENSLENGTH
 40
50.0
  9
$CAMERAHEIGHT
 40
0.0
  9
$STEPSPERSEC
 40
2.0
  9
$STEPSIZE
 40
6.0
  9
$3DDWFPREC
 40
2.0
  9
$PSOLWIDTH
 40
0.25
  9
$PSOLHEIGHT
 40
4.0
  9
$LOFTANG1
 40
1.570796326794897
  9
$LOFTANG2
 40
1.570796326794897
  9
$LOFTMAG1
 40
0.0
  9
$LOFTMAG2
 40
0.0
  9
$LOFTPARAM
 70
     7
  9
$LOFTNORMALS
280
     1
  9
$LATITUDE
 40
37.795
  9
$LONGITUDE
 40
-122.394
  9
$NORTHDIRECTION
 40
0.0
  9
$TIMEZONE
 70
 -8000
  9
$LIGHTGLYPHDISPLAY
280
     1
  9
$TILEMODELIGHTSYNCH
280
     1
  9
$CMATERIAL
347
44
  9
$SOLIDHIST
280
     0
  9
$SHOWHIST
280
     1
  9
$DWFFRAME
280
     2
  9
$DGNFRAME
280
     2
  9
$REALWORLDSCALE
290
     1
  9
$INTERFERECOLOR
 62
   256
  9
$CSHADOW
280
     0
  9
$SHADOWPLANELOCATION
 40
0.0
  0
ENDSEC
  0
SECTION
  2
CLASSES
  0
CLASS
  1
ACDBDICTIONARYWDFLT
  2
AcDbDictionaryWithDefault
  3
ObjectDBX Classes
 90
        0
 91
        4
280
     0
281
     0
  0
CLASS
  1
VISUALSTYLE
  2
AcDbVisualStyle
  3
ObjectDBX Classes
 90
     4095
 91
        4
280
     0
281
     0
  0
CLASS
  1
MATERIAL
  2
AcDbMaterial
  3
ObjectDBX Classes
 90
     1153
 91
        4
280
     0
281
     0
  0
CLASS
  1
SCALE
  2
AcDbScale
  3
ObjectDBX Classes
 90
     1153
 91
        4
280
     0
281
     0
  0
CLASS
  1
TABLESTYLE
  2
AcDbTableStyle
  3
ObjectDBX Classes
 90
     4095
 91
        4
280
     0
281
     0
  0
CLASS
  1
MLEADERSTYLE
  2
AcDbMLeaderStyle
  3
ACDB_MLEADERSTYLE_CLASS
 90
     4095
 91
        4
280
     0
281
     0
  0
CLASS
  1
SUN
  2
AcDbSun
  3
SCENEOE
 90
     1153
 91
        4
280
     0
281
     0
  0
CLASS
  1
DICTIONARYVAR
  2
AcDbDictionaryVar
  3
ObjectDBX Classes
 90
        0
 91
        4
280
     0
281
     0
  0
CLASS
  1
CELLSTYLEMAP
  2
AcDbCellStyleMap
  3
ObjectDBX Classes
 90
     1152
 91
        4
280
     0
281
     0
  0
ENDSEC
  0
SECTION
  2
TABLES
  0
TABLE
  2
VPORT
  5
8
330
0
100
AcDbSymbolTable
 70
     1
  0
VPORT
  5
29
330
8
100
AcDbSymbolTableRecord
100
AcDbViewportTableRecord
  2
*Active
 70
     0
 10
0.0
 20
0.0
 11
1.0
 21
1.0
 12
-0.1805000000000003
 22
0.0322798841414951
 13
0.0
 23
0.0
 14
0.5
 24
0.5
 15
0.5
 25
0.5
 16
0.0
 26
0.0
 36
1.0
 17
0.0
 27
0.0
 37
0.0
 40
4.789349036351348
 41
0.545422766261792
 42
50.0
 43
0.0
 44
0.0
 50
0.0
 51
0.0
 71
     0
 72
   100
 73
     1
 74
     3
 75
     0
 76
     0
 77
     0
 78
     0
281
     0
 65
     1
110
0.0
120
0.0
130
0.0
111
1.0
121
0.0
131
0.0
112
0.0
122
1.0
132
0.0
 79
     0
146
0.0
348
2F
 60
     3
 61
     5
292
     1
282
     1
141
0.0
142
0.0
 63
   250
361
6D
  0
ENDTAB
  0
TABLE
  2
LTYPE
  5
5
330
0
100
AcDbSymbolTable
 70
     3
  0
LTYPE
  5
14
330
5
100
AcDbSymbolTableRecord
100
AcDbLinetypeTableRecord
  2
ByBlock
 70
     0
  3

 72
    65
 73
     0
 40
0.0
  0
LTYPE
  5
15
330
5
100
AcDbSymbolTableRecord
100
AcDbLinetypeTableRecord
  2
ByLayer
 70
     0
  3

 72
    65
 73
     0
 40
0.0
  0
LTYPE
  5
16
330
5
100
AcDbSymbolTableRecord
100
AcDbLinetypeTableRecord
  2
Continuous
 70
     0
  3
Solid line
 72
    65
 73
     0
 40
0.0
  0
LTYPE
  5
94
330
5
100
AcDbSymbolTableRecord
100
AcDbLinetypeTableRecord
  2
Dashed
 70
     0
  3

 72
    65
 73
     2
 40
2.0
 49
1.0
 74
     0
 49
-1.0
 74
     0
  0
LTYPE
  5
131
330
5
100
AcDbSymbolTableRecord
100
AcDbLinetypeTableRecord
  2
Center
 70
     0
  3

 72
    65
 73
     4
 40
1.5
 49
0.45
 74
     0
 49
-0.5
 74
     0
 49
0.05
 74
     0
 49
-0.5
 74
     0
  0
ENDTAB
  0
TABLE
  2
LAYER
  5
2
330
0
100
AcDbSymbolTable
 70
     7
  0
LAYER
  5
10
330
2
100
AcDbSymbolTableRecord
100
AcDbLayerTableRecord
  2
0
 70
     0
 62
     7
  6
Continuous
370
    -3
390
F
347
46
348
0
  0
LAYER
  5
72
330
2
100
AcDbSymbolTableRecord
100
AcDbLayerTableRecord
  2
AM_6
 70
     0
 62
    -2
  6
Continuous
370
    35
390
F
347
46
348
0
  0
LAYER
  5
95
330
2
100
AcDbSymbolTableRecord
100
AcDbLayerTableRecord
  2
AM_9
 70
     0
 62
     6
  6
Dashed
370
    25
390
F
347
46
348
0
  0
LAYER
  5
BE
330
2
100
AcDbSymbolTableRecord
100
AcDbLayerTableRecord
  2
AM_4
 70
     0
 62
     7
  6
Continuous
370
    50
390
F
347
46
348
0
  0
LAYER
  5
12E
330
2
100
AcDbSymbolTableRecord
100
AcDbLayerTableRecord
  2
AM_5
 70
     0
 62
     3
  6
Continuous
370
    25
390
F
347
46
348
0
  0
LAYER
  5
132
330
2
100
AcDbSymbolTableRecord
100
AcDbLayerTableRecord
  2
AM_7
 70
     0
 62
     7
  6
Center
370
    25
390
F
347
46
348
0
  0
LAYER
  5
18B
330
2
100
AcDbSymbolTableRecord
100
AcDbLayerTableRecord
  2
ConnectionPoints
 70
     0
 62
     7
  6
Continuous
370
    50
390
F
347
46
348
0
  0
ENDTAB
  0
TABLE
  2
STYLE
  5
3
330
0
100
AcDbSymbolTable
 70
     1
  0
STYLE
  5
11
330
3
100
AcDbSymbolTableRecord
100
AcDbTextStyleTableRecord
  2
Standard
 70
     0
 40
0.0
 41
1.0
 50
0.0
 71
     0
 42
0.2
  3
txt
  4

  0
ENDTAB
  0
TABLE
  2
VIEW
  5
6
330
0
100
AcDbSymbolTable
 70
     0
  0
ENDTAB
  0
TABLE
  2
UCS
  5
7
330
0
100
AcDbSymbolTable
 70
     0
  0
ENDTAB
  0
TABLE
  2
APPID
  5
9
330
0
100
AcDbSymbolTable
 70
     1
  0
APPID
  5
12
330
9
100
AcDbSymbolTableRecord
100
AcDbRegAppTableRecord
  2
ACAD
 70
     0
  0
ENDTAB
  0
TABLE
  2
DIMSTYLE
  5
A
330
0
100
AcDbSymbolTable
 70
     1
100
AcDbDimStyleTable
  0
DIMSTYLE
105
27
330
A
100
AcDbSymbolTableRecord
100
AcDbDimStyleTableRecord
  2
Standard
 70
     0
178
     0
340
11
  0
ENDTAB
  0
TABLE
  2
BLOCK_RECORD
  5
1
330
0
100
AcDbSymbolTable
 70
     5
  0
BLOCK_RECORD
  5
1F
330
1
100
AcDbSymbolTableRecord
100
AcDbBlockTableRecord
  2
*Model_Space
340
22
 70
     0
280
     1
281
     0
  0
BLOCK_RECORD
  5
1B
330
1
100
AcDbSymbolTableRecord
100
AcDbBlockTableRecord
  2
*Paper_Space
340
1E
 70
     0
280
     1
281
     0
  0
BLOCK_RECORD
  5
23
330
1
100
AcDbSymbolTableRecord
100
AcDbBlockTableRecord
  2
*Paper_Space0
340
26
 70
     0
280
     1
281
     0
  0
BLOCK_RECORD
  5
6E
330
1
100
AcDbSymbolTableRecord
100
AcDbBlockTableRecord
  2
1_076030_2
340
0
102
{BLKREFS
331
6F
102
}
 70
     0
280
     1
281
     0
  0
BLOCK_RECORD
  5
88
330
1
100
AcDbSymbolTableRecord
100
AcDbBlockTableRecord
  2
2_405015E_Inch_0_in_076030_2
340
0
102
{BLKREFS
331
89
102
}
 70
     0
280
     1
281
     0
  0
BLOCK_RECORD
  5
E6
330
1
100
AcDbSymbolTableRecord
100
AcDbBlockTableRecord
  2
3_076121_0_in_076030_2
340
0
102
{BLKREFS
331
E7
102
}
 70
     0
280
     1
281
     0
  0
BLOCK_RECORD
  5
146
330
1
100
AcDbSymbolTableRecord
100
AcDbBlockTableRecord
  2
4_076030H_0_in_076030_2
340
0
102
{BLKREFS
331
147
102
}
 70
     0
280
     1
281
     0
  0
ENDTAB
  0
ENDSEC
  0
SECTION
  2
BLOCKS
  0
BLOCK
  5
20
330
1F
100
AcDbEntity
  8
0
100
AcDbBlockBegin
  2
*Model_Space
 70
     0
 10
0.0
 20
0.0
 30
0.0
  3
*Model_Space
  1

  0
ENDBLK
  5
21
330
1F
100
AcDbEntity
  8
0
100
AcDbBlockEnd
  0
BLOCK
  5
1C
330
1B
100
AcDbEntity
 67
     1
  8
0
100
AcDbBlockBegin
  2
*Paper_Space
 70
     0
 10
0.0
 20
0.0
 30
0.0
  3
*Paper_Space
  1

  0
ENDBLK
  5
1D
330
1B
100
AcDbEntity
 67
     1
  8
0
100
AcDbBlockEnd
  0
BLOCK
  5
24
330
23
100
AcDbEntity
  8
0
100
AcDbBlockBegin
  2
*Paper_Space0
 70
     0
 10
0.0
 20
0.0
 30
0.0
  3
*Paper_Space0
  1

  0
ENDBLK
  5
25
330
23
100
AcDbEntity
  8
0
100
AcDbBlockEnd
  0
BLOCK
  5
70
330
6E
100
AcDbEntity
  8
0
100
AcDbBlockBegin
  2
1_076030_2
 70
     2
 10
0.0
 20
0.0
 30
0.0
  3
1_076030_2
  1

  0
ATTDEF
  5
73
330
6E
100
AcDbEntity
  8
AM_6
100
AcDbText
 10
6.1
 20
2.38
 30
0.0
 40
0.5
  1
Set Screw Extreme Duty Tapped Base Inch Bore
100
AcDbAttributeDefinition
  3

  2
NN
 70
     8
280
     0
  0
ATTDEF
  5
74
330
6E
100
AcDbEntity
  8
AM_6
100
AcDbText
 10
6.1
 20
1.88
 30
0.0
 40
0.5
  1
SC Pillow Block Bearings -(Normal Duty) -Tapped Base Housing
100
AcDbAttributeDefinition
  3

  2
NT
 70
     8
280
     0
  0
ATTDEF
  5
75
330
6E
100
AcDbEntity
  8
AM_6
100
AcDbText
 10
6.1
 20
1.38
 30
0.0
 40
0.5
  1
076030
100
AcDbAttributeDefinition
  3

  2
NB
 70
     8
280
     0
  0
ATTDEF
  5
76
330
6E
100
AcDbEntity
  8
AM_6
100
AcDbText
 10
6.1
 20
0.8799999999999999
 30
0.0
 40
0.5
  1
$PN.
100
AcDbAttributeDefinition
  3

  2
NBSYN
 70
     8
280
     0
  0
ATTDEF
  5
77
330
6E
100
AcDbEntity
  8
AM_6
100
AcDbText
 10
6.1
 20
0.3799999999999999
 30
0.0
 40
0.5
  1
076030
100
AcDbAttributeDefinition
  3

  2
LINA
 70
     8
280
     0
  0
ATTDEF
  5
78
330
6E
100
AcDbEntity
  8
AM_6
100
AcDbText
 10
6.1
 20
-0.1200000000000001
 30
0.0
 40
0.5
  1
211
100
AcDbAttributeDefinition
  3

  2
SERIES
 70
     8
280
     0
  0
ATTDEF
  5
79
330
6E
100
AcDbEntity
  8
AM_6
100
AcDbText
 10
6.1
 20
-0.6200000000000001
 30
0.0
 40
0.5
  1
2-3/16
100
AcDbAttributeDefinition
  3

  2
SS
 70
     8
280
     0
  0
ATTDEF
  5
7A
330
6E
100
AcDbEntity
  8
AM_6
100
AcDbText
 10
6.1
 20
-1.12
 30
0.0
 40
0.5
  1
076030
100
AcDbAttributeDefinition
  3

  2
PN
 70
     8
280
     0
  0
ATTDEF
  5
7B
330
6E
100
AcDbEntity
  8
AM_6
100
AcDbText
 10
6.1
 20
-1.62
 30
0.0
 40
0.5
  1
TB-SCED-203
100
AcDbAttributeDefinition
  3

  2
DESCRIPTION
 70
     8
280
     0
  0
ATTDEF
  5
7C
330
6E
100
AcDbEntity
  8
AM_6
100
AcDbText
 10
6.1
 20
-2.12
 30
0.0
 40
0.5
  1
6.50
100
AcDbAttributeDefinition
  3

  2
W
 70
     8
280
     0
  0
ATTDEF
  5
7D
330
6E
100
AcDbEntity
  8
AM_6
100
AcDbText
 10
6.1
 20
-2.62
 30
0.0
 40
0.5
  1
2.22
100
AcDbAttributeDefinition
  3

  2
A
 70
     8
280
     0
  0
ATTDEF
  5
7E
330
6E
100
AcDbEntity
  8
AM_6
100
AcDbText
 10
6.1
 20
-3.12
 30
0.0
 40
0.5
  1
5.50
100
AcDbAttributeDefinition
  3

  2
B
 70
     8
280
     0
  0
ATTDEF
  5
7F
330
6E
100
AcDbEntity
  8
AM_6
100
AcDbText
 10
6.1
 20
-3.62
 30
0.0
 40
0.5
  1
2.00
100
AcDbAttributeDefinition
  3

  2
C
 70
     8
280
     0
  0
ATTDEF
  5
80
330
6E
100
AcDbEntity
  8
AM_6
100
AcDbText
 10
6.1
 20
-4.12
 30
0.0
 40
0.5
  1
4.00
100
AcDbAttributeDefinition
  3

  2
D
 70
     8
280
     0
  0
ATTDEF
  5
81
330
6E
100
AcDbEntity
  8
AM_6
100
AcDbText
 10
6.1
 20
-4.62
 30
0.0
 40
0.5
  1
4.63
100
AcDbAttributeDefinition
  3

  2
J
 70
     8
280
     0
  0
ATTDEF
  5
82
330
6E
100
AcDbEntity
  8
AM_6
100
AcDbText
 10
6.1
 20
-5.12
 30
0.0
 40
0.5
  1
2.71
100
AcDbAttributeDefinition
  3

  2
L
 70
     8
280
     0
  0
ATTDEF
  5
83
330
6E
100
AcDbEntity
  8
AM_6
100
AcDbText
 10
6.1
 20
-5.62
 30
0.0
 40
0.5
  1
2.25
100
AcDbAttributeDefinition
  3

  2
M
 70
     8
280
     0
  0
ATTDEF
  5
84
330
6E
100
AcDbEntity
  8
AM_6
100
AcDbText
 10
6.1
 20
-6.12
 30
0.0
 40
0.5
  1
0.88
100
AcDbAttributeDefinition
  3

  2
N
 70
     8
280
     0
  0
ATTDEF
  5
85
330
6E
100
AcDbEntity
  8
AM_6
100
AcDbText
 10
6.1
 20
-6.62
 30
0.0
 40
0.5
  1
5/8-11
100
AcDbAttributeDefinition
  3

  2
R
 70
     8
280
     0
  0
ATTDEF
  5
86
330
6E
100
AcDbEntity
  8
AM_6
100
AcDbText
 10
6.1
 20
-7.12
 30
0.0
 40
0.5
  1
1.35
100
AcDbAttributeDefinition
  3

  2
S
 70
     8
280
     0
  0
ATTDEF
  5
87
330
6E
100
AcDbEntity
  8
AM_6
100
AcDbText
 10
6.1
 20
-7.62
 30
0.0
 40
0.5
  1
baldor
100
AcDbAttributeDefinition
  3

  2
COMPANY
 70
     8
280
     0
  0
INSERT
  5
89
330
6E
100
AcDbEntity
  8
0
100
AcDbBlockReference
  2
2_405015E_Inch_0_in_076030_2
 10
0.0
 20
0.0
 30
0.0
  0
INSERT
  5
E7
330
6E
100
AcDbEntity
  8
0
100
AcDbBlockReference
  2
3_076121_0_in_076030_2
 10
0.0
 20
0.0
 30
0.0
  0
INSERT
  5
147
330
6E
100
AcDbEntity
  8
0
100
AcDbBlockReference
  2
4_076030H_0_in_076030_2
 10
0.0
 20
0.0
 30
0.0
  0
ENDBLK
  5
71
330
6E
100
AcDbEntity
  8
0
100
AcDbBlockEnd
  0
BLOCK
  5
8A
330
88
100
AcDbEntity
  8
0
100
AcDbBlockBegin
  2
2_405015E_Inch_0_in_076030_2
 70
     2
 10
0.0
 20
0.0
 30
0.0
  3
2_405015E_Inch_0_in_076030_2
  1

  0
ATTDEF
  5
8C
330
88
100
AcDbEntity
  8
AM_6
100
AcDbText
 10
5.252590742770462
 20
1.912312931942922
 30
0.0
 40
0.5
  1
405015E -Inch
100
AcDbAttributeDefinition
  3

  2
NN
 70
     8
280
     0
  0
ATTDEF
  5
8D
330
88
100
AcDbEntity
  8
AM_6
100
AcDbText
 10
5.252590742770462
 20
1.412312931942922
 30
0.0
 40
0.5
  1
Grease Fitting
100
AcDbAttributeDefinition
  3

  2
NT
 70
     8
280
     0
  0
ATTDEF
  5
8E
330
88
100
AcDbEntity
  8
AM_6
100
AcDbText
 10
5.252590742770462
 20
0.9123129319429215
 30
0.0
 40
0.5
  1
405015E-Inch
100
AcDbAttributeDefinition
  3

  2
NB
 70
     8
280
     0
  0
ATTDEF
  5
8F
330
88
100
AcDbEntity
  8
AM_6
100
AcDbText
 10
5.252590742770462
 20
0.4123129319429215
 30
0.0
 40
0.5
  1
$MN.-Inch
100
AcDbAttributeDefinition
  3

  2
NBSYN
 70
     8
280
     0
  0
ATTDEF
  5
90
330
88
100
AcDbEntity
  8
AM_6
100
AcDbText
 10
5.252590742770462
 20
-0.0876870680570785
 30
0.0
 40
0.5
  1
405015E
100
AcDbAttributeDefinition
  3

  2
LINA
 70
     8
280
     0
  0
ATTDEF
  5
91
330
88
100
AcDbEntity
  8
AM_6
100
AcDbText
 10
5.252590742770462
 20
-0.5876870680570785
 30
0.0
 40
0.5
  1
405015E
100
AcDbAttributeDefinition
  3

  2
MN
 70
     8
280
     0
  0
ATTDEF
  5
92
330
88
100
AcDbEntity
  8
AM_6
100
AcDbText
 10
5.252590742770462
 20
-1.087687068057078
 30
0.0
 40
0.5
  1
1/8 x 27PTF
100
AcDbAttributeDefinition
  3

  2
T
 70
     8
280
     0
  0
ATTDEF
  5
93
330
88
100
AcDbEntity
  8
AM_6
100
AcDbText
 10
5.252590742770462
 20
-1.587687068057078
 30
0.0
 40
0.5
  1
baldor
100
AcDbAttributeDefinition
  3

  2
COMPANY
 70
     8
280
     0
  0
LINE
  5
96
330
88
100
AcDbEntity
  8
AM_9
100
AcDbLine
 10
-0.1262953713852305
 20
1.793522173531656
 30
0.0
 11
-0.1262953713852305
 21
1.735635017882124
 31
0.0
  0
LINE
  5
97
330
88
100
AcDbEntity
  8
AM_9
100
AcDbLine
 10
0.1262953713852308
 20
1.793522173531656
 30
0.0
 11
0.1262953713852308
 21
1.735635017882124
 31
0.0
  0
LWPOLYLINE
  5
98
330
88
100
AcDbEntity
  8
AM_9
100
AcDbPolyline
 90
        3
 70
     0
 43
0.0
 10
0.0000000000000001
 20
1.729223256647562
 10
0.0631476856926154
 20
1.730915632430622
 10
0.1262953713852308
 20
1.735635017882124
  0
LWPOLYLINE
  5
99
330
88
100
AcDbEntity
  8
AM_9
100
AcDbPolyline
 90
        4
 70
     0
 43
0.0
 10
-0.1262953713852305
 20
1.735635017882124
 10
-0.0967996321117977
 20
1.733099907716192
 10
-0.0485424412477542
 20
1.730231469467046
 10
0.0000000000000001
 20
1.729223256647562
  0
ELLIPSE
  5
9A
330
88
100
AcDbEntity
  8
AM_9
100
AcDbEllipse
 10
0.0000000000000001
 20
1.38716035124857
 30
0.0
 11
-0.161902872472269
 21
1.982738345459263E-17
 31
0.0
210
0.0
220
0.0
230
1.0
 40
0.7071067811865478
 41
0.0
 42
6.283185307179586
  0
LWPOLYLINE
  5
9B
330
88
100
AcDbEntity
  8
AM_9
100
AcDbPolyline
 90
        3
 70
     0
 43
0.0
 10
-0.1894430570778459
 20
1.651883452455284
 10
-0.1578692142315382
 20
1.692245730334483
 10
-0.1262953713852305
 20
1.735635017882124
  0
LWPOLYLINE
  5
9C
330
88
100
AcDbEntity
  8
AM_9
100
AcDbPolyline
 90
        3
 70
     0
 43
0.0
 10
0.1262953713852308
 20
1.735635017882124
 10
0.1577272497321277
 20
1.692434551809216
 10
0.1894430570778461
 20
1.651883452455284
  0
LINE
  5
9D
330
88
100
AcDbEntity
  8
AM_9
100
AcDbLine
 10
0.1347694040286559
 20
1.784665683802088
 30
0.0
 11
0.1262953713852308
 21
1.793522173531656
 31
0.0
  0
LWPOLYLINE
  5
9E
330
88
100
AcDbEntity
  8
AM_9
100
AcDbPolyline
 90
        3
 70
     0
 43
0.0
 10
0.1262953713852308
 20
1.793522173531656
 10
0.0634316146914368
 20
1.798226607800997
 10
0.0000000000000001
 20
1.799933934766217
  0
LINE
  5
9F
330
88
100
AcDbEntity
  8
AM_9
100
AcDbLine
 10
-0.1262953713852305
 20
1.793522173531656
 30
0.0
 11
-0.13429979177367
 21
1.785160998907197
 31
0.0
  0
LWPOLYLINE
  5
A0
330
88
100
AcDbEntity
  8
AM_9
100
AcDbPolyline
 90
        4
 70
     0
 43
0.0
 10
0.0000000000000001
 20
1.799933934766217
 10
-0.0483998160558988
 20
1.798931567970386
 10
-0.0967996321117977
 20
1.796057283697588
 10
-0.1262953713852305
 20
1.793522173531656
  0
LWPOLYLINE
  5
A1
330
88
100
AcDbEntity
  8
AM_9
100
AcDbPolyline
 90
        3
 70
     0
 43
0.0
 10
0.1894430570778461
 20
1.651883452455284
 10
0.2210168999241537
 20
1.614905926142204
 10
0.2525907427704613
 20
1.580955409497566
  0
LWPOLYLINE
  5
A2
330
88
100
AcDbEntity
  8
AM_9
100
AcDbPolyline
 90
        3
 70
     0
 43
0.0
 10
-0.2525907427704611
 20
1.580955409497566
 10
-0.2211588644235642
 20
1.614747007031792
 10
-0.1894430570778459
 20
1.651883452455284
  0
ELLIPSE
  5
A3
330
88
100
AcDbEntity
  8
AM_9
100
AcDbEllipse
 10
0.0000000000000002
 20
1.574543648263005
 30
0.0
 11
0.2187499999999999
 21
0.0
 31
0.0
210
0.0
220
0.0
230
1.0
 40
0.7071067811865486
 41
4.71238898038469
 42
9.948376736367678
  0
ELLIPSE
  5
A4
330
88
100
AcDbEntity
  8
AM_9
100
AcDbEllipse
 10
0.0000000000000002
 20
1.574543648263005
 30
0.0
 11
0.2057518972230697
 21
0.0
 31
0.0
210
0.0
220
0.0
230
1.0
 40
0.7071067811865479
 41
6.251928656212828
 42
9.456034611736142
  0
LINE
  5
A5
330
88
100
AcDbEntity
  8
AM_9
100
AcDbLine
 10
0.1985206121313389
 20
1.408732512696997
 30
0.0
 11
0.2056511630275085
 21
1.569991593079795
 31
0.0
  0
LINE
  5
A6
330
88
100
AcDbEntity
  8
AM_9
100
AcDbLine
 10
-0.2056511630275083
 20
1.569991593079795
 30
0.0
 11
-0.1985206121313387
 21
1.408732512696997
 31
0.0
  0
ELLIPSE
  5
A7
330
88
100
AcDbEntity
  8
AM_9
100
AcDbEllipse
 10
0.0000000000000001
 20
1.574543648263005
 30
0.0
 11
0.2057518972230697
 21
3.065942186460938E-9
 31
0.0
210
0.0
220
0.0
230
1.0
 40
0.7071067811865469
 41
3.172849283493418
 42
6.25192863514969
  0
ELLIPSE
  5
A8
330
88
100
AcDbEntity
  8
AM_9
100
AcDbEllipse
 10
0.0000000000000012
 20
1.574543648263007
 30
0.0
 11
0.2187500000000022
 21
3.259629011154209E-9
 31
0.0
210
0.0
220
0.0
230
1.0
 40
0.707106781186549
 41
3.665191410748854
 42
4.712388969847972
  0
ELLIPSE
  5
A9
330
88
100
AcDbEntity
  8
AM_9
100
AcDbEllipse
 10
0.0000000000000005
 20
1.645254326381661
 30
0.0
 11
0.2187499999999986
 21
0.0
 31
0.0
210
0.0
220
0.0
230
1.0
 40
0.7071067811865476
 41
0.9156936017146915
 42
2.225899051875105
  0
LINE
  5
AA
330
88
100
AcDbEntity
  8
AM_9
100
AcDbLine
 10
-0.0948683298050513
 20
1.751320343559642
 30
0.0
 11
-0.1073548910028988
 21
1.732706477130576
 31
0.0
  0
LINE
  5
AB
330
88
100
AcDbEntity
  8
AM_9
100
AcDbLine
 10
0.1073548910028991
 20
1.732706477130576
 30
0.0
 11
0.0948683298050515
 21
1.751320343559642
 31
0.0
  0
ELLIPSE
  5
AC
330
88
100
AcDbEntity
  8
AM_9
100
AcDbEllipse
 10
0.0000000000000001
 20
1.719500538406248
 30
0.0
 11
0.1049999999999997
 21
0.0
 31
0.0
210
0.0
220
0.0
230
1.0
 40
0.7071067811865454
 41
0.0
 42
3.141592653589793
  0
ELLIPSE
  5
AD
330
88
100
AcDbEntity
  8
AM_9
100
AcDbEllipse
 10
-0.000000000000001
 20
1.69669855203064
 30
0.0
 11
0.1188200907348987
 21
0.0
 31
0.0
210
0.0
220
0.0
230
1.0
 40
0.707106781186556
 41
0.4429110440736483
 42
1.407862057867259
  0
ELLIPSE
  5
AE
330
88
100
AcDbEntity
  8
AM_9
100
AcDbEllipse
 10
-0.0000000000000997
 20
1.696698552030972
 30
0.0
 11
0.1188200907347889
 21
0.0
 31
0.0
210
0.0
220
0.0
230
1.0
 40
0.7071067811855559
 41
-3.584503697660788
 42
-3.517813279687848
  0
ELLIPSE
  5
AF
330
88
100
AcDbEntity
  8
AM_9
100
AcDbEllipse
 10
0.0000000000000001
 20
1.64525432638166
 30
0.0
 11
0.2137499999999999
 21
0.0
 31
0.0
210
0.0
220
0.0
230
1.0
 40
0.707106781186547
 41
0.903655218840381
 42
2.237937434749412
  0
LINE
  5
B0
330
88
100
AcDbEntity
  8
AM_9
100
AcDbLine
 10
0.1050000000000001
 20
1.720819529288786
 30
0.0
 11
0.1050000000000001
 21
1.740713741841844
 31
0.0
  0
LINE
  5
B1
330
88
100
AcDbEntity
  8
AM_9
100
AcDbLine
 10
-0.1049999999999999
 20
1.740713741841844
 30
0.0
 11
-0.1049999999999999
 21
1.720819529288786
 31
0.0
  0
ELLIPSE
  5
B2
330
88
100
AcDbEntity
  8
AM_9
100
AcDbEllipse
 10
0.0000000000000013
 20
1.740713741841842
 30
0.0
 11
0.1050000000000011
 21
0.0
 31
0.0
210
0.0
220
0.0
230
1.0
 40
0.707106781186542
 41
3.141592653589793
 42
3.665191429188073
  0
ELLIPSE
  5
B3
330
88
100
AcDbEntity
  8
AM_9
100
AcDbEllipse
 10
0.0000000000000993
 20
1.696698552030972
 30
0.0
 11
0.1188200907347896
 21
0.0
 31
0.0
210
0.0
220
0.0
230
1.0
 40
0.7071067811855571
 41
0.3762206260980552
 42
0.4429110440709941
  0
ELLIPSE
  5
B4
330
88
100
AcDbEntity
  8
AM_9
100
AcDbEllipse
 10
0.0000000000000017
 20
1.658207248789042
 30
0.0
 11
0.1725340532830126
 21
0.0
 31
0.0
210
0.0
220
0.0
230
1.0
 40
0.7071067811865409
 41
0.7772913431421058
 42
1.407862057867274
  0
LINE
  5
B5
330
88
100
AcDbEntity
  8
AM_9
100
AcDbLine
 10
-0.0192743186691521
 20
1.77960426535032
 30
0.0
 11
-0.0279874918769156
 21
1.778591425159329
 31
0.0
  0
LINE
  5
B6
330
88
100
AcDbEntity
  8
AM_9
100
AcDbLine
 10
0.0279874918769158
 20
1.778591425159329
 30
0.0
 11
0.0192743186691524
 21
1.77960426535032
 31
0.0
  0
ELLIPSE
  5
B7
330
88
100
AcDbEntity
  8
AM_9
100
AcDbEllipse
 10
0.0000000000000001
 20
1.696698552030629
 30
0.0
 11
0.1188200907349049
 21
0.0
 31
0.0
210
0.0
220
0.0
230
1.0
 40
0.7071067811866185
 41
1.407862057867277
 42
1.733730595722516
  0
ELLIPSE
  5
B8
330
88
100
AcDbEntity
  8
AM_9
100
AcDbEllipse
 10
0.0000000000000013
 20
1.69669855203064
 30
0.0
 11
0.118820090734899
 21
0.0
 31
0.0
210
0.0
220
0.0
230
1.0
 40
0.7071067811865561
 41
1.733730595722534
 42
2.698681609516139
  0
ELLIPSE
  5
B9
330
88
100
AcDbEntity
  8
AM_9
100
AcDbEllipse
 10
0.0000000000000001
 20
1.658207248789059
 30
0.0
 11
0.1725340532829873
 21
2.570957739397694E-9
 31
0.0
210
0.0
220
0.0
230
1.0
 40
0.7071067811865469
 41
1.407862047053271
 42
2.364301294557315
  0
ELLIPSE
  5
BA
330
88
100
AcDbEntity
  8
AM_9
100
AcDbEllipse
 10
0.0000000000000001
 20
1.740713741841844
 30
0.0
 11
0.1050000000000001
 21
0.0
 31
0.0
210
0.0
220
0.0
230
1.0
 40
0.7071067811865486
 41
0.0
 42
3.141592653589793
  0
ELLIPSE
  5
BB
330
88
100
AcDbEntity
  8
AM_9
100
AcDbEllipse
 10
-0.000000000000001
 20
1.740713741841843
 30
0.0
 11
0.1050000000000012
 21
0.0
 31
0.0
210
0.0
220
0.0
230
1.0
 40
0.7071067811865414
 41
5.759586531581303
 42
6.283185307179586
  0
ELLIPSE
  5
BC
330
88
100
AcDbEntity
  8
AM_9
100
AcDbEllipse
 10
0.0000000000000001
 20
1.783140148713037
 30
0.0
 11
0.1349999999999998
 21
0.0
 31
0.0
210
0.0
220
0.0
230
1.0
 40
0.7071067811865459
 41
0.4159140521025453
 42
2.725678601487248
  0
ELLIPSE
  5
BD
330
88
100
AcDbEntity
  8
AM_9
100
AcDbEllipse
 10
0.0000000000000001
 20
1.413121602990024
 30
0.0
 11
0.1986176267812153
 21
0.0
 31
0.0
210
0.0
220
0.0
230
1.0
 40
0.7071067811865257
 41
0.0
 42
6.283185307179586
  0
LWPOLYLINE
  5
BF
330
88
100
AcDbEntity
  8
AM_4
100
AcDbPolyline
 90
        3
 70
     0
 43
0.0
 10
0.1894430570778461
 20
1.722594130573939
 10
0.1578692142315384
 20
1.759571656887018
 10
0.1355982726953084
 20
1.783790113422457
  0
LWPOLYLINE
  5
C0
330
88
100
AcDbEntity
  8
AM_4
100
AcDbPolyline
 90
        3
 70
     0
 43
0.0
 10
-0.13429979177367
 20
1.785160998907197
 10
-0.1577272497321275
 20
1.75973057599743
 10
-0.1894430570778459
 20
1.722594130573939
  0
LWPOLYLINE
  5
C1
330
88
100
AcDbEntity
  8
AM_4
100
AcDbPolyline
 90
        3
 70
     0
 43
0.0
 10
-0.1894430570778459
 20
1.722594130573939
 10
-0.2210168999241535
 20
1.68223185269474
 10
-0.2525907427704611
 20
1.638842565147099
  0
LWPOLYLINE
  5
C2
330
88
100
AcDbEntity
  8
AM_4
100
AcDbPolyline
 90
        3
 70
     0
 43
0.0
 10
0.2525907427704613
 20
1.638842565147099
 10
0.2211588644235644
 20
1.682043031220006
 10
0.1894430570778461
 20
1.722594130573939
  0
LINE
  5
C3
330
88
100
AcDbEntity
  8
AM_4
100
AcDbLine
 10
0.2525907427704613
 20
1.638842565147099
 30
0.0
 11
0.2525907427704613
 21
1.580955409497566
 31
0.0
  0
LWPOLYLINE
  5
C4
330
88
100
AcDbEntity
  8
AM_4
100
AcDbPolyline
 90
        3
 70
     0
 43
0.0
 10
0.1894430570778461
 20
1.567914522189381
 10
0.2210168999241537
 20
1.604892048502461
 10
0.2525907427704613
 20
1.638842565147099
  0
LWPOLYLINE
  5
C5
330
88
100
AcDbEntity
  8
AM_4
100
AcDbPolyline
 90
        3
 70
     0
 43
0.0
 10
0.1894430570778461
 20
1.497203844070726
 10
0.1578692142315384
 20
1.460226317757647
 10
0.1262953713852308
 20
1.426275801113009
  0
LWPOLYLINE
  5
C6
330
88
100
AcDbEntity
  8
AM_4
100
AcDbPolyline
 90
        3
 70
     0
 43
0.0
 10
0.2525907427704613
 20
1.580955409497566
 10
0.2211588644235644
 20
1.537754943424659
 10
0.1894430570778461
 20
1.497203844070726
  0
ELLIPSE
  5
C7
330
88
100
AcDbEntity
  8
AM_4
100
AcDbEllipse
 10
0.0000000000000005
 20
1.645254326381658
 30
0.0
 11
0.2187499999999996
 21
3.259629011154169E-9
 31
0.0
210
0.0
220
0.0
230
1.0
 40
0.7071067811865474
 41
4.712388969847976
 42
7.198878894446619
  0
ELLIPSE
  5
C8
330
88
100
AcDbEntity
  8
AM_4
100
AcDbEllipse
 10
0.0000000000000021
 20
1.64525432638165
 30
0.0
 11
0.2187500000000026
 21
0.0
 31
0.0
210
0.0
220
0.0
230
1.0
 40
0.7071067811865732
 41
2.225899051875085
 42
2.617993877991461
  0
ELLIPSE
  5
C9
330
88
100
AcDbEntity
  8
AM_4
100
AcDbEllipse
 10
0.0000000000000003
 20
1.645254326381659
 30
0.0
 11
0.2187500000000002
 21
0.0
 31
0.0
210
0.0
220
0.0
230
1.0
 40
0.7071067811865474
 41
2.617993877991488
 42
4.71238898038469
  0
LINE
  5
CA
330
88
100
AcDbEntity
  8
AM_4
100
AcDbLine
 10
0.1262953713852308
 20
1.484162956762541
 30
0.0
 11
0.1262953713852308
 21
1.426275801113009
 31
0.0
  0
LWPOLYLINE
  5
CB
330
88
100
AcDbEntity
  8
AM_4
100
AcDbPolyline
 90
        4
 70
     0
 43
0.0
 10
0.0000000000000001
 20
1.419864039878448
 10
-0.0483998160558988
 20
1.42086640667428
 10
-0.0967996321117976
 20
1.423740690947077
 10
-0.1262953713852305
 20
1.426275801113009
  0
LWPOLYLINE
  5
CC
330
88
100
AcDbEntity
  8
AM_4
100
AcDbPolyline
 90
        3
 70
     0
 43
0.0
 10
0.1262953713852308
 20
1.426275801113009
 10
0.0634316146914368
 20
1.421571366843668
 10
0.0000000000000001
 20
1.419864039878448
  0
LINE
  5
CD
330
88
100
AcDbEntity
  8
AM_4
100
AcDbLine
 10
-0.1262953713852305
 20
1.484162956762541
 30
0.0
 11
-0.1262953713852305
 21
1.426275801113009
 31
0.0
  0
LWPOLYLINE
  5
CE
330
88
100
AcDbEntity
  8
AM_4
100
AcDbPolyline
 90
        3
 70
     0
 43
0.0
 10
-0.2525907427704611
 20
1.638842565147099
 10
-0.2211588644235642
 20
1.605050967612873
 10
-0.1894430570778459
 20
1.567914522189381
  0
LINE
  5
CF
330
88
100
AcDbEntity
  8
AM_4
100
AcDbLine
 10
-0.2525907427704611
 20
1.638842565147099
 30
0.0
 11
-0.2525907427704611
 21
1.580955409497566
 31
0.0
  0
LWPOLYLINE
  5
D0
330
88
100
AcDbEntity
  8
AM_4
100
AcDbPolyline
 90
        3
 70
     0
 43
0.0
 10
-0.1894430570778459
 20
1.497203844070726
 10
-0.2210168999241535
 20
1.537566121949925
 10
-0.2525907427704611
 20
1.580955409497566
  0
LWPOLYLINE
  5
D1
330
88
100
AcDbEntity
  8
AM_4
100
AcDbPolyline
 90
        3
 70
     0
 43
0.0
 10
-0.1262953713852305
 20
1.426275801113009
 10
-0.1577272497321275
 20
1.460067398647235
 10
-0.1894430570778459
 20
1.497203844070726
  0
LWPOLYLINE
  5
D2
330
88
100
AcDbEntity
  8
AM_4
100
AcDbPolyline
 90
        3
 70
     0
 43
0.0
 10
-0.1894430570778459
 20
1.567914522189381
 10
-0.1578692142315382
 20
1.527552244310183
 10
-0.1262953713852305
 20
1.484162956762541
  0
LWPOLYLINE
  5
D3
330
88
100
AcDbEntity
  8
AM_4
100
AcDbPolyline
 90
        4
 70
     0
 43
0.0
 10
-0.1262953713852305
 20
1.484162956762541
 10
-0.0967996321117977
 20
1.486698066928474
 10
-0.0485424412477542
 20
1.489566505177619
 10
0.0000000000000001
 20
1.490574717997103
  0
LWPOLYLINE
  5
D4
330
88
100
AcDbEntity
  8
AM_4
100
AcDbPolyline
 90
        3
 70
     0
 43
0.0
 10
0.0000000000000001
 20
1.490574717997103
 10
0.0631476856926155
 20
1.488882342214043
 10
0.1262953713852308
 20
1.484162956762541
  0
LWPOLYLINE
  5
D5
330
88
100
AcDbEntity
  8
AM_4
100
AcDbPolyline
 90
        3
 70
     0
 43
0.0
 10
0.1262953713852308
 20
1.484162956762541
 10
0.1577272497321277
 20
1.527363422835449
 10
0.1894430570778461
 20
1.567914522189381
  0
ELLIPSE
  5
D6
330
88
100
AcDbEntity
  8
AM_4
100
AcDbEllipse
 10
0.0000000000000003
 20
1.696698552030642
 30
0.0
 11
0.1188200907348977
 21
0.0
 31
0.0
210
0.0
220
0.0
230
1.0
 40
0.7071067811865472
 41
2.765372027488876
 42
6.283185307179586
  0
ELLIPSE
  5
D7
330
88
100
AcDbEntity
  8
AM_4
100
AcDbEllipse
 10
0.0000000000000001
 20
1.64525432638166
 30
0.0
 11
0.2137499999999997
 21
0.0
 31
0.0
210
0.0
220
0.0
230
1.0
 40
0.7071067811865475
 41
2.237937434749412
 42
7.186840526019967
  0
LINE
  5
D8
330
88
100
AcDbEntity
  8
AM_4
100
AcDbLine
 10
0.1050000000000001
 20
1.719500538406247
 30
0.0
 11
0.1050000000000001
 21
1.720819529288786
 31
0.0
  0
LINE
  5
D9
330
88
100
AcDbEntity
  8
AM_4
100
AcDbLine
 10
-0.1049999999999999
 20
1.720819529288786
 30
0.0
 11
-0.1049999999999999
 21
1.719500538406247
 31
0.0
  0
ELLIPSE
  5
DA
330
88
100
AcDbEntity
  8
AM_4
100
AcDbEllipse
 10
0.0000000000000001
 20
1.719500538406247
 30
0.0
 11
0.1050000000000001
 21
1.564621925354006E-9
 31
0.0
210
0.0
220
0.0
230
1.0
 40
0.7071067811865464
 41
3.141592638688632
 42
6.283187037607677
  0
ELLIPSE
  5
DB
330
88
100
AcDbEntity
  8
AM_4
100
AcDbEllipse
 10
-0.0000000000000007
 20
1.696698552030636
 30
0.0
 11
0.1188200907348984
 21
0.0
 31
0.0
210
0.0
220
0.0
230
1.0
 40
0.7071067811865565
 41
0.0
 42
0.3762206261009821
  0
ELLIPSE
  5
DC
330
88
100
AcDbEntity
  8
AM_4
100
AcDbEllipse
 10
0.0000000000000001
 20
1.658207248789038
 30
0.0
 11
0.1725340532830154
 21
0.0
 31
0.0
210
0.0
220
0.0
230
1.0
 40
0.7071067811865499
 41
2.364301310447679
 42
7.060476650321698
  0
LINE
  5
DD
330
88
100
AcDbEntity
  8
AM_4
100
AcDbLine
 10
0.0909326673973662
 20
1.70359063582955
 30
0.0
 11
0.1169134295108994
 21
1.735410440982945
 31
0.0
  0
LINE
  5
DE
330
88
100
AcDbEntity
  8
AM_4
100
AcDbLine
 10
-0.1169134295108991
 20
1.735410440982945
 30
0.0
 11
-0.0909326673973659
 21
1.70359063582955
 31
0.0
  0
ELLIPSE
  5
DF
330
88
100
AcDbEntity
  8
AM_4
100
AcDbEllipse
 10
0.0000000000000001
 20
1.783140148713036
 30
0.0
 11
0.1349999999999998
 21
0.0
 31
0.0
210
0.0
220
0.0
230
1.0
 40
0.7071067811865442
 41
3.665191429188091
 42
5.759586531581287
  0
ELLIPSE
  5
E0
330
88
100
AcDbEntity
  8
AM_4
100
AcDbEllipse
 10
0.0000000000000009
 20
1.783140148713035
 30
0.0
 11
0.1349999999999992
 21
0.0
 31
0.0
210
0.0
220
0.0
230
1.0
 40
0.7071067811865456
 41
5.7595865315813
 42
6.699099359282154
  0
ELLIPSE
  5
E1
330
88
100
AcDbEntity
  8
AM_4
100
AcDbEllipse
 10
0.0000000000000001
 20
1.740713741841844
 30
0.0
 11
0.1049999999999998
 21
0.0
 31
0.0
210
0.0
220
0.0
230
1.0
 40
0.7071067811865486
 41
3.665191429188091
 42
5.75958653158129
  0
LINE
  5
E2
330
88
100
AcDbEntity
  8
AM_4
100
AcDbLine
 10
-0.0939243440009286
 20
1.869042708571735
 30
0.0
 11
-0.1234908992236333
 21
1.821708256061845
 31
0.0
  0
LINE
  5
E3
330
88
100
AcDbEntity
  8
AM_4
100
AcDbLine
 10
0.1234908992236336
 20
1.821708256061845
 30
0.0
 11
0.0939243440009288
 21
1.869042708571735
 31
0.0
  0
ELLIPSE
  5
E4
330
88
100
AcDbEntity
  8
AM_4
100
AcDbEllipse
 10
-0.0000000000000003
 20
1.783140148713038
 30
0.0
 11
0.1349999999999996
 21
0.0
 31
0.0
210
0.0
220
0.0
230
1.0
 40
0.7071067811865503
 41
2.725678601487254
 42
3.6651914291881
  0
ELLIPSE
  5
E5
330
88
100
AcDbEntity
  8
AM_4
100
AcDbEllipse
 10
0.0000000000000028
 20
1.839708691207958
 30
0.0
 11
0.1026779019331849
 21
0.0
 31
0.0
210
0.0
220
0.0
230
1.0
 40
0.7071067811865559
 41
0.0
 42
6.283185307179586
  0
ENDBLK
  5
8B
330
88
100
AcDbEntity
  8
0
100
AcDbBlockEnd
  0
BLOCK
  5
E8
330
E6
100
AcDbEntity
  8
0
100
AcDbBlockBegin
  2
3_076121_0_in_076030_2
 70
     2
 10
0.0
 20
0.0
 30
0.0
  3
3_076121_0_in_076030_2
  1

  0
ATTDEF
  5
EA
330
E6
100
AcDbEntity
  8
AM_6
100
AcDbText
 10
5.87
 20
1.968059542428235
 30
0.0
 40
0.5
  1
Set Screw Extreme Duty Insert Inch Bore
100
AcDbAttributeDefinition
  3

  2
NN
 70
     8
280
     0
  0
ATTDEF
  5
EB
330
E6
100
AcDbEntity
  8
AM_6
100
AcDbText
 10
5.87
 20
1.468059542428235
 30
0.0
 40
0.5
  1
SC Medium Duty Bearing Inserts
100
AcDbAttributeDefinition
  3

  2
NT
 70
     8
280
     0
  0
ATTDEF
  5
EC
330
E6
100
AcDbEntity
  8
AM_6
100
AcDbText
 10
5.87
 20
0.9680595424282348
 30
0.0
 40
0.5
  1
076121
100
AcDbAttributeDefinition
  3

  2
NB
 70
     8
280
     0
  0
ATTDEF
  5
ED
330
E6
100
AcDbEntity
  8
AM_6
100
AcDbText
 10
5.87
 20
0.4680595424282348
 30
0.0
 40
0.5
  1
$PN.
100
AcDbAttributeDefinition
  3

  2
NBSYN
 70
     8
280
     0
  0
ATTDEF
  5
EE
330
E6
100
AcDbEntity
  8
AM_6
100
AcDbText
 10
5.87
 20
-0.0319404575717652
 30
0.0
 40
0.5
  1
076121
100
AcDbAttributeDefinition
  3

  2
LINA
 70
     8
280
     0
  0
ATTDEF
  5
EF
330
E6
100
AcDbEntity
  8
AM_6
100
AcDbText
 10
5.87
 20
-0.5319404575717652
 30
0.0
 40
0.5
  1
211
100
AcDbAttributeDefinition
  3

  2
SERIES
 70
     8
280
     0
  0
ATTDEF
  5
F0
330
E6
100
AcDbEntity
  8
AM_6
100
AcDbText
 10
5.87
 20
-1.031940457571765
 30
0.0
 40
0.5
  1
2-3/16
100
AcDbAttributeDefinition
  3

  2
SS
 70
     8
280
     0
  0
ATTDEF
  5
F1
330
E6
100
AcDbEntity
  8
AM_6
100
AcDbText
 10
5.87
 20
-1.531940457571765
 30
0.0
 40
0.5
  1
076121
100
AcDbAttributeDefinition
  3

  2
PN
 70
     8
280
     0
  0
ATTDEF
  5
F2
330
E6
100
AcDbEntity
  8
AM_6
100
AcDbText
 10
5.87
 20
-2.031940457571765
 30
0.0
 40
0.5
  1
INS-SCED-203
100
AcDbAttributeDefinition
  3

  2
DESCRIPTION
 70
     8
280
     0
  0
ATTDEF
  5
F3
330
E6
100
AcDbEntity
  8
AM_6
100
AcDbText
 10
5.87
 20
-2.531940457571765
 30
0.0
 40
0.5
  1
1.97
100
AcDbAttributeDefinition
  3

  2
WEIGHT
 70
     8
280
     0
  0
ATTDEF
  5
F4
330
E6
100
AcDbEntity
  8
AM_6
100
AcDbText
 10
5.87
 20
-3.031940457571765
 30
0.0
 40
0.5
  1
2.22
100
AcDbAttributeDefinition
  3

  2
A
 70
     8
280
     0
  0
ATTDEF
  5
F5
330
E6
100
AcDbEntity
  8
AM_6
100
AcDbText
 10
5.87
 20
-3.531940457571765
 30
0.0
 40
0.5
  1
0.94
100
AcDbAttributeDefinition
  3

  2
C
 70
     8
280
     0
  0
ATTDEF
  5
F6
330
E6
100
AcDbEntity
  8
AM_6
100
AcDbText
 10
5.87
 20
-4.031940457571765
 30
0.0
 40
0.5
  1
3.9370
100
AcDbAttributeDefinition
  3

  2
D
 70
     8
280
     0
  0
ATTDEF
  5
F7
330
E6
100
AcDbEntity
  8
AM_6
100
AcDbText
 10
5.87
 20
-4.531940457571765
 30
0.0
 40
0.5
  1
0.25
100
AcDbAttributeDefinition
  3

  2
J
 70
     8
280
     0
  0
ATTDEF
  5
F8
330
E6
100
AcDbEntity
  8
AM_6
100
AcDbText
 10
5.87
 20
-5.031940457571765
 30
0.0
 40
0.5
  1
2.71
100
AcDbAttributeDefinition
  3

  2
L
 70
     8
280
     0
  0
ATTDEF
  5
F9
330
E6
100
AcDbEntity
  8
AM_6
100
AcDbText
 10
5.87
 20
-5.531940457571765
 30
0.0
 40
0.5
  1
3/8 - 24
100
AcDbAttributeDefinition
  3

  2
N
 70
     8
280
     0
  0
ATTDEF
  5
FA
330
E6
100
AcDbEntity
  8
AM_6
100
AcDbText
 10
5.87
 20
-6.031940457571765
 30
0.0
 40
0.5
  1
0.87
100
AcDbAttributeDefinition
  3

  2
W
 70
     8
280
     0
  0
ATTDEF
  5
FB
330
E6
100
AcDbEntity
  8
AM_6
100
AcDbText
 10
5.87
 20
-6.531940457571765
 30
0.0
 40
0.5
  1
1.35
100
AcDbAttributeDefinition
  3

  2
Y
 70
     8
280
     0
  0
ATTDEF
  5
FC
330
E6
100
AcDbEntity
  8
AM_6
100
AcDbText
 10
5.87
 20
-7.031940457571765
 30
0.0
 40
0.5
  1
baldor
100
AcDbAttributeDefinition
  3

  2
COMPANY
 70
     8
280
     0
  0
LINE
  5
FD
330
E6
100
AcDbEntity
  8
AM_9
100
AcDbLine
 10
-1.023721544814572
 20
1.088858728097917
 30
0.0
 11
-0.7962784551854284
 21
1.088858728097917
 31
0.0
  0
LINE
  5
FE
330
E6
100
AcDbEntity
  8
AM_9
100
AcDbLine
 10
-0.75635
 20
1.09375
 30
0.0
 11
-0.75635
 21
1.330664511453266
 31
0.0
  0
LINE
  5
FF
330
E6
100
AcDbEntity
  8
AM_9
100
AcDbLine
 10
-1.06365
 20
1.330664511453266
 30
0.0
 11
-1.06365
 21
1.09375
 31
0.0
  0
LINE
  5
100
330
E6
100
AcDbEntity
  8
AM_9
100
AcDbLine
 10
-1.06365
 20
1.330664511453266
 30
0.0
 11
-0.75635
 21
1.330664511453266
 31
0.0
  0
LINE
  5
101
330
E6
100
AcDbEntity
  8
AM_9
100
AcDbLine
 10
-0.75635
 20
1.330664511453266
 30
0.0
 11
-0.7320145114532658
 21
1.355
 31
0.0
  0
LINE
  5
102
330
E6
100
AcDbEntity
  8
AM_9
100
AcDbLine
 10
-1.087985488546734
 20
1.355
 30
0.0
 11
-1.06365
 21
1.330664511453266
 31
0.0
  0
LWPOLYLINE
  5
103
330
E6
100
AcDbEntity
  8
AM_9
100
AcDbPolyline
 90
       13
 70
     0
 43
0.0
 10
-1.023721544814572
 20
1.088858728097917
 10
-1.021978901915736
 20
1.088648398710561
 10
-1.002741798449308
 20
1.086538788781967
 10
-0.9802538188589062
 20
1.084563489722363
 10
-0.9568591559399191
 20
1.08308749357251
 10
-0.9318657740498549
 20
1.082151969203861
 10
-0.9082109881895641
 20
1.081899018593818
 10
-0.8846100998360878
 20
1.082242292215511
 10
-0.8626066241450634
 20
1.083112872718664
 10
-0.841870180423587
 20
1.084404860710553
 10
-0.8222939667818385
 20
1.086049760565483
 10
-0.8049903873696526
 20
1.087838821326001
 10
-0.7962784551854284
 20
1.088858728097917
  0
LWPOLYLINE
  5
104
330
E6
100
AcDbEntity
  8
AM_9
100
AcDbPolyline
 90
        6
 70
     0
 43
0.0
 10
-0.7962784551854284
 20
1.088858728097917
 10
-0.780779969939247
 20
1.090586335953693
 10
-0.7685329100841731
 20
1.092105158640528
 10
-0.7605656009715405
 20
1.093165760355216
 10
-0.756661387318332
 20
1.093706299762024
 10
-0.7563500000000741
 20
1.09374999999999
  0
LWPOLYLINE
  5
105
330
E6
100
AcDbEntity
  8
AM_9
100
AcDbPolyline
 90
       13
 70
     0
 43
0.0
 10
-1.023721544814572
 20
0.3665287469244499
 10
-1.012808447764235
 20
0.3546103635738867
 10
-0.9921498497144143
 20
0.3375702187543825
 10
-0.9685996646611215
 20
0.3242921032590001
 10
-0.9448337864918
 20
0.3160362339714839
 10
-0.9199076709766475
 20
0.3120079669216141
 10
-0.8965642033277302
 20
0.3123181162755657
 10
-0.8736116889252082
 20
0.3164165596749484
 10
-0.8521289812965633
 20
0.3239811866644709
 10
-0.8321676336983892
 20
0.334682946517782
 10
-0.8176961244336547
 20
0.3451807011036069
 10
-0.8046309176441835
 20
0.3571902017183458
 10
-0.796278455185428
 20
0.3665287469244499
  0
LWPOLYLINE
  5
106
330
E6
100
AcDbEntity
  8
AM_9
100
AcDbPolyline
 90
       12
 70
     0
 43
0.0
 10
-0.7962784551854286
 20
0.5538144189754115
 10
-0.8079163333151392
 20
0.5653011264833776
 10
-0.8209856219416145
 20
0.5755149132932043
 10
-0.843169216358281
 20
0.5881831815574776
 10
-0.8676915178924838
 20
0.5971524149343252
 10
-0.8916054206895826
 20
0.60173073935352
 10
-0.9161071375477156
 20
0.6026801674386404
 10
-0.9389077105139759
 20
0.6001793164841132
 10
-0.9609026072071519
 20
0.5945425413480463
 10
-0.9816054048166858
 20
0.5858746273724792
 10
-1.000450310282515
 20
0.5745072733695078
 10
-1.023721544814571
 20
0.5538144189754115
  0
LINE
  5
107
330
E6
100
AcDbEntity
  8
AM_9
100
AcDbLine
 10
-1.2958
 20
-1.09375
 30
0.0
 11
0.8158000000000001
 21
-1.09375
 31
0.0
  0
LINE
  5
108
330
E6
100
AcDbEntity
  8
AM_9
100
AcDbLine
 10
0.8158000000000001
 20
1.09375
 30
0.0
 11
-0.7563499999999999
 21
1.09375
 31
0.0
  0
LINE
  5
109
330
E6
100
AcDbEntity
  8
AM_9
100
AcDbLine
 10
-1.06365
 20
1.09375
 30
0.0
 11
-1.2958
 21
1.09375
 31
0.0
  0
LWPOLYLINE
  5
10A
330
E6
100
AcDbEntity
  8
AM_9
100
AcDbPolyline
 90
        6
 70
     0
 43
0.0
 10
-1.063649999999926
 20
1.09374999999999
 10
-1.062858870169218
 20
1.093639142582877
 10
-1.058022032865095
 20
1.092973587152734
 10
-1.049266361205821
 20
1.09182226546426
 10
-1.036344227901925
 20
1.090249331081718
 10
-1.023721544814572
 20
1.088858728097917
  0
LINE
  5
10B
330
E6
100
AcDbEntity
  8
AM_9
100
AcDbLine
 10
0.8158000000000001
 20
-1.09375
 30
0.0
 11
0.87
 21
-1.14795
 31
0.0
  0
LINE
  5
10C
330
E6
100
AcDbEntity
  8
AM_9
100
AcDbLine
 10
0.87
 20
1.14795
 30
0.0
 11
0.8158000000000001
 21
1.09375
 31
0.0
  0
LINE
  5
10D
330
E6
100
AcDbEntity
  8
AM_9
100
AcDbLine
 10
-1.2958
 20
1.09375
 30
0.0
 11
-1.35
 21
1.14795
 31
0.0
  0
LINE
  5
10E
330
E6
100
AcDbEntity
  8
AM_9
100
AcDbLine
 10
-1.35
 20
-1.14795
 30
0.0
 11
-1.2958
 21
-1.09375
 31
0.0
  0
ELLIPSE
  5
10F
330
E6
100
AcDbEntity
  8
AM_9
100
AcDbEllipse
 10
-0.9099999999999999
 20
0.46017158294993
 30
0.0
 11
0.1536499999999999
 21
2.289563417434692E-9
 31
0.0
210
0.0
220
0.0
230
1.0
 40
0.9063077870366486
 41
3.879119788853142
 42
5.545658141688861
  0
LWPOLYLINE
  5
110
330
E6
100
AcDbEntity
  8
AM_9
100
AcDbPolyline
 90
        4
 70
     0
 43
0.0
 10
-1.052984292867189
 20
0.512604894916764
 10
-1.059434399028459
 20
0.494387504629797
 10
-1.063338612681668
 20
0.4710813484773655
 10
-1.063649999711112
 20
0.4622472635946371
  0
LWPOLYLINE
  5
111
330
E6
100
AcDbEntity
  8
AM_9
100
AcDbPolyline
 90
        6
 70
     0
 43
0.0
 10
-0.796278455185428
 20
0.3665287469244499
 10
-0.7807799699392467
 20
0.3855608289486148
 10
-0.7685329100841728
 20
0.4071999830463
 10
-0.7605656009715402
 20
0.4295961222417468
 10
-0.7566613873183318
 20
0.4533591620431938
 10
-0.7563500002888878
 20
0.4622301839288407
  0
LINE
  5
112
330
E6
100
AcDbEntity
  8
AM_9
100
AcDbLine
 10
-0.75635
 20
0.4622093189412483
 30
0.0
 11
-0.7563499999999999
 21
0.5623631227904162
 31
0.0
  0
LINE
  5
113
330
E6
100
AcDbEntity
  8
AM_9
100
AcDbLine
 10
-1.06365
 20
0.5623631227904162
 30
0.0
 11
-1.06365
 21
0.4622093189412484
 31
0.0
  0
LWPOLYLINE
  5
114
330
E6
100
AcDbEntity
  8
AM_9
100
AcDbPolyline
 90
        6
 70
     0
 43
0.0
 10
-1.063649999711112
 20
0.4622472635946371
 10
-1.062858870169218
 20
0.4480788157658661
 10
-1.058022032865095
 20
0.4245667541671909
 10
-1.049266361205821
 20
0.4025963222863648
 10
-1.036344227901925
 20
0.3815132532313725
 10
-1.023721544814572
 20
0.36652874692445
  0
LWPOLYLINE
  5
115
330
E6
100
AcDbEntity
  8
AM_9
100
AcDbPolyline
 90
        4
 70
     0
 43
0.0
 10
-0.7563500002888878
 20
0.4622301839288407
 10
-0.757141129830782
 20
0.4763049310540637
 10
-0.7619779671349048
 20
0.4992544408947808
 10
-0.7670414422675264
 20
0.5126627220512407
  0
LINE
  5
116
330
E6
100
AcDbEntity
  8
AM_9
100
AcDbLine
 10
-1.0
 20
-1.355
 30
0.0
 11
-0.4699999999999999
 21
-1.355
 31
0.0
  0
LINE
  5
117
330
E6
100
AcDbEntity
  8
AM_9
100
AcDbLine
 10
-0.4699999999999999
 20
1.355
 30
0.0
 11
-0.6106911447084233
 21
1.355
 31
0.0
  0
LINE
  5
118
330
E6
100
AcDbEntity
  8
AM_9
100
AcDbLine
 10
0.8158
 20
-1.355
 30
0.0
 11
0.87
 21
-1.3008
 31
0.0
  0
LINE
  5
119
330
E6
100
AcDbEntity
  8
AM_9
100
AcDbLine
 10
0.87
 20
-1.046200000000002
 30
0.0
 11
0.87
 21
-1.3008
 31
0.0
  0
LINE
  5
11A
330
E6
100
AcDbEntity
  8
AM_9
100
AcDbLine
 10
0.47
 20
-1.355
 30
0.0
 11
0.8158
 21
-1.355
 31
0.0
  0
LINE
  5
11B
330
E6
100
AcDbEntity
  8
AM_9
100
AcDbLine
 10
0.6106911447084235
 20
1.355
 30
0.0
 11
0.47
 21
1.355
 31
0.0
  0
LINE
  5
11C
330
E6
100
AcDbEntity
  8
AM_9
100
AcDbLine
 10
0.8158000000000001
 20
-0.5443079999999992
 30
0.0
 11
0.8158
 21
-1.355
 31
0.0
  0
LINE
  5
11D
330
E6
100
AcDbEntity
  8
AM_9
100
AcDbLine
 10
-0.3000000000000001
 20
-1.885166666666667
 30
0.0
 11
-0.2
 21
-1.885166666666667
 31
0.0
  0
LINE
  5
11E
330
E6
100
AcDbEntity
  8
AM_9
100
AcDbLine
 10
-0.2
 20
1.885166666666667
 30
0.0
 11
-0.3000000000000001
 21
1.885166666666667
 31
0.0
  0
LINE
  5
11F
330
E6
100
AcDbEntity
  8
AM_9
100
AcDbLine
 10
-0.4699999999999999
 20
1.87196213904021
 30
0.0
 11
-0.4699999999999999
 21
-1.87196213904021
 31
0.0
  0
ARC
  5
120
330
E6
100
AcDbEntity
  8
AM_9
100
AcDbCircle
 10
-0.4199999999999999
 20
-1.87196213904021
 30
0.0
 40
0.0500000000000001
100
AcDbArc
 50
180.0
 51
257.3543320713407
  0
ARC
  5
121
330
E6
100
AcDbEntity
  8
AM_9
100
AcDbCircle
 10
-0.4199999999999999
 20
1.87196213904021
 30
0.0
 40
0.0500000000000001
100
AcDbArc
 50
102.6456679286593
 51
180.0
  0
LINE
  5
122
330
E6
100
AcDbEntity
  8
AM_9
100
AcDbLine
 10
0.47
 20
1.87196213904021
 30
0.0
 11
0.47
 21
-1.87196213904021
 31
0.0
  0
ARC
  5
123
330
E6
100
AcDbEntity
  8
AM_9
100
AcDbCircle
 10
0.4199999999999994
 20
-1.87196213904021
 30
0.0
 40
0.0500000000000004
100
AcDbArc
 50
282.6456679286597
 51
0.0
  0
ARC
  5
124
330
E6
100
AcDbEntity
  8
AM_9
100
AcDbCircle
 10
0.4199999999999994
 20
1.87196213904021
 30
0.0
 40
0.0500000000000005
100
AcDbArc
 50
0.0
 51
77.35433207134024
  0
ARC
  5
125
330
E6
100
AcDbEntity
  8
AM_9
100
AcDbCircle
 10
-0.0000000000001265
 20
0.0000000000006761
 30
0.0
 40
1.968499999999312
100
AcDbArc
 50
98.76605344787454
 51
102.6456679286599
  0
ARC
  5
126
330
E6
100
AcDbEntity
  8
AM_9
100
AcDbCircle
 10
0.0000000001260294
 20
0.0000000006669854
 30
0.0
 40
1.96850000067801
100
AcDbArc
 50
257.3543320720091
 51
261.2339465514563
  0
LINE
  5
127
330
E6
100
AcDbEntity
  8
AM_9
100
AcDbLine
 10
-0.4309460516028147
 20
1.920749268022233
 30
0.0
 11
-0.4309460516028147
 21
-1.920749268021837
 31
0.0
  0
LINE
  5
128
330
E6
100
AcDbEntity
  8
AM_9
100
AcDbLine
 10
-0.2999999999999999
 20
1.945505654065287
 30
0.0
 11
-0.2999999999999999
 21
-1.945505654064891
 31
0.0
  0
ARC
  5
129
330
E6
100
AcDbEntity
  8
AM_9
100
AcDbCircle
 10
-0.0000000000000043
 20
-0.0000000000000715
 30
0.0
 40
1.968500000000071
100
AcDbArc
 50
77.35433207134113
 51
95.83132474664153
  0
ARC
  5
12A
330
E6
100
AcDbEntity
  8
AM_9
100
AcDbCircle
 10
-0.0000000000001284
 20
0.0000000000021849
 30
0.0
 40
1.968500000002132
100
AcDbArc
 50
264.1686752533682
 51
282.6456679286491
  0
LINE
  5
12B
330
E6
100
AcDbEntity
  8
AM_9
100
AcDbLine
 10
-0.1999999999999998
 20
-0.9842499999999998
 30
0.0
 11
-0.1999999999999998
 21
-1.958313624014266
 31
0.0
  0
LINE
  5
12C
330
E6
100
AcDbEntity
  8
AM_9
100
AcDbLine
 10
-0.1999999999999998
 20
1.958313624014294
 30
0.0
 11
-0.1999999999999997
 21
0.9842499999999998
 31
0.0
  0
LINE
  5
12D
330
E6
100
AcDbEntity
  8
AM_9
100
AcDbLine
 10
0.4309460516028146
 20
1.920749268022233
 30
0.0
 11
0.4309460516028146
 21
-1.920749268022204
 31
0.0
  0
LINE
  5
12F
330
E6
100
AcDbEntity
  8
AM_5
100
AcDbLine
 10
-0.7225
 20
1.09375
 30
0.0
 11
-0.7225
 21
1.355
 31
0.0
  0
LINE
  5
130
330
E6
100
AcDbEntity
  8
AM_5
100
AcDbLine
 10
-1.0975
 20
1.09375
 30
0.0
 11
-1.0975
 21
1.355
 31
0.0
  0
LINE
  5
133
330
E6
100
AcDbEntity
  8
AM_7
100
AcDbLine
 10
-0.91
 20
1.379989800621033
 30
0.0
 11
-0.91
 21
1.039533438930149
 31
0.0
  0
LWPOLYLINE
  5
134
330
E6
100
AcDbEntity
  8
AM_4
100
AcDbPolyline
 90
        4
 70
     0
 43
0.0
 10
-1.023721544814571
 20
0.5538144189754115
 10
-1.039220030060753
 20
0.5362425742092026
 10
-1.051467089915827
 20
0.5158871845191225
 10
-1.052984292867189
 20
0.512604894916764
  0
ELLIPSE
  5
135
330
E6
100
AcDbEntity
  8
AM_4
100
AcDbEllipse
 10
-0.91
 20
0.4601715829499303
 30
0.0
 11
0.1536500000000002
 21
0.0
 31
0.0
210
0.0
220
0.0
230
1.0
 40
0.9063077870366498
 41
0.737527150377046
 42
2.404065503212747
  0
ELLIPSE
  5
136
330
E6
100
AcDbEntity
  8
AM_4
100
AcDbEllipse
 10
-0.9099999999999998
 20
0.5623631227904161
 30
0.0
 11
0.1536499999999999
 21
2.289563417434692E-9
 31
0.0
210
0.0
220
0.0
230
1.0
 40
0.9063077870366499
 41
3.141592653589793
 42
7.853981620469444
  0
LWPOLYLINE
  5
137
330
E6
100
AcDbEntity
  8
AM_4
100
AcDbPolyline
 90
        4
 70
     0
 43
0.0
 10
-0.7670414422675264
 20
0.5126627220512407
 10
-0.7707336387941794
 20
0.5202517336342328
 10
-0.7836557720980756
 20
0.5400053011000603
 10
-0.7962784551854286
 20
0.5538144189754115
  0
ELLIPSE
  5
138
330
E6
100
AcDbEntity
  8
AM_4
100
AcDbEllipse
 10
-0.9099999999999998
 20
0.5623631227904163
 30
0.0
 11
0.1536499999999999
 21
2.289563417434692E-9
 31
0.0
210
0.0
220
0.0
230
1.0
 40
0.9063077870366499
 41
1.570796313289858
 42
3.141592653589793
  0
LWPOLYLINE
  5
139
330
E6
100
AcDbEntity
  8
AM_4
100
AcDbPolyline
 90
       39
 70
     0
 43
0.0
 10
-0.7322087074203397
 20
0.5655558938744311
 10
-0.73576659428252
 20
0.5415603086005142
 10
-0.7436133120642129
 20
0.5182353518341649
 10
-0.7555567213397141
 20
0.4961855149244982
 10
-0.7711195332322932
 20
0.4760321577255235
 10
-0.7908118617092507
 20
0.4575230313699212
 10
-0.8133592314034417
 20
0.4420671835022879
 10
-0.8397280319925737
 20
0.4294455959166975
 10
-0.8678890365293384
 20
0.4209422765149126
 10
-0.8984534081314649
 20
0.4167255326194008
 10
-0.9293320797250931
 20
0.4173233844767356
 10
-0.9602425799078392
 20
0.4229348789504128
 10
-0.9897176765224652
 20
0.4333833178679867
 10
-1.016659449073926
 20
0.4483353733114606
 10
-1.040450567157776
 20
0.4673773134529002
 10
-1.059556534747054
 20
0.4891390439470263
 10
-1.074237882140288
 20
0.5135412115712662
 10
-1.083371139264379
 20
0.5381958618903673
 10
-1.087677721955298
 20
0.5637179147253619
 10
-1.087057560297007
 20
0.587911642785935
 10
-1.08197114468029
 20
0.6114523679261995
 10
-1.072689034532066
 20
0.6334209767781315
 10
-1.059566978952548
 20
0.6536062103538758
 10
-1.04233767893417
 20
0.672152017477042
 10
-1.021980782288795
 20
0.6879830909246458
 10
-0.997603897593989
 20
0.7014714638956894
 10
-0.9710425651732927
 20
0.7114159010205481
 10
-0.9414787822310191
 20
0.7178575228474751
 10
-0.9110748972661318
 20
0.7201299521275039
 10
-0.8798059632018094
 20
0.7180384927188609
 10
-0.8493876244566956
 20
0.7115424238641311
 10
-0.8206799165035521
 20
0.7006683123332225
 10
-0.7945870471054577
 20
0.6856566974008579
 10
-0.7725670577361435
 20
0.6672753324789793
 10
-0.7546347636893239
 20
0.6456230028253697
 10
-0.7421612744531811
 20
0.6225871005274656
 10
-0.7344877524395705
 20
0.597722560944358
 10
-0.7323400771310531
 20
0.5817472858722418
 10
-0.7322086983636283
 20
0.5655558857720265
  0
LINE
  5
13A
330
E6
100
AcDbEntity
  8
AM_4
100
AcDbLine
 10
-1.2958
 20
-1.355
 30
0.0
 11
-1.0
 21
-1.355
 31
0.0
  0
LINE
  5
13B
330
E6
100
AcDbEntity
  8
AM_4
100
AcDbLine
 10
-0.6106911447084233
 20
1.355
 30
0.0
 11
-0.7320145114532658
 21
1.355
 31
0.0
  0
LINE
  5
13C
330
E6
100
AcDbEntity
  8
AM_4
100
AcDbLine
 10
-1.087985488546734
 20
1.355
 30
0.0
 11
-1.2958
 21
1.355
 31
0.0
  0
LWPOLYLINE
  5
13D
330
E6
100
AcDbEntity
  8
AM_4
100
AcDbPolyline
 90
       20
 70
     0
 43
0.0
 10
-0.7320145114533192
 20
1.354999999999994
 10
-0.734170770712292
 20
1.354751126105419
 10
-0.740540218085845
 20
1.354033230988285
 10
-0.7512313269029866
 20
1.352886386613656
 10
-0.7656569525262824
 20
1.351454939145429
 10
-0.7839036150472526
 20
1.349836264175794
 10
-0.8057355900410966
 20
1.348183004680847
 10
-0.8307192664223878
 20
1.346672427252871
 10
-0.8584860964787399
 20
1.345473933384973
 10
-0.8883661741160418
 20
1.344751740776472
 10
-0.9190867171314822
 20
1.344624306302284
 10
-0.9504175526209847
 20
1.345136953291461
 10
-0.9800330034684768
 20
1.346216976361465
 10
-1.008462642955488
 20
1.347795841170927
 10
-1.032768919688438
 20
1.349564292865007
 10
-1.054117649432366
 20
1.351433633823538
 10
-1.069742187618708
 20
1.352987793876371
 10
-1.081103927830102
 20
1.354216069190701
 10
-1.086777081260852
 20
1.354860162804475
 10
-1.087985488546538
 20
1.354999999999977
  0
LINE
  5
13E
330
E6
100
AcDbEntity
  8
AM_4
100
AcDbLine
 10
0.87
 20
1.3008
 30
0.0
 11
0.8158
 21
1.355
 31
0.0
  0
LINE
  5
13F
330
E6
100
AcDbEntity
  8
AM_4
100
AcDbLine
 10
0.87
 20
1.3008
 30
0.0
 11
0.87
 21
-1.046200000000002
 31
0.0
  0
LINE
  5
140
330
E6
100
AcDbEntity
  8
AM_4
100
AcDbLine
 10
0.8158
 20
1.355
 30
0.0
 11
0.6106911447084235
 21
1.355
 31
0.0
  0
LINE
  5
141
330
E6
100
AcDbEntity
  8
AM_4
100
AcDbLine
 10
0.8158
 20
1.355
 30
0.0
 11
0.8158000000000001
 21
-0.5443079999999992
 31
0.0
  0
LINE
  5
142
330
E6
100
AcDbEntity
  8
AM_4
100
AcDbLine
 10
-1.35
 20
-1.3008
 30
0.0
 11
-1.2958
 21
-1.355
 31
0.0
  0
LINE
  5
143
330
E6
100
AcDbEntity
  8
AM_4
100
AcDbLine
 10
-1.2958
 20
1.355
 30
0.0
 11
-1.35
 21
1.3008
 31
0.0
  0
LINE
  5
144
330
E6
100
AcDbEntity
  8
AM_4
100
AcDbLine
 10
-1.35
 20
1.3008
 30
0.0
 11
-1.35
 21
-1.3008
 31
0.0
  0
LINE
  5
145
330
E6
100
AcDbEntity
  8
AM_4
100
AcDbLine
 10
-1.2958
 20
1.355
 30
0.0
 11
-1.2958
 21
-1.355
 31
0.0
  0
ENDBLK
  5
E9
330
E6
100
AcDbEntity
  8
0
100
AcDbBlockEnd
  0
BLOCK
  5
148
330
146
100
AcDbEntity
  8
0
100
AcDbBlockBegin
  2
4_076030H_0_in_076030_2
 70
     2
 10
0.0
 20
0.0
 30
0.0
  3
4_076030H_0_in_076030_2
  1

  0
ATTDEF
  5
14A
330
146
100
AcDbEntity
  8
AM_6
100
AcDbText
 10
6.1
 20
2.38
 30
0.0
 40
0.5
  1
TB-SCED - Inch -Housing
100
AcDbAttributeDefinition
  3

  2
NN
 70
     8
280
     0
  0
ATTDEF
  5
14B
330
146
100
AcDbEntity
  8
AM_6
100
AcDbText
 10
6.1
 20
1.88
 30
0.0
 40
0.5
  1
SC Pillow Block Bearings -(Normal Duty) -Tapped Base Housing
100
AcDbAttributeDefinition
  3

  2
NT
 70
     8
280
     0
  0
ATTDEF
  5
14C
330
146
100
AcDbEntity
  8
AM_6
100
AcDbText
 10
6.1
 20
1.38
 30
0.0
 40
0.5
  1
076030H
100
AcDbAttributeDefinition
  3

  2
NB
 70
     8
280
     0
  0
ATTDEF
  5
14D
330
146
100
AcDbEntity
  8
AM_6
100
AcDbText
 10
6.1
 20
0.8799999999999999
 30
0.0
 40
0.5
  1
$PN.H
100
AcDbAttributeDefinition
  3

  2
NBSYN
 70
     8
280
     0
  0
ATTDEF
  5
14E
330
146
100
AcDbEntity
  8
AM_6
100
AcDbText
 10
6.1
 20
0.3799999999999999
 30
0.0
 40
0.5
  1
076030
100
AcDbAttributeDefinition
  3

  2
LINA
 70
     8
280
     0
  0
ATTDEF
  5
14F
330
146
100
AcDbEntity
  8
AM_6
100
AcDbText
 10
6.1
 20
-0.1200000000000001
 30
0.0
 40
0.5
  1
211
100
AcDbAttributeDefinition
  3

  2
SERIES
 70
     8
280
     0
  0
ATTDEF
  5
150
330
146
100
AcDbEntity
  8
AM_6
100
AcDbText
 10
6.1
 20
-0.6200000000000001
 30
0.0
 40
0.5
  1
2-3/16
100
AcDbAttributeDefinition
  3

  2
SS
 70
     8
280
     0
  0
ATTDEF
  5
151
330
146
100
AcDbEntity
  8
AM_6
100
AcDbText
 10
6.1
 20
-1.12
 30
0.0
 40
0.5
  1
076030
100
AcDbAttributeDefinition
  3

  2
PN
 70
     8
280
     0
  0
ATTDEF
  5
152
330
146
100
AcDbEntity
  8
AM_6
100
AcDbText
 10
6.1
 20
-1.62
 30
0.0
 40
0.5
  1
TB-SCED-203
100
AcDbAttributeDefinition
  3

  2
DESCRIPTION
 70
     8
280
     0
  0
ATTDEF
  5
153
330
146
100
AcDbEntity
  8
AM_6
100
AcDbText
 10
6.1
 20
-2.12
 30
0.0
 40
0.5
  1
2.22
100
AcDbAttributeDefinition
  3

  2
A
 70
     8
280
     0
  0
ATTDEF
  5
154
330
146
100
AcDbEntity
  8
AM_6
100
AcDbText
 10
6.1
 20
-2.62
 30
0.0
 40
0.5
  1
5.50
100
AcDbAttributeDefinition
  3

  2
B
 70
     8
280
     0
  0
ATTDEF
  5
155
330
146
100
AcDbEntity
  8
AM_6
100
AcDbText
 10
6.1
 20
-3.12
 30
0.0
 40
0.5
  1
2.00
100
AcDbAttributeDefinition
  3

  2
C
 70
     8
280
     0
  0
ATTDEF
  5
156
330
146
100
AcDbEntity
  8
AM_6
100
AcDbText
 10
6.1
 20
-3.62
 30
0.0
 40
0.5
  1
4.00
100
AcDbAttributeDefinition
  3

  2
D
 70
     8
280
     0
  0
ATTDEF
  5
157
330
146
100
AcDbEntity
  8
AM_6
100
AcDbText
 10
6.1
 20
-4.12
 30
0.0
 40
0.5
  1
4.63
100
AcDbAttributeDefinition
  3

  2
J
 70
     8
280
     0
  0
ATTDEF
  5
158
330
146
100
AcDbEntity
  8
AM_6
100
AcDbText
 10
6.1
 20
-4.62
 30
0.0
 40
0.5
  1
2.71
100
AcDbAttributeDefinition
  3

  2
L
 70
     8
280
     0
  0
ATTDEF
  5
159
330
146
100
AcDbEntity
  8
AM_6
100
AcDbText
 10
6.1
 20
-5.12
 30
0.0
 40
0.5
  1
2.25
100
AcDbAttributeDefinition
  3

  2
M
 70
     8
280
     0
  0
ATTDEF
  5
15A
330
146
100
AcDbEntity
  8
AM_6
100
AcDbText
 10
6.1
 20
-5.62
 30
0.0
 40
0.5
  1
0.88
100
AcDbAttributeDefinition
  3

  2
N
 70
     8
280
     0
  0
ATTDEF
  5
15B
330
146
100
AcDbEntity
  8
AM_6
100
AcDbText
 10
6.1
 20
-6.12
 30
0.0
 40
0.5
  1
5/8-11
100
AcDbAttributeDefinition
  3

  2
R
 70
     8
280
     0
  0
ATTDEF
  5
15C
330
146
100
AcDbEntity
  8
AM_6
100
AcDbText
 10
6.1
 20
-6.62
 30
0.0
 40
0.5
  1
1.35
100
AcDbAttributeDefinition
  3

  2
S
 70
     8
280
     0
  0
ATTDEF
  5
15D
330
146
100
AcDbEntity
  8
AM_6
100
AcDbText
 10
6.1
 20
-7.12
 30
0.0
 40
0.5
  1
5630
100
AcDbAttributeDefinition
  3

  2
CAPS
 70
     8
280
     0
  0
ATTDEF
  5
15E
330
146
100
AcDbEntity
  8
AM_6
100
AcDbText
 10
6.1
 20
-7.62
 30
0.0
 40
0.5
  1
9975
100
AcDbAttributeDefinition
  3

  2
CAPD
 70
     8
280
     0
  0
ATTDEF
  5
15F
330
146
100
AcDbEntity
  8
AM_6
100
AcDbText
 10
6.1
 20
-8.120000000000001
 30
0.0
 40
0.5
  1
baldor
100
AcDbAttributeDefinition
  3

  2
COMPANY
 70
     8
280
     0
  0
LINE
  5
160
330
146
100
AcDbEntity
  8
AM_9
100
AcDbLine
 10
-0.7570194384449243
 20
-2.235333333333333
 30
0.0
 11
0.7570194384449244
 21
-2.235333333333333
 31
0.0
  0
LINE
  5
161
330
146
100
AcDbEntity
  8
AM_9
100
AcDbLine
 10
-0.7570194384449243
 20
-2.162
 30
0.0
 11
0.7570194384449247
 21
-2.162
 31
0.0
  0
LINE
  5
162
330
146
100
AcDbEntity
  8
AM_9
100
AcDbLine
 10
0.8750000000000002
 20
-1.458
 30
0.0
 11
0.8750000018626453
 21
-2.25
 31
0.0
  0
LINE
  5
163
330
146
100
AcDbEntity
  8
AM_9
100
AcDbLine
 10
-0.8750000000000066
 20
-1.458
 30
0.0
 11
-0.8750000000000066
 21
-2.25
 31
0.0
  0
LWPOLYLINE
  5
164
330
146
100
AcDbEntity
  8
AM_9
100
AcDbPolyline
 90
       12
 70
     0
 43
0.0
 10
1.0
 20
-1.28955119472077
 10
0.9983994497962791
 20
-1.296908795693799
 10
0.9939662309129695
 20
-1.306377053680401
 10
0.9872647370640351
 20
-1.317478025041062
 10
0.9787606121804279
 20
-1.329912559393412
 10
0.9624334545202428
 20
-1.351785965330967
 10
0.943736736410192
 20
-1.375383423184671
 10
0.9255635503635552
 20
-1.397619550286409
 10
0.9065341503672156
 20
-1.420496980585225
 10
0.8871035588785317
 20
-1.443633117232937
 10
0.8753392666435089
 20
-1.457597428889595
 10
0.8750000000000001
 20
-1.458
  0
LINE
  5
165
330
146
100
AcDbEntity
  8
AM_9
100
AcDbLine
 10
0.7570194384449244
 20
-1.458
 30
0.0
 11
0.8750000000000002
 21
-1.458
 31
0.0
  0
LINE
  5
166
330
146
100
AcDbEntity
  8
AM_9
100
AcDbLine
 10
-0.8750000000000066
 20
-1.458
 30
0.0
 11
-0.7570194384449243
 21
-1.458
 31
0.0
  0
LWPOLYLINE
  5
167
330
146
100
AcDbEntity
  8
AM_9
100
AcDbPolyline
 90
       12
 70
     0
 43
0.0
 10
-0.8750000000000066
 20
-1.458
 10
-0.8753392666435386
 20
-1.45759742888962
 10
-0.8871035588785329
 20
-1.443633117232938
 10
-0.91573661014594
 20
-1.409466135839014
 10
-0.9299916490908994
 20
-1.392241955547985
 10
-0.9437367364101924
 20
-1.37538342318467
 10
-0.9621993535300103
 20
-1.352082823400864
 10
-0.978760612180428
 20
-1.329912559393412
 10
-0.9872647370640351
 20
-1.317478025041062
 10
-0.9939662309129695
 20
-1.306377053680401
 10
-0.9983609700005984
 20
-1.297034237630143
 10
-1.0
 20
-1.28955119472077
  0
LINE
  5
168
330
146
100
AcDbEntity
  8
AM_9
100
AcDbLine
 10
-0.1999999999999998
 20
0.9842500000000003
 30
0.0
 11
0.6507289416846653
 21
0.9842500000000003
 31
0.0
  0
LINE
  5
169
330
146
100
AcDbEntity
  8
AM_9
100
AcDbLine
 10
-0.1999999999999998
 20
-0.9842499999999998
 30
0.0
 11
0.7570194384449244
 21
-0.9842499999999998
 31
0.0
  0
LINE
  5
16A
330
146
100
AcDbEntity
  8
AM_9
100
AcDbLine
 10
-0.7570194384449244
 20
-1.9685
 30
0.0
 11
0.7570194384449246
 21
-1.9685
 31
0.0
  0
LINE
  5
16B
330
146
100
AcDbEntity
  8
AM_9
100
AcDbLine
 10
0.5444384449244061
 20
1.9685
 30
0.0
 11
-0.5444384449244061
 21
1.9685
 31
0.0
  0
LINE
  5
16C
330
146
100
AcDbEntity
  8
AM_9
100
AcDbLine
 10
-0.1999999999999998
 20
-0.9842499999999998
 30
0.0
 11
-0.1999999999999998
 21
0.9842500000000003
 31
0.0
  0
LINE
  5
16D
330
146
100
AcDbEntity
  8
AM_9
100
AcDbLine
 10
-0.8954643628509718
 20
-1.282
 30
0.0
 11
-0.7570194384449241
 21
-1.282
 31
0.0
  0
LINE
  5
16E
330
146
100
AcDbEntity
  8
AM_9
100
AcDbLine
 10
-0.7570194384449243
 20
-2.235333333333333
 30
0.0
 11
-0.7570194384449243
 21
0.0
 31
0.0
  0
LINE
  5
16F
330
146
100
AcDbEntity
  8
AM_9
100
AcDbLine
 10
0.7570194384449246
 20
0.0
 30
0.0
 11
0.7570194384449244
 21
-2.235333333333333
 31
0.0
  0
LINE
  5
170
330
146
100
AcDbEntity
  8
AM_9
100
AcDbLine
 10
0.7570194384449244
 20
-1.282
 30
0.0
 11
0.895464362850972
 21
-1.282
 31
0.0
  0
LINE
  5
171
330
146
100
AcDbEntity
  8
AM_9
100
AcDbLine
 10
0.2854500000000002
 20
-2.22295
 30
0.0
 11
0.2854500000000002
 21
-1.106
 31
0.0
  0
LINE
  5
172
330
146
100
AcDbEntity
  8
AM_9
100
AcDbLine
 10
-0.28545
 20
-1.106
 30
0.0
 11
-0.28545
 21
-2.22295
 31
0.0
  0
LINE
  5
173
330
146
100
AcDbEntity
  8
AM_9
100
AcDbLine
 10
-0.28545
 20
-1.106
 30
0.0
 11
0.2854500000000002
 21
-1.106
 31
0.0
  0
LINE
  5
174
330
146
100
AcDbEntity
  8
AM_9
100
AcDbLine
 10
0.0000000000000001
 20
-0.9411953656598212
 30
0.0
 11
-0.28545
 21
-1.106
 31
0.0
  0
LINE
  5
175
330
146
100
AcDbEntity
  8
AM_9
100
AcDbLine
 10
0.2854500000000002
 20
-1.106
 30
0.0
 11
0.0000000000000001
 21
-0.9411953656598212
 31
0.0
  0
LINE
  5
176
330
146
100
AcDbEntity
  8
AM_9
100
AcDbLine
 10
-0.28545
 20
-2.22295
 30
0.0
 11
0.2854500000000002
 21
-2.22295
 31
0.0
  0
LINE
  5
177
330
146
100
AcDbEntity
  8
AM_9
100
AcDbLine
 10
-0.28545
 20
-2.22295
 30
0.0
 11
-0.3124999999999999
 21
-2.25
 31
0.0
  0
LINE
  5
178
330
146
100
AcDbEntity
  8
AM_9
100
AcDbLine
 10
0.3125000000000002
 20
-2.25
 30
0.0
 11
0.2854500000000002
 21
-2.22295
 31
0.0
  0
LINE
  5
179
330
146
100
AcDbEntity
  8
AM_5
100
AcDbLine
 10
-0.3125
 20
-2.25
 30
0.0
 11
-0.3125
 21
-1.369999999999995
 31
0.0
  0
LINE
  5
17A
330
146
100
AcDbEntity
  8
AM_5
100
AcDbLine
 10
-0.3125
 20
-1.369999999999995
 30
0.0
 11
0.3125
 21
-1.369999999999995
 31
0.0
  0
LINE
  5
17B
330
146
100
AcDbEntity
  8
AM_5
100
AcDbLine
 10
0.3125
 20
-2.25
 30
0.0
 11
0.3125
 21
-1.369999999999995
 31
0.0
  0
LINE
  5
17C
330
146
100
AcDbEntity
  8
AM_7
100
AcDbLine
 10
1.1
 20
0.0
 30
0.0
 11
-1.461
 21
0.0
 31
0.0
  0
LINE
  5
17D
330
146
100
AcDbEntity
  8
AM_7
100
AcDbLine
 10
-0.0000000000000001
 20
-0.8757551339428158
 30
0.0
 11
-0.0000000000000001
 21
-2.315440231717009
 31
0.0
  0
LINE
  5
17E
330
146
100
AcDbEntity
  8
AM_4
100
AcDbLine
 10
0.4999999999999998
 20
2.38
 30
0.0
 11
-0.4999999999999999
 21
2.38
 31
0.0
  0
LINE
  5
17F
330
146
100
AcDbEntity
  8
AM_4
100
AcDbLine
 10
-0.7969762419006479
 20
-0.3700000000000003
 30
0.0
 11
0.796976241900648
 21
-0.3699999999999999
 31
0.0
  0
LINE
  5
180
330
146
100
AcDbEntity
  8
AM_4
100
AcDbLine
 10
0.8240000000000002
 20
-0.6202400000000007
 30
0.0
 11
0.8240000000000002
 21
-2.25
 31
0.0
  0
LINE
  5
181
330
146
100
AcDbEntity
  8
AM_4
100
AcDbLine
 10
-0.9999999999999999
 20
-2.25
 30
0.0
 11
1.0
 21
-2.25
 31
0.0
  0
LINE
  5
182
330
146
100
AcDbEntity
  8
AM_4
100
AcDbLine
 10
1.0
 20
-1.282
 30
0.0
 11
1.0
 21
-2.25
 31
0.0
  0
LINE
  5
183
330
146
100
AcDbEntity
  8
AM_4
100
AcDbLine
 10
0.895464362850972
 20
-1.282
 30
0.0
 11
1.0
 21
-1.282
 31
0.0
  0
LINE
  5
184
330
146
100
AcDbEntity
  8
AM_4
100
AcDbLine
 10
0.4999999999999999
 20
2.38
 30
0.0
 11
0.8954643628509721
 21
-1.282
 31
0.0
  0
LINE
  5
185
330
146
100
AcDbEntity
  8
AM_4
100
AcDbLine
 10
-0.8954643628509719
 20
-1.282000000000001
 30
0.0
 11
-0.4999999999999999
 21
2.38
 31
0.0
  0
LINE
  5
186
330
146
100
AcDbEntity
  8
AM_4
100
AcDbLine
 10
-0.9999999999999999
 20
-1.282
 30
0.0
 11
-0.8954643628509718
 21
-1.282
 31
0.0
  0
LINE
  5
187
330
146
100
AcDbEntity
  8
AM_4
100
AcDbLine
 10
-0.9999999999999999
 20
-2.25
 30
0.0
 11
-0.9999999999999999
 21
-1.282
 31
0.0
  0
LINE
  5
188
330
146
100
AcDbEntity
  8
AM_4
100
AcDbLine
 10
-0.8240000000000002
 20
-0.6202400000000022
 30
0.0
 11
-0.8240000000000002
 21
-2.25
 31
0.0
  0
LINE
  5
189
330
146
100
AcDbEntity
  8
AM_5
100
AcDbLine
 10
0.3125
 20
-1.37
 30
0.0
 11
0.2854500000000003
 21
-1.323148025655262
 31
0.0
  0
LINE
  5
18A
330
146
100
AcDbEntity
  8
AM_5
100
AcDbLine
 10
-0.3125
 20
-1.37
 30
0.0
 11
-0.28545
 21
-1.323148025655262
 31
0.0
  0
ENDBLK
  5
149
330
146
100
AcDbEntity
  8
0
100
AcDbBlockEnd
  0
ENDSEC
  0
SECTION
  2
ENTITIES
  0
INSERT
  5
6F
330
1F
100
AcDbEntity
  8
0
100
AcDbBlockReference
  2
1_076030_2
 10
0.0
 20
0.0
 30
0.0
  0
POINT
  5
18C
330
1F
100
AcDbEntity
  8
ConnectionPoints
100
AcDbPoint
 10
0.87
 20
0.0
 30
-0.0000000000000001
  0
POINT
  5
18D
330
1F
100
AcDbEntity
  8
ConnectionPoints
100
AcDbPoint
 10
-1.35
 20
0.0
 30
0.0000000000000001
  0
POINT
  5
18E
330
1F
100
AcDbEntity
  8
ConnectionPoints
100
AcDbPoint
 10
0.0000000000000001
 20
1.574543648263005
 30
1.944543648263006
  0
POINT
  5
18F
330
1F
100
AcDbEntity
  8
ConnectionPoints
100
AcDbPoint
 10
-1.35
 20
0.0
 30
0.0000000000000001
  0
ENDSEC
  0
SECTION
  2
OBJECTS
  0
DICTIONARY
  5
C
330
0
100
AcDbDictionary
281
     1
  3
ACAD_DETAILVIEWSTYLE
350
197
  3
ACAD_GROUP
350
D
  3
ACAD_LAYOUT
350
1A
  3
ACAD_MATERIAL
350
43
  3
ACAD_MLEADERSTYLE
350
6B
  3
ACAD_MLINESTYLE
350
17
  3
ACAD_PLOTSETTINGS
350
19
  3
ACAD_PLOTSTYLENAME
350
E
  3
ACAD_SCALELIST
350
47
  3
ACAD_SECTIONVIEWSTYLE
350
198
  3
ACAD_TABLESTYLE
350
69
  3
ACAD_VISUALSTYLE
350
2A
  3
ACDB_RECOMPOSE_DATA
350
194
  3
AcDbVariableDictionary
350
190
  0
SUN
  5
6D
330
29
100
AcDbSun
 90
        1
290
     0
 63
     7
421
 16777215
 40
1.0
291
     1
 91
  2455826
 92
 54000000
292
     0
 70
     2
 71
   256
280
     1
  0
DICTIONARY
  5
197
102
{ACAD_REACTORS
330
C
102
}
330
C
100
AcDbDictionary
281
     1
  0
DICTIONARY
  5
D
102
{ACAD_REACTORS
330
C
102
}
330
C
100
AcDbDictionary
281
     1
  0
DICTIONARY
  5
1A
102
{ACAD_REACTORS
330
C
102
}
330
C
100
AcDbDictionary
281
     1
  3
Layout1
350
1E
  3
Layout2
350
26
  3
Model
350
22
  0
DICTIONARY
  5
43
102
{ACAD_REACTORS
330
C
102
}
330
C
100
AcDbDictionary
281
     1
  3
ByBlock
350
45
  3
ByLayer
350
44
  3
Global
350
46
  0
DICTIONARY
  5
6B
102
{ACAD_REACTORS
330
C
102
}
330
C
100
AcDbDictionary
281
     1
  3
Standard
350
6C
  0
DICTIONARY
  5
17
102
{ACAD_REACTORS
330
C
102
}
330
C
100
AcDbDictionary
281
     1
  3
Standard
350
18
  0
DICTIONARY
  5
19
102
{ACAD_REACTORS
330
C
102
}
330
C
100
AcDbDictionary
281
     1
  0
ACDBDICTIONARYWDFLT
  5
E
102
{ACAD_REACTORS
330
C
102
}
330
C
100
AcDbDictionary
281
     1
  3
Normal
350
F
100
AcDbDictionaryWithDefault
340
F
  0
DICTIONARY
  5
47
102
{ACAD_REACTORS
330
C
102
}
330
C
100
AcDbDictionary
281
     1
  3
A0
350
48
  3
A1
350
49
  3
A2
350
4A
  3
A3
350
4B
  3
A4
350
4C
  3
A5
350
4D
  3
A6
350
4E
  3
A7
350
4F
  3
A8
350
50
  3
A9
350
51
  3
B0
350
52
  3
B1
350
53
  3
B2
350
54
  3
B3
350
55
  3
B4
350
56
  3
B5
350
57
  3
B6
350
58
  3
B7
350
59
  3
B8
350
5A
  3
B9
350
5B
  3
C0
350
5C
  3
C1
350
5D
  3
C2
350
5E
  3
C3
350
5F
  3
C4
350
60
  3
C5
350
61
  3
C6
350
62
  3
C7
350
63
  3
C8
350
64
  3
C9
350
65
  3
D0
350
66
  3
D1
350
67
  3
D2
350
68
  0
DICTIONARY
  5
198
102
{ACAD_REACTORS
330
C
102
}
330
C
100
AcDbDictionary
281
     1
  0
DICTIONARY
  5
69
102
{ACAD_REACTORS
330
C
102
}
330
C
100
AcDbDictionary
281
     1
  3
Standard
350
6A
  0
DICTIONARY
  5
2A
102
{ACAD_REACTORS
330
C
102
}
330
C
100
AcDbDictionary
281
     1
  3
2dWireframe
350
2F
  3
Basic
350
32
  3
Brighten
350
36
  3
ColorChange
350
3A
  3
Conceptual
350
34
  3
Dim
350
35
  3
EdgeColorOff
350
3D
  3
Facepattern
350
39
  3
Flat
350
2B
  3
FlatWithEdges
350
2C
  3
Gouraud
350
2D
  3
GouraudWithEdges
350
2E
  3
Hidden
350
31
  3
JitterOff
350
3B
  3
Linepattern
350
38
  3
OverhangOff
350
3C
  3
Realistic
350
33
  3
Shaded
350
42
  3
Shaded with edges
350
41
  3
Shades of Gray
350
3E
  3
Sketchy
350
3F
  3
Thicken
350
37
  3
Wireframe
350
30
  3
X-Ray
350
40
  0
XRECORD
  5
194
102
{ACAD_REACTORS
330
C
102
}
330
C
100
AcDbXrecord
280
     1
 90
        1
330
6A
  0
DICTIONARY
  5
190
102
{ACAD_REACTORS
330
C
102
}
330
C
100
AcDbDictionary
281
     1
  3
CANNOSCALE
350
191
  3
CMLEADERSTYLE
350
196
  3
CTABLESTYLE
350
195
  0
LAYOUT
  5
1E
102
{ACAD_REACTORS
330
1A
102
}
330
1A
100
AcDbPlotSettings
  1

  2
none_device
  4

  6

 40
0.0
 41
0.0
 42
0.0
 43
0.0
 44
0.0
 45
0.0
 46
0.0
 47
0.0
 48
0.0
 49
0.0
140
0.0
141
0.0
142
1.0
143
1.0
 70
   688
 72
     0
 73
     0
 74
     5
  7

 75
    16
 76
     0
 77
     2
 78
   300
147
1.0
148
0.0
149
0.0
100
AcDbLayout
  1
Layout1
 70
     1
 71
     1
 10
0.0
 20
0.0
 11
12.0
 21
9.0
 12
0.0
 22
0.0
 32
0.0
 14
1.000000000000000E+20
 24
1.000000000000000E+20
 34
1.000000000000000E+20
 15
-1.000000000000000E+20
 25
-1.000000000000000E+20
 35
-1.000000000000000E+20
146
0.0
 13
0.0
 23
0.0
 33
0.0
 16
1.0
 26
0.0
 36
0.0
 17
0.0
 27
1.0
 37
0.0
 76
     0
330
1B
  0
LAYOUT
  5
26
102
{ACAD_REACTORS
330
1A
102
}
330
1A
100
AcDbPlotSettings
  1

  2
none_device
  4

  6

 40
0.0
 41
0.0
 42
0.0
 43
0.0
 44
0.0
 45
0.0
 46
0.0
 47
0.0
 48
0.0
 49
0.0
140
0.0
141
0.0
142
1.0
143
1.0
 70
   688
 72
     0
 73
     0
 74
     5
  7

 75
    16
 76
     0
 77
     2
 78
   300
147
1.0
148
0.0
149
0.0
100
AcDbLayout
  1
Layout2
 70
     1
 71
     2
 10
0.0
 20
0.0
 11
0.0
 21
0.0
 12
0.0
 22
0.0
 32
0.0
 14
0.0
 24
0.0
 34
0.0
 15
0.0
 25
0.0
 35
0.0
146
0.0
 13
0.0
 23
0.0
 33
0.0
 16
1.0
 26
0.0
 36
0.0
 17
0.0
 27
1.0
 37
0.0
 76
     0
330
23
  0
LAYOUT
  5
22
102
{ACAD_REACTORS
330
1A
102
}
330
1A
100
AcDbPlotSettings
  1

  2
none_device
  4
Letter_(8.50_x_11.00_Inches)
  6

 40
6.35
 41
6.35
 42
6.35000508
 43
6.35000508
 44
215.9
 45
279.4
 46
0.0
 47
0.0
 48
0.0
 49
0.0
140
0.0
141
0.0
142
1.0
143
1.0
 70
  1712
 72
     0
 73
     0
 74
     0
  7

 75
     0
 76
     0
 77
     2
 78
   300
147
1.0
148
0.0
149
0.0
100
AcDbLayout
  1
Model
 70
     1
 71
     0
 10
0.0
 20
0.0
 11
12.0
 21
9.0
 12
0.0
 22
0.0
 32
0.0
 14
1.000000000000000E+20
 24
1.000000000000000E+20
 34
1.000000000000000E+20
 15
-1.000000000000000E+20
 25
-1.000000000000000E+20
 35
-1.000000000000000E+20
146
0.0
 13
0.0
 23
0.0
 33
0.0
 16
1.0
 26
0.0
 36
0.0
 17
0.0
 27
1.0
 37
0.0
 76
     0
330
1F
331
29
  0
MATERIAL
  5
45
102
{ACAD_REACTORS
330
43
102
}
330
43
100
AcDbMaterial
  1
ByBlock
 72
     1
 94
      127
  0
MATERIAL
  5
44
102
{ACAD_REACTORS
330
43
102
}
330
43
100
AcDbMaterial
  1
ByLayer
 72
     1
 94
      127
  0
MATERIAL
  5
46
102
{ACAD_REACTORS
330
43
102
}
330
43
100
AcDbMaterial
  1
Global
 72
     1
 94
      127
  0
MLEADERSTYLE
  5
6C
102
{ACAD_REACTORS
330
6B
102
}
330
6B
100
AcDbMLeaderStyle
179
     2
170
     2
171
     1
172
     0
 90
        2
 40
0.0
 41
0.0
173
     1
 91
-1056964608
340
14
 92
       -2
290
     1
 42
0.09
291
     1
 43
0.36
  3
Standard
341
0
 44
0.18
300

342
11
174
     1
178
     6
175
     1
176
     0
 93
-1056964608
 45
0.18
292
     0
297
     0
 46
0.18
343
0
 94
-1056964608
 47
1.0
 49
1.0
140
1.0
293
     1
141
0.0
294
     1
177
     0
142
1.0
295
     0
296
     0
143
0.125
271
     0
272
     9
273
     9
298
     0
  0
MLINESTYLE
  5
18
102
{ACAD_REACTORS
330
17
102
}
330
17
100
AcDbMlineStyle
  2
Standard
 70
     0
  3

 62
   256
 51
90.0
 52
90.0
 71
     2
 49
0.5
 62
   256
  6
BYLAYER
 49
-0.5
 62
   256
  6
BYLAYER
  0
ACDBPLACEHOLDER
  5
F
102
{ACAD_REACTORS
330
E
102
}
330
E
  0
SCALE
  5
48
102
{ACAD_REACTORS
330
47
102
}
330
47
100
AcDbScale
 70
     0
300
1:1
140
1.0
141
1.0
290
     1
  0
SCALE
  5
49
102
{ACAD_REACTORS
330
47
102
}
330
47
100
AcDbScale
 70
     0
300
1:2
140
1.0
141
2.0
290
     0
  0
SCALE
  5
4A
102
{ACAD_REACTORS
330
47
102
}
330
47
100
AcDbScale
 70
     0
300
1:4
140
1.0
141
4.0
290
     0
  0
SCALE
  5
4B
102
{ACAD_REACTORS
330
47
102
}
330
47
100
AcDbScale
 70
     0
300
1:5
140
1.0
141
5.0
290
     0
  0
SCALE
  5
4C
102
{ACAD_REACTORS
330
47
102
}
330
47
100
AcDbScale
 70
     0
300
1:8
140
1.0
141
8.0
290
     0
  0
SCALE
  5
4D
102
{ACAD_REACTORS
330
47
102
}
330
47
100
AcDbScale
 70
     0
300
1:10
140
1.0
141
10.0
290
     0
  0
SCALE
  5
4E
102
{ACAD_REACTORS
330
47
102
}
330
47
100
AcDbScale
 70
     0
300
1:16
140
1.0
141
16.0
290
     0
  0
SCALE
  5
4F
102
{ACAD_REACTORS
330
47
102
}
330
47
100
AcDbScale
 70
     0
300
1:20
140
1.0
141
20.0
290
     0
  0
SCALE
  5
50
102
{ACAD_REACTORS
330
47
102
}
330
47
100
AcDbScale
 70
     0
300
1:30
140
1.0
141
30.0
290
     0
  0
SCALE
  5
51
102
{ACAD_REACTORS
330
47
102
}
330
47
100
AcDbScale
 70
     0
300
1:40
140
1.0
141
40.0
290
     0
  0
SCALE
  5
52
102
{ACAD_REACTORS
330
47
102
}
330
47
100
AcDbScale
 70
     0
300
1:50
140
1.0
141
50.0
290
     0
  0
SCALE
  5
53
102
{ACAD_REACTORS
330
47
102
}
330
47
100
AcDbScale
 70
     0
300
1:100
140
1.0
141
100.0
290
     0
  0
SCALE
  5
54
102
{ACAD_REACTORS
330
47
102
}
330
47
100
AcDbScale
 70
     0
300
2:1
140
2.0
141
1.0
290
     0
  0
SCALE
  5
55
102
{ACAD_REACTORS
330
47
102
}
330
47
100
AcDbScale
 70
     0
300
4:1
140
4.0
141
1.0
290
     0
  0
SCALE
  5
56
102
{ACAD_REACTORS
330
47
102
}
330
47
100
AcDbScale
 70
     0
300
8:1
140
8.0
141
1.0
290
     0
  0
SCALE
  5
57
102
{ACAD_REACTORS
330
47
102
}
330
47
100
AcDbScale
 70
     0
300
10:1
140
10.0
141
1.0
290
     0
  0
SCALE
  5
58
102
{ACAD_REACTORS
330
47
102
}
330
47
100
AcDbScale
 70
     0
300
100:1
140
100.0
141
1.0
290
     0
  0
SCALE
  5
59
102
{ACAD_REACTORS
330
47
102
}
330
47
100
AcDbScale
 70
     0
300
1/128" = 1'-0"
140
0.0078125
141
12.0
290
     0
  0
SCALE
  5
5A
102
{ACAD_REACTORS
330
47
102
}
330
47
100
AcDbScale
 70
     0
300
1/64" = 1'-0"
140
0.015625
141
12.0
290
     0
  0
SCALE
  5
5B
102
{ACAD_REACTORS
330
47
102
}
330
47
100
AcDbScale
 70
     0
300
1/32" = 1'-0"
140
0.03125
141
12.0
290
     0
  0
SCALE
  5
5C
102
{ACAD_REACTORS
330
47
102
}
330
47
100
AcDbScale
 70
     0
300
1/16" = 1'-0"
140
0.0625
141
12.0
290
     0
  0
SCALE
  5
5D
102
{ACAD_REACTORS
330
47
102
}
330
47
100
AcDbScale
 70
     0
300
3/32" = 1'-0"
140
0.09375
141
12.0
290
     0
  0
SCALE
  5
5E
102
{ACAD_REACTORS
330
47
102
}
330
47
100
AcDbScale
 70
     0
300
1/8" = 1'-0"
140
0.125
141
12.0
290
     0
  0
SCALE
  5
5F
102
{ACAD_REACTORS
330
47
102
}
330
47
100
AcDbScale
 70
     0
300
3/16" = 1'-0"
140
0.1875
141
12.0
290
     0
  0
SCALE
  5
60
102
{ACAD_REACTORS
330
47
102
}
330
47
100
AcDbScale
 70
     0
300
1/4" = 1'-0"
140
0.25
141
12.0
290
     0
  0
SCALE
  5
61
102
{ACAD_REACTORS
330
47
102
}
330
47
100
AcDbScale
 70
     0
300
3/8" = 1'-0"
140
0.375
141
12.0
290
     0
  0
SCALE
  5
62
102
{ACAD_REACTORS
330
47
102
}
330
47
100
AcDbScale
 70
     0
300
1/2" = 1'-0"
140
0.5
141
12.0
290
     0
  0
SCALE
  5
63
102
{ACAD_REACTORS
330
47
102
}
330
47
100
AcDbScale
 70
     0
300
3/4" = 1'-0"
140
0.75
141
12.0
290
     0
  0
SCALE
  5
64
102
{ACAD_REACTORS
330
47
102
}
330
47
100
AcDbScale
 70
     0
300
1" = 1'-0"
140
1.0
141
12.0
290
     0
  0
SCALE
  5
65
102
{ACAD_REACTORS
330
47
102
}
330
47
100
AcDbScale
 70
     0
300
1-1/2" = 1'-0"
140
1.5
141
12.0
290
     0
  0
SCALE
  5
66
102
{ACAD_REACTORS
330
47
102
}
330
47
100
AcDbScale
 70
     0
300
3" = 1'-0"
140
3.0
141
12.0
290
     0
  0
SCALE
  5
67
102
{ACAD_REACTORS
330
47
102
}
330
47
100
AcDbScale
 70
     0
300
6" = 1'-0"
140
6.0
141
12.0
290
     0
  0
SCALE
  5
68
102
{ACAD_REACTORS
330
47
102
}
330
47
100
AcDbScale
 70
     0
300
1'-0" = 1'-0"
140
12.0
141
12.0
290
     0
  0
TABLESTYLE
  5
6A
102
{ACAD_REACTORS
330
69
102
}
102
{ACAD_XDICTIONARY
360
192
102
}
330
69
100
AcDbTableStyle
  3
Standard
 70
     0
 71
     0
 40
0.06
 41
0.06
280
     0
281
     0
  7
Standard
140
0.18
170
     2
 62
     0
 63
   257
283
     0
 90
        4
 91
        0
  1

274
    -2
284
     1
 64
     0
275
    -2
285
     1
 65
     0
276
    -2
286
     1
 66
     0
277
    -2
287
     1
 67
     0
278
    -2
288
     1
 68
     0
279
    -2
289
     1
 69
     0
  7
Standard
140
0.25
170
     5
 62
     0
 63
   257
283
     0
 90
        4
 91
        0
  1

274
    -2
284
     1
 64
     0
275
    -2
285
     1
 65
     0
276
    -2
286
     1
 66
     0
277
    -2
287
     1
 67
     0
278
    -2
288
     1
 68
     0
279
    -2
289
     1
 69
     0
  7
Standard
140
0.18
170
     5
 62
     0
 63
   257
283
     0
 90
        4
 91
        0
  1

274
    -2
284
     1
 64
     0
275
    -2
285
     1
 65
     0
276
    -2
286
     1
 66
     0
277
    -2
287
     1
 67
     0
278
    -2
288
     1
 68
     0
279
    -2
289
     1
 69
     0
  0
VISUALSTYLE
  5
2F
102
{ACAD_REACTORS
330
2A
102
}
330
2A
100
AcDbVisualStyle
  2
2dWireframe
 70
     4
177
     3
291
     0
 70
    58
 90
        0
176
     1
 90
        2
176
     1
 90
        0
176
     1
 90
        0
176
     1
 40
0.6
176
     1
 40
30.0
176
     1
 62
     7
420
 16777215
176
     1
 90
        1
176
     1
 90
        4
176
     1
 62
     7
176
     1
 62
   257
176
     1
 90
        1
176
     1
 90
        1
176
     1
 40
1.0
176
     1
 90
        0
176
     1
 62
   257
176
     1
 40
1.0
176
     1
 90
        1
176
     1
 90
        6
176
     1
 90
        2
176
     1
 62
     7
176
     1
 90
        5
176
     1
 90
        0
176
     1
 90
        0
176
     1
290
     0
176
     1
 90
        1
176
     1
 40
0.0
176
     1
 90
        0
176
     1
290
     1
176
     1
290
     1
176
     1
290
     0
176
     1
290
     0
176
     1
290
     0
176
     1
290
     0
176
     1
290
     0
176
     1
290
     0
176
     1
290
     0
176
     1
 90
       50
176
     1
 40
0.0
176
     1
 40
1.0
176
     1
 90
        0
176
     1
 62
    18
420
        0
176
     1
 90
       50
176
     1
 90
        3
176
     1
 62
     5
420
      255
176
     1
290
     0
176
     1
 90
       50
176
     1
 90
       50
176
     1
 90
       50
176
     1
290
     0
176
     1
 90
       50
176
     1
 62
   256
176
     0
 40
1.0
176
     0
 90
        2
176
     1
  1
strokes_ogs.tif
176
     1
290
     0
176
     1
 40
1.0
176
     1
 40
1.0
176
     1
  0
VISUALSTYLE
  5
32
102
{ACAD_REACTORS
330
2A
102
}
330
2A
100
AcDbVisualStyle
  2
Basic
 70
     7
177
     3
291
     1
 70
    58
 90
        1
176
     1
 90
        0
176
     1
 90
        1
176
     1
 90
        0
176
     1
 40
0.6
176
     1
 40
30.0
176
     1
 62
     7
420
 16777215
176
     1
 90
        0
176
     1
 90
        4
176
     1
 62
     7
176
     1
 62
   257
176
     1
 90
        1
176
     1
 90
        1
176
     1
 40
1.0
176
     1
 90
        8
176
     1
 62
     7
176
     1
 40
1.0
176
     1
 90
        1
176
     1
 90
        6
176
     1
 90
        2
176
     1
 62
     7
176
     1
 90
        5
176
     1
 90
        0
176
     1
 90
        0
176
     1
290
     0
176
     1
 90
        1
176
     1
 40
0.0
176
     1
 90
        0
176
     1
290
     0
176
     1
290
     1
176
     1
290
     1
176
     1
290
     0
176
     1
290
     0
176
     1
290
     0
176
     1
290
     0
176
     1
290
     0
176
     1
290
     0
176
     1
 90
       50
176
     1
 40
0.0
176
     1
 40
1.0
176
     1
 90
        0
176
     1
 62
    18
420
        0
176
     1
 90
       50
176
     1
 90
        3
176
     1
 62
     5
420
      255
176
     1
290
     0
176
     1
 90
       50
176
     1
 90
       50
176
     1
 90
       50
176
     1
290
     0
176
     1
 90
       50
176
     1
 62
   256
176
     0
 40
1.0
176
     0
 90
        2
176
     1
  1
strokes_ogs.tif
176
     1
290
     0
176
     1
 40
1.0
176
     1
 40
1.0
176
     1
  0
VISUALSTYLE
  5
36
102
{ACAD_REACTORS
330
2A
102
}
330
2A
100
AcDbVisualStyle
  2
Brighten
 70
    12
177
     3
291
     1
 70
    58
 90
        2
176
     1
 90
        2
176
     1
 90
        0
176
     1
 90
        0
176
     1
 40
0.6
176
     1
 40
30.0
176
     1
 62
     7
420
 16777215
176
     1
 90
        1
176
     1
 90
        4
176
     1
 62
     7
176
     1
 62
   257
176
     1
 90
        1
176
     1
 90
        1
176
     1
 40
1.0
176
     1
 90
        8
176
     1
 62
     7
176
     1
 40
1.0
176
     1
 90
        1
176
     1
 90
        6
176
     1
 90
        2
176
     1
 62
     7
176
     1
 90
        5
176
     1
 90
        0
176
     1
 90
        0
176
     1
290
     0
176
     1
 90
        1
176
     1
 40
50.0
176
     1
 90
        0
176
     1
290
     0
176
     1
290
     1
176
     1
290
     1
176
     1
290
     0
176
     1
290
     0
176
     1
290
     0
176
     1
290
     0
176
     1
290
     0
176
     1
290
     0
176
     1
 90
       50
176
     1
 40
0.0
176
     1
 40
1.0
176
     1
 90
        0
176
     1
 62
    18
420
        0
176
     1
 90
       50
176
     1
 90
        3
176
     1
 62
     5
420
      255
176
     1
290
     0
176
     1
 90
       50
176
     1
 90
       50
176
     1
 90
       50
176
     1
290
     0
176
     1
 90
       50
176
     1
 62
   256
176
     0
 40
1.0
176
     0
 90
        2
176
     1
  1
strokes_ogs.tif
176
     1
290
     0
176
     1
 40
1.0
176
     1
 40
1.0
176
     1
  0
VISUALSTYLE
  5
3A
102
{ACAD_REACTORS
330
2A
102
}
330
2A
100
AcDbVisualStyle
  2
ColorChange
 70
    16
177
     3
291
     1
 70
    58
 90
        2
176
     1
 90
        2
176
     1
 90
        3
176
     1
 90
        0
176
     1
 40
0.6
176
     1
 40
30.0
176
     1
 62
     8
420
  8421504
176
     1
 90
        1
176
     1
 90
        4
176
     1
 62
     7
176
     1
 62
   257
176
     1
 90
        1
176
     1
 90
        1
176
     1
 40
1.0
176
     1
 90
        8
176
     1
 62
     8
420
  8421504
176
     1
 40
1.0
176
     1
 90
        1
176
     1
 90
        6
176
     1
 90
        2
176
     1
 62
     7
176
     1
 90
        5
176
     1
 90
        0
176
     1
 90
        0
176
     1
290
     0
176
     1
 90
        1
176
     1
 40
0.0
176
     1
 90
        0
176
     1
290
     0
176
     1
290
     1
176
     1
290
     1
176
     1
290
     0
176
     1
290
     0
176
     1
290
     0
176
     1
290
     0
176
     1
290
     0
176
     1
290
     0
176
     1
 90
       50
176
     1
 40
0.0
176
     1
 40
1.0
176
     1
 90
        0
176
     1
 62
    18
420
        0
176
     1
 90
       50
176
     1
 90
        3
176
     1
 62
     5
420
      255
176
     1
290
     0
176
     1
 90
       50
176
     1
 90
       50
176
     1
 90
       50
176
     1
290
     0
176
     1
 90
       50
176
     1
 62
   256
176
     0
 40
1.0
176
     0
 90
        2
176
     1
  1
strokes_ogs.tif
176
     1
290
     0
176
     1
 40
1.0
176
     1
 40
1.0
176
     1
  0
VISUALSTYLE
  5
34
102
{ACAD_REACTORS
330
2A
102
}
330
2A
100
AcDbVisualStyle
  2
Conceptual
 70
     9
177
     3
291
     0
 70
    58
 90
        3
176
     1
 90
        2
176
     1
 90
        0
176
     1
 90
        0
176
     1
 40
0.6
176
     1
 40
30.0
176
     1
 62
     7
420
 16777215
176
     1
 90
        2
176
     1
 90
        2
176
     1
 62
     7
176
     1
 62
   257
176
     1
 90
        1
176
     1
 90
        1
176
     1
 40
179.0
176
     1
 90
        8
176
     1
 62
     7
176
     1
 40
1.0
176
     1
 90
        1
176
     1
 90
        6
176
     1
 90
        2
176
     1
 62
     7
176
     1
 90
        3
176
     1
 90
        0
176
     1
 90
        0
176
     1
290
     0
176
     1
 90
        1
176
     1
 40
0.0
176
     1
 90
        0
176
     1
290
     0
176
     1
290
     1
176
     1
290
     1
176
     1
290
     0
176
     1
290
     0
176
     1
290
     0
176
     1
290
     0
176
     1
290
     0
176
     1
290
     0
176
     1
 90
       50
176
     1
 40
0.0
176
     1
 40
1.0
176
     1
 90
        0
176
     1
 62
    18
420
        0
176
     1
 90
       50
176
     1
 90
        3
176
     1
 62
     5
420
      255
176
     1
290
     0
176
     1
 90
       50
176
     1
 90
       50
176
     1
 90
       50
176
     1
290
     0
176
     1
 90
       50
176
     1
 62
   256
176
     0
 40
1.0
176
     0
 90
        2
176
     1
  1
strokes_ogs.tif
176
     1
290
     0
176
     1
 40
1.0
176
     1
 40
1.0
176
     1
  0
VISUALSTYLE
  5
35
102
{ACAD_REACTORS
330
2A
102
}
330
2A
100
AcDbVisualStyle
  2
Dim
 70
    11
177
     3
291
     1
 70
    58
 90
        2
176
     1
 90
        2
176
     1
 90
        0
176
     1
 90
        0
176
     1
 40
0.6
176
     1
 40
30.0
176
     1
 62
     7
420
 16777215
176
     1
 90
        1
176
     1
 90
        4
176
     1
 62
     7
176
     1
 62
   257
176
     1
 90
        1
176
     1
 90
        1
176
     1
 40
1.0
176
     1
 90
        8
176
     1
 62
     7
176
     1
 40
1.0
176
     1
 90
        1
176
     1
 90
        6
176
     1
 90
        2
176
     1
 62
     7
176
     1
 90
        5
176
     1
 90
        0
176
     1
 90
        0
176
     1
290
     0
176
     1
 90
        1
176
     1
 40
-50.0
176
     1
 90
        0
176
     1
290
     0
176
     1
290
     1
176
     1
290
     1
176
     1
290
     0
176
     1
290
     0
176
     1
290
     0
176
     1
290
     0
176
     1
290
     0
176
     1
290
     0
176
     1
 90
       50
176
     1
 40
0.0
176
     1
 40
1.0
176
     1
 90
        0
176
     1
 62
    18
420
        0
176
     1
 90
       50
176
     1
 90
        3
176
     1
 62
     5
420
      255
176
     1
290
     0
176
     1
 90
       50
176
     1
 90
       50
176
     1
 90
       50
176
     1
290
     0
176
     1
 90
       50
176
     1
 62
   256
176
     0
 40
1.0
176
     0
 90
        2
176
     1
  1
strokes_ogs.tif
176
     1
290
     0
176
     1
 40
1.0
176
     1
 40
1.0
176
     1
  0
VISUALSTYLE
  5
3D
102
{ACAD_REACTORS
330
2A
102
}
330
2A
100
AcDbVisualStyle
  2
EdgeColorOff
 70
    22
177
     3
291
     1
 70
    58
 90
        2
176
     0
 90
        2
176
     0
 90
        0
176
     0
 90
        0
176
     0
 40
0.6
176
     0
 40
30.0
176
     0
 62
     7
420
 16777215
176
     0
 90
        1
176
     0
 90
        4
176
     0
 62
     7
176
     0
 62
   257
176
     0
 90
        1
176
     0
 90
        1
176
     0
 40
1.0
176
     0
 90
        8
176
     2
 62
     7
176
     0
 40
1.0
176
     0
 90
        1
176
     0
 90
        6
176
     0
 90
        2
176
     0
 62
     7
176
     0
 90
        5
176
     0
 90
        0
176
     0
 90
        0
176
     0
290
     0
176
     0
 90
        1
176
     0
 40
0.0
176
     0
 90
        0
176
     0
290
     0
176
     0
290
     1
176
     0
290
     1
176
     0
290
     0
176
     0
290
     0
176
     0
290
     0
176
     0
290
     0
176
     0
290
     0
176
     0
290
     0
176
     0
 90
       50
176
     0
 40
0.0
176
     0
 40
1.0
176
     0
 90
        0
176
     0
 62
    18
420
        0
176
     0
 90
       50
176
     0
 90
        3
176
     0
 62
     5
420
      255
176
     0
290
     0
176
     0
 90
       50
176
     0
 90
       50
176
     0
 90
       50
176
     0
290
     0
176
     0
 90
       50
176
     0
 62
   256
176
     0
 40
1.0
176
     0
 90
        2
176
     0
  1
strokes_ogs.tif
176
     0
290
     0
176
     0
 40
1.0
176
     0
 40
1.0
176
     0
  0
VISUALSTYLE
  5
39
102
{ACAD_REACTORS
330
2A
102
}
330
2A
100
AcDbVisualStyle
  2
Facepattern
 70
    15
177
     3
291
     1
 70
    58
 90
        2
176
     1
 90
        2
176
     1
 90
        0
176
     1
 90
        0
176
     1
 40
0.6
176
     1
 40
30.0
176
     1
 62
     7
420
 16777215
176
     1
 90
        1
176
     1
 90
        4
176
     1
 62
     7
176
     1
 62
   257
176
     1
 90
        1
176
     1
 90
        1
176
     1
 40
1.0
176
     1
 90
        8
176
     1
 62
     7
176
     1
 40
1.0
176
     1
 90
        1
176
     1
 90
        6
176
     1
 90
        2
176
     1
 62
     7
176
     1
 90
        5
176
     1
 90
        0
176
     1
 90
        0
176
     1
290
     0
176
     1
 90
        1
176
     1
 40
0.0
176
     1
 90
        0
176
     1
290
     0
176
     1
290
     1
176
     1
290
     1
176
     1
290
     0
176
     1
290
     0
176
     1
290
     0
176
     1
290
     0
176
     1
290
     0
176
     1
290
     0
176
     1
 90
       50
176
     1
 40
0.0
176
     1
 40
1.0
176
     1
 90
        0
176
     1
 62
    18
420
        0
176
     1
 90
       50
176
     1
 90
        3
176
     1
 62
     5
420
      255
176
     1
290
     0
176
     1
 90
       50
176
     1
 90
       50
176
     1
 90
       50
176
     1
290
     0
176
     1
 90
       50
176
     1
 62
   256
176
     0
 40
1.0
176
     0
 90
        2
176
     1
  1
strokes_ogs.tif
176
     1
290
     0
176
     1
 40
1.0
176
     1
 40
1.0
176
     1
  0
VISUALSTYLE
  5
2B
102
{ACAD_REACTORS
330
2A
102
}
330
2A
100
AcDbVisualStyle
  2
Flat
 70
     0
177
     3
291
     1
 70
    58
 90
        2
176
     1
 90
        1
176
     1
 90
        1
176
     1
 90
        2
176
     1
 40
0.6
176
     1
 40
30.0
176
     1
 62
     7
420
 16777215
176
     1
 90
        0
176
     1
 90
        0
176
     1
 62
     7
176
     1
 62
   257
176
     1
 90
        1
176
     1
 90
        1
176
     1
 40
1.0
176
     1
 90
        8
176
     1
 62
     7
176
     1
 40
1.0
176
     1
 90
        1
176
     1
 90
        6
176
     1
 90
        2
176
     1
 62
     7
176
     1
 90
        5
176
     1
 90
        0
176
     1
 90
        0
176
     1
290
     0
176
     1
 90
       13
176
     1
 40
0.0
176
     1
 90
        0
176
     1
290
     0
176
     1
290
     1
176
     1
290
     1
176
     1
290
     0
176
     1
290
     0
176
     1
290
     0
176
     1
290
     0
176
     1
290
     0
176
     1
290
     0
176
     1
 90
       50
176
     1
 40
0.0
176
     1
 40
1.0
176
     1
 90
        0
176
     1
 62
    18
420
        0
176
     1
 90
       50
176
     1
 90
        3
176
     1
 62
     5
420
      255
176
     1
290
     0
176
     1
 90
       50
176
     1
 90
       50
176
     1
 90
       50
176
     1
290
     0
176
     1
 90
       50
176
     1
 62
   256
176
     0
 40
1.0
176
     0
 90
        2
176
     1
  1
strokes_ogs.tif
176
     1
290
     0
176
     1
 40
1.0
176
     1
 40
1.0
176
     1
  0
VISUALSTYLE
  5
2C
102
{ACAD_REACTORS
330
2A
102
}
330
2A
100
AcDbVisualStyle
  2
FlatWithEdges
 70
     1
177
     3
291
     1
 70
    58
 90
        2
176
     1
 90
        1
176
     1
 90
        1
176
     1
 90
        2
176
     1
 40
0.6
176
     1
 40
30.0
176
     1
 62
     7
420
 16777215
176
     1
 90
        1
176
     1
 90
        0
176
     1
 62
     7
176
     1
 62
   257
176
     1
 90
        1
176
     1
 90
        1
176
     1
 40
1.0
176
     1
 90
        0
176
     1
 62
   257
176
     1
 40
1.0
176
     1
 90
        1
176
     1
 90
        6
176
     1
 90
        2
176
     1
 62
     7
176
     1
 90
        5
176
     1
 90
        0
176
     1
 90
        0
176
     1
290
     0
176
     1
 90
       13
176
     1
 40
0.0
176
     1
 90
        0
176
     1
290
     0
176
     1
290
     1
176
     1
290
     1
176
     1
290
     0
176
     1
290
     0
176
     1
290
     0
176
     1
290
     0
176
     1
290
     0
176
     1
290
     0
176
     1
 90
       50
176
     1
 40
0.0
176
     1
 40
1.0
176
     1
 90
        0
176
     1
 62
    18
420
        0
176
     1
 90
       50
176
     1
 90
        3
176
     1
 62
     5
420
      255
176
     1
290
     0
176
     1
 90
       50
176
     1
 90
       50
176
     1
 90
       50
176
     1
290
     0
176
     1
 90
       50
176
     1
 62
   256
176
     0
 40
1.0
176
     0
 90
        2
176
     1
  1
strokes_ogs.tif
176
     1
290
     0
176
     1
 40
1.0
176
     1
 40
1.0
176
     1
  0
VISUALSTYLE
  5
2D
102
{ACAD_REACTORS
330
2A
102
}
330
2A
100
AcDbVisualStyle
  2
Gouraud
 70
     2
177
     3
291
     1
 70
    58
 90
        2
176
     1
 90
        2
176
     1
 90
        1
176
     1
 90
        2
176
     1
 40
0.6
176
     1
 40
30.0
176
     1
 62
     7
420
 16777215
176
     1
 90
        0
176
     1
 90
        0
176
     1
 62
     7
176
     1
 62
   257
176
     1
 90
        1
176
     1
 90
        1
176
     1
 40
1.0
176
     1
 90
        0
176
     1
 62
     7
176
     1
 40
1.0
176
     1
 90
        1
176
     1
 90
        6
176
     1
 90
        2
176
     1
 62
     7
176
     1
 90
        5
176
     1
 90
        0
176
     1
 90
        0
176
     1
290
     0
176
     1
 90
       13
176
     1
 40
0.0
176
     1
 90
        0
176
     1
290
     0
176
     1
290
     1
176
     1
290
     1
176
     1
290
     0
176
     1
290
     0
176
     1
290
     0
176
     1
290
     0
176
     1
290
     0
176
     1
290
     0
176
     1
 90
       50
176
     1
 40
0.0
176
     1
 40
1.0
176
     1
 90
        0
176
     1
 62
    18
420
        0
176
     1
 90
       50
176
     1
 90
        3
176
     1
 62
     5
420
      255
176
     1
290
     0
176
     1
 90
       50
176
     1
 90
       50
176
     1
 90
       50
176
     1
290
     0
176
     1
 90
       50
176
     1
 62
   256
176
     0
 40
1.0
176
     0
 90
        2
176
     1
  1
strokes_ogs.tif
176
     1
290
     0
176
     1
 40
1.0
176
     1
 40
1.0
176
     1
  0
VISUALSTYLE
  5
2E
102
{ACAD_REACTORS
330
2A
102
}
330
2A
100
AcDbVisualStyle
  2
GouraudWithEdges
 70
     3
177
     3
291
     1
 70
    58
 90
        2
176
     1
 90
        2
176
     1
 90
        1
176
     1
 90
        2
176
     1
 40
0.6
176
     1
 40
30.0
176
     1
 62
     7
420
 16777215
176
     1
 90
        1
176
     1
 90
        0
176
     1
 62
     7
176
     1
 62
   257
176
     1
 90
        1
176
     1
 90
        1
176
     1
 40
1.0
176
     1
 90
        0
176
     1
 62
   257
176
     1
 40
1.0
176
     1
 90
        1
176
     1
 90
        6
176
     1
 90
        2
176
     1
 62
     7
176
     1
 90
        5
176
     1
 90
        0
176
     1
 90
        0
176
     1
290
     0
176
     1
 90
       13
176
     1
 40
0.0
176
     1
 90
        0
176
     1
290
     0
176
     1
290
     1
176
     1
290
     1
176
     1
290
     0
176
     1
290
     0
176
     1
290
     0
176
     1
290
     0
176
     1
290
     0
176
     1
290
     0
176
     1
 90
       50
176
     1
 40
0.0
176
     1
 40
1.0
176
     1
 90
        0
176
     1
 62
    18
420
        0
176
     1
 90
       50
176
     1
 90
        3
176
     1
 62
     5
420
      255
176
     1
290
     0
176
     1
 90
       50
176
     1
 90
       50
176
     1
 90
       50
176
     1
290
     0
176
     1
 90
       50
176
     1
 62
   256
176
     0
 40
1.0
176
     0
 90
        2
176
     1
  1
strokes_ogs.tif
176
     1
290
     0
176
     1
 40
1.0
176
     1
 40
1.0
176
     1
  0
VISUALSTYLE
  5
31
102
{ACAD_REACTORS
330
2A
102
}
330
2A
100
AcDbVisualStyle
  2
Hidden
 70
     6
177
     3
291
     0
 70
    58
 90
        1
176
     1
 90
        2
176
     1
 90
        2
176
     1
 90
        0
176
     1
 40
0.6
176
     1
 40
30.0
176
     1
 62
     7
420
 16777215
176
     1
 90
        2
176
     1
 90
        2
176
     1
 62
     7
176
     1
 62
   257
176
     1
 90
        2
176
     1
 90
        1
176
     1
 40
40.0
176
     1
 90
        0
176
     1
 62
   257
176
     1
 40
1.0
176
     1
 90
        1
176
     1
 90
        6
176
     1
 90
        2
176
     1
 62
     7
176
     1
 90
        3
176
     1
 90
        0
176
     1
 90
        0
176
     1
290
     0
176
     1
 90
        1
176
     1
 40
0.0
176
     1
 90
        0
176
     1
290
     0
176
     1
290
     1
176
     1
290
     1
176
     1
290
     0
176
     1
290
     0
176
     1
290
     0
176
     1
290
     0
176
     1
290
     0
176
     1
290
     0
176
     1
 90
       50
176
     1
 40
0.0
176
     1
 40
1.0
176
     1
 90
        0
176
     1
 62
    18
420
        0
176
     1
 90
       50
176
     1
 90
        3
176
     1
 62
     5
420
      255
176
     1
290
     0
176
     1
 90
       50
176
     1
 90
       50
176
     1
 90
       50
176
     1
290
     0
176
     1
 90
       50
176
     1
 62
   256
176
     0
 40
1.0
176
     0
 90
        2
176
     1
  1
strokes_ogs.tif
176
     1
290
     0
176
     1
 40
1.0
176
     1
 40
1.0
176
     1
  0
VISUALSTYLE
  5
3B
102
{ACAD_REACTORS
330
2A
102
}
330
2A
100
AcDbVisualStyle
  2
JitterOff
 70
    20
177
     3
291
     1
 70
    58
 90
        2
176
     0
 90
        2
176
     0
 90
        0
176
     0
 90
        0
176
     0
 40
0.6
176
     0
 40
30.0
176
     0
 62
     7
420
 16777215
176
     0
 90
        1
176
     0
 90
        4
176
     0
 62
     7
176
     0
 62
   257
176
     0
 90
        1
176
     0
 90
        1
176
     0
 40
1.0
176
     0
 90
       10
176
     2
 62
     7
176
     0
 40
1.0
176
     0
 90
        1
176
     0
 90
        6
176
     0
 90
        2
176
     0
 62
     7
176
     0
 90
        5
176
     0
 90
        0
176
     0
 90
        0
176
     0
290
     0
176
     0
 90
        1
176
     0
 40
0.0
176
     0
 90
        0
176
     0
290
     0
176
     0
290
     1
176
     0
290
     1
176
     0
290
     0
176
     0
290
     0
176
     0
290
     0
176
     0
290
     0
176
     0
290
     0
176
     0
290
     0
176
     0
 90
       50
176
     0
 40
0.0
176
     0
 40
1.0
176
     0
 90
        0
176
     0
 62
    18
420
        0
176
     0
 90
       50
176
     0
 90
        3
176
     0
 62
     5
420
      255
176
     0
290
     0
176
     0
 90
       50
176
     0
 90
       50
176
     0
 90
       50
176
     0
290
     0
176
     0
 90
       50
176
     0
 62
   256
176
     0
 40
1.0
176
     0
 90
        2
176
     0
  1
strokes_ogs.tif
176
     0
290
     0
176
     0
 40
1.0
176
     0
 40
1.0
176
     0
  0
VISUALSTYLE
  5
38
102
{ACAD_REACTORS
330
2A
102
}
330
2A
100
AcDbVisualStyle
  2
Linepattern
 70
    14
177
     3
291
     1
 70
    58
 90
        2
176
     1
 90
        2
176
     1
 90
        0
176
     1
 90
        0
176
     1
 40
0.6
176
     1
 40
30.0
176
     1
 62
     7
420
 16777215
176
     1
 90
        1
176
     1
 90
        4
176
     1
 62
     7
176
     1
 62
   257
176
     1
 90
        7
176
     1
 90
        7
176
     1
 40
1.0
176
     1
 90
        8
176
     1
 62
     7
176
     1
 40
1.0
176
     1
 90
        1
176
     1
 90
        6
176
     1
 90
        2
176
     1
 62
     7
176
     1
 90
        5
176
     1
 90
        0
176
     1
 90
        0
176
     1
290
     0
176
     1
 90
        1
176
     1
 40
0.0
176
     1
 90
        0
176
     1
290
     0
176
     1
290
     1
176
     1
290
     1
176
     1
290
     0
176
     1
290
     0
176
     1
290
     0
176
     1
290
     0
176
     1
290
     0
176
     1
290
     0
176
     1
 90
       50
176
     1
 40
0.0
176
     1
 40
1.0
176
     1
 90
        0
176
     1
 62
    18
420
        0
176
     1
 90
       50
176
     1
 90
        3
176
     1
 62
     5
420
      255
176
     1
290
     0
176
     1
 90
       50
176
     1
 90
       50
176
     1
 90
       50
176
     1
290
     0
176
     1
 90
       50
176
     1
 62
   256
176
     0
 40
1.0
176
     0
 90
        2
176
     1
  1
strokes_ogs.tif
176
     1
290
     0
176
     1
 40
1.0
176
     1
 40
1.0
176
     1
  0
VISUALSTYLE
  5
3C
102
{ACAD_REACTORS
330
2A
102
}
330
2A
100
AcDbVisualStyle
  2
OverhangOff
 70
    21
177
     3
291
     1
 70
    58
 90
        2
176
     0
 90
        2
176
     0
 90
        0
176
     0
 90
        0
176
     0
 40
0.6
176
     0
 40
30.0
176
     0
 62
     7
420
 16777215
176
     0
 90
        1
176
     0
 90
        4
176
     0
 62
     7
176
     0
 62
   257
176
     0
 90
        1
176
     0
 90
        1
176
     0
 40
1.0
176
     0
 90
        9
176
     2
 62
     7
176
     0
 40
1.0
176
     0
 90
        1
176
     0
 90
        6
176
     0
 90
        2
176
     0
 62
     7
176
     0
 90
        5
176
     0
 90
        0
176
     0
 90
        0
176
     0
290
     0
176
     0
 90
        1
176
     0
 40
0.0
176
     0
 90
        0
176
     0
290
     0
176
     0
290
     1
176
     0
290
     1
176
     0
290
     0
176
     0
290
     0
176
     0
290
     0
176
     0
290
     0
176
     0
290
     0
176
     0
290
     0
176
     0
 90
       50
176
     0
 40
0.0
176
     0
 40
1.0
176
     0
 90
        0
176
     0
 62
    18
420
        0
176
     0
 90
       50
176
     0
 90
        3
176
     0
 62
     5
420
      255
176
     0
290
     0
176
     0
 90
       50
176
     0
 90
       50
176
     0
 90
       50
176
     0
290
     0
176
     0
 90
       50
176
     0
 62
   256
176
     0
 40
1.0
176
     0
 90
        2
176
     0
  1
strokes_ogs.tif
176
     0
290
     0
176
     0
 40
1.0
176
     0
 40
1.0
176
     0
  0
VISUALSTYLE
  5
33
102
{ACAD_REACTORS
330
2A
102
}
330
2A
100
AcDbVisualStyle
  2
Realistic
 70
     8
177
     3
291
     0
 70
    58
 90
        2
176
     1
 90
        3
176
     1
 90
        0
176
     1
 90
        2
176
     1
 40
0.6
176
     1
 40
30.0
176
     1
 62
     7
420
 16777215
176
     1
 90
        0
176
     1
 90
        0
176
     1
 62
     7
176
     1
 62
   257
176
     1
 90
        1
176
     1
 90
        1
176
     1
 40
1.0
176
     1
 90
        8
176
     1
 62
   257
176
     1
 40
1.0
176
     1
 90
        1
176
     1
 90
        6
176
     1
 90
        2
176
     1
 62
     7
176
     1
 90
        3
176
     1
 90
        0
176
     1
 90
        0
176
     1
290
     0
176
     1
 90
       13
176
     1
 40
0.0
176
     1
 90
        0
176
     1
290
     0
176
     1
290
     1
176
     1
290
     1
176
     1
290
     0
176
     1
290
     0
176
     1
290
     0
176
     1
290
     0
176
     1
290
     0
176
     1
290
     0
176
     1
 90
       50
176
     1
 40
0.0
176
     1
 40
1.0
176
     1
 90
        0
176
     1
 62
    18
420
        0
176
     1
 90
       50
176
     1
 90
        3
176
     1
 62
     5
420
      255
176
     1
290
     0
176
     1
 90
       50
176
     1
 90
       50
176
     1
 90
       50
176
     1
290
     0
176
     1
 90
       50
176
     1
 62
   256
176
     0
 40
1.0
176
     0
 90
        2
176
     1
  1
strokes_ogs.tif
176
     1
290
     0
176
     1
 40
1.0
176
     1
 40
1.0
176
     1
  0
VISUALSTYLE
  5
42
102
{ACAD_REACTORS
330
2A
102
}
330
2A
100
AcDbVisualStyle
  2
Shaded
 70
    27
177
     3
291
     0
 70
    58
 90
        2
176
     1
 90
        2
176
     1
 90
        1
176
     1
 90
        2
176
     1
 40
0.6
176
     1
 40
30.0
176
     1
 62
     7
420
 16777215
176
     1
 90
        0
176
     1
 90
        4
176
     1
 62
     7
176
     1
 62
   257
176
     1
 90
        1
176
     1
 90
        1
176
     1
 40
1.0
176
     1
 90
        8
176
     1
 62
   257
176
     1
 40
1.0
176
     1
 90
        1
176
     1
 90
        6
176
     1
 90
        2
176
     1
 62
     8
420
  7895160
176
     1
 90
        3
176
     1
 90
        0
176
     1
 90
        0
176
     1
290
     0
176
     1
 90
        5
176
     1
 40
0.0
176
     1
 90
        0
176
     1
290
     0
176
     1
290
     1
176
     1
290
     1
176
     1
290
     0
176
     1
290
     0
176
     1
290
     0
176
     1
290
     0
176
     1
290
     0
176
     1
290
     0
176
     1
 90
       50
176
     1
 40
0.0
176
     1
 40
1.0
176
     1
 90
        0
176
     1
 62
    18
420
        0
176
     1
 90
       50
176
     1
 90
        3
176
     1
 62
     5
420
      255
176
     1
290
     0
176
     1
 90
       50
176
     1
 90
       50
176
     1
 90
       50
176
     1
290
     0
176
     1
 90
       50
176
     1
 62
   256
176
     0
 40
1.0
176
     0
 90
        2
176
     1
  1
strokes_ogs.tif
176
     1
290
     0
176
     1
 40
1.0
176
     1
 40
1.0
176
     1
  0
VISUALSTYLE
  5
41
102
{ACAD_REACTORS
330
2A
102
}
330
2A
100
AcDbVisualStyle
  2
Shaded with edges
 70
    26
177
     3
291
     0
 70
    58
 90
        2
176
     1
 90
        2
176
     1
 90
        1
176
     1
 90
        2
176
     1
 40
0.6
176
     1
 40
30.0
176
     1
 62
     7
420
 16777215
176
     1
 90
        1
176
     1
 90
       10
176
     1
 62
     7
176
     1
 62
   257
176
     1
 90
        2
176
     1
 90
        1
176
     1
 40
1.0
176
     1
 90
        8
176
     1
 62
   257
176
     1
 40
1.0
176
     1
 90
        1
176
     1
 90
        6
176
     1
 90
        2
176
     1
 62
     7
176
     1
 90
        3
176
     1
 90
        0
176
     1
 90
        0
176
     1
290
     0
176
     1
 90
        5
176
     1
 40
0.0
176
     1
 90
        0
176
     1
290
     0
176
     1
290
     1
176
     1
290
     1
176
     1
290
     0
176
     1
290
     0
176
     1
290
     0
176
     1
290
     0
176
     1
290
     0
176
     1
290
     0
176
     1
 90
       50
176
     1
 40
0.0
176
     1
 40
1.0
176
     1
 90
        0
176
     1
 62
    18
420
        0
176
     1
 90
       50
176
     1
 90
        3
176
     1
 62
     5
420
      255
176
     1
290
     0
176
     1
 90
       50
176
     1
 90
       50
176
     1
 90
       50
176
     1
290
     0
176
     1
 90
       50
176
     1
 62
   256
176
     0
 40
1.0
176
     0
 90
        2
176
     1
  1
strokes_ogs.tif
176
     1
290
     0
176
     1
 40
1.0
176
     1
 40
1.0
176
     1
  0
VISUALSTYLE
  5
3E
102
{ACAD_REACTORS
330
2A
102
}
330
2A
100
AcDbVisualStyle
  2
Shades of Gray
 70
    23
177
     3
291
     0
 70
    58
 90
        2
176
     1
 90
        2
176
     1
 90
        3
176
     1
 90
        0
176
     1
 40
0.6
176
     1
 40
30.0
176
     1
 62
     7
420
 16777215
176
     1
 90
        2
176
     1
 90
        2
176
     1
 62
     7
176
     1
 62
     7
176
     1
 90
        1
176
     1
 90
        1
176
     1
 40
40.0
176
     1
 90
        8
176
     1
 62
     7
176
     1
 40
1.0
176
     1
 90
        1
176
     1
 90
        6
176
     1
 90
        2
176
     1
 62
     7
176
     1
 90
        3
176
     1
 90
        0
176
     1
 90
        0
176
     1
290
     0
176
     1
 90
        1
176
     1
 40
0.0
176
     1
 90
        0
176
     1
290
     0
176
     1
290
     1
176
     1
290
     1
176
     1
290
     0
176
     1
290
     0
176
     1
290
     0
176
     1
290
     0
176
     1
290
     0
176
     1
290
     0
176
     1
 90
       50
176
     1
 40
0.0
176
     1
 40
1.0
176
     1
 90
        0
176
     1
 62
    18
420
        0
176
     1
 90
       50
176
     1
 90
        3
176
     1
 62
     5
420
      255
176
     1
290
     0
176
     1
 90
       50
176
     1
 90
       50
176
     1
 90
       50
176
     1
290
     0
176
     1
 90
       50
176
     1
 62
   256
176
     0
 40
1.0
176
     0
 90
        2
176
     1
  1
strokes_ogs.tif
176
     1
290
     0
176
     1
 40
1.0
176
     1
 40
1.0
176
     1
  0
VISUALSTYLE
  5
3F
102
{ACAD_REACTORS
330
2A
102
}
330
2A
100
AcDbVisualStyle
  2
Sketchy
 70
    24
177
     3
291
     0
 70
    58
 90
        1
176
     1
 90
        2
176
     1
 90
        2
176
     1
 90
        0
176
     1
 40
0.6
176
     1
 40
30.0
176
     1
 62
     7
420
 16777215
176
     1
 90
        2
176
     1
 90
        2
176
     1
 62
     7
176
     1
 62
     7
176
     1
 90
        1
176
     1
 90
        1
176
     1
 40
40.0
176
     1
 90
       11
176
     1
 62
     7
176
     1
 40
1.0
176
     1
 90
        1
176
     1
 90
        6
176
     1
 90
        2
176
     1
 62
     7
176
     1
 90
        6
176
     1
 90
        0
176
     1
 90
        0
176
     1
290
     0
176
     1
 90
        1
176
     1
 40
0.0
176
     1
 90
        0
176
     1
290
     0
176
     1
290
     1
176
     1
290
     1
176
     1
290
     0
176
     1
290
     0
176
     1
290
     0
176
     1
290
     0
176
     1
290
     0
176
     1
290
     0
176
     1
 90
       50
176
     1
 40
0.0
176
     1
 40
1.0
176
     1
 90
        0
176
     1
 62
    18
420
        0
176
     1
 90
       50
176
     1
 90
        3
176
     1
 62
     5
420
      255
176
     1
290
     0
176
     1
 90
       50
176
     1
 90
       50
176
     1
 90
       50
176
     1
290
     0
176
     1
 90
       50
176
     1
 62
   256
176
     0
 40
1.0
176
     0
 90
        2
176
     1
  1
strokes_ogs.tif
176
     1
290
     0
176
     1
 40
1.0
176
     1
 40
1.0
176
     1
  0
VISUALSTYLE
  5
37
102
{ACAD_REACTORS
330
2A
102
}
330
2A
100
AcDbVisualStyle
  2
Thicken
 70
    13
177
     3
291
     1
 70
    58
 90
        2
176
     1
 90
        2
176
     1
 90
        0
176
     1
 90
        0
176
     1
 40
0.6
176
     1
 40
30.0
176
     1
 62
     7
420
 16777215
176
     1
 90
        1
176
     1
 90
        4
176
     1
 62
     7
176
     1
 62
   257
176
     1
 90
        1
176
     1
 90
        1
176
     1
 40
1.0
176
     1
 90
       12
176
     1
 62
     7
176
     1
 40
1.0
176
     1
 90
        1
176
     1
 90
        6
176
     1
 90
        2
176
     1
 62
     7
176
     1
 90
        5
176
     1
 90
        0
176
     1
 90
        0
176
     1
290
     0
176
     1
 90
        1
176
     1
 40
0.0
176
     1
 90
        0
176
     1
290
     0
176
     1
290
     1
176
     1
290
     1
176
     1
290
     0
176
     1
290
     0
176
     1
290
     0
176
     1
290
     0
176
     1
290
     0
176
     1
290
     0
176
     1
 90
       50
176
     1
 40
0.0
176
     1
 40
1.0
176
     1
 90
        0
176
     1
 62
    18
420
        0
176
     1
 90
       50
176
     1
 90
        3
176
     1
 62
     5
420
      255
176
     1
290
     0
176
     1
 90
       50
176
     1
 90
       50
176
     1
 90
       50
176
     1
290
     0
176
     1
 90
       50
176
     1
 62
   256
176
     0
 40
1.0
176
     0
 90
        2
176
     1
  1
strokes_ogs.tif
176
     1
290
     0
176
     1
 40
1.0
176
     1
 40
1.0
176
     1
  0
VISUALSTYLE
  5
30
102
{ACAD_REACTORS
330
2A
102
}
330
2A
100
AcDbVisualStyle
  2
Wireframe
 70
     5
177
     3
291
     0
 70
    58
 90
        0
176
     1
 90
        2
176
     1
 90
        0
176
     1
 90
        0
176
     1
 40
0.6
176
     1
 40
30.0
176
     1
 62
     7
420
 16777215
176
     1
 90
        1
176
     1
 90
        4
176
     1
 62
     7
176
     1
 62
   257
176
     1
 90
        1
176
     1
 90
        1
176
     1
 40
1.0
176
     1
 90
        0
176
     1
 62
   257
176
     1
 40
1.0
176
     1
 90
        1
176
     1
 90
        6
176
     1
 90
        2
176
     1
 62
     7
176
     1
 90
        3
176
     1
 90
        0
176
     1
 90
        0
176
     1
290
     0
176
     1
 90
        1
176
     1
 40
0.0
176
     1
 90
        0
176
     1
290
     0
176
     1
290
     1
176
     1
290
     1
176
     1
290
     0
176
     1
290
     0
176
     1
290
     0
176
     1
290
     0
176
     1
290
     0
176
     1
290
     0
176
     1
 90
       50
176
     1
 40
0.0
176
     1
 40
1.0
176
     1
 90
        0
176
     1
 62
    18
420
        0
176
     1
 90
       50
176
     1
 90
        3
176
     1
 62
     5
420
      255
176
     1
290
     0
176
     1
 90
       50
176
     1
 90
       50
176
     1
 90
       50
176
     1
290
     0
176
     1
 90
       50
176
     1
 62
   256
176
     0
 40
1.0
176
     0
 90
        2
176
     1
  1
strokes_ogs.tif
176
     1
290
     0
176
     1
 40
1.0
176
     1
 40
1.0
176
     1
  0
VISUALSTYLE
  5
40
102
{ACAD_REACTORS
330
2A
102
}
330
2A
100
AcDbVisualStyle
  2
X-Ray
 70
    25
177
     3
291
     0
 70
    58
 90
        2
176
     1
 90
        2
176
     1
 90
        1
176
     1
 90
        1
176
     1
 40
0.5
176
     1
 40
30.0
176
     1
 62
     7
420
 16777215
176
     1
 90
        1
176
     1
 90
        0
176
     1
 62
     7
176
     1
 62
   257
176
     1
 90
        1
176
     1
 90
        1
176
     1
 40
1.0
176
     1
 90
        8
176
     1
 62
     7
176
     1
 40
1.0
176
     1
 90
        1
176
     1
 90
        6
176
     1
 90
        2
176
     1
 62
     7
176
     1
 90
        3
176
     1
 90
        0
176
     1
 90
        0
176
     1
290
     0
176
     1
 90
       13
176
     1
 40
0.0
176
     1
 90
        0
176
     1
290
     0
176
     1
290
     1
176
     1
290
     1
176
     1
290
     0
176
     1
290
     0
176
     1
290
     0
176
     1
290
     0
176
     1
290
     0
176
     1
290
     0
176
     1
 90
       50
176
     1
 40
0.0
176
     1
 40
1.0
176
     1
 90
        0
176
     1
 62
    18
420
        0
176
     1
 90
       50
176
     1
 90
        3
176
     1
 62
     5
420
      255
176
     1
290
     0
176
     1
 90
       50
176
     1
 90
       50
176
     1
 90
       50
176
     1
290
     0
176
     1
 90
       50
176
     1
 62
   256
176
     0
 40
1.0
176
     0
 90
        2
176
     1
  1
strokes_ogs.tif
176
     1
290
     0
176
     1
 40
1.0
176
     1
 40
1.0
176
     1
  0
DICTIONARYVAR
  5
191
102
{ACAD_REACTORS
330
190
102
}
330
190
100
DictionaryVariables
280
     0
  1
1:1
  0
DICTIONARYVAR
  5
196
102
{ACAD_REACTORS
330
190
102
}
330
190
100
DictionaryVariables
280
     0
  1
Standard
  0
DICTIONARYVAR
  5
195
102
{ACAD_REACTORS
330
190
102
}
330
190
100
DictionaryVariables
280
     0
  1
Standard
  0
DICTIONARY
  5
192
330
6A
100
AcDbDictionary
280
     1
281
     1
  3
ACAD_ROUNDTRIP_2008_TABLESTYLE_CELLSTYLEMAP
360
193
  0
CELLSTYLEMAP
  5
193
102
{ACAD_REACTORS
330
192
102
}
330
192
100
AcDbCellStyleMap
 90
        3
300
CELLSTYLE
  1
TABLEFORMAT_BEGIN
 90
        5
170
     1
 91
        0
 92
    32768
 62
   257
 93
        1
300
CONTENTFORMAT
  1
CONTENTFORMAT_BEGIN
 90
        0
 91
        0
 92
        4
 93
        0
300

 40
0.0
140
1.0
 94
        5
 62
     0
340
11
144
0.25
309
CONTENTFORMAT_END
171
     1
301
MARGIN
  1
CELLMARGIN_BEGIN
 40
0.06
 40
0.06
 40
0.06
 40
0.06
 40
0.06
 40
0.06
309
CELLMARGIN_END
 94
        6
 95
        1
302
GRIDFORMAT
  1
GRIDFORMAT_BEGIN
 90
        0
 91
        1
 62
     0
 92
       -2
340
14
 93
        0
 40
0.045
309
GRIDFORMAT_END
 95
        2
302
GRIDFORMAT
  1
GRIDFORMAT_BEGIN
 90
        0
 91
        1
 62
     0
 92
       -2
340
14
 93
        0
 40
0.045
309
GRIDFORMAT_END
 95
        4
302
GRIDFORMAT
  1
GRIDFORMAT_BEGIN
 90
        0
 91
        1
 62
     0
 92
       -2
340
14
 93
        0
 40
0.045
309
GRIDFORMAT_END
 95
        8
302
GRIDFORMAT
  1
GRIDFORMAT_BEGIN
 90
        0
 91
        1
 62
     0
 92
       -2
340
14
 93
        0
 40
0.045
309
GRIDFORMAT_END
 95
       16
302
GRIDFORMAT
  1
GRIDFORMAT_BEGIN
 90
        0
 91
        1
 62
     0
 92
       -2
340
14
 93
        0
 40
0.045
309
GRIDFORMAT_END
 95
       32
302
GRIDFORMAT
  1
GRIDFORMAT_BEGIN
 90
        0
 91
        1
 62
     0
 92
       -2
340
14
 93
        0
 40
0.045
309
GRIDFORMAT_END
309
TABLEFORMAT_END
  1
CELLSTYLE_BEGIN
 90
        1
 91
        1
300
_TITLE
309
CELLSTYLE_END
300
CELLSTYLE
  1
TABLEFORMAT_BEGIN
 90
        5
170
     1
 91
        0
 92
        0
 62
   257
 93
        1
300
CONTENTFORMAT
  1
CONTENTFORMAT_BEGIN
 90
        0
 91
        0
 92
        4
 93
        0
300

 40
0.0
140
1.0
 94
        5
 62
     0
340
11
144
0.18
309
CONTENTFORMAT_END
171
     1
301
MARGIN
  1
CELLMARGIN_BEGIN
 40
0.06
 40
0.06
 40
0.06
 40
0.06
 40
0.06
 40
0.06
309
CELLMARGIN_END
 94
        6
 95
        1
302
GRIDFORMAT
  1
GRIDFORMAT_BEGIN
 90
        0
 91
        1
 62
     0
 92
       -2
340
14
 93
        0
 40
0.045
309
GRIDFORMAT_END
 95
        2
302
GRIDFORMAT
  1
GRIDFORMAT_BEGIN
 90
        0
 91
        1
 62
     0
 92
       -2
340
14
 93
        0
 40
0.045
309
GRIDFORMAT_END
 95
        4
302
GRIDFORMAT
  1
GRIDFORMAT_BEGIN
 90
        0
 91
        1
 62
     0
 92
       -2
340
14
 93
        0
 40
0.045
309
GRIDFORMAT_END
 95
        8
302
GRIDFORMAT
  1
GRIDFORMAT_BEGIN
 90
        0
 91
        1
 62
     0
 92
       -2
340
14
 93
        0
 40
0.045
309
GRIDFORMAT_END
 95
       16
302
GRIDFORMAT
  1
GRIDFORMAT_BEGIN
 90
        0
 91
        1
 62
     0
 92
       -2
340
14
 93
        0
 40
0.045
309
GRIDFORMAT_END
 95
       32
302
GRIDFORMAT
  1
GRIDFORMAT_BEGIN
 90
        0
 91
        1
 62
     0
 92
       -2
340
14
 93
        0
 40
0.045
309
GRIDFORMAT_END
309
TABLEFORMAT_END
  1
CELLSTYLE_BEGIN
 90
        2
 91
        1
300
_HEADER
309
CELLSTYLE_END
300
CELLSTYLE
  1
TABLEFORMAT_BEGIN
 90
        5
170
     1
 91
        0
 92
        0
 62
   257
 93
        1
300
CONTENTFORMAT
  1
CONTENTFORMAT_BEGIN
 90
        0
 91
        0
 92
        4
 93
        0
300

 40
0.0
140
1.0
 94
        2
 62
     0
340
11
144
0.18
309
CONTENTFORMAT_END
171
     1
301
MARGIN
  1
CELLMARGIN_BEGIN
 40
0.06
 40
0.06
 40
0.06
 40
0.06
 40
0.06
 40
0.06
309
CELLMARGIN_END
 94
        6
 95
        1
302
GRIDFORMAT
  1
GRIDFORMAT_BEGIN
 90
        0
 91
        1
 62
     0
 92
       -2
340
14
 93
        0
 40
0.045
309
GRIDFORMAT_END
 95
        2
302
GRIDFORMAT
  1
GRIDFORMAT_BEGIN
 90
        0
 91
        1
 62
     0
 92
       -2
340
14
 93
        0
 40
0.045
309
GRIDFORMAT_END
 95
        4
302
GRIDFORMAT
  1
GRIDFORMAT_BEGIN
 90
        0
 91
        1
 62
     0
 92
       -2
340
14
 93
        0
 40
0.045
309
GRIDFORMAT_END
 95
        8
302
GRIDFORMAT
  1
GRIDFORMAT_BEGIN
 90
        0
 91
        1
 62
     0
 92
       -2
340
14
 93
        0
 40
0.045
309
GRIDFORMAT_END
 95
       16
302
GRIDFORMAT
  1
GRIDFORMAT_BEGIN
 90
        0
 91
        1
 62
     0
 92
       -2
340
14
 93
        0
 40
0.045
309
GRIDFORMAT_END
 95
       32
302
GRIDFORMAT
  1
GRIDFORMAT_BEGIN
 90
        0
 91
        1
 62
     0
 92
       -2
340
14
 93
        0
 40
0.045
309
GRIDFORMAT_END
309
TABLEFORMAT_END
  1
CELLSTYLE_BEGIN
 90
        3
 91
        2
300
_DATA
309
CELLSTYLE_END
  0
ENDSEC
  0
EOF