0
SECTION
  2
HEADER
  9
$ACADVER
  1
AC1027
  9
$ACADMAINTVER
 70
     8
  9
$DWGCODEPAGE
  3
ANSI_1252
  9
$REQUIREDVERSIONS
160
                 0
  9
$COMMENTS
  1
File was created by Cadenas
  9
$CUSTOMPROPERTYTAG
  1
NN
  9
$CUSTOMPROPERTY
  1
Steel IMPERIAL-HD Narrow Piloted Flange 2-7/16 thru 4-1/2 Inch Bore
  9
$CUSTOMPROPERTYTAG
  1
NT
  9
$CUSTOMPROPERTY
  1
Steal Heavy Duty Imperial Piloted Flange Bearing-Inch-207-408
  9
$CUSTOMPROPERTYTAG
  1
NB
  9
$CUSTOMPROPERTY
  1
072382
  9
$CUSTOMPROPERTYTAG
  1
NBSYN
  9
$CUSTOMPROPERTY
  1
$PN.
  9
$CUSTOMPROPERTYTAG
  1
LINA
  9
$CUSTOMPROPERTY
  1
072382
  9
$CUSTOMPROPERTYTAG
  1
SS
  9
$CUSTOMPROPERTY
  1
3-15/16
  9
$CUSTOMPROPERTYTAG
  1
PN
  9
$CUSTOMPROPERTY
  1
072382
  9
$CUSTOMPROPERTYTAG
  1
TYPE
  9
$CUSTOMPROPERTY
  1
Expansion
  9
$CUSTOMPROPERTYTAG
  1
EF
  9
$CUSTOMPROPERTY
  1
Expansion
  9
$CUSTOMPROPERTYTAG
  1
DESCRIPTION
  9
$CUSTOMPROPERTY
  1
SFCN-IP-315RE
  9
$CUSTOMPROPERTYTAG
  1
ST
  9
$CUSTOMPROPERTY
  1
Contact Seal
  9
$CUSTOMPROPERTYTAG
  1
A
  9
$CUSTOMPROPERTY
  1
4.70
  9
$CUSTOMPROPERTYTAG
  1
B
  9
$CUSTOMPROPERTY
  1
10.88
  9
$CUSTOMPROPERTYTAG
  1
C
  9
$CUSTOMPROPERTY
  1
3.61
  9
$CUSTOMPROPERTYTAG
  1
D
  9
$CUSTOMPROPERTY
  1
6.63
  9
$CUSTOMPROPERTYTAG
  1
DD
  9
$CUSTOMPROPERTY
  1
9.38
  9
$CUSTOMPROPERTYTAG
  1
F
  9
$CUSTOMPROPERTY
  1
0.750
  9
$CUSTOMPROPERTYTAG
  1
G
  9
$CUSTOMPROPERTY
  1
2.82
  9
$CUSTOMPROPERTYTAG
  1
H
  9
$CUSTOMPROPERTY
  1
1.01
  9
$CUSTOMPROPERTYTAG
  1
K
  9
$CUSTOMPROPERTY
  1
8.125
  9
$CUSTOMPROPERTYTAG
  1
L
  9
$CUSTOMPROPERTY
  1
5.45
  9
$CUSTOMPROPERTYTAG
  1
M
  9
$CUSTOMPROPERTY
  1
0.750
  9
$CUSTOMPROPERTYTAG
  1
N
  9
$CUSTOMPROPERTY
  1
4.95
  9
$CUSTOMPROPERTYTAG
  1
P
  9
$CUSTOMPROPERTY
  1
2.57
  9
$CUSTOMPROPERTYTAG
  1
Q
  9
$CUSTOMPROPERTY
  1
2.13
  9
$CUSTOMPROPERTYTAG
  1
X
  9
$CUSTOMPROPERTY
  1
0.31
  9
$CUSTOMPROPERTYTAG
  1
Y
  9
$CUSTOMPROPERTY
  1
0.250
  9
$CUSTOMPROPERTYTAG
  1
Z
  9
$CUSTOMPROPERTY
  1
4.50
  9
$CUSTOMPROPERTYTAG
  1
COMPANY
  9
$CUSTOMPROPERTY
  1
baldor
  9
$INSBASE
 10
0.0
 20
0.0
 30
0.0
  9
$EXTMIN
 10
1.000000000000000E+20
 20
1.000000000000000E+20
 30
1.000000000000000E+20
  9
$EXTMAX
 10
-1.000000000000000E+20
 20
-1.000000000000000E+20
 30
-1.000000000000000E+20
  9
$LIMMIN
 10
0.0
 20
0.0
  9
$LIMMAX
 10
12.0
 20
9.0
  9
$ORTHOMODE
 70
     0
  9
$REGENMODE
 70
     1
  9
$FILLMODE
 70
     1
  9
$QTEXTMODE
 70
     0
  9
$MIRRTEXT
 70
     1
  9
$LTSCALE
 40
1.0
  9
$ATTMODE
 70
     1
  9
$TEXTSIZE
 40
0.2
  9
$TRACEWID
 40
0.05
  9
$TEXTSTYLE
  7
Standard
  9
$CLAYER
  8
0
  9
$CELTYPE
  6
ByLayer
  9
$CECOLOR
 62
   256
  9
$CELTSCALE
 40
1.0
  9
$DISPSILH
 70
     0
  9
$DIMSCALE
 40
1.0
  9
$DIMASZ
 40
0.18
  9
$DIMEXO
 40
0.0625
  9
$DIMDLI
 40
0.38
  9
$DIMRND
 40
0.0
  9
$DIMDLE
 40
0.0
  9
$DIMEXE
 40
0.18
  9
$DIMTP
 40
0.0
  9
$DIMTM
 40
0.0
  9
$DIMTXT
 40
0.18
  9
$DIMCEN
 40
0.09
  9
$DIMTSZ
 40
0.0
  9
$DIMTOL
 70
     0
  9
$DIMLIM
 70
     0
  9
$DIMTIH
 70
     1
  9
$DIMTOH
 70
     1
  9
$DIMSE1
 70
     0
  9
$DIMSE2
 70
     0
  9
$DIMTAD
 70
     0
  9
$DIMZIN
 70
     0
  9
$DIMBLK
  1

  9
$DIMASO
 70
     1
  9
$DIMSHO
 70
     1
  9
$DIMPOST
  1

  9
$DIMAPOST
  1

  9
$DIMALT
 70
     0
  9
$DIMALTD
 70
     2
  9
$DIMALTF
 40
25.4
  9
$DIMLFAC
 40
1.0
  9
$DIMTOFL
 70
     0
  9
$DIMTVP
 40
0.0
  9
$DIMTIX
 70
     0
  9
$DIMSOXD
 70
     0
  9
$DIMSAH
 70
     0
  9
$DIMBLK1
  1

  9
$DIMBLK2
  1

  9
$DIMSTYLE
  2
Standard
  9
$DIMCLRD
 70
     0
  9
$DIMCLRE
 70
     0
  9
$DIMCLRT
 70
     0
  9
$DIMTFAC
 40
1.0
  9
$DIMGAP
 40
0.09
  9
$DIMJUST
 70
     0
  9
$DIMSD1
 70
     0
  9
$DIMSD2
 70
     0
  9
$DIMTOLJ
 70
     1
  9
$DIMTZIN
 70
     0
  9
$DIMALTZ
 70
     0
  9
$DIMALTTZ
 70
     0
  9
$DIMUPT
 70
     0
  9
$DIMDEC
 70
     4
  9
$DIMTDEC
 70
     4
  9
$DIMALTU
 70
     2
  9
$DIMALTTD
 70
     2
  9
$DIMTXSTY
  7
Standard
  9
$DIMAUNIT
 70
     0
  9
$DIMADEC
 70
     0
  9
$DIMALTRND
 40
0.0
  9
$DIMAZIN
 70
     0
  9
$DIMDSEP
 70
    46
  9
$DIMATFIT
 70
     3
  9
$DIMFRAC
 70
     0
  9
$DIMLDRBLK
  1

  9
$DIMLUNIT
 70
     2
  9
$DIMLWD
 70
    -2
  9
$DIMLWE
 70
    -2
  9
$DIMTMOVE
 70
     0
  9
$DIMFXL
 40
1.0
  9
$DIMFXLON
 70
     0
  9
$DIMJOGANG
 40
0.7853981633974483
  9
$DIMTFILL
 70
     0
  9
$DIMTFILLCLR
 70
     0
  9
$DIMARCSYM
 70
     0
  9
$DIMLTYPE
  6

  9
$DIMLTEX1
  6

  9
$DIMLTEX2
  6

  9
$DIMTXTDIRECTION
 70
     0
  9
$LUNITS
 70
     2
  9
$LUPREC
 70
     4
  9
$SKETCHINC
 40
0.1
  9
$FILLETRAD
 40
0.5
  9
$AUNITS
 70
     0
  9
$AUPREC
 70
     0
  9
$MENU
  1
.
  9
$ELEVATION
 40
0.0
  9
$PELEVATION
 40
0.0
  9
$THICKNESS
 40
0.0
  9
$LIMCHECK
 70
     0
  9
$CHAMFERA
 40
0.0
  9
$CHAMFERB
 40
0.0
  9
$CHAMFERC
 40
0.0
  9
$CHAMFERD
 40
0.0
  9
$SKPOLY
 70
     0
  9
$TDCREATE
 40
2458168.896728461
  9
$TDUCREATE
 40
2458168.855061794
  9
$TDUPDATE
 40
2458168.896728831
  9
$TDUUPDATE
 40
2458168.855062164
  9
$TDINDWG
 40
0.0000000116
  9
$TDUSRTIMER
 40
0.0000000116
  9
$USRTIMER
 70
     1
  9
$ANGBASE
 50
0.0
  9
$ANGDIR
 70
     0
  9
$PDMODE
 70
     0
  9
$PDSIZE
 40
0.0
  9
$PLINEWID
 40
0.0
  9
$SPLFRAME
 70
     0
  9
$SPLINETYPE
 70
     6
  9
$SPLINESEGS
 70
     8
  9
$HANDSEED
  5
28F
  9
$SURFTAB1
 70
     6
  9
$SURFTAB2
 70
     6
  9
$SURFTYPE
 70
     6
  9
$SURFU
 70
     6
  9
$SURFV
 70
     6
  9
$UCSBASE
  2

  9
$UCSNAME
  2

  9
$UCSORG
 10
0.0
 20
0.0
 30
0.0
  9
$UCSXDIR
 10
1.0
 20
0.0
 30
0.0
  9
$UCSYDIR
 10
0.0
 20
1.0
 30
0.0
  9
$UCSORTHOREF
  2

  9
$UCSORTHOVIEW
 70
     0
  9
$UCSORGTOP
 10
0.0
 20
0.0
 30
0.0
  9
$UCSORGBOTTOM
 10
0.0
 20
0.0
 30
0.0
  9
$UCSORGLEFT
 10
0.0
 20
0.0
 30
0.0
  9
$UCSORGRIGHT
 10
0.0
 20
0.0
 30
0.0
  9
$UCSORGFRONT
 10
0.0
 20
0.0
 30
0.0
  9
$UCSORGBACK
 10
0.0
 20
0.0
 30
0.0
  9
$PUCSBASE
  2

  9
$PUCSNAME
  2

  9
$PUCSORG
 10
0.0
 20
0.0
 30
0.0
  9
$PUCSXDIR
 10
1.0
 20
0.0
 30
0.0
  9
$PUCSYDIR
 10
0.0
 20
1.0
 30
0.0
  9
$PUCSORTHOREF
  2

  9
$PUCSORTHOVIEW
 70
     0
  9
$PUCSORGTOP
 10
0.0
 20
0.0
 30
0.0
  9
$PUCSORGBOTTOM
 10
0.0
 20
0.0
 30
0.0
  9
$PUCSORGLEFT
 10
0.0
 20
0.0
 30
0.0
  9
$PUCSORGRIGHT
 10
0.0
 20
0.0
 30
0.0
  9
$PUCSORGFRONT
 10
0.0
 20
0.0
 30
0.0
  9
$PUCSORGBACK
 10
0.0
 20
0.0
 30
0.0
  9
$USERI1
 70
     0
  9
$USERI2
 70
     0
  9
$USERI3
 70
     0
  9
$USERI4
 70
     0
  9
$USERI5
 70
     0
  9
$USERR1
 40
0.0
  9
$USERR2
 40
0.0
  9
$USERR3
 40
0.0
  9
$USERR4
 40
0.0
  9
$USERR5
 40
0.0
  9
$WORLDVIEW
 70
     1
  9
$SHADEDGE
 70
     3
  9
$SHADEDIF
 70
    70
  9
$TILEMODE
 70
     1
  9
$MAXACTVP
 70
    64
  9
$PINSBASE
 10
0.0
 20
0.0
 30
0.0
  9
$PLIMCHECK
 70
     0
  9
$PEXTMIN
 10
1.000000000000000E+20
 20
1.000000000000000E+20
 30
1.000000000000000E+20
  9
$PEXTMAX
 10
-1.000000000000000E+20
 20
-1.000000000000000E+20
 30
-1.000000000000000E+20
  9
$PLIMMIN
 10
0.0
 20
0.0
  9
$PLIMMAX
 10
12.0
 20
9.0
  9
$UNITMODE
 70
     0
  9
$VISRETAIN
 70
     1
  9
$PLINEGEN
 70
     0
  9
$PSLTSCALE
 70
     1
  9
$TREEDEPTH
 70
  3020
  9
$CMLSTYLE
  2
Standard
  9
$CMLJUST
 70
     0
  9
$CMLSCALE
 40
1.0
  9
$PROXYGRAPHICS
 70
     1
  9
$MEASUREMENT
 70
     0
  9
$CELWEIGHT
370
    -1
  9
$ENDCAPS
280
     0
  9
$JOINSTYLE
280
     0
  9
$LWDISPLAY
290
     0
  9
$INSUNITS
 70
     1
  9
$HYPERLINKBASE
  1

  9
$STYLESHEET
  1

  9
$XEDIT
290
     1
  9
$CEPSNTYPE
380
     0
  9
$PSTYLEMODE
290
     1
  9
$FINGERPRINTGUID
  2
{30B9CF78-DB06-4831-B6A9-D0AD576F191E}
  9
$VERSIONGUID
  2
{FAEB1C32-E019-11D5-929B-00C0DF256EC4}
  9
$EXTNAMES
290
     1
  9
$PSVPSCALE
 40
0.0
  9
$OLESTARTUP
290
     0
  9
$SORTENTS
280
   127
  9
$INDEXCTL
280
     0
  9
$HIDETEXT
280
     1
  9
$XCLIPFRAME
280
     2
  9
$HALOGAP
280
     0
  9
$OBSCOLOR
 70
   257
  9
$OBSLTYPE
280
     0
  9
$INTERSECTIONDISPLAY
280
     0
  9
$INTERSECTIONCOLOR
 70
   257
  9
$DIMASSOC
280
     2
  9
$PROJECTNAME
  1

  9
$CAMERADISPLAY
290
     0
  9
$LENSLENGTH
 40
50.0
  9
$CAMERAHEIGHT
 40
0.0
  9
$STEPSPERSEC
 40
2.0
  9
$STEPSIZE
 40
6.0
  9
$3DDWFPREC
 40
2.0
  9
$PSOLWIDTH
 40
0.25
  9
$PSOLHEIGHT
 40
4.0
  9
$LOFTANG1
 40
1.570796326794897
  9
$LOFTANG2
 40
1.570796326794897
  9
$LOFTMAG1
 40
0.0
  9
$LOFTMAG2
 40
0.0
  9
$LOFTPARAM
 70
     7
  9
$LOFTNORMALS
280
     1
  9
$LATITUDE
 40
37.795
  9
$LONGITUDE
 40
-122.394
  9
$NORTHDIRECTION
 40
0.0
  9
$TIMEZONE
 70
 -8000
  9
$LIGHTGLYPHDISPLAY
280
     1
  9
$TILEMODELIGHTSYNCH
280
     1
  9
$CMATERIAL
347
44
  9
$SOLIDHIST
280
     0
  9
$SHOWHIST
280
     1
  9
$DWFFRAME
280
     2
  9
$DGNFRAME
280
     2
  9
$REALWORLDSCALE
290
     1
  9
$INTERFERECOLOR
 62
   256
  9
$CSHADOW
280
     0
  9
$SHADOWPLANELOCATION
 40
0.0
  0
ENDSEC
  0
SECTION
  2
CLASSES
  0
CLASS
  1
ACDBDICTIONARYWDFLT
  2
AcDbDictionaryWithDefault
  3
ObjectDBX Classes
 90
        0
 91
        4
280
     0
281
     0
  0
CLASS
  1
VISUALSTYLE
  2
AcDbVisualStyle
  3
ObjectDBX Classes
 90
     4095
 91
        4
280
     0
281
     0
  0
CLASS
  1
MATERIAL
  2
AcDbMaterial
  3
ObjectDBX Classes
 90
     1153
 91
        4
280
     0
281
     0
  0
CLASS
  1
SCALE
  2
AcDbScale
  3
ObjectDBX Classes
 90
     1153
 91
        4
280
     0
281
     0
  0
CLASS
  1
TABLESTYLE
  2
AcDbTableStyle
  3
ObjectDBX Classes
 90
     4095
 91
        4
280
     0
281
     0
  0
CLASS
  1
MLEADERSTYLE
  2
AcDbMLeaderStyle
  3
ACDB_MLEADERSTYLE_CLASS
 90
     4095
 91
        4
280
     0
281
     0
  0
CLASS
  1
SUN
  2
AcDbSun
  3
SCENEOE
 90
     1153
 91
        4
280
     0
281
     0
  0
CLASS
  1
DICTIONARYVAR
  2
AcDbDictionaryVar
  3
ObjectDBX Classes
 90
        0
 91
        4
280
     0
281
     0
  0
CLASS
  1
CELLSTYLEMAP
  2
AcDbCellStyleMap
  3
ObjectDBX Classes
 90
     1152
 91
        4
280
     0
281
     0
  0
ENDSEC
  0
SECTION
  2
TABLES
  0
TABLE
  2
VPORT
  5
8
330
0
100
AcDbSymbolTable
 70
     1
  0
VPORT
  5
29
330
8
100
AcDbSymbolTableRecord
100
AcDbViewportTableRecord
  2
*Active
 70
     0
 10
0.0
 20
0.0
 11
1.0
 21
1.0
 12
0.0
 22
0.0
 13
0.0
 23
0.0
 14
0.5
 24
0.5
 15
0.5
 25
0.5
 16
0.0
 26
0.0
 36
1.0
 17
-0.0000000000000036
 27
0.0000000000000009
 37
0.0
 40
11.09759999999999
 41
1.0
 42
50.0
 43
0.0
 44
0.0
 50
0.0
 51
0.0
 71
     0
 72
   100
 73
     1
 74
     3
 75
     0
 76
     0
 77
     0
 78
     0
281
     0
 65
     1
110
0.0
120
0.0
130
0.0
111
1.0
121
0.0
131
0.0
112
0.0
122
1.0
132
0.0
 79
     0
146
0.0
348
2F
 60
     3
 61
     5
292
     1
282
     1
141
0.0
142
0.0
 63
   250
361
6D
  0
ENDTAB
  0
TABLE
  2
LTYPE
  5
5
330
0
100
AcDbSymbolTable
 70
     3
  0
LTYPE
  5
14
330
5
100
AcDbSymbolTableRecord
100
AcDbLinetypeTableRecord
  2
ByBlock
 70
     0
  3

 72
    65
 73
     0
 40
0.0
  0
LTYPE
  5
15
330
5
100
AcDbSymbolTableRecord
100
AcDbLinetypeTableRecord
  2
ByLayer
 70
     0
  3

 72
    65
 73
     0
 40
0.0
  0
LTYPE
  5
16
330
5
100
AcDbSymbolTableRecord
100
AcDbLinetypeTableRecord
  2
Continuous
 70
     0
  3
Solid line
 72
    65
 73
     0
 40
0.0
  0
LTYPE
  5
9C
330
5
100
AcDbSymbolTableRecord
100
AcDbLinetypeTableRecord
  2
Dashed
 70
     0
  3

 72
    65
 73
     2
 40
2.0
 49
1.0
 74
     0
 49
-1.0
 74
     0
  0
LTYPE
  5
130
330
5
100
AcDbSymbolTableRecord
100
AcDbLinetypeTableRecord
  2
Center
 70
     0
  3

 72
    65
 73
     4
 40
1.5
 49
0.45
 74
     0
 49
-0.5
 74
     0
 49
0.05
 74
     0
 49
-0.5
 74
     0
  0
ENDTAB
  0
TABLE
  2
LAYER
  5
2
330
0
100
AcDbSymbolTable
 70
     7
  0
LAYER
  5
10
330
2
100
AcDbSymbolTableRecord
100
AcDbLayerTableRecord
  2
0
 70
     0
 62
     7
  6
Continuous
370
    -3
390
F
347
46
348
0
  0
LAYER
  5
72
330
2
100
AcDbSymbolTableRecord
100
AcDbLayerTableRecord
  2
AM_6
 70
     0
 62
    -2
  6
Continuous
370
    35
390
F
347
46
348
0
  0
LAYER
  5
9D
330
2
100
AcDbSymbolTableRecord
100
AcDbLayerTableRecord
  2
AM_9
 70
     0
 62
     6
  6
Dashed
370
    25
390
F
347
46
348
0
  0
LAYER
  5
B8
330
2
100
AcDbSymbolTableRecord
100
AcDbLayerTableRecord
  2
AM_4
 70
     0
 62
     7
  6
Continuous
370
    50
390
F
347
46
348
0
  0
LAYER
  5
12E
330
2
100
AcDbSymbolTableRecord
100
AcDbLayerTableRecord
  2
AM_5
 70
     0
 62
     3
  6
Continuous
370
    25
390
F
347
46
348
0
  0
LAYER
  5
131
330
2
100
AcDbSymbolTableRecord
100
AcDbLayerTableRecord
  2
AM_7
 70
     0
 62
     7
  6
Center
370
    25
390
F
347
46
348
0
  0
LAYER
  5
276
330
2
100
AcDbSymbolTableRecord
100
AcDbLayerTableRecord
  2
ConnectionPoints
 70
     0
 62
     7
  6
Continuous
370
    50
390
F
347
46
348
0
  0
ENDTAB
  0
TABLE
  2
STYLE
  5
3
330
0
100
AcDbSymbolTable
 70
     1
  0
STYLE
  5
11
330
3
100
AcDbSymbolTableRecord
100
AcDbTextStyleTableRecord
  2
Standard
 70
     0
 40
0.0
 41
1.0
 50
0.0
 71
     0
 42
0.2
  3
txt
  4

  0
ENDTAB
  0
TABLE
  2
VIEW
  5
6
330
0
100
AcDbSymbolTable
 70
     0
  0
ENDTAB
  0
TABLE
  2
UCS
  5
7
330
0
100
AcDbSymbolTable
 70
     0
  0
ENDTAB
  0
TABLE
  2
APPID
  5
9
330
0
100
AcDbSymbolTable
 70
     1
  0
APPID
  5
12
330
9
100
AcDbSymbolTableRecord
100
AcDbRegAppTableRecord
  2
ACAD
 70
     0
  0
ENDTAB
  0
TABLE
  2
DIMSTYLE
  5
A
330
0
100
AcDbSymbolTable
 70
     1
100
AcDbDimStyleTable
  0
DIMSTYLE
105
27
330
A
100
AcDbSymbolTableRecord
100
AcDbDimStyleTableRecord
  2
Standard
 70
     0
178
     0
340
11
  0
ENDTAB
  0
TABLE
  2
BLOCK_RECORD
  5
1
330
0
100
AcDbSymbolTable
 70
     9
  0
BLOCK_RECORD
  5
1F
330
1
100
AcDbSymbolTableRecord
100
AcDbBlockTableRecord
  2
*Model_Space
340
22
 70
     0
280
     1
281
     0
  0
BLOCK_RECORD
  5
1B
330
1
100
AcDbSymbolTableRecord
100
AcDbBlockTableRecord
  2
*Paper_Space
340
1E
 70
     0
280
     1
281
     0
  0
BLOCK_RECORD
  5
23
330
1
100
AcDbSymbolTableRecord
100
AcDbBlockTableRecord
  2
*Paper_Space0
340
26
 70
     0
280
     1
281
     0
  0
BLOCK_RECORD
  5
6E
330
1
100
AcDbSymbolTableRecord
100
AcDbBlockTableRecord
  2
1_072382_0
340
0
102
{BLKREFS
331
6F
102
}
 70
     0
280
     1
281
     0
  0
BLOCK_RECORD
  5
90
330
1
100
AcDbSymbolTableRecord
100
AcDbBlockTableRecord
  2
2_405015E_Inch_1_0_in_072382_0
340
0
102
{BLKREFS
331
91
102
}
 70
     0
280
     1
281
     0
  0
BLOCK_RECORD
  5
D2
330
1
100
AcDbSymbolTableRecord
100
AcDbBlockTableRecord
  2
3_405015E_Inch_2_0_in_072382_0
340
0
102
{BLKREFS
331
D3
102
}
 70
     0
280
     1
281
     0
  0
BLOCK_RECORD
  5
11E
330
1
100
AcDbSymbolTableRecord
100
AcDbBlockTableRecord
  2
4_ASME_B18_3_1_4_1_0_in_072382_0
340
0
102
{BLKREFS
331
11F
102
}
 70
     0
280
     1
281
     0
  0
BLOCK_RECORD
  5
13C
330
1
100
AcDbSymbolTableRecord
100
AcDbBlockTableRecord
  2
5_ASME_B18_3_1_4_2_0_in_072382_0
340
0
102
{BLKREFS
331
13D
102
}
 70
     0
280
     1
281
     0
  0
BLOCK_RECORD
  5
157
330
1
100
AcDbSymbolTableRecord
100
AcDbBlockTableRecord
  2
6_070906LWE_0_in_072382_0
340
0
102
{BLKREFS
331
158
102
}
 70
     0
280
     1
281
     0
  0
BLOCK_RECORD
  5
1A9
330
1
100
AcDbSymbolTableRecord
100
AcDbBlockTableRecord
  2
7_070906I_0_in_072382_0
340
0
102
{BLKREFS
331
1AA
102
}
 70
     0
280
     1
281
     0
  0
BLOCK_RECORD
  5
206
330
1
100
AcDbSymbolTableRecord
100
AcDbBlockTableRecord
  2
8_B072382_0_in_072382_0
340
0
102
{BLKREFS
331
207
102
}
 70
     0
280
     1
281
     0
  0
ENDTAB
  0
ENDSEC
  0
SECTION
  2
BLOCKS
  0
BLOCK
  5
20
330
1F
100
AcDbEntity
  8
0
100
AcDbBlockBegin
  2
*Model_Space
 70
     0
 10
0.0
 20
0.0
 30
0.0
  3
*Model_Space
  1

  0
ENDBLK
  5
21
330
1F
100
AcDbEntity
  8
0
100
AcDbBlockEnd
  0
BLOCK
  5
1C
330
1B
100
AcDbEntity
 67
     1
  8
0
100
AcDbBlockBegin
  2
*Paper_Space
 70
     0
 10
0.0
 20
0.0
 30
0.0
  3
*Paper_Space
  1

  0
ENDBLK
  5
1D
330
1B
100
AcDbEntity
 67
     1
  8
0
100
AcDbBlockEnd
  0
BLOCK
  5
24
330
23
100
AcDbEntity
  8
0
100
AcDbBlockBegin
  2
*Paper_Space0
 70
     0
 10
0.0
 20
0.0
 30
0.0
  3
*Paper_Space0
  1

  0
ENDBLK
  5
25
330
23
100
AcDbEntity
  8
0
100
AcDbBlockEnd
  0
BLOCK
  5
70
330
6E
100
AcDbEntity
  8
0
100
AcDbBlockBegin
  2
1_072382_0
 70
     2
 10
0.0
 20
0.0
 30
0.0
  3
1_072382_0
  1

  0
ATTDEF
  5
73
330
6E
100
AcDbEntity
  8
AM_6
100
AcDbText
 10
10.43999999999999
 20
5.439999999999998
 30
0.0
 40
0.5
  1
Steel IMPERIAL-HD Narrow Piloted Flange 2-7/16 thru 4-1/2 Inch Bore
100
AcDbAttributeDefinition
  3

  2
NN
 70
     8
280
     0
  0
ATTDEF
  5
74
330
6E
100
AcDbEntity
  8
AM_6
100
AcDbText
 10
10.43999999999999
 20
4.939999999999998
 30
0.0
 40
0.5
  1
Steal Heavy Duty Imperial Piloted Flange Bearing-Inch-207-408
100
AcDbAttributeDefinition
  3

  2
NT
 70
     8
280
     0
  0
ATTDEF
  5
75
330
6E
100
AcDbEntity
  8
AM_6
100
AcDbText
 10
10.43999999999999
 20
4.439999999999998
 30
0.0
 40
0.5
  1
072382
100
AcDbAttributeDefinition
  3

  2
NB
 70
     8
280
     0
  0
ATTDEF
  5
76
330
6E
100
AcDbEntity
  8
AM_6
100
AcDbText
 10
10.43999999999999
 20
3.939999999999998
 30
0.0
 40
0.5
  1
$PN.
100
AcDbAttributeDefinition
  3

  2
NBSYN
 70
     8
280
     0
  0
ATTDEF
  5
77
330
6E
100
AcDbEntity
  8
AM_6
100
AcDbText
 10
10.43999999999999
 20
3.439999999999998
 30
0.0
 40
0.5
  1
072382
100
AcDbAttributeDefinition
  3

  2
LINA
 70
     8
280
     0
  0
ATTDEF
  5
78
330
6E
100
AcDbEntity
  8
AM_6
100
AcDbText
 10
10.43999999999999
 20
2.939999999999998
 30
0.0
 40
0.5
  1
3-15/16
100
AcDbAttributeDefinition
  3

  2
SS
 70
     8
280
     0
  0
ATTDEF
  5
79
330
6E
100
AcDbEntity
  8
AM_6
100
AcDbText
 10
10.43999999999999
 20
2.439999999999998
 30
0.0
 40
0.5
  1
072382
100
AcDbAttributeDefinition
  3

  2
PN
 70
     8
280
     0
  0
ATTDEF
  5
7A
330
6E
100
AcDbEntity
  8
AM_6
100
AcDbText
 10
10.43999999999999
 20
1.939999999999998
 30
0.0
 40
0.5
  1
Expansion
100
AcDbAttributeDefinition
  3

  2
TYPE
 70
     8
280
     0
  0
ATTDEF
  5
7B
330
6E
100
AcDbEntity
  8
AM_6
100
AcDbText
 10
10.43999999999999
 20
1.439999999999998
 30
0.0
 40
0.5
  1
Expansion
100
AcDbAttributeDefinition
  3

  2
EF
 70
     8
280
     0
  0
ATTDEF
  5
7C
330
6E
100
AcDbEntity
  8
AM_6
100
AcDbText
 10
10.43999999999999
 20
0.9399999999999977
 30
0.0
 40
0.5
  1
SFCN-IP-315RE
100
AcDbAttributeDefinition
  3

  2
DESCRIPTION
 70
     8
280
     0
  0
ATTDEF
  5
7D
330
6E
100
AcDbEntity
  8
AM_6
100
AcDbText
 10
10.43999999999999
 20
0.4399999999999977
 30
0.0
 40
0.5
  1
Contact Seal
100
AcDbAttributeDefinition
  3

  2
ST
 70
     8
280
     0
  0
ATTDEF
  5
7E
330
6E
100
AcDbEntity
  8
AM_6
100
AcDbText
 10
10.43999999999999
 20
-0.0600000000000023
 30
0.0
 40
0.5
  1
4.70
100
AcDbAttributeDefinition
  3

  2
A
 70
     8
280
     0
  0
ATTDEF
  5
7F
330
6E
100
AcDbEntity
  8
AM_6
100
AcDbText
 10
10.43999999999999
 20
-0.5600000000000023
 30
0.0
 40
0.5
  1
10.88
100
AcDbAttributeDefinition
  3

  2
B
 70
     8
280
     0
  0
ATTDEF
  5
80
330
6E
100
AcDbEntity
  8
AM_6
100
AcDbText
 10
10.43999999999999
 20
-1.060000000000002
 30
0.0
 40
0.5
  1
3.61
100
AcDbAttributeDefinition
  3

  2
C
 70
     8
280
     0
  0
ATTDEF
  5
81
330
6E
100
AcDbEntity
  8
AM_6
100
AcDbText
 10
10.43999999999999
 20
-1.560000000000002
 30
0.0
 40
0.5
  1
6.63
100
AcDbAttributeDefinition
  3

  2
D
 70
     8
280
     0
  0
ATTDEF
  5
82
330
6E
100
AcDbEntity
  8
AM_6
100
AcDbText
 10
10.43999999999999
 20
-2.060000000000002
 30
0.0
 40
0.5
  1
9.38
100
AcDbAttributeDefinition
  3

  2
DD
 70
     8
280
     0
  0
ATTDEF
  5
83
330
6E
100
AcDbEntity
  8
AM_6
100
AcDbText
 10
10.43999999999999
 20
-2.560000000000002
 30
0.0
 40
0.5
  1
0.750
100
AcDbAttributeDefinition
  3

  2
F
 70
     8
280
     0
  0
ATTDEF
  5
84
330
6E
100
AcDbEntity
  8
AM_6
100
AcDbText
 10
10.43999999999999
 20
-3.060000000000002
 30
0.0
 40
0.5
  1
2.82
100
AcDbAttributeDefinition
  3

  2
G
 70
     8
280
     0
  0
ATTDEF
  5
85
330
6E
100
AcDbEntity
  8
AM_6
100
AcDbText
 10
10.43999999999999
 20
-3.560000000000002
 30
0.0
 40
0.5
  1
1.01
100
AcDbAttributeDefinition
  3

  2
H
 70
     8
280
     0
  0
ATTDEF
  5
86
330
6E
100
AcDbEntity
  8
AM_6
100
AcDbText
 10
10.43999999999999
 20
-4.060000000000002
 30
0.0
 40
0.5
  1
8.125
100
AcDbAttributeDefinition
  3

  2
K
 70
     8
280
     0
  0
ATTDEF
  5
87
330
6E
100
AcDbEntity
  8
AM_6
100
AcDbText
 10
10.43999999999999
 20
-4.560000000000002
 30
0.0
 40
0.5
  1
5.45
100
AcDbAttributeDefinition
  3

  2
L
 70
     8
280
     0
  0
ATTDEF
  5
88
330
6E
100
AcDbEntity
  8
AM_6
100
AcDbText
 10
10.43999999999999
 20
-5.060000000000002
 30
0.0
 40
0.5
  1
0.750
100
AcDbAttributeDefinition
  3

  2
M
 70
     8
280
     0
  0
ATTDEF
  5
89
330
6E
100
AcDbEntity
  8
AM_6
100
AcDbText
 10
10.43999999999999
 20
-5.560000000000002
 30
0.0
 40
0.5
  1
4.95
100
AcDbAttributeDefinition
  3

  2
N
 70
     8
280
     0
  0
ATTDEF
  5
8A
330
6E
100
AcDbEntity
  8
AM_6
100
AcDbText
 10
10.43999999999999
 20
-6.060000000000002
 30
0.0
 40
0.5
  1
2.57
100
AcDbAttributeDefinition
  3

  2
P
 70
     8
280
     0
  0
ATTDEF
  5
8B
330
6E
100
AcDbEntity
  8
AM_6
100
AcDbText
 10
10.43999999999999
 20
-6.560000000000002
 30
0.0
 40
0.5
  1
2.13
100
AcDbAttributeDefinition
  3

  2
Q
 70
     8
280
     0
  0
ATTDEF
  5
8C
330
6E
100
AcDbEntity
  8
AM_6
100
AcDbText
 10
10.43999999999999
 20
-7.060000000000002
 30
0.0
 40
0.5
  1
0.31
100
AcDbAttributeDefinition
  3

  2
X
 70
     8
280
     0
  0
ATTDEF
  5
8D
330
6E
100
AcDbEntity
  8
AM_6
100
AcDbText
 10
10.43999999999999
 20
-7.560000000000002
 30
0.0
 40
0.5
  1
0.250
100
AcDbAttributeDefinition
  3

  2
Y
 70
     8
280
     0
  0
ATTDEF
  5
8E
330
6E
100
AcDbEntity
  8
AM_6
100
AcDbText
 10
10.43999999999999
 20
-8.060000000000002
 30
0.0
 40
0.5
  1
4.50
100
AcDbAttributeDefinition
  3

  2
Z
 70
     8
280
     0
  0
ATTDEF
  5
8F
330
6E
100
AcDbEntity
  8
AM_6
100
AcDbText
 10
10.43999999999999
 20
-8.560000000000002
 30
0.0
 40
0.5
  1
baldor
100
AcDbAttributeDefinition
  3

  2
COMPANY
 70
     8
280
     0
  0
INSERT
  5
91
330
6E
100
AcDbEntity
  8
0
100
AcDbBlockReference
  2
2_405015E_Inch_1_0_in_072382_0
 10
0.0
 20
0.0
 30
0.0
  0
INSERT
  5
D3
330
6E
100
AcDbEntity
  8
0
100
AcDbBlockReference
  2
3_405015E_Inch_2_0_in_072382_0
 10
0.0
 20
0.0
 30
0.0
  0
INSERT
  5
11F
330
6E
100
AcDbEntity
  8
0
100
AcDbBlockReference
  2
4_ASME_B18_3_1_4_1_0_in_072382_0
 10
0.0
 20
0.0
 30
0.0
  0
INSERT
  5
13D
330
6E
100
AcDbEntity
  8
0
100
AcDbBlockReference
  2
5_ASME_B18_3_1_4_2_0_in_072382_0
 10
0.0
 20
0.0
 30
0.0
  0
INSERT
  5
158
330
6E
100
AcDbEntity
  8
0
100
AcDbBlockReference
  2
6_070906LWE_0_in_072382_0
 10
0.0
 20
0.0
 30
0.0
  0
INSERT
  5
1AA
330
6E
100
AcDbEntity
  8
0
100
AcDbBlockReference
  2
7_070906I_0_in_072382_0
 10
0.0
 20
0.0
 30
0.0
  0
INSERT
  5
207
330
6E
100
AcDbEntity
  8
0
100
AcDbBlockReference
  2
8_B072382_0_in_072382_0
 10
0.0
 20
0.0
 30
0.0
  0
ENDBLK
  5
71
330
6E
100
AcDbEntity
  8
0
100
AcDbBlockEnd
  0
BLOCK
  5
92
330
90
100
AcDbEntity
  8
0
100
AcDbBlockBegin
  2
2_405015E_Inch_1_0_in_072382_0
 70
     2
 10
0.0
 20
0.0
 30
0.0
  3
2_405015E_Inch_1_0_in_072382_0
  1

  0
ATTDEF
  5
94
330
90
100
AcDbEntity
  8
AM_6
100
AcDbText
 10
5.21875
 20
-4.182517600470913
 30
0.0
 40
0.5
  1
405015E -Inch
100
AcDbAttributeDefinition
  3

  2
NN
 70
     8
280
     0
  0
ATTDEF
  5
95
330
90
100
AcDbEntity
  8
AM_6
100
AcDbText
 10
5.21875
 20
-4.682517600470913
 30
0.0
 40
0.5
  1
Grease Fitting
100
AcDbAttributeDefinition
  3

  2
NT
 70
     8
280
     0
  0
ATTDEF
  5
96
330
90
100
AcDbEntity
  8
AM_6
100
AcDbText
 10
5.21875
 20
-5.182517600470913
 30
0.0
 40
0.5
  1
405015E-Inch
100
AcDbAttributeDefinition
  3

  2
NB
 70
     8
280
     0
  0
ATTDEF
  5
97
330
90
100
AcDbEntity
  8
AM_6
100
AcDbText
 10
5.21875
 20
-5.682517600470913
 30
0.0
 40
0.5
  1
$MN.-Inch
100
AcDbAttributeDefinition
  3

  2
NBSYN
 70
     8
280
     0
  0
ATTDEF
  5
98
330
90
100
AcDbEntity
  8
AM_6
100
AcDbText
 10
5.21875
 20
-6.182517600470913
 30
0.0
 40
0.5
  1
405015E
100
AcDbAttributeDefinition
  3

  2
LINA
 70
     8
280
     0
  0
ATTDEF
  5
99
330
90
100
AcDbEntity
  8
AM_6
100
AcDbText
 10
5.21875
 20
-6.682517600470913
 30
0.0
 40
0.5
  1
405015E
100
AcDbAttributeDefinition
  3

  2
MN
 70
     8
280
     0
  0
ATTDEF
  5
9A
330
90
100
AcDbEntity
  8
AM_6
100
AcDbText
 10
5.21875
 20
-7.182517600470913
 30
0.0
 40
0.5
  1
1/8 x 27PTF
100
AcDbAttributeDefinition
  3

  2
T
 70
     8
280
     0
  0
ATTDEF
  5
9B
330
90
100
AcDbEntity
  8
AM_6
100
AcDbText
 10
5.21875
 20
-7.682517600470913
 30
0.0
 40
0.5
  1
baldor
100
AcDbAttributeDefinition
  3

  2
COMPANY
 70
     8
280
     0
  0
ELLIPSE
  5
9E
330
90
100
AcDbEntity
  8
AM_9
100
AcDbEllipse
 10
0.0
 20
-4.336058863538209
 30
0.0
 11
0.161902872472269
 21
0.0
 31
0.0
210
0.0
220
0.0
230
1.0
 40
0.8656085778820172
 41
0.0
 42
6.283185307179586
  0
LINE
  5
9F
330
90
100
AcDbEntity
  8
AM_9
100
AcDbLine
 10
-0.0720010413803165
 20
-4.65197721486093
 30
0.0
 11
-0.109375
 21
-4.632733535226778
 31
0.0
  0
LINE
  5
A0
330
90
100
AcDbEntity
  8
AM_9
100
AcDbLine
 10
0.0
 20
-4.691935053668624
 30
0.0
 11
-0.0405471111078923
 21
-4.669007931767993
 31
0.0
  0
LINE
  5
A1
330
90
100
AcDbEntity
  8
AM_9
100
AcDbLine
 10
0.0376774538929526
 20
-4.670596665451007
 30
0.0
 11
0.0
 21
-4.691935053668624
 31
0.0
  0
LWPOLYLINE
  5
A2
330
90
100
AcDbEntity
  8
AM_9
100
AcDbPolyline
 90
        3
 70
     0
 43
0.0
 10
0.109375
 20
-4.632733535226778
 10
0.08203125
 20
-4.646702974940305
 10
0.0630668302639237
 20
-4.656740602788084
  0
LWPOLYLINE
  5
A3
330
90
100
AcDbEntity
  8
AM_9
100
AcDbPolyline
 90
        4
 70
     0
 43
0.0
 10
-0.1093749999999999
 20
-4.682805662193491
 10
-0.0820312499999999
 20
-4.696166811684426
 10
-0.0546874999999999
 20
-4.708937834732474
 10
0.0
 20
-4.732926500569494
  0
LWPOLYLINE
  5
A4
330
90
100
AcDbEntity
  8
AM_9
100
AcDbPolyline
 90
        4
 70
     0
 43
0.0
 10
0.0
 20
-4.732926500569494
 10
0.0544416102741496
 20
-4.709050133087981
 10
0.0818700010907651
 20
-4.696243818273148
 10
0.109375
 20
-4.682805662193491
  0
LWPOLYLINE
  5
A5
330
90
100
AcDbEntity
  8
AM_9
100
AcDbPolyline
 90
        4
 70
     0
 43
0.0
 10
0.21875
 20
-4.582612696850774
 10
0.1643083897258504
 20
-4.606489064332287
 10
0.1368799989092349
 20
-4.61929537914712
 10
0.109375
 20
-4.632733535226778
  0
LWPOLYLINE
  5
A6
330
90
100
AcDbEntity
  8
AM_9
100
AcDbPolyline
 90
        4
 70
     0
 43
0.0
 10
-0.109375
 20
-4.632733535226778
 10
-0.1367187499999999
 20
-4.619372385735842
 10
-0.1640625
 20
-4.606601362687794
 10
-0.21875
 20
-4.582612696850774
  0
LINE
  5
A7
330
90
100
AcDbEntity
  8
AM_9
100
AcDbLine
 10
0.0
 20
-4.732926500569494
 30
0.0
 11
0.0
 21
-4.691935053668624
 31
0.0
  0
LINE
  5
A8
330
90
100
AcDbEntity
  8
AM_9
100
AcDbLine
 10
-0.1983275589882132
 20
-4.345154414611687
 30
0.0
 11
-0.2054514103040548
 21
-4.459128060175361
 31
0.0
  0
LINE
  5
A9
330
90
100
AcDbEntity
  8
AM_9
100
AcDbLine
 10
0.2054514103040548
 20
-4.459128060175361
 30
0.0
 11
0.1983275589882132
 21
-4.345154414611687
 31
0.0
  0
ELLIPSE
  5
AA
330
90
100
AcDbEntity
  8
AM_9
100
AcDbEllipse
 10
0.0
 20
-4.518822126966712
 30
0.0
 11
-0.2187500000000043
 21
2.678914873134888E-17
 31
0.0
210
0.0
220
0.0
230
1.0
 40
0.8656085778820114
 41
1.04719755119661
 42
2.094395102393183
  0
ELLIPSE
  5
AB
330
90
100
AcDbEntity
  8
AM_9
100
AcDbEllipse
 10
0.000000000000135
 20
-4.518822126966598
 30
0.0
 11
-0.2137500000002703
 21
2.617682533180777E-17
 31
0.0
210
0.0
220
0.0
230
1.0
 40
0.8656085778816683
 41
0.9852196807520537
 42
2.156372972836686
  0
ELLIPSE
  5
AC
330
90
100
AcDbEntity
  8
AM_9
100
AcDbEllipse
 10
0.0
 20
-4.527994438598119
 30
0.0
 11
-0.1725340532830161
 21
2.112932760969645E-17
 31
0.0
210
0.0
220
0.0
230
1.0
 40
0.8656085778820157
 41
0.6731924004167418
 42
2.468400253173051
  0
LINE
  5
AD
330
90
100
AcDbEntity
  8
AM_9
100
AcDbLine
 10
0.0705217602442632
 20
-4.63873576161966
 30
0.0
 11
0.0798038281048384
 21
-4.63145207236597
 31
0.0
  0
LINE
  5
AE
330
90
100
AcDbEntity
  8
AM_9
100
AcDbLine
 10
-0.0798038281048384
 20
-4.63145207236597
 30
0.0
 11
-0.0705217602442632
 21
-4.63873576161966
 31
0.0
  0
ELLIPSE
  5
AF
330
90
100
AcDbEntity
  8
AM_9
100
AcDbEllipse
 10
0.0000000000000041
 20
-4.555251162395813
 30
0.0
 11
-0.1188200907348937
 21
1.455126437928856E-17
 31
0.0
210
0.0
220
0.0
230
1.0
 40
0.8656085778820185
 41
0.0532149311036774
 42
3.088377722486115
  0
ELLIPSE
  5
B0
330
90
100
AcDbEntity
  8
AM_9
100
AcDbEllipse
 10
-0.0000000000000042
 20
-4.571397860281766
 30
0.0
 11
-0.1049999999999958
 21
1.285879139104670E-17
 31
0.0
210
0.0
220
0.0
230
1.0
 40
0.865608577882021
 41
5.860019345855804
 42
9.847943922093128
  0
LINE
  5
B1
330
90
100
AcDbEntity
  8
AM_9
100
AcDbLine
 10
-0.105
 20
-4.571397860281764
 30
0.0
 11
-0.105
 21
-4.586419498371778
 31
0.0
  0
LINE
  5
B2
330
90
100
AcDbEntity
  8
AM_9
100
AcDbLine
 10
0.105
 20
-4.586419498371778
 30
0.0
 11
0.105
 21
-4.571397860281764
 31
0.0
  0
ELLIPSE
  5
B3
330
90
100
AcDbEntity
  8
AM_9
100
AcDbEllipse
 10
0.0
 20
-4.586419498371778
 30
0.0
 11
-0.1050000000000002
 21
1.285879139104723E-17
 31
0.0
210
0.0
220
0.0
230
1.0
 40
0.8656085778820188
 41
5.239305631924545
 42
10.46865763602442
  0
ELLIPSE
  5
B4
330
90
100
AcDbEntity
  8
AM_9
100
AcDbEllipse
 10
0.0
 20
-4.616462774551806
 30
0.0
 11
-0.1349999999999999
 21
1.653273178848926E-17
 31
0.0
210
0.0
220
0.0
230
1.0
 40
0.8656085778820191
 41
0.7732287952744805
 42
2.368363858315313
  0
ELLIPSE
  5
B5
330
90
100
AcDbEntity
  8
AM_9
100
AcDbEllipse
 10
-0.0000000000000007
 20
-4.468750000000001
 30
0.0
 11
-0.205751897223069
 21
2.519734023527267E-17
 31
0.0
210
0.0
220
0.0
230
1.0
 40
0.8656085778820188
 41
0.0
 42
6.283185307179586
  0
ELLIPSE
  5
B6
330
90
100
AcDbEntity
  8
AM_9
100
AcDbEllipse
 10
-0.0000000000000014
 20
-4.354442721931301
 30
0.0
 11
-0.1986176267812139
 21
2.959633296929986E-9
 31
0.0
210
0.0
220
0.0
230
1.0
 40
0.8656085778820197
 41
0.0
 42
6.283185307179586
  0
ELLIPSE
  5
B7
330
90
100
AcDbEntity
  8
AM_9
100
AcDbEllipse
 10
0.0
 20
-4.468750000000001
 30
0.0
 11
-0.2187500000000001
 21
2.678914873134837E-17
 31
0.0
210
0.0
220
0.0
230
1.0
 40
0.8656085778820198
 41
0.0
 42
6.283185307179586
  0
LWPOLYLINE
  5
B9
330
90
100
AcDbEntity
  8
AM_4
100
AcDbPolyline
 90
        4
 70
     0
 43
0.0
 10
0.109375
 20
-4.682805662193491
 10
0.13671875
 20
-4.668836222479963
 10
0.1640625
 20
-4.654276656323549
 10
0.21875
 20
-4.623604143751643
  0
LWPOLYLINE
  5
BA
330
90
100
AcDbEntity
  8
AM_4
100
AcDbPolyline
 90
        4
 70
     0
 43
0.0
 10
-0.21875
 20
-4.623604143751643
 10
-0.1643083897258504
 20
-4.654143183302167
 10
-0.1368799989092348
 20
-4.668752057770017
 10
-0.1093749999999999
 20
-4.682805662193491
  0
ELLIPSE
  5
BB
330
90
100
AcDbEntity
  8
AM_4
100
AcDbEllipse
 10
-0.000000000000001
 20
-4.518822126966715
 30
0.0
 11
-0.2187499999999991
 21
2.678914873134824E-17
 31
0.0
210
0.0
220
0.0
230
1.0
 40
0.8656085778820157
 41
2.094395102393197
 42
7.330382858376192
  0
ELLIPSE
  5
BC
330
90
100
AcDbEntity
  8
AM_4
100
AcDbEllipse
 10
0.0000000000000007
 20
-4.518822126966714
 30
0.0
 11
-0.2137499999999992
 21
2.617682533177457E-17
 31
0.0
210
0.0
220
0.0
230
1.0
 40
0.8656085778820184
 41
2.15637297283774
 42
7.268404987931634
  0
LWPOLYLINE
  5
BD
330
90
100
AcDbEntity
  8
AM_4
100
AcDbPolyline
 90
        4
 70
     0
 43
0.0
 10
0.21875
 20
-4.404959430115942
 10
0.1643083897258504
 20
-4.381083062634429
 10
0.1368799989092349
 20
-4.368276747819595
 10
0.109375
 20
-4.354838591739939
  0
LINE
  5
BE
330
90
100
AcDbEntity
  8
AM_4
100
AcDbLine
 10
0.21875
 20
-4.623604143751643
 30
0.0
 11
0.21875
 21
-4.363967983215072
 31
0.0
  0
LWPOLYLINE
  5
BF
330
90
100
AcDbEntity
  8
AM_4
100
AcDbPolyline
 90
        4
 70
     0
 43
0.0
 10
0.109375
 20
-4.304766464773224
 10
0.1367187499999999
 20
-4.318735904486752
 10
0.1640625
 20
-4.333295470643167
 10
0.21875
 20
-4.363967983215072
  0
LWPOLYLINE
  5
C0
330
90
100
AcDbEntity
  8
AM_4
100
AcDbPolyline
 90
        4
 70
     0
 43
0.0
 10
0.0
 20
-4.254645626397221
 10
0.0544416102741496
 20
-4.278521993878734
 10
0.0818700010907651
 20
-4.291328308693569
 10
0.109375
 20
-4.304766464773224
  0
LINE
  5
C1
330
90
100
AcDbEntity
  8
AM_4
100
AcDbLine
 10
-0.21875
 20
-4.623604143751643
 30
0.0
 11
-0.21875
 21
-4.363967983215072
 31
0.0
  0
LWPOLYLINE
  5
C2
330
90
100
AcDbEntity
  8
AM_4
100
AcDbPolyline
 90
        4
 70
     0
 43
0.0
 10
-0.1093749999999999
 20
-4.354838591739939
 10
-0.1367187499999999
 20
-4.368199741230874
 10
-0.1640625
 20
-4.380970764278922
 10
-0.21875
 20
-4.404959430115942
  0
LINE
  5
C3
330
90
100
AcDbEntity
  8
AM_4
100
AcDbLine
 10
0.0
 20
-4.29563707329809
 30
0.0
 11
0.0
 21
-4.254645626397221
 31
0.0
  0
LWPOLYLINE
  5
C4
330
90
100
AcDbEntity
  8
AM_4
100
AcDbPolyline
 90
        4
 70
     0
 43
0.0
 10
-0.109375
 20
-4.304766464773224
 10
-0.08203125
 20
-4.291405315282289
 10
-0.0546875
 20
-4.278634292234242
 10
0.0
 20
-4.254645626397221
  0
LWPOLYLINE
  5
C5
330
90
100
AcDbEntity
  8
AM_4
100
AcDbPolyline
 90
        4
 70
     0
 43
0.0
 10
-0.21875
 20
-4.363967983215072
 10
-0.1643083897258504
 20
-4.333428943664549
 10
-0.1368799989092349
 20
-4.318820069196699
 10
-0.109375
 20
-4.304766464773224
  0
LWPOLYLINE
  5
C6
330
90
100
AcDbEntity
  8
AM_4
100
AcDbPolyline
 90
        4
 70
     0
 43
0.0
 10
0.109375
 20
-4.354838591739939
 10
0.08203125
 20
-4.340869152026411
 10
0.0546875
 20
-4.326309585869996
 10
0.0
 20
-4.29563707329809
  0
LWPOLYLINE
  5
C7
330
90
100
AcDbEntity
  8
AM_4
100
AcDbPolyline
 90
        4
 70
     0
 43
0.0
 10
0.0
 20
-4.29563707329809
 10
-0.0544416102741496
 20
-4.326176112848614
 10
-0.0818700010907651
 20
-4.340784987316463
 10
-0.1093749999999999
 20
-4.354838591739939
  0
ELLIPSE
  5
C8
330
90
100
AcDbEntity
  8
AM_4
100
AcDbEllipse
 10
0.0000000000000001
 20
-4.52799443859812
 30
0.0
 11
-0.1725340532830155
 21
2.112932760969638E-17
 31
0.0
210
0.0
220
0.0
230
1.0
 40
0.8656085778820187
 41
2.468400253173059
 42
6.956377707596321
  0
ELLIPSE
  5
C9
330
90
100
AcDbEntity
  8
AM_4
100
AcDbEllipse
 10
0.0000000000000013
 20
-4.555251162395814
 30
0.0
 11
-0.1188200907348986
 21
1.455126437928916E-17
 31
0.0
210
0.0
220
0.0
230
1.0
 40
0.8656085778820198
 41
3.088377722486124
 42
6.336400238283256
  0
ELLIPSE
  5
CA
330
90
100
AcDbEntity
  8
AM_4
100
AcDbEllipse
 10
-0.0000000000000016
 20
-4.571397860281762
 30
0.0
 11
-0.1049999999999977
 21
1.285879139104693E-17
 31
0.0
210
0.0
220
0.0
230
1.0
 40
0.8656085778820224
 41
3.564758614913519
 42
5.860019345855852
  0
ELLIPSE
  5
CB
330
90
100
AcDbEntity
  8
AM_4
100
AcDbEllipse
 10
-0.000000000000003
 20
-4.586419498371772
 30
0.0
 11
-0.1049999999999892
 21
1.564621938212635E-9
 31
0.0
210
0.0
220
0.0
230
1.0
 40
0.8656085778820414
 41
4.185472342834785
 42
5.239305645914587
  0
LINE
  5
CC
330
90
100
AcDbEntity
  8
AM_4
100
AcDbLine
 10
-0.0528014137882892
 20
-4.507858613477566
 30
0.0
 11
-0.0678875320135147
 21
-4.515455922544962
 31
0.0
  0
LINE
  5
CD
330
90
100
AcDbEntity
  8
AM_4
100
AcDbLine
 10
0.0678875320135147
 20
-4.515455922544962
 30
0.0
 11
0.0528014137882892
 21
-4.507858613477566
 31
0.0
  0
ELLIPSE
  5
CE
330
90
100
AcDbEntity
  8
AM_4
100
AcDbEllipse
 10
-0.000000000000002
 20
-4.61646277455181
 30
0.0
 11
-0.1350000000000034
 21
1.653273178848969E-17
 31
0.0
210
0.0
220
0.0
230
1.0
 40
0.8656085778820227
 41
2.368363858315344
 42
7.056414102454056
  0
LINE
  5
CF
330
90
100
AcDbEntity
  8
AM_4
100
AcDbLine
 10
0.0734823906175085
 20
-4.71859788852804
 30
0.0
 11
0.0966139991818168
 21
-4.698081608951437
 31
0.0
  0
LINE
  5
D0
330
90
100
AcDbEntity
  8
AM_4
100
AcDbLine
 10
-0.0966139991818168
 20
-4.698081608951437
 30
0.0
 11
-0.0734823906175085
 21
-4.71859788852804
 31
0.0
  0
ELLIPSE
  5
D1
330
90
100
AcDbEntity
  8
AM_4
100
AcDbEllipse
 10
-0.0000000000000003
 20
-4.656520476125177
 30
0.0
 11
-0.1026779019331872
 21
1.530019980326921E-9
 31
0.0
210
0.0
220
0.0
230
1.0
 40
0.8656085778820184
 41
0.0
 42
6.283185307179586
  0
ENDBLK
  5
93
330
90
100
AcDbEntity
  8
0
100
AcDbBlockEnd
  0
BLOCK
  5
D4
330
D2
100
AcDbEntity
  8
0
100
AcDbBlockBegin
  2
3_405015E_Inch_2_0_in_072382_0
 70
     2
 10
0.0
 20
0.0
 30
0.0
  3
3_405015E_Inch_2_0_in_072382_0
  1

  0
ATTDEF
  5
D6
330
D2
100
AcDbEntity
  8
AM_6
100
AcDbText
 10
5.218750000000001
 20
4.745392767686115
 30
0.0
 40
0.5
  1
405015E -Inch
100
AcDbAttributeDefinition
  3

  2
NN
 70
     8
280
     0
  0
ATTDEF
  5
D7
330
D2
100
AcDbEntity
  8
AM_6
100
AcDbText
 10
5.218750000000001
 20
4.245392767686115
 30
0.0
 40
0.5
  1
Grease Fitting
100
AcDbAttributeDefinition
  3

  2
NT
 70
     8
280
     0
  0
ATTDEF
  5
D8
330
D2
100
AcDbEntity
  8
AM_6
100
AcDbText
 10
5.218750000000001
 20
3.745392767686115
 30
0.0
 40
0.5
  1
405015E-Inch
100
AcDbAttributeDefinition
  3

  2
NB
 70
     8
280
     0
  0
ATTDEF
  5
D9
330
D2
100
AcDbEntity
  8
AM_6
100
AcDbText
 10
5.218750000000001
 20
3.245392767686115
 30
0.0
 40
0.5
  1
$MN.-Inch
100
AcDbAttributeDefinition
  3

  2
NBSYN
 70
     8
280
     0
  0
ATTDEF
  5
DA
330
D2
100
AcDbEntity
  8
AM_6
100
AcDbText
 10
5.218750000000001
 20
2.745392767686115
 30
0.0
 40
0.5
  1
405015E
100
AcDbAttributeDefinition
  3

  2
LINA
 70
     8
280
     0
  0
ATTDEF
  5
DB
330
D2
100
AcDbEntity
  8
AM_6
100
AcDbText
 10
5.218750000000001
 20
2.245392767686115
 30
0.0
 40
0.5
  1
405015E
100
AcDbAttributeDefinition
  3

  2
MN
 70
     8
280
     0
  0
ATTDEF
  5
DC
330
D2
100
AcDbEntity
  8
AM_6
100
AcDbText
 10
5.218750000000001
 20
1.745392767686115
 30
0.0
 40
0.5
  1
1/8 x 27PTF
100
AcDbAttributeDefinition
  3

  2
T
 70
     8
280
     0
  0
ATTDEF
  5
DD
330
D2
100
AcDbEntity
  8
AM_6
100
AcDbText
 10
5.218750000000001
 20
1.245392767686115
 30
0.0
 40
0.5
  1
baldor
100
AcDbAttributeDefinition
  3

  2
COMPANY
 70
     8
280
     0
  0
ELLIPSE
  5
DE
330
D2
100
AcDbEntity
  8
AM_9
100
AcDbEllipse
 10
0.0
 20
4.336058863538209
 30
0.0
 11
-0.161902872472269
 21
1.982738345459263E-17
 31
0.0
210
0.0
220
0.0
230
1.0
 40
0.8656085778820172
 41
0.0
 42
6.283185307179586
  0
LINE
  5
DF
330
D2
100
AcDbEntity
  8
AM_9
100
AcDbLine
 10
0.0720010413803165
 20
4.65197721486093
 30
0.0
 11
0.109375
 21
4.632733535226778
 31
0.0
  0
LINE
  5
E0
330
D2
100
AcDbEntity
  8
AM_9
100
AcDbLine
 10
0.0
 20
4.691935053668624
 30
0.0
 11
0.0405471111078922
 21
4.669007931767993
 31
0.0
  0
LINE
  5
E1
330
D2
100
AcDbEntity
  8
AM_9
100
AcDbLine
 10
-0.0376774538929526
 20
4.670596665451007
 30
0.0
 11
0.0
 21
4.691935053668624
 31
0.0
  0
LWPOLYLINE
  5
E2
330
D2
100
AcDbEntity
  8
AM_9
100
AcDbPolyline
 90
        3
 70
     0
 43
0.0
 10
-0.109375
 20
4.632733535226778
 10
-0.08203125
 20
4.646702974940305
 10
-0.0630668302639238
 20
4.656740602788084
  0
LWPOLYLINE
  5
E3
330
D2
100
AcDbEntity
  8
AM_9
100
AcDbPolyline
 90
        4
 70
     0
 43
0.0
 10
0.1093749999999999
 20
4.682805662193491
 10
0.0820312499999999
 20
4.696166811684426
 10
0.0546874999999999
 20
4.708937834732474
 10
0.0
 20
4.732926500569494
  0
LWPOLYLINE
  5
E4
330
D2
100
AcDbEntity
  8
AM_9
100
AcDbPolyline
 90
        4
 70
     0
 43
0.0
 10
0.0
 20
4.732926500569494
 10
-0.0544416102741496
 20
4.709050133087981
 10
-0.0818700010907651
 20
4.696243818273148
 10
-0.109375
 20
4.682805662193491
  0
LWPOLYLINE
  5
E5
330
D2
100
AcDbEntity
  8
AM_9
100
AcDbPolyline
 90
        4
 70
     0
 43
0.0
 10
0.109375
 20
4.632733535226778
 10
0.1367187499999999
 20
4.619372385735842
 10
0.1640625
 20
4.606601362687794
 10
0.21875
 20
4.582612696850774
  0
ELLIPSE
  5
E6
330
D2
100
AcDbEntity
  8
AM_9
100
AcDbEllipse
 10
0.0000000000000032
 20
4.468750000000001
 30
0.0
 11
0.2187500000000031
 21
3.259629011154222E-9
 31
0.0
210
0.0
220
0.0
230
1.0
 40
0.8656085778820161
 41
2.09439508841561
 42
3.141592638688632
  0
LWPOLYLINE
  5
E7
330
D2
100
AcDbEntity
  8
AM_9
100
AcDbPolyline
 90
        4
 70
     0
 43
0.0
 10
-0.21875
 20
4.582612696850774
 10
-0.1643083897258504
 20
4.606489064332287
 10
-0.1368799989092349
 20
4.61929537914712
 10
-0.109375
 20
4.632733535226778
  0
LINE
  5
E8
330
D2
100
AcDbEntity
  8
AM_9
100
AcDbLine
 10
0.0
 20
4.732926500569494
 30
0.0
 11
0.0
 21
4.691935053668624
 31
0.0
  0
ELLIPSE
  5
E9
330
D2
100
AcDbEntity
  8
AM_9
100
AcDbEllipse
 10
0.0000000000000006
 20
4.468750000000001
 30
0.0
 11
0.205751897223069
 21
0.0
 31
0.0
210
0.0
220
0.0
230
1.0
 40
0.8656085778820191
 41
4.71238898038469
 42
9.478829582398696
  0
ELLIPSE
  5
EA
330
D2
100
AcDbEntity
  8
AM_9
100
AcDbEllipse
 10
0.0000000000000014
 20
4.354442721931301
 30
0.0
 11
0.1986176267812138
 21
0.0
 31
0.0
210
0.0
220
0.0
230
1.0
 40
0.8656085778820201
 41
4.71238898038469
 42
6.229133685550273
  0
LINE
  5
EB
330
D2
100
AcDbEntity
  8
AM_9
100
AcDbLine
 10
0.1983275589882132
 20
4.345154414611687
 30
0.0
 11
0.2054514103040548
 21
4.459128060175361
 31
0.0
  0
LINE
  5
EC
330
D2
100
AcDbEntity
  8
AM_9
100
AcDbLine
 10
-0.2054514103040548
 20
4.459128060175361
 30
0.0
 11
-0.1983275589882132
 21
4.345154414611687
 31
0.0
  0
ELLIPSE
  5
ED
330
D2
100
AcDbEntity
  8
AM_9
100
AcDbEllipse
 10
-0.0000000000000006
 20
4.468750000000001
 30
0.0
 11
0.2057518972230692
 21
0.0
 31
0.0
210
0.0
220
0.0
230
1.0
 40
0.8656085778820184
 41
3.195644275219109
 42
4.71238898038469
  0
ELLIPSE
  5
EE
330
D2
100
AcDbEntity
  8
AM_9
100
AcDbEllipse
 10
0.0
 20
4.354442721931302
 30
0.0
 11
0.1986176267812153
 21
0.0
 31
0.0
210
0.0
220
0.0
230
1.0
 40
0.8656085778820224
 41
6.229133685550266
 42
9.478829582398697
  0
ELLIPSE
  5
EF
330
D2
100
AcDbEntity
  8
AM_9
100
AcDbEllipse
 10
-0.0000000000000013
 20
4.354442721931301
 30
0.0
 11
0.1986176267812138
 21
0.0
 31
0.0
210
0.0
220
0.0
230
1.0
 40
0.86560857788202
 41
3.195644275219106
 42
4.71238898038469
  0
ELLIPSE
  5
F0
330
D2
100
AcDbEntity
  8
AM_9
100
AcDbEllipse
 10
0.0
 20
4.468750000000003
 30
0.0
 11
0.2187500000000012
 21
0.0
 31
0.0
210
0.0
220
0.0
230
1.0
 40
0.8656085778820236
 41
3.141592653589793
 42
8.377580409572786
  0
ELLIPSE
  5
F1
330
D2
100
AcDbEntity
  8
AM_9
100
AcDbEllipse
 10
0.0
 20
4.518822126966712
 30
0.0
 11
0.2187500000000043
 21
0.0
 31
0.0
210
0.0
220
0.0
230
1.0
 40
0.8656085778820114
 41
1.04719755119661
 42
2.094395102393183
  0
ELLIPSE
  5
F2
330
D2
100
AcDbEntity
  8
AM_9
100
AcDbEllipse
 10
-0.0000000000000436
 20
4.518822126966755
 30
0.0
 11
0.2137499999999221
 21
0.0
 31
0.0
210
0.0
220
0.0
230
1.0
 40
0.8656085778820771
 41
1.116175861956376
 42
2.156372972837594
  0
ELLIPSE
  5
F3
330
D2
100
AcDbEntity
  8
AM_9
100
AcDbEllipse
 10
-0.0000000000000894
 20
4.518822126966655
 30
0.0
 11
0.2137500000001754
 21
0.0
 31
0.0
210
0.0
220
0.0
230
1.0
 40
0.8656085778817285
 41
0.9852196807521629
 42
1.11617586195658
  0
ELLIPSE
  5
F4
330
D2
100
AcDbEntity
  8
AM_9
100
AcDbEllipse
 10
0.0
 20
4.527994438598119
 30
0.0
 11
0.1725340532830154
 21
0.0
 31
0.0
210
0.0
220
0.0
230
1.0
 40
0.8656085778820192
 41
0.6731924004170304
 42
2.468400253172762
  0
ELLIPSE
  5
F5
330
D2
100
AcDbEntity
  8
AM_9
100
AcDbEllipse
 10
0.0000000000000033
 20
4.555251162395813
 30
0.0
 11
0.1188200907348943
 21
0.0
 31
0.0
210
0.0
220
0.0
230
1.0
 40
0.8656085778820211
 41
0.0532149311036791
 42
2.307210837350135
  0
LINE
  5
F6
330
D2
100
AcDbEntity
  8
AM_9
100
AcDbLine
 10
-0.070521760244263
 20
4.63873576161966
 30
0.0
 11
-0.0798038281048383
 21
4.63145207236597
 31
0.0
  0
LINE
  5
F7
330
D2
100
AcDbEntity
  8
AM_9
100
AcDbLine
 10
0.0798038281048383
 20
4.63145207236597
 30
0.0
 11
0.070521760244263
 21
4.63873576161966
 31
0.0
  0
ELLIPSE
  5
F8
330
D2
100
AcDbEntity
  8
AM_9
100
AcDbEllipse
 10
0.0000000000000002
 20
4.571397860281765
 30
0.0
 11
0.1050000000000001
 21
0.0
 31
0.0
210
0.0
220
0.0
230
1.0
 40
0.8656085778820192
 41
2.307210837350125
 42
3.564758614912629
  0
ELLIPSE
  5
F9
330
D2
100
AcDbEntity
  8
AM_9
100
AcDbEllipse
 10
-0.0000000000000032
 20
4.555251162395813
 30
0.0
 11
0.1188200907348944
 21
0.0
 31
0.0
210
0.0
220
0.0
230
1.0
 40
0.8656085778820208
 41
2.307210837350093
 42
3.088377722486114
  0
ELLIPSE
  5
FA
330
D2
100
AcDbEntity
  8
AM_9
100
AcDbEllipse
 10
0.0000000000000033
 20
4.571397860281768
 30
0.0
 11
0.1049999999999967
 21
0.0
 31
0.0
210
0.0
220
0.0
230
1.0
 40
0.8656085778820307
 41
5.860019345856717
 42
8.590396144529754
  0
LINE
  5
FB
330
D2
100
AcDbEntity
  8
AM_9
100
AcDbLine
 10
0.105
 20
4.571397860281764
 30
0.0
 11
0.105
 21
4.586419498371778
 31
0.0
  0
LINE
  5
FC
330
D2
100
AcDbEntity
  8
AM_9
100
AcDbLine
 10
-0.105
 20
4.586419498371778
 30
0.0
 11
-0.105
 21
4.571397860281764
 31
0.0
  0
ELLIPSE
  5
FD
330
D2
100
AcDbEntity
  8
AM_9
100
AcDbEllipse
 10
0.0
 20
4.586419498371778
 30
0.0
 11
0.1050000000000001
 21
0.0
 31
0.0
210
0.0
220
0.0
230
1.0
 40
0.8656085778820197
 41
5.239305631924539
 42
10.46865763602442
  0
ELLIPSE
  5
FE
330
D2
100
AcDbEntity
  8
AM_9
100
AcDbEllipse
 10
0.0
 20
4.616462774551806
 30
0.0
 11
0.1350000000000007
 21
0.0
 31
0.0
210
0.0
220
0.0
230
1.0
 40
0.8656085778820141
 41
0.7732287952744912
 42
2.368363858315302
  0
LWPOLYLINE
  5
FF
330
D2
100
AcDbEntity
  8
AM_4
100
AcDbPolyline
 90
        4
 70
     0
 43
0.0
 10
-0.109375
 20
4.682805662193491
 10
-0.13671875
 20
4.668836222479963
 10
-0.1640625
 20
4.654276656323549
 10
-0.21875
 20
4.623604143751643
  0
LWPOLYLINE
  5
100
330
D2
100
AcDbEntity
  8
AM_4
100
AcDbPolyline
 90
        4
 70
     0
 43
0.0
 10
0.21875
 20
4.623604143751643
 10
0.1643083897258504
 20
4.654143183302167
 10
0.1368799989092348
 20
4.668752057770017
 10
0.1093749999999999
 20
4.682805662193491
  0
ELLIPSE
  5
101
330
D2
100
AcDbEntity
  8
AM_4
100
AcDbEllipse
 10
0.0000000000000032
 20
4.518822126966715
 30
0.0
 11
0.2187500000000027
 21
0.0
 31
0.0
210
0.0
220
0.0
230
1.0
 40
0.8656085778820134
 41
2.094395102393207
 42
3.141592653589793
  0
ELLIPSE
  5
102
330
D2
100
AcDbEntity
  8
AM_4
100
AcDbEllipse
 10
0.0000000000000022
 20
4.518822126966714
 30
0.0
 11
0.2187499999999978
 21
0.0
 31
0.0
210
0.0
220
0.0
230
1.0
 40
0.8656085778820168
 41
3.141592653589793
 42
7.330382858376198
  0
ELLIPSE
  5
103
330
D2
100
AcDbEntity
  8
AM_4
100
AcDbEllipse
 10
-0.000000000000001
 20
4.518822126966714
 30
0.0
 11
0.2137499999999986
 21
0.0
 31
0.0
210
0.0
220
0.0
230
1.0
 40
0.8656085778820205
 41
2.156372972837608
 42
7.268404987931763
  0
LINE
  5
104
330
D2
100
AcDbEntity
  8
AM_4
100
AcDbLine
 10
0.21875
 20
4.623604143751643
 30
0.0
 11
0.21875
 21
4.363967983215072
 31
0.0
  0
LWPOLYLINE
  5
105
330
D2
100
AcDbEntity
  8
AM_4
100
AcDbPolyline
 90
        4
 70
     0
 43
0.0
 10
0.1093749999999999
 20
4.354838591739939
 10
0.1367187499999999
 20
4.368199741230874
 10
0.1640625
 20
4.380970764278922
 10
0.21875
 20
4.404959430115942
  0
LWPOLYLINE
  5
106
330
D2
100
AcDbEntity
  8
AM_4
100
AcDbPolyline
 90
        4
 70
     0
 43
0.0
 10
0.109375
 20
4.304766464773224
 10
0.08203125
 20
4.291405315282289
 10
0.0546875
 20
4.278634292234242
 10
0.0
 20
4.254645626397221
  0
LWPOLYLINE
  5
107
330
D2
100
AcDbEntity
  8
AM_4
100
AcDbPolyline
 90
        4
 70
     0
 43
0.0
 10
0.21875
 20
4.363967983215072
 10
0.1643083897258504
 20
4.333428943664549
 10
0.1368799989092349
 20
4.318820069196699
 10
0.109375
 20
4.304766464773224
  0
LINE
  5
108
330
D2
100
AcDbEntity
  8
AM_4
100
AcDbLine
 10
0.0
 20
4.29563707329809
 30
0.0
 11
0.0
 21
4.254645626397221
 31
0.0
  0
LWPOLYLINE
  5
109
330
D2
100
AcDbEntity
  8
AM_4
100
AcDbPolyline
 90
        4
 70
     0
 43
0.0
 10
-0.21875
 20
4.404959430115942
 10
-0.1643083897258504
 20
4.381083062634429
 10
-0.1368799989092349
 20
4.368276747819595
 10
-0.109375
 20
4.354838591739939
  0
LINE
  5
10A
330
D2
100
AcDbEntity
  8
AM_4
100
AcDbLine
 10
-0.21875
 20
4.623604143751643
 30
0.0
 11
-0.21875
 21
4.363967983215072
 31
0.0
  0
LWPOLYLINE
  5
10B
330
D2
100
AcDbEntity
  8
AM_4
100
AcDbPolyline
 90
        4
 70
     0
 43
0.0
 10
-0.109375
 20
4.304766464773224
 10
-0.1367187499999999
 20
4.318735904486752
 10
-0.1640625
 20
4.333295470643167
 10
-0.21875
 20
4.363967983215072
  0
LWPOLYLINE
  5
10C
330
D2
100
AcDbEntity
  8
AM_4
100
AcDbPolyline
 90
        4
 70
     0
 43
0.0
 10
0.0
 20
4.254645626397221
 10
-0.0544416102741496
 20
4.278521993878734
 10
-0.0818700010907651
 20
4.291328308693568
 10
-0.109375
 20
4.304766464773224
  0
LWPOLYLINE
  5
10D
330
D2
100
AcDbEntity
  8
AM_4
100
AcDbPolyline
 90
        4
 70
     0
 43
0.0
 10
-0.109375
 20
4.354838591739939
 10
-0.08203125
 20
4.340869152026411
 10
-0.0546875
 20
4.326309585869996
 10
0.0
 20
4.29563707329809
  0
LWPOLYLINE
  5
10E
330
D2
100
AcDbEntity
  8
AM_4
100
AcDbPolyline
 90
        4
 70
     0
 43
0.0
 10
0.0
 20
4.29563707329809
 10
0.0544416102741496
 20
4.326176112848614
 10
0.0818700010907651
 20
4.340784987316463
 10
0.1093749999999999
 20
4.354838591739939
  0
ELLIPSE
  5
10F
330
D2
100
AcDbEntity
  8
AM_4
100
AcDbEllipse
 10
0.0000000000000005
 20
4.527994438598119
 30
0.0
 11
0.1725340532830158
 21
0.0
 31
0.0
210
0.0
220
0.0
230
1.0
 40
0.8656085778820171
 41
2.468400253172762
 42
6.956377707596618
  0
ELLIPSE
  5
110
330
D2
100
AcDbEntity
  8
AM_4
100
AcDbEllipse
 10
-0.000000000000001
 20
4.555251162395813
 30
0.0
 11
0.1188200907348981
 21
0.0
 31
0.0
210
0.0
220
0.0
230
1.0
 40
0.865608577882016
 41
4.71238898038469
 42
6.336400238283262
  0
ELLIPSE
  5
111
330
D2
100
AcDbEntity
  8
AM_4
100
AcDbEllipse
 10
0.000000000000001
 20
4.555251162395813
 30
0.0
 11
0.118820090734898
 21
0.0
 31
0.0
210
0.0
220
0.0
230
1.0
 40
0.8656085778820165
 41
3.088377722486118
 42
4.71238898038469
  0
ELLIPSE
  5
112
330
D2
100
AcDbEntity
  8
AM_4
100
AcDbEllipse
 10
0.0000000000000006
 20
4.571397860281764
 30
0.0
 11
0.1049999999999994
 21
0.0
 31
0.0
210
0.0
220
0.0
230
1.0
 40
0.8656085778820252
 41
4.71238898038469
 42
5.860019345856761
  0
ELLIPSE
  5
113
330
D2
100
AcDbEntity
  8
AM_4
100
AcDbEllipse
 10
-0.0000000000000006
 20
4.571397860281764
 30
0.0
 11
0.1049999999999994
 21
0.0
 31
0.0
210
0.0
220
0.0
230
1.0
 40
0.865608577882025
 41
3.56475861491262
 42
4.71238898038469
  0
ELLIPSE
  5
114
330
D2
100
AcDbEntity
  8
AM_4
100
AcDbEllipse
 10
-0.0000000000000039
 20
4.58641949837179
 30
0.0
 11
0.1050000000000143
 21
0.0
 31
0.0
210
0.0
220
0.0
230
1.0
 40
0.865608577882021
 41
4.185472328844938
 42
5.239305631924502
  0
LINE
  5
115
330
D2
100
AcDbEntity
  8
AM_4
100
AcDbLine
 10
0.052801413788289
 20
4.507858613477565
 30
0.0
 11
0.0678875320135144
 21
4.515455922544962
 31
0.0
  0
LINE
  5
116
330
D2
100
AcDbEntity
  8
AM_4
100
AcDbLine
 10
-0.0678875320135144
 20
4.515455922544962
 30
0.0
 11
-0.052801413788289
 21
4.507858613477565
 31
0.0
  0
ELLIPSE
  5
117
330
D2
100
AcDbEntity
  8
AM_4
100
AcDbEllipse
 10
0.0000000000000002
 20
4.616462774551806
 30
0.0
 11
0.1349999999999998
 21
0.0
 31
0.0
210
0.0
220
0.0
230
1.0
 40
0.8656085778820198
 41
5.239305631924537
 42
7.056414102454077
  0
ELLIPSE
  5
118
330
D2
100
AcDbEntity
  8
AM_4
100
AcDbEllipse
 10
0.0000000000000032
 20
4.616462774551815
 30
0.0
 11
0.1350000000000132
 21
0.0
 31
0.0
210
0.0
220
0.0
230
1.0
 40
0.8656085778819997
 41
2.368363858315361
 42
4.71238898038469
  0
ELLIPSE
  5
119
330
D2
100
AcDbEntity
  8
AM_4
100
AcDbEllipse
 10
0.0000000000000006
 20
4.656520476125177
 30
0.0
 11
0.1026779019331869
 21
0.0
 31
0.0
210
0.0
220
0.0
230
1.0
 40
0.8656085778820208
 41
4.71238898038469
 42
7.056414102454077
  0
ELLIPSE
  5
11A
330
D2
100
AcDbEntity
  8
AM_4
100
AcDbEllipse
 10
-0.0000000000000032
 20
4.616462774551815
 30
0.0
 11
0.1350000000000132
 21
0.0
 31
0.0
210
0.0
220
0.0
230
1.0
 40
0.8656085778819997
 41
4.71238898038469
 42
5.239305631924512
  0
LINE
  5
11B
330
D2
100
AcDbEntity
  8
AM_4
100
AcDbLine
 10
-0.0734823906175084
 20
4.71859788852804
 30
0.0
 11
-0.0966139991818167
 21
4.698081608951438
 31
0.0
  0
LINE
  5
11C
330
D2
100
AcDbEntity
  8
AM_4
100
AcDbLine
 10
0.0966139991818167
 20
4.698081608951438
 30
0.0
 11
0.0734823906175084
 21
4.71859788852804
 31
0.0
  0
ELLIPSE
  5
11D
330
D2
100
AcDbEntity
  8
AM_4
100
AcDbEllipse
 10
0.0
 20
4.656520476125179
 30
0.0
 11
0.1026779019331862
 21
0.0
 31
0.0
210
0.0
220
0.0
230
1.0
 40
0.8656085778820185
 41
0.7732287952744716
 42
4.71238898038469
  0
ENDBLK
  5
D5
330
D2
100
AcDbEntity
  8
0
100
AcDbBlockEnd
  0
BLOCK
  5
120
330
11E
100
AcDbEntity
  8
0
100
AcDbBlockBegin
  2
4_ASME_B18_3_1_4_1_0_in_072382_0
 70
     2
 10
0.0
 20
0.0
 30
0.0
  3
4_ASME_B18_3_1_4_1_0_in_072382_0
  1

  0
ATTDEF
  5
122
330
11E
100
AcDbEntity
  8
AM_6
100
AcDbText
 10
5.229425
 20
-2.265874999999999
 30
0.0
 40
0.5
  1
ANSI/ASME-B18.3-1998
100
AcDbAttributeDefinition
  3

  2
NN
 70
     8
280
     0
  0
ATTDEF
  5
123
330
11E
100
AcDbEntity
  8
AM_6
100
AcDbText
 10
5.229425
 20
-2.765874999999999
 30
0.0
 40
0.5
  1
Socket Button Head Cap Screws
100
AcDbAttributeDefinition
  3

  2
NT
 70
     8
280
     0
  0
ATTDEF
  5
124
330
11E
100
AcDbEntity
  8
AM_6
100
AcDbText
 10
5.229425
 20
-3.265874999999999
 30
0.0
 40
0.5
  1
ASME-B18.3-1/4
100
AcDbAttributeDefinition
  3

  2
NB
 70
     8
280
     0
  0
ATTDEF
  5
125
330
11E
100
AcDbEntity
  8
AM_6
100
AcDbText
 10
5.229425
 20
-3.765874999999999
 30
0.0
 40
0.5
  1
ASME-B18.3-$NS.
100
AcDbAttributeDefinition
  3

  2
NBSYN
 70
     8
280
     0
  0
ATTDEF
  5
126
330
11E
100
AcDbEntity
  8
AM_6
100
AcDbText
 10
5.229425
 20
-4.265874999999999
 30
0.0
 40
0.5
  1
ASME-B18.3-1/4
100
AcDbAttributeDefinition
  3

  2
LINA
 70
     8
280
     0
  0
ATTDEF
  5
127
330
11E
100
AcDbEntity
  8
AM_6
100
AcDbText
 10
5.229425
 20
-4.765874999999999
 30
0.0
 40
0.5
  1
1/4
100
AcDbAttributeDefinition
  3

  2
NS
 70
     8
280
     0
  0
ATTDEF
  5
128
330
11E
100
AcDbEntity
  8
AM_6
100
AcDbText
 10
5.229425
 20
-5.265874999999999
 30
0.0
 40
0.5
  1
0.437
100
AcDbAttributeDefinition
  3

  2
A
 70
     8
280
     0
  0
ATTDEF
  5
129
330
11E
100
AcDbEntity
  8
AM_6
100
AcDbText
 10
5.229425
 20
-5.765874999999999
 30
0.0
 40
0.5
  1
0.132
100
AcDbAttributeDefinition
  3

  2
H
 70
     8
280
     0
  0
ATTDEF
  5
12A
330
11E
100
AcDbEntity
  8
AM_6
100
AcDbText
 10
5.229425
 20
-6.265874999999999
 30
0.0
 40
0.5
  1
0.800
100
AcDbAttributeDefinition
  3

  2
L
 70
     8
280
     0
  0
ATTDEF
  5
12B
330
11E
100
AcDbEntity
  8
AM_6
100
AcDbText
 10
5.229425
 20
-6.765874999999999
 30
0.0
 40
0.5
  1
0.031
100
AcDbAttributeDefinition
  3

  2
S
 70
     8
280
     0
  0
ATTDEF
  5
12C
330
11E
100
AcDbEntity
  8
AM_6
100
AcDbText
 10
5.229425
 20
-7.265874999999999
 30
0.0
 40
0.5
  1
0.156250
100
AcDbAttributeDefinition
  3

  2
J
 70
     8
280
     0
  0
ATTDEF
  5
12D
330
11E
100
AcDbEntity
  8
AM_6
100
AcDbText
 10
5.229425
 20
-7.765874999999999
 30
0.0
 40
0.5
  1
baldor
100
AcDbAttributeDefinition
  3

  2
COMPANY
 70
     8
280
     0
  0
ARC
  5
12F
330
11E
100
AcDbEntity
  8
AM_5
100
AcDbCircle
 10
-0.0000000000000004
 20
-2.484375
 30
0.0
 40
0.0952500000000001
100
AcDbArc
 50
75.00000000000001
 51
15.00000000000007
  0
LINE
  5
132
330
11E
100
AcDbEntity
  8
AM_7
100
AcDbLine
 10
-0.2294250000000001
 20
-2.484375
 30
0.0
 11
0.2294250000000002
 21
-2.484375
 31
0.0
  0
LINE
  5
133
330
11E
100
AcDbEntity
  8
AM_4
100
AcDbLine
 10
0.0
 20
-2.394164020439121
 30
0.0
 11
0.078125
 21
-2.43926951021956
 31
0.0
  0
CIRCLE
  5
134
330
11E
100
AcDbEntity
  8
AM_4
100
AcDbCircle
 10
0.0
 20
-2.484375
 30
0.0
 40
0.1175
  0
LINE
  5
135
330
11E
100
AcDbEntity
  8
AM_4
100
AcDbLine
 10
-0.078125
 20
-2.52948048978044
 30
0.0
 11
-0.078125
 21
-2.43926951021956
 31
0.0
  0
LINE
  5
136
330
11E
100
AcDbEntity
  8
AM_4
100
AcDbLine
 10
-0.078125
 20
-2.43926951021956
 30
0.0
 11
0.0
 21
-2.394164020439121
 31
0.0
  0
LINE
  5
137
330
11E
100
AcDbEntity
  8
AM_4
100
AcDbLine
 10
0.078125
 20
-2.43926951021956
 30
0.0
 11
0.078125
 21
-2.52948048978044
 31
0.0
  0
LINE
  5
138
330
11E
100
AcDbEntity
  8
AM_4
100
AcDbLine
 10
0.078125
 20
-2.52948048978044
 30
0.0
 11
0.0
 21
-2.574585979560879
 31
0.0
  0
LINE
  5
139
330
11E
100
AcDbEntity
  8
AM_4
100
AcDbLine
 10
0.0
 20
-2.574585979560879
 30
0.0
 11
-0.078125
 21
-2.52948048978044
 31
0.0
  0
CIRCLE
  5
13A
330
11E
100
AcDbEntity
  8
AM_4
100
AcDbCircle
 10
0.0
 20
-2.484375
 30
0.0
 40
0.2185000000000001
  0
CIRCLE
  5
13B
330
11E
100
AcDbEntity
  8
AM_5
100
AcDbCircle
 10
0.0
 20
-2.484375
 30
0.0
 40
0.0952500000000001
  0
ENDBLK
  5
121
330
11E
100
AcDbEntity
  8
0
100
AcDbBlockEnd
  0
BLOCK
  5
13E
330
13C
100
AcDbEntity
  8
0
100
AcDbBlockBegin
  2
5_ASME_B18_3_1_4_2_0_in_072382_0
 70
     2
 10
0.0
 20
0.0
 30
0.0
  3
5_ASME_B18_3_1_4_2_0_in_072382_0
  1

  0
ATTDEF
  5
140
330
13C
100
AcDbEntity
  8
AM_6
100
AcDbText
 10
5.229425
 20
2.702874999999999
 30
0.0
 40
0.5
  1
ANSI/ASME-B18.3-1998
100
AcDbAttributeDefinition
  3

  2
NN
 70
     8
280
     0
  0
ATTDEF
  5
141
330
13C
100
AcDbEntity
  8
AM_6
100
AcDbText
 10
5.229425
 20
2.202874999999999
 30
0.0
 40
0.5
  1
Socket Button Head Cap Screws
100
AcDbAttributeDefinition
  3

  2
NT
 70
     8
280
     0
  0
ATTDEF
  5
142
330
13C
100
AcDbEntity
  8
AM_6
100
AcDbText
 10
5.229425
 20
1.702874999999999
 30
0.0
 40
0.5
  1
ASME-B18.3-1/4
100
AcDbAttributeDefinition
  3

  2
NB
 70
     8
280
     0
  0
ATTDEF
  5
143
330
13C
100
AcDbEntity
  8
AM_6
100
AcDbText
 10
5.229425
 20
1.202874999999999
 30
0.0
 40
0.5
  1
ASME-B18.3-$NS.
100
AcDbAttributeDefinition
  3

  2
NBSYN
 70
     8
280
     0
  0
ATTDEF
  5
144
330
13C
100
AcDbEntity
  8
AM_6
100
AcDbText
 10
5.229425
 20
0.7028749999999993
 30
0.0
 40
0.5
  1
ASME-B18.3-1/4
100
AcDbAttributeDefinition
  3

  2
LINA
 70
     8
280
     0
  0
ATTDEF
  5
145
330
13C
100
AcDbEntity
  8
AM_6
100
AcDbText
 10
5.229425
 20
0.2028749999999993
 30
0.0
 40
0.5
  1
1/4
100
AcDbAttributeDefinition
  3

  2
NS
 70
     8
280
     0
  0
ATTDEF
  5
146
330
13C
100
AcDbEntity
  8
AM_6
100
AcDbText
 10
5.229425
 20
-0.2971250000000007
 30
0.0
 40
0.5
  1
0.437
100
AcDbAttributeDefinition
  3

  2
A
 70
     8
280
     0
  0
ATTDEF
  5
147
330
13C
100
AcDbEntity
  8
AM_6
100
AcDbText
 10
5.229425
 20
-0.7971250000000007
 30
0.0
 40
0.5
  1
0.132
100
AcDbAttributeDefinition
  3

  2
H
 70
     8
280
     0
  0
ATTDEF
  5
148
330
13C
100
AcDbEntity
  8
AM_6
100
AcDbText
 10
5.229425
 20
-1.297125000000001
 30
0.0
 40
0.5
  1
0.800
100
AcDbAttributeDefinition
  3

  2
L
 70
     8
280
     0
  0
ATTDEF
  5
149
330
13C
100
AcDbEntity
  8
AM_6
100
AcDbText
 10
5.229425
 20
-1.797125000000001
 30
0.0
 40
0.5
  1
0.031
100
AcDbAttributeDefinition
  3

  2
S
 70
     8
280
     0
  0
ATTDEF
  5
14A
330
13C
100
AcDbEntity
  8
AM_6
100
AcDbText
 10
5.229425
 20
-2.297125000000001
 30
0.0
 40
0.5
  1
0.156250
100
AcDbAttributeDefinition
  3

  2
J
 70
     8
280
     0
  0
ATTDEF
  5
14B
330
13C
100
AcDbEntity
  8
AM_6
100
AcDbText
 10
5.229425
 20
-2.797125000000001
 30
0.0
 40
0.5
  1
baldor
100
AcDbAttributeDefinition
  3

  2
COMPANY
 70
     8
280
     0
  0
ARC
  5
14C
330
13C
100
AcDbEntity
  8
AM_5
100
AcDbCircle
 10
-0.0000000000000001
 20
2.484375
 30
0.0
 40
0.0952500000000001
100
AcDbArc
 50
75.00000000000001
 51
15.00000000000004
  0
LINE
  5
14D
330
13C
100
AcDbEntity
  8
AM_7
100
AcDbLine
 10
-0.2294249999999997
 20
2.484375
 30
0.0
 11
0.2294249999999997
 21
2.484375
 31
0.0
  0
LINE
  5
14E
330
13C
100
AcDbEntity
  8
AM_4
100
AcDbLine
 10
-0.078125
 20
2.43926951021956
 30
0.0
 11
-0.078125
 21
2.52948048978044
 31
0.0
  0
LINE
  5
14F
330
13C
100
AcDbEntity
  8
AM_4
100
AcDbLine
 10
-0.078125
 20
2.52948048978044
 30
0.0
 11
0.0
 21
2.574585979560879
 31
0.0
  0
LINE
  5
150
330
13C
100
AcDbEntity
  8
AM_4
100
AcDbLine
 10
0.0
 20
2.574585979560879
 30
0.0
 11
0.078125
 21
2.52948048978044
 31
0.0
  0
LINE
  5
151
330
13C
100
AcDbEntity
  8
AM_4
100
AcDbLine
 10
0.078125
 20
2.52948048978044
 30
0.0
 11
0.078125
 21
2.43926951021956
 31
0.0
  0
LINE
  5
152
330
13C
100
AcDbEntity
  8
AM_4
100
AcDbLine
 10
0.078125
 20
2.43926951021956
 30
0.0
 11
0.0
 21
2.394164020439121
 31
0.0
  0
LINE
  5
153
330
13C
100
AcDbEntity
  8
AM_4
100
AcDbLine
 10
0.0
 20
2.394164020439121
 30
0.0
 11
-0.078125
 21
2.43926951021956
 31
0.0
  0
CIRCLE
  5
154
330
13C
100
AcDbEntity
  8
AM_4
100
AcDbCircle
 10
0.0
 20
2.484375
 30
0.0
 40
0.1175
  0
CIRCLE
  5
155
330
13C
100
AcDbEntity
  8
AM_4
100
AcDbCircle
 10
0.0
 20
2.484375
 30
0.0
 40
0.2184999999999997
  0
CIRCLE
  5
156
330
13C
100
AcDbEntity
  8
AM_5
100
AcDbCircle
 10
0.0
 20
2.484375
 30
0.0
 40
0.0952500000000001
  0
ENDBLK
  5
13F
330
13C
100
AcDbEntity
  8
0
100
AcDbBlockEnd
  0
BLOCK
  5
159
330
157
100
AcDbEntity
  8
0
100
AcDbBlockBegin
  2
6_070906LWE_0_in_072382_0
 70
     2
 10
0.0
 20
0.0
 30
0.0
  3
6_070906LWE_0_in_072382_0
  1

  0
ATTDEF
  5
15B
330
157
100
AcDbEntity
  8
AM_6
100
AcDbText
 10
7.779999999999999
 20
2.78
 30
0.0
 40
0.5
  1
Imperial/E Insert Lockwasher -Inch
100
AcDbAttributeDefinition
  3

  2
NN
 70
     8
280
     0
  0
ATTDEF
  5
15C
330
157
100
AcDbEntity
  8
AM_6
100
AcDbText
 10
7.779999999999999
 20
2.28
 30
0.0
 40
0.5
  1
Imperial/E Bearings
100
AcDbAttributeDefinition
  3

  2
NT
 70
     8
280
     0
  0
ATTDEF
  5
15D
330
157
100
AcDbEntity
  8
AM_6
100
AcDbText
 10
7.779999999999999
 20
1.78
 30
0.0
 40
0.5
  1
070906LWE
100
AcDbAttributeDefinition
  3

  2
NB
 70
     8
280
     0
  0
ATTDEF
  5
15E
330
157
100
AcDbEntity
  8
AM_6
100
AcDbText
 10
7.779999999999999
 20
1.28
 30
0.0
 40
0.5
  1
$PN.LWE
100
AcDbAttributeDefinition
  3

  2
NBSYN
 70
     8
280
     0
  0
ATTDEF
  5
15F
330
157
100
AcDbEntity
  8
AM_6
100
AcDbText
 10
7.779999999999999
 20
0.7799999999999998
 30
0.0
 40
0.5
  1
070906
100
AcDbAttributeDefinition
  3

  2
LINA
 70
     8
280
     0
  0
ATTDEF
  5
160
330
157
100
AcDbEntity
  8
AM_6
100
AcDbText
 10
7.779999999999999
 20
0.2799999999999998
 30
0.0
 40
0.5
  1
3-15/16
100
AcDbAttributeDefinition
  3

  2
SS
 70
     8
280
     0
  0
ATTDEF
  5
161
330
157
100
AcDbEntity
  8
AM_6
100
AcDbText
 10
7.779999999999999
 20
-0.2200000000000002
 30
0.0
 40
0.5
  1
5.560000
100
AcDbAttributeDefinition
  3

  2
E1
 70
     8
280
     0
  0
ATTDEF
  5
162
330
157
100
AcDbEntity
  8
AM_6
100
AcDbText
 10
7.779999999999999
 20
-0.7200000000000002
 30
0.0
 40
0.5
  1
3.937500
100
AcDbAttributeDefinition
  3

  2
SS1
 70
     8
280
     0
  0
ATTDEF
  5
163
330
157
100
AcDbEntity
  8
AM_6
100
AcDbText
 10
7.779999999999999
 20
-1.22
 30
0.0
 40
0.5
  1
070906
100
AcDbAttributeDefinition
  3

  2
PN
 70
     8
280
     0
  0
ATTDEF
  5
164
330
157
100
AcDbEntity
  8
AM_6
100
AcDbText
 10
7.779999999999999
 20
-1.72
 30
0.0
 40
0.5
  1
INS-IP-315R
100
AcDbAttributeDefinition
  3

  2
DESCRIPTION
 70
     8
280
     0
  0
ATTDEF
  5
165
330
157
100
AcDbEntity
  8
AM_6
100
AcDbText
 10
7.779999999999999
 20
-2.22
 30
0.0
 40
0.5
  1
7.0866
100
AcDbAttributeDefinition
  3

  2
A
 70
     8
280
     0
  0
ATTDEF
  5
166
330
157
100
AcDbEntity
  8
AM_6
100
AcDbText
 10
7.779999999999999
 20
-2.72
 30
0.0
 40
0.5
  1
1-7/8
100
AcDbAttributeDefinition
  3

  2
B
 70
     8
280
     0
  0
ATTDEF
  5
167
330
157
100
AcDbEntity
  8
AM_6
100
AcDbText
 10
7.779999999999999
 20
-3.22
 30
0.0
 40
0.5
  1
1.875000
100
AcDbAttributeDefinition
  3

  2
B1
 70
     8
280
     0
  0
ATTDEF
  5
168
330
157
100
AcDbEntity
  8
AM_6
100
AcDbText
 10
7.779999999999999
 20
-3.72
 30
0.0
 40
0.5
  1
4-45/64
100
AcDbAttributeDefinition
  3

  2
C
 70
     8
280
     0
  0
ATTDEF
  5
169
330
157
100
AcDbEntity
  8
AM_6
100
AcDbText
 10
7.779999999999999
 20
-4.220000000000001
 30
0.0
 40
0.5
  1
4.703125
100
AcDbAttributeDefinition
  3

  2
C1
 70
     8
280
     0
  0
ATTDEF
  5
16A
330
157
100
AcDbEntity
  8
AM_6
100
AcDbText
 10
7.779999999999999
 20
-4.720000000000001
 30
0.0
 40
0.5
  1
1.646
100
AcDbAttributeDefinition
  3

  2
D
 70
     8
280
     0
  0
ATTDEF
  5
16B
330
157
100
AcDbEntity
  8
AM_6
100
AcDbText
 10
7.779999999999999
 20
-5.220000000000001
 30
0.0
 40
0.5
  1
5-9/16
100
AcDbAttributeDefinition
  3

  2
E
 70
     8
280
     0
  0
ATTDEF
  5
16C
330
157
100
AcDbEntity
  8
AM_6
100
AcDbText
 10
7.779999999999999
 20
-5.720000000000001
 30
0.0
 40
0.5
  1
0.2500
100
AcDbAttributeDefinition
  3

  2
NDM
 70
     8
280
     0
  0
ATTDEF
  5
16D
330
157
100
AcDbEntity
  8
AM_6
100
AcDbText
 10
7.779999999999999
 20
-6.220000000000001
 30
0.0
 40
0.5
  1
0.1960
100
AcDbAttributeDefinition
  3

  2
KDM
 70
     8
280
     0
  0
ATTDEF
  5
16E
330
157
100
AcDbEntity
  8
AM_6
100
AcDbText
 10
7.779999999999999
 20
-6.720000000000001
 30
0.0
 40
0.5
  1
4.83
100
AcDbAttributeDefinition
  3

  2
AL
 70
     8
280
     0
  0
ATTDEF
  5
16F
330
157
100
AcDbEntity
  8
AM_6
100
AcDbText
 10
7.779999999999999
 20
-7.220000000000001
 30
0.0
 40
0.5
  1
0.50
100
AcDbAttributeDefinition
  3

  2
BL
 70
     8
280
     0
  0
ATTDEF
  5
170
330
157
100
AcDbEntity
  8
AM_6
100
AcDbText
 10
7.779999999999999
 20
-7.720000000000001
 30
0.0
 40
0.5
  1
0.07
100
AcDbAttributeDefinition
  3

  2
CL
 70
     8
280
     0
  0
ATTDEF
  5
171
330
157
100
AcDbEntity
  8
AM_6
100
AcDbText
 10
7.779999999999999
 20
-8.22
 30
0.0
 40
0.5
  1
0.50
100
AcDbAttributeDefinition
  3

  2
DL
 70
     8
280
     0
  0
ATTDEF
  5
172
330
157
100
AcDbEntity
  8
AM_6
100
AcDbText
 10
7.779999999999999
 20
-8.72
 30
0.0
 40
0.5
  1
baldor
100
AcDbAttributeDefinition
  3

  2
COMPANY
 70
     8
280
     0
  0
ARC
  5
173
330
157
100
AcDbEntity
  8
AM_9
100
AcDbCircle
 10
0.0000000000000386
 20
-0.0000000000000884
 30
0.0
 40
2.072368421052729
100
AcDbArc
 50
109.0419650925409
 51
115.9580349074592
  0
LINE
  5
174
330
157
100
AcDbEntity
  8
AM_9
100
AcDbLine
 10
-0.1249999999999992
 20
-2.483749999999999
 30
0.0
 11
-0.1249999999999992
 21
-2.305162137738386
 31
0.0
  0
LINE
  5
175
330
157
100
AcDbEntity
  8
AM_9
100
AcDbLine
 10
-0.1250000000000003
 20
2.305162137738387
 30
0.0
 11
-0.1250000000000003
 21
2.483749999999999
 31
0.0
  0
ARC
  5
176
330
157
100
AcDbEntity
  8
AM_9
100
AcDbCircle
 10
0.0000000000000009
 20
-2.483789612949493
 30
0.0
 40
0.125000006276743
100
AcDbArc
 50
179.9818427620671
 51
0.0181572379329725
  0
LINE
  5
177
330
157
100
AcDbEntity
  8
AM_9
100
AcDbLine
 10
0.1250000000000011
 20
-2.305162137738387
 30
0.0
 11
0.125000000000001
 21
-2.483749999999999
 31
0.0
  0
ARC
  5
178
330
157
100
AcDbEntity
  8
AM_9
100
AcDbCircle
 10
-0.0000000000000003
 20
2.483789612949495
 30
0.0
 40
0.1250000062767428
100
AcDbArc
 50
359.981842762067
 51
180.018157237933
  0
LINE
  5
179
330
157
100
AcDbEntity
  8
AM_9
100
AcDbLine
 10
0.1249999999999996
 20
2.483749999999999
 30
0.0
 11
0.1249999999999999
 21
2.305162137738387
 31
0.0
  0
LINE
  5
17A
330
157
100
AcDbEntity
  8
AM_7
100
AcDbLine
 10
-0.1312500065905796
 20
-2.483789612949493
 30
0.0
 11
0.1312500065905814
 21
-2.483789612949493
 31
0.0
  0
LINE
  5
17B
330
157
100
AcDbEntity
  8
AM_7
100
AcDbLine
 10
-0.1312500065905804
 20
2.483789612949494
 30
0.0
 11
0.1312500065905797
 21
2.483789612949494
 31
0.0
  0
LINE
  5
17C
330
157
100
AcDbEntity
  8
AM_7
100
AcDbLine
 10
1.625054471766717
 20
1.756304478357298
 30
0.0
 11
1.887554484947878
 21
1.756304478357298
 31
0.0
  0
LINE
  5
17D
330
157
100
AcDbEntity
  8
AM_7
100
AcDbLine
 10
1.756304478357297
 20
1.625054471766718
 30
0.0
 11
1.756304478357297
 21
1.887554484947878
 31
0.0
  0
LINE
  5
17E
330
157
100
AcDbEntity
  8
AM_7
100
AcDbLine
 10
-2.483789612949494
 20
-0.1312500065905816
 30
0.0
 11
-2.483789612949494
 21
0.1312500065905794
 31
0.0
  0
LINE
  5
17F
330
157
100
AcDbEntity
  8
AM_7
100
AcDbLine
 10
-1.887554484947878
 20
1.756304478357297
 30
0.0
 11
-1.625054471766718
 21
1.756304478357297
 31
0.0
  0
LINE
  5
180
330
157
100
AcDbEntity
  8
AM_7
100
AcDbLine
 10
-1.756304478357298
 20
1.625054471766717
 30
0.0
 11
-1.756304478357298
 21
1.887554484947877
 31
0.0
  0
LINE
  5
181
330
157
100
AcDbEntity
  8
AM_7
100
AcDbLine
 10
2.483789612949495
 20
-0.1312500065905797
 30
0.0
 11
2.483789612949495
 21
0.1312500065905804
 31
0.0
  0
LINE
  5
182
330
157
100
AcDbEntity
  8
AM_7
100
AcDbLine
 10
1.625054471766718
 20
-1.756304478357297
 30
0.0
 11
1.887554484947878
 21
-1.756304478357297
 31
0.0
  0
LINE
  5
183
330
157
100
AcDbEntity
  8
AM_7
100
AcDbLine
 10
1.756304478357298
 20
-1.887554484947877
 30
0.0
 11
1.756304478357298
 21
-1.625054471766717
 31
0.0
  0
LINE
  5
184
330
157
100
AcDbEntity
  8
AM_7
100
AcDbLine
 10
-1.887554484947877
 20
-1.756304478357299
 30
0.0
 11
-1.625054471766717
 21
-1.756304478357299
 31
0.0
  0
LINE
  5
185
330
157
100
AcDbEntity
  8
AM_7
100
AcDbLine
 10
-1.756304478357297
 20
-1.887554484947879
 30
0.0
 11
-1.756304478357297
 21
-1.625054471766718
 31
0.0
  0
ARC
  5
186
330
157
100
AcDbEntity
  8
AM_4
100
AcDbCircle
 10
-0.0000000000000009
 20
0.0
 30
0.0
 40
2.128378378378377
100
AcDbArc
 50
228.3669276725026
 51
266.6330723274974
  0
LINE
  5
187
330
157
100
AcDbEntity
  8
AM_4
100
AcDbLine
 10
-0.1249999999999992
 20
-2.305162137738386
 30
0.0
 11
-0.1249999999999992
 21
-2.124704572769723
 31
0.0
  0
ARC
  5
188
330
157
100
AcDbEntity
  8
AM_4
100
AcDbCircle
 10
0.0000000000000089
 20
0.0000000000000053
 30
0.0
 40
2.128378378378388
100
AcDbArc
 50
183.3669276725028
 51
221.6330723274973
  0
LINE
  5
189
330
157
100
AcDbEntity
  8
AM_4
100
AcDbLine
 10
-1.414004663775219
 20
-1.590781359071856
 30
0.0
 11
-1.667888120123767
 21
-1.844664815420406
 31
0.0
  0
LINE
  5
18A
330
157
100
AcDbEntity
  8
AM_4
100
AcDbLine
 10
-0.1250000000000009
 20
2.124704572769724
 30
0.0
 11
-0.1250000000000003
 21
2.305162137738387
 31
0.0
  0
LINE
  5
18B
330
157
100
AcDbEntity
  8
AM_4
100
AcDbLine
 10
0.1250000000000009
 20
-2.124704572769724
 30
0.0
 11
0.1250000000000011
 21
-2.305162137738387
 31
0.0
  0
ARC
  5
18C
330
157
100
AcDbEntity
  8
AM_4
100
AcDbCircle
 10
-0.0000000000000027
 20
0.0000000000000044
 30
0.0
 40
2.128378378378383
100
AcDbArc
 50
273.3669276725028
 51
311.6330723274973
  0
LINE
  5
18D
330
157
100
AcDbEntity
  8
AM_4
100
AcDbLine
 10
1.667888120123769
 20
-1.844664815420405
 30
0.0
 11
1.41400466377522
 21
-1.590781359071856
 31
0.0
  0
ARC
  5
18E
330
157
100
AcDbEntity
  8
AM_4
100
AcDbCircle
 10
1.756304478357298
 20
-1.756304478357297
 30
0.0
 40
0.1250000062767428
100
AcDbArc
 50
224.9818427620469
 51
45.01815723795313
  0
LINE
  5
18F
330
157
100
AcDbEntity
  8
AM_4
100
AcDbLine
 10
1.590781359071856
 20
-1.41400466377522
 30
0.0
 11
1.844664815420406
 21
-1.667888120123768
 31
0.0
  0
ARC
  5
190
330
157
100
AcDbEntity
  8
AM_4
100
AcDbCircle
 10
-0.0000000000000038
 20
0.0000000000000016
 30
0.0
 40
2.128378378378382
100
AcDbArc
 50
318.3669276725026
 51
356.6330723274973
  0
LINE
  5
191
330
157
100
AcDbEntity
  8
AM_4
100
AcDbLine
 10
2.483749999999999
 20
-0.1249999999999999
 30
0.0
 11
2.124704572769724
 21
-0.1249999999999993
 31
0.0
  0
ARC
  5
192
330
157
100
AcDbEntity
  8
AM_4
100
AcDbCircle
 10
2.483789612949494
 20
0.0000000000000004
 30
0.0
 40
0.1250000062767432
100
AcDbArc
 50
269.9818427620469
 51
90.01815723795312
  0
LINE
  5
193
330
157
100
AcDbEntity
  8
AM_4
100
AcDbLine
 10
2.124704572769724
 20
0.1250000000000003
 30
0.0
 11
2.483749999999999
 21
0.1250000000000007
 31
0.0
  0
ARC
  5
194
330
157
100
AcDbEntity
  8
AM_4
100
AcDbCircle
 10
-0.0000000000000107
 20
-0.0000000000000051
 30
0.0
 40
2.128378378378389
100
AcDbArc
 50
3.366927672502718
 51
41.6330723274973
  0
LINE
  5
195
330
157
100
AcDbEntity
  8
AM_4
100
AcDbLine
 10
1.844664815420405
 20
1.667888120123769
 30
0.0
 11
1.590781359071856
 21
1.41400466377522
 31
0.0
  0
ARC
  5
196
330
157
100
AcDbEntity
  8
AM_4
100
AcDbCircle
 10
1.756304478357297
 20
1.756304478357298
 30
0.0
 40
0.125000006276743
100
AcDbArc
 50
314.9818427620467
 51
135.0181572379532
  0
CIRCLE
  5
197
330
157
100
AcDbEntity
  8
AM_4
100
AcDbCircle
 10
0.0
 20
0.0
 30
0.0
 40
2.78
  0
LINE
  5
198
330
157
100
AcDbEntity
  8
AM_4
100
AcDbLine
 10
-0.6761321485743731
 20
1.958968144263806
 30
0.0
 11
-0.6976042971054085
 21
2.010806496460722
 31
0.0
  0
ARC
  5
199
330
157
100
AcDbEntity
  8
AM_4
100
AcDbCircle
 10
0.0000000000000586
 20
-0.0000000000001308
 30
0.0
 40
1.968750000000143
100
AcDbArc
 50
108.8597241243851
 51
116.1402758756151
  0
LINE
  5
19A
330
157
100
AcDbEntity
  8
AM_4
100
AcDbLine
 10
-0.9285741802332308
 20
1.915135638369449
 30
0.0
 11
-0.9071020317021952
 21
1.863297286172533
 31
0.0
  0
LINE
  5
19B
330
157
100
AcDbEntity
  8
AM_4
100
AcDbLine
 10
1.414004663775216
 20
1.590781359071859
 30
0.0
 11
1.667888120123768
 21
1.844664815420406
 31
0.0
  0
ARC
  5
19C
330
157
100
AcDbEntity
  8
AM_4
100
AcDbCircle
 10
-1.756304478357297
 20
-1.756304478357299
 30
0.0
 40
0.125000006276743
100
AcDbArc
 50
134.9818427620467
 51
315.0181572379533
  0
LINE
  5
19D
330
157
100
AcDbEntity
  8
AM_4
100
AcDbLine
 10
-1.844664815420405
 20
-1.667888120123769
 30
0.0
 11
-1.590781359071856
 21
-1.41400466377522
 31
0.0
  0
LINE
  5
19E
330
157
100
AcDbEntity
  8
AM_4
100
AcDbLine
 10
-2.124704572769724
 20
-0.125000000000001
 30
0.0
 11
-2.483749999999999
 21
-0.1250000000000014
 31
0.0
  0
ARC
  5
19F
330
157
100
AcDbEntity
  8
AM_4
100
AcDbCircle
 10
-2.483789612949494
 20
-0.0000000000000011
 30
0.0
 40
0.1250000062767432
100
AcDbArc
 50
89.98184276204688
 51
270.0181572379532
  0
LINE
  5
1A0
330
157
100
AcDbEntity
  8
AM_4
100
AcDbLine
 10
-2.483749999999999
 20
0.1249999999999992
 30
0.0
 11
-2.124704572769723
 21
0.1249999999999988
 31
0.0
  0
ARC
  5
1A1
330
157
100
AcDbEntity
  8
AM_4
100
AcDbCircle
 10
-0.0000000000000118
 20
0.0000000000000049
 30
0.0
 40
2.128378378378365
100
AcDbArc
 50
138.3669276725026
 51
176.6330723274975
  0
LINE
  5
1A2
330
157
100
AcDbEntity
  8
AM_4
100
AcDbLine
 10
-1.590781359071856
 20
1.414004663775219
 30
0.0
 11
-1.844664815420405
 21
1.667888120123768
 31
0.0
  0
ARC
  5
1A3
330
157
100
AcDbEntity
  8
AM_4
100
AcDbCircle
 10
-1.756304478357298
 20
1.756304478357297
 30
0.0
 40
0.125000006276743
100
AcDbArc
 50
44.98184276206729
 51
225.0181572379531
  0
LINE
  5
1A4
330
157
100
AcDbEntity
  8
AM_4
100
AcDbLine
 10
-1.6678881201238
 20
1.844664815420437
 30
0.0
 11
-1.414004663775219
 21
1.590781359071856
 31
0.0
  0
ARC
  5
1A5
330
157
100
AcDbEntity
  8
AM_4
100
AcDbCircle
 10
0.0000000000000278
 20
-0.00000000000004
 30
0.0
 40
2.128378378378426
100
AcDbArc
 50
115.8669276725028
 51
131.6330723274972
  0
ARC
  5
1A6
330
157
100
AcDbEntity
  8
AM_4
100
AcDbCircle
 10
0.0000000000000077
 20
-0.0000000000000262
 30
0.0
 40
2.128378378378405
100
AcDbArc
 50
93.36692767250284
 51
109.1330723274973
  0
LINE
  5
1A7
330
157
100
AcDbEntity
  8
AM_4
100
AcDbLine
 10
0.1249999999999999
 20
2.305162137738387
 30
0.0
 11
0.1249999999999998
 21
2.124704572769724
 31
0.0
  0
ARC
  5
1A8
330
157
100
AcDbEntity
  8
AM_4
100
AcDbCircle
 10
-0.0000000000000004
 20
0.0000000000000002
 30
0.0
 40
2.128378378378378
100
AcDbArc
 50
48.36692767250275
 51
86.63307232749736
  0
ENDBLK
  5
15A
330
157
100
AcDbEntity
  8
0
100
AcDbBlockEnd
  0
BLOCK
  5
1AB
330
1A9
100
AcDbEntity
  8
0
100
AcDbBlockBegin
  2
7_070906I_0_in_072382_0
 70
     2
 10
0.0
 20
0.0
 30
0.0
  3
7_070906I_0_in_072382_0
  1

  0
ATTDEF
  5
1AD
330
1A9
100
AcDbEntity
  8
AM_6
100
AcDbText
 10
8.493300000000001
 20
3.493300000000001
 30
0.0
 40
0.5
  1
Imperial Insert -Inch
100
AcDbAttributeDefinition
  3

  2
NN
 70
     8
280
     0
  0
ATTDEF
  5
1AE
330
1A9
100
AcDbEntity
  8
AM_6
100
AcDbText
 10
8.493300000000001
 20
2.993300000000001
 30
0.0
 40
0.5
  1
Imperial Bearings
100
AcDbAttributeDefinition
  3

  2
NT
 70
     8
280
     0
  0
ATTDEF
  5
1AF
330
1A9
100
AcDbEntity
  8
AM_6
100
AcDbText
 10
8.493300000000001
 20
2.493300000000001
 30
0.0
 40
0.5
  1
070906I
100
AcDbAttributeDefinition
  3

  2
NB
 70
     8
280
     0
  0
ATTDEF
  5
1B0
330
1A9
100
AcDbEntity
  8
AM_6
100
AcDbText
 10
8.493300000000001
 20
1.993300000000001
 30
0.0
 40
0.5
  1
$PN.I
100
AcDbAttributeDefinition
  3

  2
NBSYN
 70
     8
280
     0
  0
ATTDEF
  5
1B1
330
1A9
100
AcDbEntity
  8
AM_6
100
AcDbText
 10
8.493300000000001
 20
1.493300000000001
 30
0.0
 40
0.5
  1
070906
100
AcDbAttributeDefinition
  3

  2
LINA
 70
     8
280
     0
  0
ATTDEF
  5
1B2
330
1A9
100
AcDbEntity
  8
AM_6
100
AcDbText
 10
8.493300000000001
 20
0.9933000000000005
 30
0.0
 40
0.5
  1
3-15/16
100
AcDbAttributeDefinition
  3

  2
SS
 70
     8
280
     0
  0
ATTDEF
  5
1B3
330
1A9
100
AcDbEntity
  8
AM_6
100
AcDbText
 10
8.493300000000001
 20
0.4933000000000005
 30
0.0
 40
0.5
  1
3.937500
100
AcDbAttributeDefinition
  3

  2
SS1
 70
     8
280
     0
  0
ATTDEF
  5
1B4
330
1A9
100
AcDbEntity
  8
AM_6
100
AcDbText
 10
8.493300000000001
 20
-0.0066999999999995
 30
0.0
 40
0.5
  1
070906
100
AcDbAttributeDefinition
  3

  2
PN
 70
     8
280
     0
  0
ATTDEF
  5
1B5
330
1A9
100
AcDbEntity
  8
AM_6
100
AcDbText
 10
8.493300000000001
 20
-0.5066999999999995
 30
0.0
 40
0.5
  1
INS-IP-315R
100
AcDbAttributeDefinition
  3

  2
DESCRIPTION
 70
     8
280
     0
  0
ATTDEF
  5
1B6
330
1A9
100
AcDbEntity
  8
AM_6
100
AcDbText
 10
8.493300000000001
 20
-1.006699999999999
 30
0.0
 40
0.5
  1
Contact Seal
100
AcDbAttributeDefinition
  3

  2
ST
 70
     8
280
     0
  0
ATTDEF
  5
1B7
330
1A9
100
AcDbEntity
  8
AM_6
100
AcDbText
 10
8.493300000000001
 20
-1.506699999999999
 30
0.0
 40
0.5
  1
7.0866
100
AcDbAttributeDefinition
  3

  2
A
 70
     8
280
     0
  0
ATTDEF
  5
1B8
330
1A9
100
AcDbEntity
  8
AM_6
100
AcDbText
 10
8.493300000000001
 20
-2.006699999999999
 30
0.0
 40
0.5
  1
1-7/8
100
AcDbAttributeDefinition
  3

  2
B
 70
     8
280
     0
  0
ATTDEF
  5
1B9
330
1A9
100
AcDbEntity
  8
AM_6
100
AcDbText
 10
8.493300000000001
 20
-2.506699999999999
 30
0.0
 40
0.5
  1
4-45/64
100
AcDbAttributeDefinition
  3

  2
C
 70
     8
280
     0
  0
ATTDEF
  5
1BA
330
1A9
100
AcDbEntity
  8
AM_6
100
AcDbText
 10
8.493300000000001
 20
-3.006699999999999
 30
0.0
 40
0.5
  1
1.646
100
AcDbAttributeDefinition
  3

  2
D
 70
     8
280
     0
  0
ATTDEF
  5
1BB
330
1A9
100
AcDbEntity
  8
AM_6
100
AcDbText
 10
8.493300000000001
 20
-3.506699999999999
 30
0.0
 40
0.5
  1
5-9/16
100
AcDbAttributeDefinition
  3

  2
E
 70
     8
280
     0
  0
ATTDEF
  5
1BC
330
1A9
100
AcDbEntity
  8
AM_6
100
AcDbText
 10
8.493300000000001
 20
-4.006699999999999
 30
0.0
 40
0.5
  1
0.2500
100
AcDbAttributeDefinition
  3

  2
NDM
 70
     8
280
     0
  0
ATTDEF
  5
1BD
330
1A9
100
AcDbEntity
  8
AM_6
100
AcDbText
 10
8.493300000000001
 20
-4.506699999999999
 30
0.0
 40
0.5
  1
0.132
100
AcDbAttributeDefinition
  3

  2
H
 70
     8
280
     0
  0
ATTDEF
  5
1BE
330
1A9
100
AcDbEntity
  8
AM_6
100
AcDbText
 10
8.493300000000001
 20
-5.006699999999999
 30
0.0
 40
0.5
  1
0.1960
100
AcDbAttributeDefinition
  3

  2
KDM
 70
     8
280
     0
  0
ATTDEF
  5
1BF
330
1A9
100
AcDbEntity
  8
AM_6
100
AcDbText
 10
8.493300000000001
 20
-5.506699999999999
 30
0.0
 40
0.5
  1
4.83
100
AcDbAttributeDefinition
  3

  2
AL
 70
     8
280
     0
  0
ATTDEF
  5
1C0
330
1A9
100
AcDbEntity
  8
AM_6
100
AcDbText
 10
8.493300000000001
 20
-6.006699999999999
 30
0.0
 40
0.5
  1
0.50
100
AcDbAttributeDefinition
  3

  2
BL
 70
     8
280
     0
  0
ATTDEF
  5
1C1
330
1A9
100
AcDbEntity
  8
AM_6
100
AcDbText
 10
8.493300000000001
 20
-6.506699999999999
 30
0.0
 40
0.5
  1
0.07
100
AcDbAttributeDefinition
  3

  2
CL
 70
     8
280
     0
  0
ATTDEF
  5
1C2
330
1A9
100
AcDbEntity
  8
AM_6
100
AcDbText
 10
8.493300000000001
 20
-7.006699999999999
 30
0.0
 40
0.5
  1
0.50
100
AcDbAttributeDefinition
  3

  2
DL
 70
     8
280
     0
  0
ATTDEF
  5
1C3
330
1A9
100
AcDbEntity
  8
AM_6
100
AcDbText
 10
8.493300000000001
 20
-7.506699999999999
 30
0.0
 40
0.5
  1
0.8000
100
AcDbAttributeDefinition
  3

  2
LL
 70
     8
280
     0
  0
ATTDEF
  5
1C4
330
1A9
100
AcDbEntity
  8
AM_6
100
AcDbText
 10
8.493300000000001
 20
-8.006699999999999
 30
0.0
 40
0.5
  1
0.025
100
AcDbAttributeDefinition
  3

  2
Y
 70
     8
280
     0
  0
ATTDEF
  5
1C5
330
1A9
100
AcDbEntity
  8
AM_6
100
AcDbText
 10
8.493300000000001
 20
-8.506699999999999
 30
0.0
 40
0.5
  1
0.025000
100
AcDbAttributeDefinition
  3

  2
Y1
 70
     8
280
     0
  0
ATTDEF
  5
1C6
330
1A9
100
AcDbEntity
  8
AM_6
100
AcDbText
 10
8.493300000000001
 20
-9.006699999999999
 30
0.0
 40
0.5
  1
4-1/2
100
AcDbAttributeDefinition
  3

  2
Z
 70
     8
280
     0
  0
ATTDEF
  5
1C7
330
1A9
100
AcDbEntity
  8
AM_6
100
AcDbText
 10
8.493300000000001
 20
-9.506699999999999
 30
0.0
 40
0.5
  1
4.500000
100
AcDbAttributeDefinition
  3

  2
Z1
 70
     8
280
     0
  0
ATTDEF
  5
1C8
330
1A9
100
AcDbEntity
  8
AM_6
100
AcDbText
 10
8.493300000000001
 20
-10.0067
 30
0.0
 40
0.5
  1
baldor
100
AcDbAttributeDefinition
  3

  2
COMPANY
 70
     8
280
     0
  0
CIRCLE
  5
1C9
330
1A9
100
AcDbEntity
  8
AM_9
100
AcDbCircle
 10
0.0
 20
0.0
 30
0.0
 40
2.25
  0
CIRCLE
  5
1CA
330
1A9
100
AcDbEntity
  8
AM_9
100
AcDbCircle
 10
0.0
 20
0.0
 30
0.0
 40
2.442307692307692
  0
CIRCLE
  5
1CB
330
1A9
100
AcDbEntity
  8
AM_9
100
AcDbCircle
 10
0.0
 20
0.0
 30
0.0
 40
2.5
  0
CIRCLE
  5
1CC
330
1A9
100
AcDbEntity
  8
AM_9
100
AcDbCircle
 10
0.0
 20
0.0
 30
0.0
 40
3.069058622134929
  0
CIRCLE
  5
1CD
330
1A9
100
AcDbEntity
  8
AM_9
100
AcDbCircle
 10
0.0
 20
0.0
 30
0.0
 40
3.155661162513372
  0
CIRCLE
  5
1CE
330
1A9
100
AcDbEntity
  8
AM_9
100
AcDbCircle
 10
0.0
 20
0.0
 30
0.0
 40
3.3433
  0
CIRCLE
  5
1CF
330
1A9
100
AcDbEntity
  8
AM_9
100
AcDbCircle
 10
0.0
 20
0.0
 30
0.0
 40
3.44955
  0
LINE
  5
1D0
330
1A9
100
AcDbEntity
  8
AM_9
100
AcDbLine
 10
1.884439571862149
 20
-1.530886181268876
 30
0.0
 11
2.136652684401853
 21
-1.783099293808579
 31
0.0
  0
LINE
  5
1D1
330
1A9
100
AcDbEntity
  8
AM_9
100
AcDbLine
 10
2.136652684401853
 20
1.783099293808579
 30
0.0
 11
1.884439571862149
 21
1.530886181268875
 31
0.0
  0
LINE
  5
1D2
330
1A9
100
AcDbEntity
  8
AM_9
100
AcDbLine
 10
1.783099293808579
 20
-2.136652684401853
 30
0.0
 11
1.530886181268875
 21
-1.884439571862149
 31
0.0
  0
LINE
  5
1D3
330
1A9
100
AcDbEntity
  8
AM_9
100
AcDbLine
 10
-1.530886181268876
 20
-1.884439571862149
 30
0.0
 11
-1.783099293808579
 21
-2.136652684401852
 31
0.0
  0
LINE
  5
1D4
330
1A9
100
AcDbEntity
  8
AM_9
100
AcDbLine
 10
-1.884439571862149
 20
1.530886181268876
 30
0.0
 11
-2.136652684401852
 21
1.783099293808579
 31
0.0
  0
LINE
  5
1D5
330
1A9
100
AcDbEntity
  8
AM_9
100
AcDbLine
 10
-2.136652684401853
 20
-1.783099293808579
 30
0.0
 11
-1.884439571862149
 21
-1.530886181268875
 31
0.0
  0
CIRCLE
  5
1D6
330
1A9
100
AcDbEntity
  8
AM_9
100
AcDbCircle
 10
0.0
 20
2.484375
 30
0.0
 40
0.09795
  0
CIRCLE
  5
1D7
330
1A9
100
AcDbEntity
  8
AM_9
100
AcDbCircle
 10
0.0
 20
-2.484375
 30
0.0
 40
0.09795
  0
LINE
  5
1D8
330
1A9
100
AcDbEntity
  8
AM_9
100
AcDbLine
 10
1.530886181268876
 20
1.884439571862148
 30
0.0
 11
1.78309929380858
 21
2.136652684401852
 31
0.0
  0
LINE
  5
1D9
330
1A9
100
AcDbEntity
  8
AM_9
100
AcDbLine
 10
-1.783099293808579
 20
2.136652684401853
 30
0.0
 11
-1.530886181268875
 21
1.884439571862149
 31
0.0
  0
LINE
  5
1DA
330
1A9
100
AcDbEntity
  8
AM_9
100
AcDbLine
 10
-1.796051224213831
 20
1.619274528917194
 30
0.0
 11
-1.884439571862149
 21
1.530886181268876
 31
0.0
  0
LINE
  5
1DB
330
1A9
100
AcDbEntity
  8
AM_9
100
AcDbLine
 10
-1.530886181268875
 20
1.884439571862149
 30
0.0
 11
-1.619274528917194
 21
1.79605122421383
 31
0.0
  0
ARC
  5
1DC
330
1A9
100
AcDbEntity
  8
AM_9
100
AcDbCircle
 10
-0.0000000000000004
 20
0.0000000000000006
 30
0.0
 40
2.732965561259649
100
AcDbArc
 50
140.2485100253665
 51
219.7514899746335
  0
LINE
  5
1DD
330
1A9
100
AcDbEntity
  8
AM_9
100
AcDbLine
 10
-1.619274528917193
 20
-1.796051224213832
 30
0.0
 11
-1.530886181268876
 21
-1.884439571862149
 31
0.0
  0
LINE
  5
1DE
330
1A9
100
AcDbEntity
  8
AM_9
100
AcDbLine
 10
-1.884439571862149
 20
-1.530886181268875
 30
0.0
 11
-1.79605122421383
 21
-1.619274528917195
 31
0.0
  0
ARC
  5
1DF
330
1A9
100
AcDbEntity
  8
AM_9
100
AcDbCircle
 10
-0.0000000000000006
 20
-0.0000000000000004
 30
0.0
 40
2.732965561259649
100
AcDbArc
 50
230.2485100253665
 51
309.7514899746336
  0
LINE
  5
1E0
330
1A9
100
AcDbEntity
  8
AM_9
100
AcDbLine
 10
1.796051224213831
 20
-1.619274528917193
 30
0.0
 11
1.884439571862149
 21
-1.530886181268876
 31
0.0
  0
LINE
  5
1E1
330
1A9
100
AcDbEntity
  8
AM_9
100
AcDbLine
 10
1.530886181268875
 20
-1.884439571862149
 30
0.0
 11
1.619274528917194
 21
-1.79605122421383
 31
0.0
  0
ARC
  5
1E2
330
1A9
100
AcDbEntity
  8
AM_9
100
AcDbCircle
 10
0.0000000000000004
 20
-0.0000000000000007
 30
0.0
 40
2.732965561259649
100
AcDbArc
 50
320.2485100253664
 51
39.75148997463354
  0
LINE
  5
1E3
330
1A9
100
AcDbEntity
  8
AM_9
100
AcDbLine
 10
1.619274528917193
 20
1.796051224213832
 30
0.0
 11
1.530886181268876
 21
1.884439571862148
 31
0.0
  0
LINE
  5
1E4
330
1A9
100
AcDbEntity
  8
AM_9
100
AcDbLine
 10
1.884439571862149
 20
1.530886181268875
 30
0.0
 11
1.796051224213831
 21
1.619274528917194
 31
0.0
  0
ARC
  5
1E5
330
1A9
100
AcDbEntity
  8
AM_9
100
AcDbCircle
 10
-0.0000000000000255
 20
0.0000000000000713
 30
0.0
 40
2.077836411609423
100
AcDbArc
 50
109.0510762061716
 51
115.9489237938286
  0
ARC
  5
1E6
330
1A9
100
AcDbEntity
  8
AM_9
100
AcDbCircle
 10
0.0000000000000002
 20
-0.0000000000000009
 30
0.0
 40
2.73296556125965
100
AcDbArc
 50
50.24851002536647
 51
129.7514899746335
  0
ARC
  5
1E7
330
1A9
100
AcDbEntity
  8
AM_5
100
AcDbCircle
 10
0.0000000000000004
 20
2.484375
 30
0.0
 40
0.1250000000000001
100
AcDbArc
 50
75.0000000000001
 51
14.99999999999994
  0
CIRCLE
  5
1E8
330
1A9
100
AcDbEntity
  8
AM_4
100
AcDbCircle
 10
0.0
 20
0.0
 30
0.0
 40
3.493300000000001
  0
LINE
  5
1E9
330
1A9
100
AcDbEntity
  8
AM_4
100
AcDbLine
 10
-2.136652684401852
 20
1.783099293808579
 30
0.0
 11
-2.147852520535789
 21
1.794299129942517
 31
0.0
  0
LINE
  5
1EA
330
1A9
100
AcDbEntity
  8
AM_4
100
AcDbLine
 10
-1.794299129942516
 20
2.147852520535789
 30
0.0
 11
-1.783099293808579
 21
2.136652684401853
 31
0.0
  0
LINE
  5
1EB
330
1A9
100
AcDbEntity
  8
AM_4
100
AcDbLine
 10
2.136652684401853
 20
-1.783099293808579
 30
0.0
 11
2.147852520535789
 21
-1.794299129942517
 31
0.0
  0
LINE
  5
1EC
330
1A9
100
AcDbEntity
  8
AM_4
100
AcDbLine
 10
1.794299129942516
 20
-2.147852520535789
 30
0.0
 11
1.783099293808579
 21
-2.136652684401853
 31
0.0
  0
LINE
  5
1ED
330
1A9
100
AcDbEntity
  8
AM_4
100
AcDbLine
 10
1.78309929380858
 20
2.136652684401852
 30
0.0
 11
1.794299129942517
 21
2.147852520535789
 31
0.0
  0
LINE
  5
1EE
330
1A9
100
AcDbEntity
  8
AM_4
100
AcDbLine
 10
-1.783099293808579
 20
-2.136652684401852
 30
0.0
 11
-1.794299129942517
 21
-2.147852520535789
 31
0.0
  0
LINE
  5
1EF
330
1A9
100
AcDbEntity
  8
AM_4
100
AcDbLine
 10
2.14785252053579
 20
1.794299129942516
 30
0.0
 11
2.136652684401853
 21
1.783099293808579
 31
0.0
  0
LINE
  5
1F0
330
1A9
100
AcDbEntity
  8
AM_4
100
AcDbLine
 10
-2.14785252053579
 20
-1.794299129942516
 30
0.0
 11
-2.136652684401853
 21
-1.783099293808579
 31
0.0
  0
CIRCLE
  5
1F1
330
1A9
100
AcDbEntity
  8
AM_4
100
AcDbCircle
 10
0.0
 20
0.0
 30
0.0
 40
2.843244551072289
  0
ARC
  5
1F2
330
1A9
100
AcDbEntity
  8
AM_4
100
AcDbCircle
 10
0.0000000000000522
 20
-0.0000000000000462
 30
0.0
 40
2.798710384745807
100
AcDbArc
 50
309.8751171869936
 51
320.1248828130062
  0
ARC
  5
1F3
330
1A9
100
AcDbEntity
  8
AM_4
100
AcDbCircle
 10
0.0000000000000395
 20
0.0000000000000362
 30
0.0
 40
2.79871038474593
100
AcDbArc
 50
219.8751171869939
 51
230.124882813006
  0
ARC
  5
1F4
330
1A9
100
AcDbEntity
  8
AM_4
100
AcDbCircle
 10
-0.0000000000000113
 20
0.000000000000004
 30
0.0
 40
2.798710384745866
100
AcDbArc
 50
129.8751171869937
 51
140.1248828130061
  0
ARC
  5
1F5
330
1A9
100
AcDbEntity
  8
AM_4
100
AcDbCircle
 10
-0.0000000000000751
 20
-0.0000000000000737
 30
0.0
 40
2.798710384745982
100
AcDbArc
 50
39.87511718699401
 51
50.12488281300591
  0
ARC
  5
1F6
330
1A9
100
AcDbEntity
  8
AM_4
100
AcDbCircle
 10
-0.0000000000000009
 20
0.0
 30
0.0
 40
2.782935102610606
100
AcDbArc
 50
320.1540119949408
 51
39.84598800505921
  0
ARC
  5
1F7
330
1A9
100
AcDbEntity
  8
AM_4
100
AcDbCircle
 10
0.0000000000000001
 20
-0.0000000000000004
 30
0.0
 40
2.782935102610604
100
AcDbArc
 50
230.1540119949408
 51
309.8459880050592
  0
ARC
  5
1F8
330
1A9
100
AcDbEntity
  8
AM_4
100
AcDbCircle
 10
0.0
 20
0.0
 30
0.0
 40
2.782935102610605
100
AcDbArc
 50
140.1540119949408
 51
219.8459880050592
  0
LINE
  5
1F9
330
1A9
100
AcDbEntity
  8
AM_4
100
AcDbLine
 10
-1.619274528917194
 20
1.79605122421383
 30
0.0
 11
-1.796051224213831
 21
1.619274528917194
 31
0.0
  0
LINE
  5
1FA
330
1A9
100
AcDbEntity
  8
AM_4
100
AcDbLine
 10
-1.79605122421383
 20
-1.619274528917195
 30
0.0
 11
-1.619274528917193
 21
-1.796051224213832
 31
0.0
  0
LINE
  5
1FB
330
1A9
100
AcDbEntity
  8
AM_4
100
AcDbLine
 10
1.619274528917194
 20
-1.79605122421383
 30
0.0
 11
1.796051224213831
 21
-1.619274528917193
 31
0.0
  0
LINE
  5
1FC
330
1A9
100
AcDbEntity
  8
AM_4
100
AcDbLine
 10
1.796051224213831
 20
1.619274528917194
 30
0.0
 11
1.619274528917193
 21
1.796051224213832
 31
0.0
  0
ARC
  5
1FD
330
1A9
100
AcDbEntity
  8
AM_4
100
AcDbCircle
 10
0.0000000000000002
 20
-0.0000000000000009
 30
0.0
 40
2.782935102610606
100
AcDbArc
 50
50.15401199494077
 51
129.8459880050592
  0
ARC
  5
1FE
330
1A9
100
AcDbEntity
  8
AM_4
100
AcDbCircle
 10
0.0000000000000034
 20
0.0000000000000014
 30
0.0
 40
2.072368421052632
100
AcDbArc
 50
115.9580349074594
 51
109.0419650925408
  0
ARC
  5
1FF
330
1A9
100
AcDbEntity
  8
AM_4
100
AcDbCircle
 10
-0.0000000000000012
 20
-0.0000000000000003
 30
0.0
 40
1.96875
100
AcDbArc
 50
116.1402758756152
 51
108.8597241243847
  0
LINE
  5
200
330
1A9
100
AcDbEntity
  8
AM_4
100
AcDbLine
 10
-0.6364029473171927
 20
1.863053367766471
 30
0.0
 11
-0.6761321485743731
 21
1.958968144263806
 31
0.0
  0
LINE
  5
201
330
1A9
100
AcDbEntity
  8
AM_4
100
AcDbLine
 10
-0.9071020317021946
 20
1.863297286172533
 30
0.0
 11
-0.8673728304450147
 21
1.767382509675199
 31
0.0
  0
ARC
  5
202
330
1A9
100
AcDbEntity
  8
AM_5
100
AcDbCircle
 10
0.0000000000000003
 20
2.484375
 30
0.0
 40
0.1250000000000001
100
AcDbArc
 50
165.0000000000003
 51
105.0000000000002
  0
ARC
  5
203
330
1A9
100
AcDbEntity
  8
AM_5
100
AcDbCircle
 10
0.0000000000000003
 20
-2.484375
 30
0.0
 40
0.1250000000000001
100
AcDbArc
 50
165.0000000000003
 51
105.0000000000002
  0
ARC
  5
204
330
1A9
100
AcDbEntity
  8
AM_5
100
AcDbCircle
 10
0.0000000000000002
 20
2.484375
 30
0.0
 40
0.1250000000000002
100
AcDbArc
 50
105.0000000000001
 51
15.0
  0
ARC
  5
205
330
1A9
100
AcDbEntity
  8
AM_5
100
AcDbCircle
 10
0.0000000000000002
 20
-2.484375
 30
0.0
 40
0.1250000000000002
100
AcDbArc
 50
105.0000000000001
 51
15.0
  0
ENDBLK
  5
1AC
330
1A9
100
AcDbEntity
  8
0
100
AcDbBlockEnd
  0
BLOCK
  5
208
330
206
100
AcDbEntity
  8
0
100
AcDbBlockBegin
  2
8_B072382_0_in_072382_0
 70
     2
 10
0.0
 20
0.0
 30
0.0
  3
8_B072382_0_in_072382_0
  1

  0
ATTDEF
  5
20A
330
206
100
AcDbEntity
  8
AM_6
100
AcDbText
 10
10.43999999999999
 20
5.439999999999998
 30
0.0
 40
0.5
  1
SFCN-207-408-(Contact Seal)-Housing
100
AcDbAttributeDefinition
  3

  2
NN
 70
     8
280
     0
  0
ATTDEF
  5
20B
330
206
100
AcDbEntity
  8
AM_6
100
AcDbText
 10
10.43999999999999
 20
4.939999999999998
 30
0.0
 40
0.5
  1
Steal Heavy Duty Imperial Piloted Flange Bearing-Inch-207-408
100
AcDbAttributeDefinition
  3

  2
NT
 70
     8
280
     0
  0
ATTDEF
  5
20C
330
206
100
AcDbEntity
  8
AM_6
100
AcDbText
 10
10.43999999999999
 20
4.439999999999998
 30
0.0
 40
0.5
  1
B072382
100
AcDbAttributeDefinition
  3

  2
NB
 70
     8
280
     0
  0
ATTDEF
  5
20D
330
206
100
AcDbEntity
  8
AM_6
100
AcDbText
 10
10.43999999999999
 20
3.939999999999998
 30
0.0
 40
0.5
  1
$PN.
100
AcDbAttributeDefinition
  3

  2
NBSYN
 70
     8
280
     0
  0
ATTDEF
  5
20E
330
206
100
AcDbEntity
  8
AM_6
100
AcDbText
 10
10.43999999999999
 20
3.439999999999998
 30
0.0
 40
0.5
  1
B072382
100
AcDbAttributeDefinition
  3

  2
LINA
 70
     8
280
     0
  0
ATTDEF
  5
20F
330
206
100
AcDbEntity
  8
AM_6
100
AcDbText
 10
10.43999999999999
 20
2.939999999999998
 30
0.0
 40
0.5
  1
3-15/16
100
AcDbAttributeDefinition
  3

  2
SS
 70
     8
280
     0
  0
ATTDEF
  5
210
330
206
100
AcDbEntity
  8
AM_6
100
AcDbText
 10
10.43999999999999
 20
2.439999999999998
 30
0.0
 40
0.5
  1
3.93750
100
AcDbAttributeDefinition
  3

  2
SS1
 70
     8
280
     0
  0
ATTDEF
  5
211
330
206
100
AcDbEntity
  8
AM_6
100
AcDbText
 10
10.43999999999999
 20
1.939999999999998
 30
0.0
 40
0.5
  1
072358
100
AcDbAttributeDefinition
  3

  2
PN1
 70
     8
280
     0
  0
ATTDEF
  5
212
330
206
100
AcDbEntity
  8
AM_6
100
AcDbText
 10
10.43999999999999
 20
1.439999999999998
 30
0.0
 40
0.5
  1
072382
100
AcDbAttributeDefinition
  3

  2
PN2
 70
     8
280
     0
  0
ATTDEF
  5
213
330
206
100
AcDbEntity
  8
AM_6
100
AcDbText
 10
10.43999999999999
 20
0.9399999999999977
 30
0.0
 40
0.5
  1
Expansion
100
AcDbAttributeDefinition
  3

  2
TYPE
 70
     8
280
     0
  0
ATTDEF
  5
214
330
206
100
AcDbEntity
  8
AM_6
100
AcDbText
 10
10.43999999999999
 20
0.4399999999999977
 30
0.0
 40
0.5
  1
Contact Seal
100
AcDbAttributeDefinition
  3

  2
ST
 70
     8
280
     0
  0
ATTDEF
  5
215
330
206
100
AcDbEntity
  8
AM_6
100
AcDbText
 10
10.43999999999999
 20
-0.0600000000000023
 30
0.0
 40
0.5
  1
SFCN-IP-315R
100
AcDbAttributeDefinition
  3

  2
DESCRIPTIONS
 70
     8
280
     0
  0
ATTDEF
  5
216
330
206
100
AcDbEntity
  8
AM_6
100
AcDbText
 10
10.43999999999999
 20
-0.5600000000000023
 30
0.0
 40
0.5
  1
4.70
100
AcDbAttributeDefinition
  3

  2
A
 70
     8
280
     0
  0
ATTDEF
  5
217
330
206
100
AcDbEntity
  8
AM_6
100
AcDbText
 10
10.43999999999999
 20
-1.060000000000002
 30
0.0
 40
0.5
  1
4.700
100
AcDbAttributeDefinition
  3

  2
A1
 70
     8
280
     0
  0
ATTDEF
  5
218
330
206
100
AcDbEntity
  8
AM_6
100
AcDbText
 10
10.43999999999999
 20
-1.560000000000002
 30
0.0
 40
0.5
  1
10.88
100
AcDbAttributeDefinition
  3

  2
B
 70
     8
280
     0
  0
ATTDEF
  5
219
330
206
100
AcDbEntity
  8
AM_6
100
AcDbText
 10
10.43999999999999
 20
-2.060000000000002
 30
0.0
 40
0.5
  1
10.8800
100
AcDbAttributeDefinition
  3

  2
B1
 70
     8
280
     0
  0
ATTDEF
  5
21A
330
206
100
AcDbEntity
  8
AM_6
100
AcDbText
 10
10.43999999999999
 20
-2.560000000000002
 30
0.0
 40
0.5
  1
3.61
100
AcDbAttributeDefinition
  3

  2
C
 70
     8
280
     0
  0
ATTDEF
  5
21B
330
206
100
AcDbEntity
  8
AM_6
100
AcDbText
 10
10.43999999999999
 20
-3.060000000000002
 30
0.0
 40
0.5
  1
3.6100
100
AcDbAttributeDefinition
  3

  2
C1
 70
     8
280
     0
  0
ATTDEF
  5
21C
330
206
100
AcDbEntity
  8
AM_6
100
AcDbText
 10
10.43999999999999
 20
-3.560000000000002
 30
0.0
 40
0.5
  1
6.63
100
AcDbAttributeDefinition
  3

  2
D
 70
     8
280
     0
  0
ATTDEF
  5
21D
330
206
100
AcDbEntity
  8
AM_6
100
AcDbText
 10
10.43999999999999
 20
-4.060000000000002
 30
0.0
 40
0.5
  1
6.6300
100
AcDbAttributeDefinition
  3

  2
D1
 70
     8
280
     0
  0
ATTDEF
  5
21E
330
206
100
AcDbEntity
  8
AM_6
100
AcDbText
 10
10.43999999999999
 20
-4.560000000000002
 30
0.0
 40
0.5
  1
9.380
100
AcDbAttributeDefinition
  3

  2
DD
 70
     8
280
     0
  0
ATTDEF
  5
21F
330
206
100
AcDbEntity
  8
AM_6
100
AcDbText
 10
10.43999999999999
 20
-5.060000000000002
 30
0.0
 40
0.5
  1
9.3800
100
AcDbAttributeDefinition
  3

  2
DD1
 70
     8
280
     0
  0
ATTDEF
  5
220
330
206
100
AcDbEntity
  8
AM_6
100
AcDbText
 10
10.43999999999999
 20
-5.560000000000002
 30
0.0
 40
0.5
  1
0.0000
100
AcDbAttributeDefinition
  3

  2
E
 70
     8
280
     0
  0
ATTDEF
  5
221
330
206
100
AcDbEntity
  8
AM_6
100
AcDbText
 10
10.43999999999999
 20
-6.060000000000002
 30
0.0
 40
0.5
  1
0.0000
100
AcDbAttributeDefinition
  3

  2
E1
 70
     8
280
     0
  0
ATTDEF
  5
222
330
206
100
AcDbEntity
  8
AM_6
100
AcDbText
 10
10.43999999999999
 20
-6.560000000000002
 30
0.0
 40
0.5
  1
0.7500
100
AcDbAttributeDefinition
  3

  2
F
 70
     8
280
     0
  0
ATTDEF
  5
223
330
206
100
AcDbEntity
  8
AM_6
100
AcDbText
 10
10.43999999999999
 20
-7.060000000000002
 30
0.0
 40
0.5
  1
0.75000
100
AcDbAttributeDefinition
  3

  2
F1
 70
     8
280
     0
  0
ATTDEF
  5
224
330
206
100
AcDbEntity
  8
AM_6
100
AcDbText
 10
10.43999999999999
 20
-7.560000000000002
 30
0.0
 40
0.5
  1
2.82
100
AcDbAttributeDefinition
  3

  2
G
 70
     8
280
     0
  0
ATTDEF
  5
225
330
206
100
AcDbEntity
  8
AM_6
100
AcDbText
 10
10.43999999999999
 20
-8.060000000000002
 30
0.0
 40
0.5
  1
2.82
100
AcDbAttributeDefinition
  3

  2
G1
 70
     8
280
     0
  0
ATTDEF
  5
226
330
206
100
AcDbEntity
  8
AM_6
100
AcDbText
 10
10.43999999999999
 20
-8.560000000000002
 30
0.0
 40
0.5
  1
1.01
100
AcDbAttributeDefinition
  3

  2
H
 70
     8
280
     0
  0
ATTDEF
  5
227
330
206
100
AcDbEntity
  8
AM_6
100
AcDbText
 10
10.43999999999999
 20
-9.060000000000002
 30
0.0
 40
0.5
  1
1.01
100
AcDbAttributeDefinition
  3

  2
H1
 70
     8
280
     0
  0
ATTDEF
  5
228
330
206
100
AcDbEntity
  8
AM_6
100
AcDbText
 10
10.43999999999999
 20
-9.560000000000002
 30
0.0
 40
0.5
  1
8.125
100
AcDbAttributeDefinition
  3

  2
K
 70
     8
280
     0
  0
ATTDEF
  5
229
330
206
100
AcDbEntity
  8
AM_6
100
AcDbText
 10
10.43999999999999
 20
-10.06
 30
0.0
 40
0.5
  1
8.125
100
AcDbAttributeDefinition
  3

  2
K1
 70
     8
280
     0
  0
ATTDEF
  5
22A
330
206
100
AcDbEntity
  8
AM_6
100
AcDbText
 10
10.43999999999999
 20
-10.56
 30
0.0
 40
0.5
  1
5.45
100
AcDbAttributeDefinition
  3

  2
L
 70
     8
280
     0
  0
ATTDEF
  5
22B
330
206
100
AcDbEntity
  8
AM_6
100
AcDbText
 10
10.43999999999999
 20
-11.06
 30
0.0
 40
0.5
  1
5.44
100
AcDbAttributeDefinition
  3

  2
L1
 70
     8
280
     0
  0
ATTDEF
  5
22C
330
206
100
AcDbEntity
  8
AM_6
100
AcDbText
 10
10.43999999999999
 20
-11.56
 30
0.0
 40
0.5
  1
0.7500
100
AcDbAttributeDefinition
  3

  2
M
 70
     8
280
     0
  0
ATTDEF
  5
22D
330
206
100
AcDbEntity
  8
AM_6
100
AcDbText
 10
10.43999999999999
 20
-12.06
 30
0.0
 40
0.5
  1
0.7500
100
AcDbAttributeDefinition
  3

  2
M1
 70
     8
280
     0
  0
ATTDEF
  5
22E
330
206
100
AcDbEntity
  8
AM_6
100
AcDbText
 10
10.43999999999999
 20
-12.56
 30
0.0
 40
0.5
  1
4.95
100
AcDbAttributeDefinition
  3

  2
N
 70
     8
280
     0
  0
ATTDEF
  5
22F
330
206
100
AcDbEntity
  8
AM_6
100
AcDbText
 10
10.43999999999999
 20
-13.06
 30
0.0
 40
0.5
  1
4.95
100
AcDbAttributeDefinition
  3

  2
N1
 70
     8
280
     0
  0
ATTDEF
  5
230
330
206
100
AcDbEntity
  8
AM_6
100
AcDbText
 10
10.43999999999999
 20
-13.56
 30
0.0
 40
0.5
  1
2.57
100
AcDbAttributeDefinition
  3

  2
P
 70
     8
280
     0
  0
ATTDEF
  5
231
330
206
100
AcDbEntity
  8
AM_6
100
AcDbText
 10
10.43999999999999
 20
-14.06
 30
0.0
 40
0.5
  1
2.57
100
AcDbAttributeDefinition
  3

  2
P1
 70
     8
280
     0
  0
ATTDEF
  5
232
330
206
100
AcDbEntity
  8
AM_6
100
AcDbText
 10
10.43999999999999
 20
-14.56
 30
0.0
 40
0.5
  1
2.13
100
AcDbAttributeDefinition
  3

  2
Q
 70
     8
280
     0
  0
ATTDEF
  5
233
330
206
100
AcDbEntity
  8
AM_6
100
AcDbText
 10
10.43999999999999
 20
-15.06
 30
0.0
 40
0.5
  1
2.13
100
AcDbAttributeDefinition
  3

  2
Q1
 70
     8
280
     0
  0
ATTDEF
  5
234
330
206
100
AcDbEntity
  8
AM_6
100
AcDbText
 10
10.43999999999999
 20
-15.56
 30
0.0
 40
0.5
  1
0.31
100
AcDbAttributeDefinition
  3

  2
X
 70
     8
280
     0
  0
ATTDEF
  5
235
330
206
100
AcDbEntity
  8
AM_6
100
AcDbText
 10
10.43999999999999
 20
-16.06
 30
0.0
 40
0.5
  1
0.31
100
AcDbAttributeDefinition
  3

  2
X1
 70
     8
280
     0
  0
ATTDEF
  5
236
330
206
100
AcDbEntity
  8
AM_6
100
AcDbText
 10
10.43999999999999
 20
-16.56
 30
0.0
 40
0.5
  1
0.250
100
AcDbAttributeDefinition
  3

  2
Y
 70
     8
280
     0
  0
ATTDEF
  5
237
330
206
100
AcDbEntity
  8
AM_6
100
AcDbText
 10
10.43999999999999
 20
-17.06
 30
0.0
 40
0.5
  1
0.250
100
AcDbAttributeDefinition
  3

  2
Y1
 70
     8
280
     0
  0
ATTDEF
  5
238
330
206
100
AcDbEntity
  8
AM_6
100
AcDbText
 10
10.43999999999999
 20
-17.56
 30
0.0
 40
0.5
  1
4.50
100
AcDbAttributeDefinition
  3

  2
Z
 70
     8
280
     0
  0
ATTDEF
  5
239
330
206
100
AcDbEntity
  8
AM_6
100
AcDbText
 10
10.43999999999999
 20
-18.06
 30
0.0
 40
0.5
  1
4.50
100
AcDbAttributeDefinition
  3

  2
Z1
 70
     8
280
     0
  0
ATTDEF
  5
23A
330
206
100
AcDbEntity
  8
AM_6
100
AcDbText
 10
10.43999999999999
 20
-18.56
 30
0.0
 40
0.5
  1
7.0866
100
AcDbAttributeDefinition
  3

  2
BORE
 70
     8
280
     0
  0
ATTDEF
  5
23B
330
206
100
AcDbEntity
  8
AM_6
100
AcDbText
 10
10.43999999999999
 20
-19.06
 30
0.0
 40
0.5
  1
0.1423330
100
AcDbAttributeDefinition
  3

  2
O
 70
     8
280
     0
  0
ATTDEF
  5
23C
330
206
100
AcDbEntity
  8
AM_6
100
AcDbText
 10
10.43999999999999
 20
-19.56
 30
0.0
 40
0.5
  1
baldor
100
AcDbAttributeDefinition
  3

  2
COMPANY
 70
     8
280
     0
  0
ARC
  5
23D
330
206
100
AcDbEntity
  8
AM_9
100
AcDbCircle
 10
0.0
 20
0.0000000000000058
 30
0.0
 40
4.062500000000005
100
AcDbArc
 50
255.6044070965425
 51
284.3955929034574
  0
ARC
  5
23E
330
206
100
AcDbEntity
  8
AM_9
100
AcDbCircle
 10
0.0000000000000457
 20
-0.0000000000000422
 30
0.0
 40
4.062499999999939
100
AcDbArc
 50
305.7149972463367
 51
324.2850027536632
  0
ARC
  5
23F
330
206
100
AcDbEntity
  8
AM_9
100
AcDbCircle
 10
0.00000000000002
 20
0.00000000000002
 30
0.0
 40
4.062499999999972
100
AcDbArc
 50
35.71499724633688
 51
54.28500275366309
  0
ARC
  5
240
330
206
100
AcDbEntity
  8
AM_9
100
AcDbCircle
 10
0.0000000000000001
 20
-0.0000000000000329
 30
0.0
 40
4.062500000000033
100
AcDbArc
 50
75.60440709654264
 51
104.3955929034574
  0
ARC
  5
241
330
206
100
AcDbEntity
  8
AM_9
100
AcDbCircle
 10
0.0000000000000213
 20
0.0000000000000002
 30
0.0
 40
4.062500000000012
100
AcDbArc
 50
125.7149972463371
 51
234.2850027536628
  0
ARC
  5
242
330
206
100
AcDbEntity
  8
AM_5
100
AcDbCircle
 10
4.690000000000002
 20
-0.0000000000000002
 30
0.0
 40
0.3750000000000006
100
AcDbArc
 50
75.00000000000023
 51
15.00000000000014
  0
ARC
  5
243
330
206
100
AcDbEntity
  8
AM_5
100
AcDbCircle
 10
-4.690000000000001
 20
-0.0000000000000003
 30
0.0
 40
0.3750000000000007
100
AcDbArc
 50
74.99999999999994
 51
14.99999999999997
  0
LINE
  5
244
330
206
100
AcDbEntity
  8
AM_7
100
AcDbLine
 10
4.353107500000001
 20
0.0
 30
0.0
 11
5.0268925
 21
0.0
 31
0.0
  0
LINE
  5
245
330
206
100
AcDbEntity
  8
AM_7
100
AcDbLine
 10
4.69
 20
-0.3368924999999994
 30
0.0
 11
4.69
 21
0.3368924999999994
 31
0.0
  0
LINE
  5
246
330
206
100
AcDbEntity
  8
AM_7
100
AcDbLine
 10
-5.026892500000001
 20
0.0
 30
0.0
 11
-4.3531075
 21
0.0
 31
0.0
  0
LINE
  5
247
330
206
100
AcDbEntity
  8
AM_7
100
AcDbLine
 10
-4.69
 20
-0.3368925000000005
 30
0.0
 11
-4.69
 21
0.3368925000000005
 31
0.0
  0
LINE
  5
248
330
206
100
AcDbEntity
  8
AM_7
100
AcDbLine
 10
2.922580803764908
 20
3.316330803764908
 30
0.0
 11
3.710080803764908
 21
3.316330803764908
 31
0.0
  0
LINE
  5
249
330
206
100
AcDbEntity
  8
AM_7
100
AcDbLine
 10
3.316330803764908
 20
2.922580803764908
 30
0.0
 11
3.316330803764908
 21
3.710080803764908
 31
0.0
  0
LINE
  5
24A
330
206
100
AcDbEntity
  8
AM_7
100
AcDbLine
 10
-3.710080803764908
 20
-3.316330803764908
 30
0.0
 11
-2.922580803764908
 21
-3.316330803764908
 31
0.0
  0
LINE
  5
24B
330
206
100
AcDbEntity
  8
AM_7
100
AcDbLine
 10
-3.316330803764908
 20
-3.710080803764908
 30
0.0
 11
-3.316330803764908
 21
-2.922580803764908
 31
0.0
  0
LINE
  5
24C
330
206
100
AcDbEntity
  8
AM_7
100
AcDbLine
 10
-3.710080803764908
 20
3.316330803764908
 30
0.0
 11
-2.922580803764908
 21
3.316330803764908
 31
0.0
  0
LINE
  5
24D
330
206
100
AcDbEntity
  8
AM_7
100
AcDbLine
 10
-3.316330803764908
 20
2.922580803764908
 30
0.0
 11
-3.316330803764908
 21
3.710080803764908
 31
0.0
  0
LINE
  5
24E
330
206
100
AcDbEntity
  8
AM_7
100
AcDbLine
 10
2.922580803764908
 20
-3.316330803764908
 30
0.0
 11
3.710080803764908
 21
-3.316330803764908
 31
0.0
  0
LINE
  5
24F
330
206
100
AcDbEntity
  8
AM_7
100
AcDbLine
 10
3.316330803764908
 20
-3.710080803764908
 30
0.0
 11
3.316330803764908
 21
-2.922580803764908
 31
0.0
  0
LINE
  5
250
330
206
100
AcDbEntity
  8
AM_7
100
AcDbLine
 10
-3.720465
 20
0.0
 30
0.0
 11
3.720465
 21
0.0
 31
0.0
  0
LINE
  5
251
330
206
100
AcDbEntity
  8
AM_7
100
AcDbLine
 10
0.0
 20
-3.720465
 30
0.0
 11
0.0
 21
3.720465
 31
0.0
  0
CIRCLE
  5
252
330
206
100
AcDbEntity
  8
AM_4
100
AcDbCircle
 10
4.69
 20
0.0
 30
0.0
 40
0.3208499999999994
  0
CIRCLE
  5
253
330
206
100
AcDbEntity
  8
AM_4
100
AcDbCircle
 10
-4.69
 20
0.0
 30
0.0
 40
0.3208500000000005
  0
CIRCLE
  5
254
330
206
100
AcDbEntity
  8
AM_4
100
AcDbCircle
 10
3.316330803764908
 20
3.316330803764908
 30
0.0
 40
0.3749999999999999
  0
LINE
  5
255
330
206
100
AcDbEntity
  8
AM_4
100
AcDbLine
 10
3.555774213456564
 20
1.964783955786831
 30
0.0
 11
4.466748120477864
 21
3.105118553003646
 31
0.0
  0
LINE
  5
256
330
206
100
AcDbEntity
  8
AM_4
100
AcDbLine
 10
3.105118553003649
 20
4.466748120477863
 30
0.0
 11
1.964783955786833
 21
3.555774213456565
 31
0.0
  0
LINE
  5
257
330
206
100
AcDbEntity
  8
AM_4
100
AcDbLine
 10
-3.555774213456566
 20
-1.964783955786829
 30
0.0
 11
-4.466748120477864
 21
-3.105118553003646
 31
0.0
  0
CIRCLE
  5
258
330
206
100
AcDbEntity
  8
AM_4
100
AcDbCircle
 10
-3.316330803764908
 20
-3.316330803764908
 30
0.0
 40
0.3749999999999999
  0
LINE
  5
259
330
206
100
AcDbEntity
  8
AM_4
100
AcDbLine
 10
-3.105118553003649
 20
-4.466748120477864
 30
0.0
 11
-1.964783955786832
 21
-3.555774213456564
 31
0.0
  0
LINE
  5
25A
330
206
100
AcDbEntity
  8
AM_4
100
AcDbLine
 10
-4.466748120477864
 20
3.105118553003648
 30
0.0
 11
-3.555774213456564
 21
1.964783955786833
 31
0.0
  0
CIRCLE
  5
25B
330
206
100
AcDbEntity
  8
AM_4
100
AcDbCircle
 10
-3.316330803764908
 20
3.316330803764908
 30
0.0
 40
0.3749999999999999
  0
LINE
  5
25C
330
206
100
AcDbEntity
  8
AM_4
100
AcDbLine
 10
-1.964783955786832
 20
3.555774213456566
 30
0.0
 11
-3.105118553003647
 21
4.466748120477864
 31
0.0
  0
CIRCLE
  5
25D
330
206
100
AcDbEntity
  8
AM_4
100
AcDbCircle
 10
3.316330803764908
 20
-3.316330803764908
 30
0.0
 40
0.3749999999999999
  0
LINE
  5
25E
330
206
100
AcDbEntity
  8
AM_4
100
AcDbLine
 10
4.466748120477864
 20
-3.105118553003648
 30
0.0
 11
3.555774213456564
 21
-1.964783955786832
 31
0.0
  0
LINE
  5
25F
330
206
100
AcDbEntity
  8
AM_4
100
AcDbLine
 10
1.964783955786833
 20
-3.555774213456564
 30
0.0
 11
3.105118553003647
 21
-4.466748120477864
 31
0.0
  0
LINE
  5
260
330
206
100
AcDbEntity
  8
AM_4
100
AcDbLine
 10
1.01
 20
4.875
 30
0.0
 11
1.01
 21
3.934946791253982
 31
0.0
  0
LINE
  5
261
330
206
100
AcDbEntity
  8
AM_4
100
AcDbLine
 10
-1.01
 20
4.875
 30
0.0
 11
-1.01
 21
3.934946791253982
 31
0.0
  0
LINE
  5
262
330
206
100
AcDbEntity
  8
AM_4
100
AcDbLine
 10
1.01
 20
4.875
 30
0.0
 11
-1.01
 21
4.875
 31
0.0
  0
ARC
  5
263
330
206
100
AcDbEntity
  8
AM_4
100
AcDbCircle
 10
0.0000000000000031
 20
0.0000000000000053
 30
0.0
 40
4.062500000000006
100
AcDbArc
 50
234.285002753663
 51
255.6044070965425
  0
ARC
  5
264
330
206
100
AcDbEntity
  8
AM_4
100
AcDbCircle
 10
-3.316330803764904
 20
3.316330803764908
 30
0.0
 40
0.9450000000000003
100
AcDbArc
 50
271.0830520993457
 51
358.9169479006545
  0
ARC
  5
265
330
206
100
AcDbEntity
  8
AM_4
100
AcDbCircle
 10
-0.000000000000004
 20
0.0
 30
0.0
 40
4.062499999999997
100
AcDbArc
 50
144.285002753663
 51
215.714997246337
  0
ARC
  5
266
330
206
100
AcDbEntity
  8
AM_4
100
AcDbCircle
 10
-3.316330803764906
 20
-3.316330803764904
 30
0.0
 40
0.9449999999999985
100
AcDbArc
 50
1.083052099345581
 51
88.91694790065429
  0
LINE
  5
267
330
206
100
AcDbEntity
  8
AM_4
100
AcDbLine
 10
-1.01
 20
-3.934946791253981
 30
0.0
 11
-1.010000000000001
 21
-4.875
 31
0.0
  0
LINE
  5
268
330
206
100
AcDbEntity
  8
AM_4
100
AcDbLine
 10
1.01
 20
-3.934946791253981
 30
0.0
 11
1.01
 21
-4.875
 31
0.0
  0
ARC
  5
269
330
206
100
AcDbEntity
  8
AM_4
100
AcDbCircle
 10
-0.0000000000000233
 20
0.000000000000044
 30
0.0
 40
4.062500000000049
100
AcDbArc
 50
284.3955929034577
 51
305.7149972463367
  0
ARC
  5
26A
330
206
100
AcDbEntity
  8
AM_4
100
AcDbCircle
 10
3.316330803764906
 20
-3.316330803764912
 30
0.0
 40
0.9450000000000043
100
AcDbArc
 50
91.08305209934582
 51
178.9169479006544
  0
ARC
  5
26B
330
206
100
AcDbEntity
  8
AM_4
100
AcDbCircle
 10
0.0000000000000009
 20
-0.0000000000000002
 30
0.0
 40
4.062499999999999
100
AcDbArc
 50
324.285002753663
 51
35.71499724633697
  0
ARC
  5
26C
330
206
100
AcDbEntity
  8
AM_4
100
AcDbCircle
 10
3.316330803764902
 20
3.316330803764902
 30
0.0
 40
0.9449999999999945
100
AcDbArc
 50
181.0830520993459
 51
268.9169479006545
  0
ARC
  5
26D
330
206
100
AcDbEntity
  8
AM_4
100
AcDbCircle
 10
0.0000000000000107
 20
0.0000000000000293
 30
0.0
 40
4.062499999999971
100
AcDbArc
 50
54.28500275366292
 51
75.60440709654257
  0
LINE
  5
26E
330
206
100
AcDbEntity
  8
AM_4
100
AcDbLine
 10
1.01
 20
4.0625
 30
0.0
 11
-1.01
 21
4.0625
 31
0.0
  0
ARC
  5
26F
330
206
100
AcDbEntity
  8
AM_4
100
AcDbCircle
 10
0.00000000000001
 20
-0.0000000000000151
 30
0.0
 40
4.062500000000018
100
AcDbArc
 50
104.3955929034576
 51
125.7149972463369
  0
CIRCLE
  5
270
330
206
100
AcDbEntity
  8
AM_4
100
AcDbCircle
 10
0.0
 20
0.0
 30
0.0
 40
3.5433
  0
LINE
  5
271
330
206
100
AcDbEntity
  8
AM_4
100
AcDbLine
 10
1.01
 20
-4.875
 30
0.0
 11
-1.010000000000001
 21
-4.875
 31
0.0
  0
LINE
  5
272
330
206
100
AcDbEntity
  8
AM_4
100
AcDbLine
 10
1.01
 20
-4.0625
 30
0.0
 11
-1.01
 21
-4.0625
 31
0.0
  0
ARC
  5
273
330
206
100
AcDbEntity
  8
AM_5
100
AcDbCircle
 10
4.69
 20
-0.0000000000000014
 30
0.0
 40
0.3749999999999996
100
AcDbArc
 50
164.9999999999997
 51
104.9999999999998
  0
ARC
  5
274
330
206
100
AcDbEntity
  8
AM_5
100
AcDbCircle
 10
-4.690000000000001
 20
-0.0000000000000014
 30
0.0
 40
0.3749999999999996
100
AcDbArc
 50
164.9999999999997
 51
104.9999999999998
  0
CIRCLE
  5
275
330
206
100
AcDbEntity
  8
AM_4
100
AcDbCircle
 10
-0.0000000000000027
 20
0.0000000000000009
 30
0.0
 40
5.439999999999997
  0
ENDBLK
  5
209
330
206
100
AcDbEntity
  8
0
100
AcDbBlockEnd
  0
ENDSEC
  0
SECTION
  2
ENTITIES
  0
INSERT
  5
6F
330
1F
100
AcDbEntity
  8
0
100
AcDbBlockReference
  2
1_072382_0
 10
0.0
 20
0.0
 30
0.0
  0
POINT
  5
277
330
1F
100
AcDbEntity
  8
ConnectionPoints
100
AcDbPoint
 10
0.0
 20
4.468750000000001
 30
1.245
  0
POINT
  5
278
330
1F
100
AcDbEntity
  8
ConnectionPoints
100
AcDbPoint
 10
0.0
 20
-2.484375
 30
2.377999666666667
  0
POINT
  5
279
330
1F
100
AcDbEntity
  8
ConnectionPoints
100
AcDbPoint
 10
0.0
 20
2.484375
 30
2.377999666666667
  0
POINT
  5
27A
330
1F
100
AcDbEntity
  8
ConnectionPoints
100
AcDbPoint
 10
0.0
 20
0.0
 30
2.165666666666667
  0
POINT
  5
27B
330
1F
100
AcDbEntity
  8
ConnectionPoints
100
AcDbPoint
 10
0.0
 20
0.0
 30
2.51
  0
POINT
  5
27C
330
1F
100
AcDbEntity
  8
ConnectionPoints
100
AcDbPoint
 10
0.0
 20
0.0
 30
2.364666666666667
  0
POINT
  5
27D
330
1F
100
AcDbEntity
  8
ConnectionPoints
100
AcDbPoint
 10
0.0
 20
2.484375
 30
2.165666666666667
  0
POINT
  5
27E
330
1F
100
AcDbEntity
  8
ConnectionPoints
100
AcDbPoint
 10
0.0
 20
2.484375
 30
2.378000000000001
  0
POINT
  5
27F
330
1F
100
AcDbEntity
  8
ConnectionPoints
100
AcDbPoint
 10
0.0
 20
-2.484375
 30
2.165666666666667
  0
POINT
  5
280
330
1F
100
AcDbEntity
  8
ConnectionPoints
100
AcDbPoint
 10
0.0
 20
-2.484375
 30
2.378000000000001
  0
POINT
  5
281
330
1F
100
AcDbEntity
  8
ConnectionPoints
100
AcDbPoint
 10
0.0
 20
0.0
 30
2.165666666666667
  0
POINT
  5
282
330
1F
100
AcDbEntity
  8
ConnectionPoints
100
AcDbPoint
 10
0.0
 20
4.468750000000001
 30
1.245
  0
POINT
  5
283
330
1F
100
AcDbEntity
  8
ConnectionPoints
100
AcDbPoint
 10
0.0
 20
-4.468750000000001
 30
1.245000000000001
  0
POINT
  5
284
330
1F
100
AcDbEntity
  8
ConnectionPoints
100
AcDbPoint
 10
0.0
 20
0.0
 30
2.51
  0
POINT
  5
285
330
1F
100
AcDbEntity
  8
ConnectionPoints
100
AcDbPoint
 10
0.0
 20
0.0
 30
2.82
  0
ENDSEC
  0
SECTION
  2
OBJECTS
  0
DICTIONARY
  5
C
330
0
100
AcDbDictionary
281
     1
  3
ACAD_DETAILVIEWSTYLE
350
28D
  3
ACAD_GROUP
350
D
  3
ACAD_LAYOUT
350
1A
  3
ACAD_MATERIAL
350
43
  3
ACAD_MLEADERSTYLE
350
6B
  3
ACAD_MLINESTYLE
350
17
  3
ACAD_PLOTSETTINGS
350
19
  3
ACAD_PLOTSTYLENAME
350
E
  3
ACAD_SCALELIST
350
47
  3
ACAD_SECTIONVIEWSTYLE
350
28E
  3
ACAD_TABLESTYLE
350
69
  3
ACAD_VISUALSTYLE
350
2A
  3
ACDB_RECOMPOSE_DATA
350
28A
  3
AcDbVariableDictionary
350
286
  0
SUN
  5
6D
330
29
100
AcDbSun
 90
        1
290
     0
 63
     7
421
 16777215
 40
1.0
291
     1
 91
  2455826
 92
 54000000
292
     0
 70
     2
 71
   256
280
     1
  0
DICTIONARY
  5
28D
102
{ACAD_REACTORS
330
C
102
}
330
C
100
AcDbDictionary
281
     1
  0
DICTIONARY
  5
D
102
{ACAD_REACTORS
330
C
102
}
330
C
100
AcDbDictionary
281
     1
  0
DICTIONARY
  5
1A
102
{ACAD_REACTORS
330
C
102
}
330
C
100
AcDbDictionary
281
     1
  3
Layout1
350
1E
  3
Layout2
350
26
  3
Model
350
22
  0
DICTIONARY
  5
43
102
{ACAD_REACTORS
330
C
102
}
330
C
100
AcDbDictionary
281
     1
  3
ByBlock
350
45
  3
ByLayer
350
44
  3
Global
350
46
  0
DICTIONARY
  5
6B
102
{ACAD_REACTORS
330
C
102
}
330
C
100
AcDbDictionary
281
     1
  3
Standard
350
6C
  0
DICTIONARY
  5
17
102
{ACAD_REACTORS
330
C
102
}
330
C
100
AcDbDictionary
281
     1
  3
Standard
350
18
  0
DICTIONARY
  5
19
102
{ACAD_REACTORS
330
C
102
}
330
C
100
AcDbDictionary
281
     1
  0
ACDBDICTIONARYWDFLT
  5
E
102
{ACAD_REACTORS
330
C
102
}
330
C
100
AcDbDictionary
281
     1
  3
Normal
350
F
100
AcDbDictionaryWithDefault
340
F
  0
DICTIONARY
  5
47
102
{ACAD_REACTORS
330
C
102
}
330
C
100
AcDbDictionary
281
     1
  3
A0
350
48
  3
A1
350
49
  3
A2
350
4A
  3
A3
350
4B
  3
A4
350
4C
  3
A5
350
4D
  3
A6
350
4E
  3
A7
350
4F
  3
A8
350
50
  3
A9
350
51
  3
B0
350
52
  3
B1
350
53
  3
B2
350
54
  3
B3
350
55
  3
B4
350
56
  3
B5
350
57
  3
B6
350
58
  3
B7
350
59
  3
B8
350
5A
  3
B9
350
5B
  3
C0
350
5C
  3
C1
350
5D
  3
C2
350
5E
  3
C3
350
5F
  3
C4
350
60
  3
C5
350
61
  3
C6
350
62
  3
C7
350
63
  3
C8
350
64
  3
C9
350
65
  3
D0
350
66
  3
D1
350
67
  3
D2
350
68
  0
DICTIONARY
  5
28E
102
{ACAD_REACTORS
330
C
102
}
330
C
100
AcDbDictionary
281
     1
  0
DICTIONARY
  5
69
102
{ACAD_REACTORS
330
C
102
}
330
C
100
AcDbDictionary
281
     1
  3
Standard
350
6A
  0
DICTIONARY
  5
2A
102
{ACAD_REACTORS
330
C
102
}
330
C
100
AcDbDictionary
281
     1
  3
2dWireframe
350
2F
  3
Basic
350
32
  3
Brighten
350
36
  3
ColorChange
350
3A
  3
Conceptual
350
34
  3
Dim
350
35
  3
EdgeColorOff
350
3D
  3
Facepattern
350
39
  3
Flat
350
2B
  3
FlatWithEdges
350
2C
  3
Gouraud
350
2D
  3
GouraudWithEdges
350
2E
  3
Hidden
350
31
  3
JitterOff
350
3B
  3
Linepattern
350
38
  3
OverhangOff
350
3C
  3
Realistic
350
33
  3
Shaded
350
42
  3
Shaded with edges
350
41
  3
Shades of Gray
350
3E
  3
Sketchy
350
3F
  3
Thicken
350
37
  3
Wireframe
350
30
  3
X-Ray
350
40
  0
XRECORD
  5
28A
102
{ACAD_REACTORS
330
C
102
}
330
C
100
AcDbXrecord
280
     1
 90
        1
330
6A
  0
DICTIONARY
  5
286
102
{ACAD_REACTORS
330
C
102
}
330
C
100
AcDbDictionary
281
     1
  3
CANNOSCALE
350
287
  3
CMLEADERSTYLE
350
28C
  3
CTABLESTYLE
350
28B
  0
LAYOUT
  5
1E
102
{ACAD_REACTORS
330
1A
102
}
330
1A
100
AcDbPlotSettings
  1

  2
none_device
  4

  6

 40
0.0
 41
0.0
 42
0.0
 43
0.0
 44
0.0
 45
0.0
 46
0.0
 47
0.0
 48
0.0
 49
0.0
140
0.0
141
0.0
142
1.0
143
1.0
 70
   688
 72
     0
 73
     0
 74
     5
  7

 75
    16
 76
     0
 77
     2
 78
   300
147
1.0
148
0.0
149
0.0
100
AcDbLayout
  1
Layout1
 70
     1
 71
     1
 10
0.0
 20
0.0
 11
12.0
 21
9.0
 12
0.0
 22
0.0
 32
0.0
 14
1.000000000000000E+20
 24
1.000000000000000E+20
 34
1.000000000000000E+20
 15
-1.000000000000000E+20
 25
-1.000000000000000E+20
 35
-1.000000000000000E+20
146
0.0
 13
0.0
 23
0.0
 33
0.0
 16
1.0
 26
0.0
 36
0.0
 17
0.0
 27
1.0
 37
0.0
 76
     0
330
1B
  0
LAYOUT
  5
26
102
{ACAD_REACTORS
330
1A
102
}
330
1A
100
AcDbPlotSettings
  1

  2
none_device
  4

  6

 40
0.0
 41
0.0
 42
0.0
 43
0.0
 44
0.0
 45
0.0
 46
0.0
 47
0.0
 48
0.0
 49
0.0
140
0.0
141
0.0
142
1.0
143
1.0
 70
   688
 72
     0
 73
     0
 74
     5
  7

 75
    16
 76
     0
 77
     2
 78
   300
147
1.0
148
0.0
149
0.0
100
AcDbLayout
  1
Layout2
 70
     1
 71
     2
 10
0.0
 20
0.0
 11
0.0
 21
0.0
 12
0.0
 22
0.0
 32
0.0
 14
0.0
 24
0.0
 34
0.0
 15
0.0
 25
0.0
 35
0.0
146
0.0
 13
0.0
 23
0.0
 33
0.0
 16
1.0
 26
0.0
 36
0.0
 17
0.0
 27
1.0
 37
0.0
 76
     0
330
23
  0
LAYOUT
  5
22
102
{ACAD_REACTORS
330
1A
102
}
330
1A
100
AcDbPlotSettings
  1

  2
none_device
  4
Letter_(8.50_x_11.00_Inches)
  6

 40
6.35
 41
6.35
 42
6.35000508
 43
6.35000508
 44
215.9
 45
279.4
 46
0.0
 47
0.0
 48
0.0
 49
0.0
140
0.0
141
0.0
142
1.0
143
1.0
 70
  1712
 72
     0
 73
     0
 74
     0
  7

 75
     0
 76
     0
 77
     2
 78
   300
147
1.0
148
0.0
149
0.0
100
AcDbLayout
  1
Model
 70
     1
 71
     0
 10
0.0
 20
0.0
 11
12.0
 21
9.0
 12
0.0
 22
0.0
 32
0.0
 14
1.000000000000000E+20
 24
1.000000000000000E+20
 34
1.000000000000000E+20
 15
-1.000000000000000E+20
 25
-1.000000000000000E+20
 35
-1.000000000000000E+20
146
0.0
 13
0.0
 23
0.0
 33
0.0
 16
1.0
 26
0.0
 36
0.0
 17
0.0
 27
1.0
 37
0.0
 76
     0
330
1F
331
29
  0
MATERIAL
  5
45
102
{ACAD_REACTORS
330
43
102
}
330
43
100
AcDbMaterial
  1
ByBlock
 72
     1
 94
      127
  0
MATERIAL
  5
44
102
{ACAD_REACTORS
330
43
102
}
330
43
100
AcDbMaterial
  1
ByLayer
 72
     1
 94
      127
  0
MATERIAL
  5
46
102
{ACAD_REACTORS
330
43
102
}
330
43
100
AcDbMaterial
  1
Global
 72
     1
 94
      127
  0
MLEADERSTYLE
  5
6C
102
{ACAD_REACTORS
330
6B
102
}
330
6B
100
AcDbMLeaderStyle
179
     2
170
     2
171
     1
172
     0
 90
        2
 40
0.0
 41
0.0
173
     1
 91
-1056964608
340
14
 92
       -2
290
     1
 42
0.09
291
     1
 43
0.36
  3
Standard
341
0
 44
0.18
300

342
11
174
     1
178
     6
175
     1
176
     0
 93
-1056964608
 45
0.18
292
     0
297
     0
 46
0.18
343
0
 94
-1056964608
 47
1.0
 49
1.0
140
1.0
293
     1
141
0.0
294
     1
177
     0
142
1.0
295
     0
296
     0
143
0.125
271
     0
272
     9
273
     9
298
     0
  0
MLINESTYLE
  5
18
102
{ACAD_REACTORS
330
17
102
}
330
17
100
AcDbMlineStyle
  2
Standard
 70
     0
  3

 62
   256
 51
90.0
 52
90.0
 71
     2
 49
0.5
 62
   256
  6
BYLAYER
 49
-0.5
 62
   256
  6
BYLAYER
  0
ACDBPLACEHOLDER
  5
F
102
{ACAD_REACTORS
330
E
102
}
330
E
  0
SCALE
  5
48
102
{ACAD_REACTORS
330
47
102
}
330
47
100
AcDbScale
 70
     0
300
1:1
140
1.0
141
1.0
290
     1
  0
SCALE
  5
49
102
{ACAD_REACTORS
330
47
102
}
330
47
100
AcDbScale
 70
     0
300
1:2
140
1.0
141
2.0
290
     0
  0
SCALE
  5
4A
102
{ACAD_REACTORS
330
47
102
}
330
47
100
AcDbScale
 70
     0
300
1:4
140
1.0
141
4.0
290
     0
  0
SCALE
  5
4B
102
{ACAD_REACTORS
330
47
102
}
330
47
100
AcDbScale
 70
     0
300
1:5
140
1.0
141
5.0
290
     0
  0
SCALE
  5
4C
102
{ACAD_REACTORS
330
47
102
}
330
47
100
AcDbScale
 70
     0
300
1:8
140
1.0
141
8.0
290
     0
  0
SCALE
  5
4D
102
{ACAD_REACTORS
330
47
102
}
330
47
100
AcDbScale
 70
     0
300
1:10
140
1.0
141
10.0
290
     0
  0
SCALE
  5
4E
102
{ACAD_REACTORS
330
47
102
}
330
47
100
AcDbScale
 70
     0
300
1:16
140
1.0
141
16.0
290
     0
  0
SCALE
  5
4F
102
{ACAD_REACTORS
330
47
102
}
330
47
100
AcDbScale
 70
     0
300
1:20
140
1.0
141
20.0
290
     0
  0
SCALE
  5
50
102
{ACAD_REACTORS
330
47
102
}
330
47
100
AcDbScale
 70
     0
300
1:30
140
1.0
141
30.0
290
     0
  0
SCALE
  5
51
102
{ACAD_REACTORS
330
47
102
}
330
47
100
AcDbScale
 70
     0
300
1:40
140
1.0
141
40.0
290
     0
  0
SCALE
  5
52
102
{ACAD_REACTORS
330
47
102
}
330
47
100
AcDbScale
 70
     0
300
1:50
140
1.0
141
50.0
290
     0
  0
SCALE
  5
53
102
{ACAD_REACTORS
330
47
102
}
330
47
100
AcDbScale
 70
     0
300
1:100
140
1.0
141
100.0
290
     0
  0
SCALE
  5
54
102
{ACAD_REACTORS
330
47
102
}
330
47
100
AcDbScale
 70
     0
300
2:1
140
2.0
141
1.0
290
     0
  0
SCALE
  5
55
102
{ACAD_REACTORS
330
47
102
}
330
47
100
AcDbScale
 70
     0
300
4:1
140
4.0
141
1.0
290
     0
  0
SCALE
  5
56
102
{ACAD_REACTORS
330
47
102
}
330
47
100
AcDbScale
 70
     0
300
8:1
140
8.0
141
1.0
290
     0
  0
SCALE
  5
57
102
{ACAD_REACTORS
330
47
102
}
330
47
100
AcDbScale
 70
     0
300
10:1
140
10.0
141
1.0
290
     0
  0
SCALE
  5
58
102
{ACAD_REACTORS
330
47
102
}
330
47
100
AcDbScale
 70
     0
300
100:1
140
100.0
141
1.0
290
     0
  0
SCALE
  5
59
102
{ACAD_REACTORS
330
47
102
}
330
47
100
AcDbScale
 70
     0
300
1/128" = 1'-0"
140
0.0078125
141
12.0
290
     0
  0
SCALE
  5
5A
102
{ACAD_REACTORS
330
47
102
}
330
47
100
AcDbScale
 70
     0
300
1/64" = 1'-0"
140
0.015625
141
12.0
290
     0
  0
SCALE
  5
5B
102
{ACAD_REACTORS
330
47
102
}
330
47
100
AcDbScale
 70
     0
300
1/32" = 1'-0"
140
0.03125
141
12.0
290
     0
  0
SCALE
  5
5C
102
{ACAD_REACTORS
330
47
102
}
330
47
100
AcDbScale
 70
     0
300
1/16" = 1'-0"
140
0.0625
141
12.0
290
     0
  0
SCALE
  5
5D
102
{ACAD_REACTORS
330
47
102
}
330
47
100
AcDbScale
 70
     0
300
3/32" = 1'-0"
140
0.09375
141
12.0
290
     0
  0
SCALE
  5
5E
102
{ACAD_REACTORS
330
47
102
}
330
47
100
AcDbScale
 70
     0
300
1/8" = 1'-0"
140
0.125
141
12.0
290
     0
  0
SCALE
  5
5F
102
{ACAD_REACTORS
330
47
102
}
330
47
100
AcDbScale
 70
     0
300
3/16" = 1'-0"
140
0.1875
141
12.0
290
     0
  0
SCALE
  5
60
102
{ACAD_REACTORS
330
47
102
}
330
47
100
AcDbScale
 70
     0
300
1/4" = 1'-0"
140
0.25
141
12.0
290
     0
  0
SCALE
  5
61
102
{ACAD_REACTORS
330
47
102
}
330
47
100
AcDbScale
 70
     0
300
3/8" = 1'-0"
140
0.375
141
12.0
290
     0
  0
SCALE
  5
62
102
{ACAD_REACTORS
330
47
102
}
330
47
100
AcDbScale
 70
     0
300
1/2" = 1'-0"
140
0.5
141
12.0
290
     0
  0
SCALE
  5
63
102
{ACAD_REACTORS
330
47
102
}
330
47
100
AcDbScale
 70
     0
300
3/4" = 1'-0"
140
0.75
141
12.0
290
     0
  0
SCALE
  5
64
102
{ACAD_REACTORS
330
47
102
}
330
47
100
AcDbScale
 70
     0
300
1" = 1'-0"
140
1.0
141
12.0
290
     0
  0
SCALE
  5
65
102
{ACAD_REACTORS
330
47
102
}
330
47
100
AcDbScale
 70
     0
300
1-1/2" = 1'-0"
140
1.5
141
12.0
290
     0
  0
SCALE
  5
66
102
{ACAD_REACTORS
330
47
102
}
330
47
100
AcDbScale
 70
     0
300
3" = 1'-0"
140
3.0
141
12.0
290
     0
  0
SCALE
  5
67
102
{ACAD_REACTORS
330
47
102
}
330
47
100
AcDbScale
 70
     0
300
6" = 1'-0"
140
6.0
141
12.0
290
     0
  0
SCALE
  5
68
102
{ACAD_REACTORS
330
47
102
}
330
47
100
AcDbScale
 70
     0
300
1'-0" = 1'-0"
140
12.0
141
12.0
290
     0
  0
TABLESTYLE
  5
6A
102
{ACAD_REACTORS
330
69
102
}
102
{ACAD_XDICTIONARY
360
288
102
}
330
69
100
AcDbTableStyle
  3
Standard
 70
     0
 71
     0
 40
0.06
 41
0.06
280
     0
281
     0
  7
Standard
140
0.18
170
     2
 62
     0
 63
   257
283
     0
 90
        4
 91
        0
  1

274
    -2
284
     1
 64
     0
275
    -2
285
     1
 65
     0
276
    -2
286
     1
 66
     0
277
    -2
287
     1
 67
     0
278
    -2
288
     1
 68
     0
279
    -2
289
     1
 69
     0
  7
Standard
140
0.25
170
     5
 62
     0
 63
   257
283
     0
 90
        4
 91
        0
  1

274
    -2
284
     1
 64
     0
275
    -2
285
     1
 65
     0
276
    -2
286
     1
 66
     0
277
    -2
287
     1
 67
     0
278
    -2
288
     1
 68
     0
279
    -2
289
     1
 69
     0
  7
Standard
140
0.18
170
     5
 62
     0
 63
   257
283
     0
 90
        4
 91
        0
  1

274
    -2
284
     1
 64
     0
275
    -2
285
     1
 65
     0
276
    -2
286
     1
 66
     0
277
    -2
287
     1
 67
     0
278
    -2
288
     1
 68
     0
279
    -2
289
     1
 69
     0
  0
VISUALSTYLE
  5
2F
102
{ACAD_REACTORS
330
2A
102
}
330
2A
100
AcDbVisualStyle
  2
2dWireframe
 70
     4
177
     3
291
     0
 70
    58
 90
        0
176
     1
 90
        2
176
     1
 90
        0
176
     1
 90
        0
176
     1
 40
0.6
176
     1
 40
30.0
176
     1
 62
     7
420
 16777215
176
     1
 90
        1
176
     1
 90
        4
176
     1
 62
     7
176
     1
 62
   257
176
     1
 90
        1
176
     1
 90
        1
176
     1
 40
1.0
176
     1
 90
        0
176
     1
 62
   257
176
     1
 40
1.0
176
     1
 90
        1
176
     1
 90
        6
176
     1
 90
        2
176
     1
 62
     7
176
     1
 90
        5
176
     1
 90
        0
176
     1
 90
        0
176
     1
290
     0
176
     1
 90
        1
176
     1
 40
0.0
176
     1
 90
        0
176
     1
290
     1
176
     1
290
     1
176
     1
290
     0
176
     1
290
     0
176
     1
290
     0
176
     1
290
     0
176
     1
290
     0
176
     1
290
     0
176
     1
290
     0
176
     1
 90
       50
176
     1
 40
0.0
176
     1
 40
1.0
176
     1
 90
        0
176
     1
 62
    18
420
        0
176
     1
 90
       50
176
     1
 90
        3
176
     1
 62
     5
420
      255
176
     1
290
     0
176
     1
 90
       50
176
     1
 90
       50
176
     1
 90
       50
176
     1
290
     0
176
     1
 90
       50
176
     1
 62
   256
176
     0
 40
1.0
176
     0
 90
        2
176
     1
  1
strokes_ogs.tif
176
     1
290
     0
176
     1
 40
1.0
176
     1
 40
1.0
176
     1
  0
VISUALSTYLE
  5
32
102
{ACAD_REACTORS
330
2A
102
}
330
2A
100
AcDbVisualStyle
  2
Basic
 70
     7
177
     3
291
     1
 70
    58
 90
        1
176
     1
 90
        0
176
     1
 90
        1
176
     1
 90
        0
176
     1
 40
0.6
176
     1
 40
30.0
176
     1
 62
     7
420
 16777215
176
     1
 90
        0
176
     1
 90
        4
176
     1
 62
     7
176
     1
 62
   257
176
     1
 90
        1
176
     1
 90
        1
176
     1
 40
1.0
176
     1
 90
        8
176
     1
 62
     7
176
     1
 40
1.0
176
     1
 90
        1
176
     1
 90
        6
176
     1
 90
        2
176
     1
 62
     7
176
     1
 90
        5
176
     1
 90
        0
176
     1
 90
        0
176
     1
290
     0
176
     1
 90
        1
176
     1
 40
0.0
176
     1
 90
        0
176
     1
290
     0
176
     1
290
     1
176
     1
290
     1
176
     1
290
     0
176
     1
290
     0
176
     1
290
     0
176
     1
290
     0
176
     1
290
     0
176
     1
290
     0
176
     1
 90
       50
176
     1
 40
0.0
176
     1
 40
1.0
176
     1
 90
        0
176
     1
 62
    18
420
        0
176
     1
 90
       50
176
     1
 90
        3
176
     1
 62
     5
420
      255
176
     1
290
     0
176
     1
 90
       50
176
     1
 90
       50
176
     1
 90
       50
176
     1
290
     0
176
     1
 90
       50
176
     1
 62
   256
176
     0
 40
1.0
176
     0
 90
        2
176
     1
  1
strokes_ogs.tif
176
     1
290
     0
176
     1
 40
1.0
176
     1
 40
1.0
176
     1
  0
VISUALSTYLE
  5
36
102
{ACAD_REACTORS
330
2A
102
}
330
2A
100
AcDbVisualStyle
  2
Brighten
 70
    12
177
     3
291
     1
 70
    58
 90
        2
176
     1
 90
        2
176
     1
 90
        0
176
     1
 90
        0
176
     1
 40
0.6
176
     1
 40
30.0
176
     1
 62
     7
420
 16777215
176
     1
 90
        1
176
     1
 90
        4
176
     1
 62
     7
176
     1
 62
   257
176
     1
 90
        1
176
     1
 90
        1
176
     1
 40
1.0
176
     1
 90
        8
176
     1
 62
     7
176
     1
 40
1.0
176
     1
 90
        1
176
     1
 90
        6
176
     1
 90
        2
176
     1
 62
     7
176
     1
 90
        5
176
     1
 90
        0
176
     1
 90
        0
176
     1
290
     0
176
     1
 90
        1
176
     1
 40
50.0
176
     1
 90
        0
176
     1
290
     0
176
     1
290
     1
176
     1
290
     1
176
     1
290
     0
176
     1
290
     0
176
     1
290
     0
176
     1
290
     0
176
     1
290
     0
176
     1
290
     0
176
     1
 90
       50
176
     1
 40
0.0
176
     1
 40
1.0
176
     1
 90
        0
176
     1
 62
    18
420
        0
176
     1
 90
       50
176
     1
 90
        3
176
     1
 62
     5
420
      255
176
     1
290
     0
176
     1
 90
       50
176
     1
 90
       50
176
     1
 90
       50
176
     1
290
     0
176
     1
 90
       50
176
     1
 62
   256
176
     0
 40
1.0
176
     0
 90
        2
176
     1
  1
strokes_ogs.tif
176
     1
290
     0
176
     1
 40
1.0
176
     1
 40
1.0
176
     1
  0
VISUALSTYLE
  5
3A
102
{ACAD_REACTORS
330
2A
102
}
330
2A
100
AcDbVisualStyle
  2
ColorChange
 70
    16
177
     3
291
     1
 70
    58
 90
        2
176
     1
 90
        2
176
     1
 90
        3
176
     1
 90
        0
176
     1
 40
0.6
176
     1
 40
30.0
176
     1
 62
     8
420
  8421504
176
     1
 90
        1
176
     1
 90
        4
176
     1
 62
     7
176
     1
 62
   257
176
     1
 90
        1
176
     1
 90
        1
176
     1
 40
1.0
176
     1
 90
        8
176
     1
 62
     8
420
  8421504
176
     1
 40
1.0
176
     1
 90
        1
176
     1
 90
        6
176
     1
 90
        2
176
     1
 62
     7
176
     1
 90
        5
176
     1
 90
        0
176
     1
 90
        0
176
     1
290
     0
176
     1
 90
        1
176
     1
 40
0.0
176
     1
 90
        0
176
     1
290
     0
176
     1
290
     1
176
     1
290
     1
176
     1
290
     0
176
     1
290
     0
176
     1
290
     0
176
     1
290
     0
176
     1
290
     0
176
     1
290
     0
176
     1
 90
       50
176
     1
 40
0.0
176
     1
 40
1.0
176
     1
 90
        0
176
     1
 62
    18
420
        0
176
     1
 90
       50
176
     1
 90
        3
176
     1
 62
     5
420
      255
176
     1
290
     0
176
     1
 90
       50
176
     1
 90
       50
176
     1
 90
       50
176
     1
290
     0
176
     1
 90
       50
176
     1
 62
   256
176
     0
 40
1.0
176
     0
 90
        2
176
     1
  1
strokes_ogs.tif
176
     1
290
     0
176
     1
 40
1.0
176
     1
 40
1.0
176
     1
  0
VISUALSTYLE
  5
34
102
{ACAD_REACTORS
330
2A
102
}
330
2A
100
AcDbVisualStyle
  2
Conceptual
 70
     9
177
     3
291
     0
 70
    58
 90
        3
176
     1
 90
        2
176
     1
 90
        0
176
     1
 90
        0
176
     1
 40
0.6
176
     1
 40
30.0
176
     1
 62
     7
420
 16777215
176
     1
 90
        2
176
     1
 90
        2
176
     1
 62
     7
176
     1
 62
   257
176
     1
 90
        1
176
     1
 90
        1
176
     1
 40
179.0
176
     1
 90
        8
176
     1
 62
     7
176
     1
 40
1.0
176
     1
 90
        1
176
     1
 90
        6
176
     1
 90
        2
176
     1
 62
     7
176
     1
 90
        3
176
     1
 90
        0
176
     1
 90
        0
176
     1
290
     0
176
     1
 90
        1
176
     1
 40
0.0
176
     1
 90
        0
176
     1
290
     0
176
     1
290
     1
176
     1
290
     1
176
     1
290
     0
176
     1
290
     0
176
     1
290
     0
176
     1
290
     0
176
     1
290
     0
176
     1
290
     0
176
     1
 90
       50
176
     1
 40
0.0
176
     1
 40
1.0
176
     1
 90
        0
176
     1
 62
    18
420
        0
176
     1
 90
       50
176
     1
 90
        3
176
     1
 62
     5
420
      255
176
     1
290
     0
176
     1
 90
       50
176
     1
 90
       50
176
     1
 90
       50
176
     1
290
     0
176
     1
 90
       50
176
     1
 62
   256
176
     0
 40
1.0
176
     0
 90
        2
176
     1
  1
strokes_ogs.tif
176
     1
290
     0
176
     1
 40
1.0
176
     1
 40
1.0
176
     1
  0
VISUALSTYLE
  5
35
102
{ACAD_REACTORS
330
2A
102
}
330
2A
100
AcDbVisualStyle
  2
Dim
 70
    11
177
     3
291
     1
 70
    58
 90
        2
176
     1
 90
        2
176
     1
 90
        0
176
     1
 90
        0
176
     1
 40
0.6
176
     1
 40
30.0
176
     1
 62
     7
420
 16777215
176
     1
 90
        1
176
     1
 90
        4
176
     1
 62
     7
176
     1
 62
   257
176
     1
 90
        1
176
     1
 90
        1
176
     1
 40
1.0
176
     1
 90
        8
176
     1
 62
     7
176
     1
 40
1.0
176
     1
 90
        1
176
     1
 90
        6
176
     1
 90
        2
176
     1
 62
     7
176
     1
 90
        5
176
     1
 90
        0
176
     1
 90
        0
176
     1
290
     0
176
     1
 90
        1
176
     1
 40
-50.0
176
     1
 90
        0
176
     1
290
     0
176
     1
290
     1
176
     1
290
     1
176
     1
290
     0
176
     1
290
     0
176
     1
290
     0
176
     1
290
     0
176
     1
290
     0
176
     1
290
     0
176
     1
 90
       50
176
     1
 40
0.0
176
     1
 40
1.0
176
     1
 90
        0
176
     1
 62
    18
420
        0
176
     1
 90
       50
176
     1
 90
        3
176
     1
 62
     5
420
      255
176
     1
290
     0
176
     1
 90
       50
176
     1
 90
       50
176
     1
 90
       50
176
     1
290
     0
176
     1
 90
       50
176
     1
 62
   256
176
     0
 40
1.0
176
     0
 90
        2
176
     1
  1
strokes_ogs.tif
176
     1
290
     0
176
     1
 40
1.0
176
     1
 40
1.0
176
     1
  0
VISUALSTYLE
  5
3D
102
{ACAD_REACTORS
330
2A
102
}
330
2A
100
AcDbVisualStyle
  2
EdgeColorOff
 70
    22
177
     3
291
     1
 70
    58
 90
        2
176
     0
 90
        2
176
     0
 90
        0
176
     0
 90
        0
176
     0
 40
0.6
176
     0
 40
30.0
176
     0
 62
     7
420
 16777215
176
     0
 90
        1
176
     0
 90
        4
176
     0
 62
     7
176
     0
 62
   257
176
     0
 90
        1
176
     0
 90
        1
176
     0
 40
1.0
176
     0
 90
        8
176
     2
 62
     7
176
     0
 40
1.0
176
     0
 90
        1
176
     0
 90
        6
176
     0
 90
        2
176
     0
 62
     7
176
     0
 90
        5
176
     0
 90
        0
176
     0
 90
        0
176
     0
290
     0
176
     0
 90
        1
176
     0
 40
0.0
176
     0
 90
        0
176
     0
290
     0
176
     0
290
     1
176
     0
290
     1
176
     0
290
     0
176
     0
290
     0
176
     0
290
     0
176
     0
290
     0
176
     0
290
     0
176
     0
290
     0
176
     0
 90
       50
176
     0
 40
0.0
176
     0
 40
1.0
176
     0
 90
        0
176
     0
 62
    18
420
        0
176
     0
 90
       50
176
     0
 90
        3
176
     0
 62
     5
420
      255
176
     0
290
     0
176
     0
 90
       50
176
     0
 90
       50
176
     0
 90
       50
176
     0
290
     0
176
     0
 90
       50
176
     0
 62
   256
176
     0
 40
1.0
176
     0
 90
        2
176
     0
  1
strokes_ogs.tif
176
     0
290
     0
176
     0
 40
1.0
176
     0
 40
1.0
176
     0
  0
VISUALSTYLE
  5
39
102
{ACAD_REACTORS
330
2A
102
}
330
2A
100
AcDbVisualStyle
  2
Facepattern
 70
    15
177
     3
291
     1
 70
    58
 90
        2
176
     1
 90
        2
176
     1
 90
        0
176
     1
 90
        0
176
     1
 40
0.6
176
     1
 40
30.0
176
     1
 62
     7
420
 16777215
176
     1
 90
        1
176
     1
 90
        4
176
     1
 62
     7
176
     1
 62
   257
176
     1
 90
        1
176
     1
 90
        1
176
     1
 40
1.0
176
     1
 90
        8
176
     1
 62
     7
176
     1
 40
1.0
176
     1
 90
        1
176
     1
 90
        6
176
     1
 90
        2
176
     1
 62
     7
176
     1
 90
        5
176
     1
 90
        0
176
     1
 90
        0
176
     1
290
     0
176
     1
 90
        1
176
     1
 40
0.0
176
     1
 90
        0
176
     1
290
     0
176
     1
290
     1
176
     1
290
     1
176
     1
290
     0
176
     1
290
     0
176
     1
290
     0
176
     1
290
     0
176
     1
290
     0
176
     1
290
     0
176
     1
 90
       50
176
     1
 40
0.0
176
     1
 40
1.0
176
     1
 90
        0
176
     1
 62
    18
420
        0
176
     1
 90
       50
176
     1
 90
        3
176
     1
 62
     5
420
      255
176
     1
290
     0
176
     1
 90
       50
176
     1
 90
       50
176
     1
 90
       50
176
     1
290
     0
176
     1
 90
       50
176
     1
 62
   256
176
     0
 40
1.0
176
     0
 90
        2
176
     1
  1
strokes_ogs.tif
176
     1
290
     0
176
     1
 40
1.0
176
     1
 40
1.0
176
     1
  0
VISUALSTYLE
  5
2B
102
{ACAD_REACTORS
330
2A
102
}
330
2A
100
AcDbVisualStyle
  2
Flat
 70
     0
177
     3
291
     1
 70
    58
 90
        2
176
     1
 90
        1
176
     1
 90
        1
176
     1
 90
        2
176
     1
 40
0.6
176
     1
 40
30.0
176
     1
 62
     7
420
 16777215
176
     1
 90
        0
176
     1
 90
        0
176
     1
 62
     7
176
     1
 62
   257
176
     1
 90
        1
176
     1
 90
        1
176
     1
 40
1.0
176
     1
 90
        8
176
     1
 62
     7
176
     1
 40
1.0
176
     1
 90
        1
176
     1
 90
        6
176
     1
 90
        2
176
     1
 62
     7
176
     1
 90
        5
176
     1
 90
        0
176
     1
 90
        0
176
     1
290
     0
176
     1
 90
       13
176
     1
 40
0.0
176
     1
 90
        0
176
     1
290
     0
176
     1
290
     1
176
     1
290
     1
176
     1
290
     0
176
     1
290
     0
176
     1
290
     0
176
     1
290
     0
176
     1
290
     0
176
     1
290
     0
176
     1
 90
       50
176
     1
 40
0.0
176
     1
 40
1.0
176
     1
 90
        0
176
     1
 62
    18
420
        0
176
     1
 90
       50
176
     1
 90
        3
176
     1
 62
     5
420
      255
176
     1
290
     0
176
     1
 90
       50
176
     1
 90
       50
176
     1
 90
       50
176
     1
290
     0
176
     1
 90
       50
176
     1
 62
   256
176
     0
 40
1.0
176
     0
 90
        2
176
     1
  1
strokes_ogs.tif
176
     1
290
     0
176
     1
 40
1.0
176
     1
 40
1.0
176
     1
  0
VISUALSTYLE
  5
2C
102
{ACAD_REACTORS
330
2A
102
}
330
2A
100
AcDbVisualStyle
  2
FlatWithEdges
 70
     1
177
     3
291
     1
 70
    58
 90
        2
176
     1
 90
        1
176
     1
 90
        1
176
     1
 90
        2
176
     1
 40
0.6
176
     1
 40
30.0
176
     1
 62
     7
420
 16777215
176
     1
 90
        1
176
     1
 90
        0
176
     1
 62
     7
176
     1
 62
   257
176
     1
 90
        1
176
     1
 90
        1
176
     1
 40
1.0
176
     1
 90
        0
176
     1
 62
   257
176
     1
 40
1.0
176
     1
 90
        1
176
     1
 90
        6
176
     1
 90
        2
176
     1
 62
     7
176
     1
 90
        5
176
     1
 90
        0
176
     1
 90
        0
176
     1
290
     0
176
     1
 90
       13
176
     1
 40
0.0
176
     1
 90
        0
176
     1
290
     0
176
     1
290
     1
176
     1
290
     1
176
     1
290
     0
176
     1
290
     0
176
     1
290
     0
176
     1
290
     0
176
     1
290
     0
176
     1
290
     0
176
     1
 90
       50
176
     1
 40
0.0
176
     1
 40
1.0
176
     1
 90
        0
176
     1
 62
    18
420
        0
176
     1
 90
       50
176
     1
 90
        3
176
     1
 62
     5
420
      255
176
     1
290
     0
176
     1
 90
       50
176
     1
 90
       50
176
     1
 90
       50
176
     1
290
     0
176
     1
 90
       50
176
     1
 62
   256
176
     0
 40
1.0
176
     0
 90
        2
176
     1
  1
strokes_ogs.tif
176
     1
290
     0
176
     1
 40
1.0
176
     1
 40
1.0
176
     1
  0
VISUALSTYLE
  5
2D
102
{ACAD_REACTORS
330
2A
102
}
330
2A
100
AcDbVisualStyle
  2
Gouraud
 70
     2
177
     3
291
     1
 70
    58
 90
        2
176
     1
 90
        2
176
     1
 90
        1
176
     1
 90
        2
176
     1
 40
0.6
176
     1
 40
30.0
176
     1
 62
     7
420
 16777215
176
     1
 90
        0
176
     1
 90
        0
176
     1
 62
     7
176
     1
 62
   257
176
     1
 90
        1
176
     1
 90
        1
176
     1
 40
1.0
176
     1
 90
        0
176
     1
 62
     7
176
     1
 40
1.0
176
     1
 90
        1
176
     1
 90
        6
176
     1
 90
        2
176
     1
 62
     7
176
     1
 90
        5
176
     1
 90
        0
176
     1
 90
        0
176
     1
290
     0
176
     1
 90
       13
176
     1
 40
0.0
176
     1
 90
        0
176
     1
290
     0
176
     1
290
     1
176
     1
290
     1
176
     1
290
     0
176
     1
290
     0
176
     1
290
     0
176
     1
290
     0
176
     1
290
     0
176
     1
290
     0
176
     1
 90
       50
176
     1
 40
0.0
176
     1
 40
1.0
176
     1
 90
        0
176
     1
 62
    18
420
        0
176
     1
 90
       50
176
     1
 90
        3
176
     1
 62
     5
420
      255
176
     1
290
     0
176
     1
 90
       50
176
     1
 90
       50
176
     1
 90
       50
176
     1
290
     0
176
     1
 90
       50
176
     1
 62
   256
176
     0
 40
1.0
176
     0
 90
        2
176
     1
  1
strokes_ogs.tif
176
     1
290
     0
176
     1
 40
1.0
176
     1
 40
1.0
176
     1
  0
VISUALSTYLE
  5
2E
102
{ACAD_REACTORS
330
2A
102
}
330
2A
100
AcDbVisualStyle
  2
GouraudWithEdges
 70
     3
177
     3
291
     1
 70
    58
 90
        2
176
     1
 90
        2
176
     1
 90
        1
176
     1
 90
        2
176
     1
 40
0.6
176
     1
 40
30.0
176
     1
 62
     7
420
 16777215
176
     1
 90
        1
176
     1
 90
        0
176
     1
 62
     7
176
     1
 62
   257
176
     1
 90
        1
176
     1
 90
        1
176
     1
 40
1.0
176
     1
 90
        0
176
     1
 62
   257
176
     1
 40
1.0
176
     1
 90
        1
176
     1
 90
        6
176
     1
 90
        2
176
     1
 62
     7
176
     1
 90
        5
176
     1
 90
        0
176
     1
 90
        0
176
     1
290
     0
176
     1
 90
       13
176
     1
 40
0.0
176
     1
 90
        0
176
     1
290
     0
176
     1
290
     1
176
     1
290
     1
176
     1
290
     0
176
     1
290
     0
176
     1
290
     0
176
     1
290
     0
176
     1
290
     0
176
     1
290
     0
176
     1
 90
       50
176
     1
 40
0.0
176
     1
 40
1.0
176
     1
 90
        0
176
     1
 62
    18
420
        0
176
     1
 90
       50
176
     1
 90
        3
176
     1
 62
     5
420
      255
176
     1
290
     0
176
     1
 90
       50
176
     1
 90
       50
176
     1
 90
       50
176
     1
290
     0
176
     1
 90
       50
176
     1
 62
   256
176
     0
 40
1.0
176
     0
 90
        2
176
     1
  1
strokes_ogs.tif
176
     1
290
     0
176
     1
 40
1.0
176
     1
 40
1.0
176
     1
  0
VISUALSTYLE
  5
31
102
{ACAD_REACTORS
330
2A
102
}
330
2A
100
AcDbVisualStyle
  2
Hidden
 70
     6
177
     3
291
     0
 70
    58
 90
        1
176
     1
 90
        2
176
     1
 90
        2
176
     1
 90
        0
176
     1
 40
0.6
176
     1
 40
30.0
176
     1
 62
     7
420
 16777215
176
     1
 90
        2
176
     1
 90
        2
176
     1
 62
     7
176
     1
 62
   257
176
     1
 90
        2
176
     1
 90
        1
176
     1
 40
40.0
176
     1
 90
        0
176
     1
 62
   257
176
     1
 40
1.0
176
     1
 90
        1
176
     1
 90
        6
176
     1
 90
        2
176
     1
 62
     7
176
     1
 90
        3
176
     1
 90
        0
176
     1
 90
        0
176
     1
290
     0
176
     1
 90
        1
176
     1
 40
0.0
176
     1
 90
        0
176
     1
290
     0
176
     1
290
     1
176
     1
290
     1
176
     1
290
     0
176
     1
290
     0
176
     1
290
     0
176
     1
290
     0
176
     1
290
     0
176
     1
290
     0
176
     1
 90
       50
176
     1
 40
0.0
176
     1
 40
1.0
176
     1
 90
        0
176
     1
 62
    18
420
        0
176
     1
 90
       50
176
     1
 90
        3
176
     1
 62
     5
420
      255
176
     1
290
     0
176
     1
 90
       50
176
     1
 90
       50
176
     1
 90
       50
176
     1
290
     0
176
     1
 90
       50
176
     1
 62
   256
176
     0
 40
1.0
176
     0
 90
        2
176
     1
  1
strokes_ogs.tif
176
     1
290
     0
176
     1
 40
1.0
176
     1
 40
1.0
176
     1
  0
VISUALSTYLE
  5
3B
102
{ACAD_REACTORS
330
2A
102
}
330
2A
100
AcDbVisualStyle
  2
JitterOff
 70
    20
177
     3
291
     1
 70
    58
 90
        2
176
     0
 90
        2
176
     0
 90
        0
176
     0
 90
        0
176
     0
 40
0.6
176
     0
 40
30.0
176
     0
 62
     7
420
 16777215
176
     0
 90
        1
176
     0
 90
        4
176
     0
 62
     7
176
     0
 62
   257
176
     0
 90
        1
176
     0
 90
        1
176
     0
 40
1.0
176
     0
 90
       10
176
     2
 62
     7
176
     0
 40
1.0
176
     0
 90
        1
176
     0
 90
        6
176
     0
 90
        2
176
     0
 62
     7
176
     0
 90
        5
176
     0
 90
        0
176
     0
 90
        0
176
     0
290
     0
176
     0
 90
        1
176
     0
 40
0.0
176
     0
 90
        0
176
     0
290
     0
176
     0
290
     1
176
     0
290
     1
176
     0
290
     0
176
     0
290
     0
176
     0
290
     0
176
     0
290
     0
176
     0
290
     0
176
     0
290
     0
176
     0
 90
       50
176
     0
 40
0.0
176
     0
 40
1.0
176
     0
 90
        0
176
     0
 62
    18
420
        0
176
     0
 90
       50
176
     0
 90
        3
176
     0
 62
     5
420
      255
176
     0
290
     0
176
     0
 90
       50
176
     0
 90
       50
176
     0
 90
       50
176
     0
290
     0
176
     0
 90
       50
176
     0
 62
   256
176
     0
 40
1.0
176
     0
 90
        2
176
     0
  1
strokes_ogs.tif
176
     0
290
     0
176
     0
 40
1.0
176
     0
 40
1.0
176
     0
  0
VISUALSTYLE
  5
38
102
{ACAD_REACTORS
330
2A
102
}
330
2A
100
AcDbVisualStyle
  2
Linepattern
 70
    14
177
     3
291
     1
 70
    58
 90
        2
176
     1
 90
        2
176
     1
 90
        0
176
     1
 90
        0
176
     1
 40
0.6
176
     1
 40
30.0
176
     1
 62
     7
420
 16777215
176
     1
 90
        1
176
     1
 90
        4
176
     1
 62
     7
176
     1
 62
   257
176
     1
 90
        7
176
     1
 90
        7
176
     1
 40
1.0
176
     1
 90
        8
176
     1
 62
     7
176
     1
 40
1.0
176
     1
 90
        1
176
     1
 90
        6
176
     1
 90
        2
176
     1
 62
     7
176
     1
 90
        5
176
     1
 90
        0
176
     1
 90
        0
176
     1
290
     0
176
     1
 90
        1
176
     1
 40
0.0
176
     1
 90
        0
176
     1
290
     0
176
     1
290
     1
176
     1
290
     1
176
     1
290
     0
176
     1
290
     0
176
     1
290
     0
176
     1
290
     0
176
     1
290
     0
176
     1
290
     0
176
     1
 90
       50
176
     1
 40
0.0
176
     1
 40
1.0
176
     1
 90
        0
176
     1
 62
    18
420
        0
176
     1
 90
       50
176
     1
 90
        3
176
     1
 62
     5
420
      255
176
     1
290
     0
176
     1
 90
       50
176
     1
 90
       50
176
     1
 90
       50
176
     1
290
     0
176
     1
 90
       50
176
     1
 62
   256
176
     0
 40
1.0
176
     0
 90
        2
176
     1
  1
strokes_ogs.tif
176
     1
290
     0
176
     1
 40
1.0
176
     1
 40
1.0
176
     1
  0
VISUALSTYLE
  5
3C
102
{ACAD_REACTORS
330
2A
102
}
330
2A
100
AcDbVisualStyle
  2
OverhangOff
 70
    21
177
     3
291
     1
 70
    58
 90
        2
176
     0
 90
        2
176
     0
 90
        0
176
     0
 90
        0
176
     0
 40
0.6
176
     0
 40
30.0
176
     0
 62
     7
420
 16777215
176
     0
 90
        1
176
     0
 90
        4
176
     0
 62
     7
176
     0
 62
   257
176
     0
 90
        1
176
     0
 90
        1
176
     0
 40
1.0
176
     0
 90
        9
176
     2
 62
     7
176
     0
 40
1.0
176
     0
 90
        1
176
     0
 90
        6
176
     0
 90
        2
176
     0
 62
     7
176
     0
 90
        5
176
     0
 90
        0
176
     0
 90
        0
176
     0
290
     0
176
     0
 90
        1
176
     0
 40
0.0
176
     0
 90
        0
176
     0
290
     0
176
     0
290
     1
176
     0
290
     1
176
     0
290
     0
176
     0
290
     0
176
     0
290
     0
176
     0
290
     0
176
     0
290
     0
176
     0
290
     0
176
     0
 90
       50
176
     0
 40
0.0
176
     0
 40
1.0
176
     0
 90
        0
176
     0
 62
    18
420
        0
176
     0
 90
       50
176
     0
 90
        3
176
     0
 62
     5
420
      255
176
     0
290
     0
176
     0
 90
       50
176
     0
 90
       50
176
     0
 90
       50
176
     0
290
     0
176
     0
 90
       50
176
     0
 62
   256
176
     0
 40
1.0
176
     0
 90
        2
176
     0
  1
strokes_ogs.tif
176
     0
290
     0
176
     0
 40
1.0
176
     0
 40
1.0
176
     0
  0
VISUALSTYLE
  5
33
102
{ACAD_REACTORS
330
2A
102
}
330
2A
100
AcDbVisualStyle
  2
Realistic
 70
     8
177
     3
291
     0
 70
    58
 90
        2
176
     1
 90
        3
176
     1
 90
        0
176
     1
 90
        2
176
     1
 40
0.6
176
     1
 40
30.0
176
     1
 62
     7
420
 16777215
176
     1
 90
        0
176
     1
 90
        0
176
     1
 62
     7
176
     1
 62
   257
176
     1
 90
        1
176
     1
 90
        1
176
     1
 40
1.0
176
     1
 90
        8
176
     1
 62
   257
176
     1
 40
1.0
176
     1
 90
        1
176
     1
 90
        6
176
     1
 90
        2
176
     1
 62
     7
176
     1
 90
        3
176
     1
 90
        0
176
     1
 90
        0
176
     1
290
     0
176
     1
 90
       13
176
     1
 40
0.0
176
     1
 90
        0
176
     1
290
     0
176
     1
290
     1
176
     1
290
     1
176
     1
290
     0
176
     1
290
     0
176
     1
290
     0
176
     1
290
     0
176
     1
290
     0
176
     1
290
     0
176
     1
 90
       50
176
     1
 40
0.0
176
     1
 40
1.0
176
     1
 90
        0
176
     1
 62
    18
420
        0
176
     1
 90
       50
176
     1
 90
        3
176
     1
 62
     5
420
      255
176
     1
290
     0
176
     1
 90
       50
176
     1
 90
       50
176
     1
 90
       50
176
     1
290
     0
176
     1
 90
       50
176
     1
 62
   256
176
     0
 40
1.0
176
     0
 90
        2
176
     1
  1
strokes_ogs.tif
176
     1
290
     0
176
     1
 40
1.0
176
     1
 40
1.0
176
     1
  0
VISUALSTYLE
  5
42
102
{ACAD_REACTORS
330
2A
102
}
330
2A
100
AcDbVisualStyle
  2
Shaded
 70
    27
177
     3
291
     0
 70
    58
 90
        2
176
     1
 90
        2
176
     1
 90
        1
176
     1
 90
        2
176
     1
 40
0.6
176
     1
 40
30.0
176
     1
 62
     7
420
 16777215
176
     1
 90
        0
176
     1
 90
        4
176
     1
 62
     7
176
     1
 62
   257
176
     1
 90
        1
176
     1
 90
        1
176
     1
 40
1.0
176
     1
 90
        8
176
     1
 62
   257
176
     1
 40
1.0
176
     1
 90
        1
176
     1
 90
        6
176
     1
 90
        2
176
     1
 62
     8
420
  7895160
176
     1
 90
        3
176
     1
 90
        0
176
     1
 90
        0
176
     1
290
     0
176
     1
 90
        5
176
     1
 40
0.0
176
     1
 90
        0
176
     1
290
     0
176
     1
290
     1
176
     1
290
     1
176
     1
290
     0
176
     1
290
     0
176
     1
290
     0
176
     1
290
     0
176
     1
290
     0
176
     1
290
     0
176
     1
 90
       50
176
     1
 40
0.0
176
     1
 40
1.0
176
     1
 90
        0
176
     1
 62
    18
420
        0
176
     1
 90
       50
176
     1
 90
        3
176
     1
 62
     5
420
      255
176
     1
290
     0
176
     1
 90
       50
176
     1
 90
       50
176
     1
 90
       50
176
     1
290
     0
176
     1
 90
       50
176
     1
 62
   256
176
     0
 40
1.0
176
     0
 90
        2
176
     1
  1
strokes_ogs.tif
176
     1
290
     0
176
     1
 40
1.0
176
     1
 40
1.0
176
     1
  0
VISUALSTYLE
  5
41
102
{ACAD_REACTORS
330
2A
102
}
330
2A
100
AcDbVisualStyle
  2
Shaded with edges
 70
    26
177
     3
291
     0
 70
    58
 90
        2
176
     1
 90
        2
176
     1
 90
        1
176
     1
 90
        2
176
     1
 40
0.6
176
     1
 40
30.0
176
     1
 62
     7
420
 16777215
176
     1
 90
        1
176
     1
 90
       10
176
     1
 62
     7
176
     1
 62
   257
176
     1
 90
        2
176
     1
 90
        1
176
     1
 40
1.0
176
     1
 90
        8
176
     1
 62
   257
176
     1
 40
1.0
176
     1
 90
        1
176
     1
 90
        6
176
     1
 90
        2
176
     1
 62
     7
176
     1
 90
        3
176
     1
 90
        0
176
     1
 90
        0
176
     1
290
     0
176
     1
 90
        5
176
     1
 40
0.0
176
     1
 90
        0
176
     1
290
     0
176
     1
290
     1
176
     1
290
     1
176
     1
290
     0
176
     1
290
     0
176
     1
290
     0
176
     1
290
     0
176
     1
290
     0
176
     1
290
     0
176
     1
 90
       50
176
     1
 40
0.0
176
     1
 40
1.0
176
     1
 90
        0
176
     1
 62
    18
420
        0
176
     1
 90
       50
176
     1
 90
        3
176
     1
 62
     5
420
      255
176
     1
290
     0
176
     1
 90
       50
176
     1
 90
       50
176
     1
 90
       50
176
     1
290
     0
176
     1
 90
       50
176
     1
 62
   256
176
     0
 40
1.0
176
     0
 90
        2
176
     1
  1
strokes_ogs.tif
176
     1
290
     0
176
     1
 40
1.0
176
     1
 40
1.0
176
     1
  0
VISUALSTYLE
  5
3E
102
{ACAD_REACTORS
330
2A
102
}
330
2A
100
AcDbVisualStyle
  2
Shades of Gray
 70
    23
177
     3
291
     0
 70
    58
 90
        2
176
     1
 90
        2
176
     1
 90
        3
176
     1
 90
        0
176
     1
 40
0.6
176
     1
 40
30.0
176
     1
 62
     7
420
 16777215
176
     1
 90
        2
176
     1
 90
        2
176
     1
 62
     7
176
     1
 62
     7
176
     1
 90
        1
176
     1
 90
        1
176
     1
 40
40.0
176
     1
 90
        8
176
     1
 62
     7
176
     1
 40
1.0
176
     1
 90
        1
176
     1
 90
        6
176
     1
 90
        2
176
     1
 62
     7
176
     1
 90
        3
176
     1
 90
        0
176
     1
 90
        0
176
     1
290
     0
176
     1
 90
        1
176
     1
 40
0.0
176
     1
 90
        0
176
     1
290
     0
176
     1
290
     1
176
     1
290
     1
176
     1
290
     0
176
     1
290
     0
176
     1
290
     0
176
     1
290
     0
176
     1
290
     0
176
     1
290
     0
176
     1
 90
       50
176
     1
 40
0.0
176
     1
 40
1.0
176
     1
 90
        0
176
     1
 62
    18
420
        0
176
     1
 90
       50
176
     1
 90
        3
176
     1
 62
     5
420
      255
176
     1
290
     0
176
     1
 90
       50
176
     1
 90
       50
176
     1
 90
       50
176
     1
290
     0
176
     1
 90
       50
176
     1
 62
   256
176
     0
 40
1.0
176
     0
 90
        2
176
     1
  1
strokes_ogs.tif
176
     1
290
     0
176
     1
 40
1.0
176
     1
 40
1.0
176
     1
  0
VISUALSTYLE
  5
3F
102
{ACAD_REACTORS
330
2A
102
}
330
2A
100
AcDbVisualStyle
  2
Sketchy
 70
    24
177
     3
291
     0
 70
    58
 90
        1
176
     1
 90
        2
176
     1
 90
        2
176
     1
 90
        0
176
     1
 40
0.6
176
     1
 40
30.0
176
     1
 62
     7
420
 16777215
176
     1
 90
        2
176
     1
 90
        2
176
     1
 62
     7
176
     1
 62
     7
176
     1
 90
        1
176
     1
 90
        1
176
     1
 40
40.0
176
     1
 90
       11
176
     1
 62
     7
176
     1
 40
1.0
176
     1
 90
        1
176
     1
 90
        6
176
     1
 90
        2
176
     1
 62
     7
176
     1
 90
        6
176
     1
 90
        0
176
     1
 90
        0
176
     1
290
     0
176
     1
 90
        1
176
     1
 40
0.0
176
     1
 90
        0
176
     1
290
     0
176
     1
290
     1
176
     1
290
     1
176
     1
290
     0
176
     1
290
     0
176
     1
290
     0
176
     1
290
     0
176
     1
290
     0
176
     1
290
     0
176
     1
 90
       50
176
     1
 40
0.0
176
     1
 40
1.0
176
     1
 90
        0
176
     1
 62
    18
420
        0
176
     1
 90
       50
176
     1
 90
        3
176
     1
 62
     5
420
      255
176
     1
290
     0
176
     1
 90
       50
176
     1
 90
       50
176
     1
 90
       50
176
     1
290
     0
176
     1
 90
       50
176
     1
 62
   256
176
     0
 40
1.0
176
     0
 90
        2
176
     1
  1
strokes_ogs.tif
176
     1
290
     0
176
     1
 40
1.0
176
     1
 40
1.0
176
     1
  0
VISUALSTYLE
  5
37
102
{ACAD_REACTORS
330
2A
102
}
330
2A
100
AcDbVisualStyle
  2
Thicken
 70
    13
177
     3
291
     1
 70
    58
 90
        2
176
     1
 90
        2
176
     1
 90
        0
176
     1
 90
        0
176
     1
 40
0.6
176
     1
 40
30.0
176
     1
 62
     7
420
 16777215
176
     1
 90
        1
176
     1
 90
        4
176
     1
 62
     7
176
     1
 62
   257
176
     1
 90
        1
176
     1
 90
        1
176
     1
 40
1.0
176
     1
 90
       12
176
     1
 62
     7
176
     1
 40
1.0
176
     1
 90
        1
176
     1
 90
        6
176
     1
 90
        2
176
     1
 62
     7
176
     1
 90
        5
176
     1
 90
        0
176
     1
 90
        0
176
     1
290
     0
176
     1
 90
        1
176
     1
 40
0.0
176
     1
 90
        0
176
     1
290
     0
176
     1
290
     1
176
     1
290
     1
176
     1
290
     0
176
     1
290
     0
176
     1
290
     0
176
     1
290
     0
176
     1
290
     0
176
     1
290
     0
176
     1
 90
       50
176
     1
 40
0.0
176
     1
 40
1.0
176
     1
 90
        0
176
     1
 62
    18
420
        0
176
     1
 90
       50
176
     1
 90
        3
176
     1
 62
     5
420
      255
176
     1
290
     0
176
     1
 90
       50
176
     1
 90
       50
176
     1
 90
       50
176
     1
290
     0
176
     1
 90
       50
176
     1
 62
   256
176
     0
 40
1.0
176
     0
 90
        2
176
     1
  1
strokes_ogs.tif
176
     1
290
     0
176
     1
 40
1.0
176
     1
 40
1.0
176
     1
  0
VISUALSTYLE
  5
30
102
{ACAD_REACTORS
330
2A
102
}
330
2A
100
AcDbVisualStyle
  2
Wireframe
 70
     5
177
     3
291
     0
 70
    58
 90
        0
176
     1
 90
        2
176
     1
 90
        0
176
     1
 90
        0
176
     1
 40
0.6
176
     1
 40
30.0
176
     1
 62
     7
420
 16777215
176
     1
 90
        1
176
     1
 90
        4
176
     1
 62
     7
176
     1
 62
   257
176
     1
 90
        1
176
     1
 90
        1
176
     1
 40
1.0
176
     1
 90
        0
176
     1
 62
   257
176
     1
 40
1.0
176
     1
 90
        1
176
     1
 90
        6
176
     1
 90
        2
176
     1
 62
     7
176
     1
 90
        3
176
     1
 90
        0
176
     1
 90
        0
176
     1
290
     0
176
     1
 90
        1
176
     1
 40
0.0
176
     1
 90
        0
176
     1
290
     0
176
     1
290
     1
176
     1
290
     1
176
     1
290
     0
176
     1
290
     0
176
     1
290
     0
176
     1
290
     0
176
     1
290
     0
176
     1
290
     0
176
     1
 90
       50
176
     1
 40
0.0
176
     1
 40
1.0
176
     1
 90
        0
176
     1
 62
    18
420
        0
176
     1
 90
       50
176
     1
 90
        3
176
     1
 62
     5
420
      255
176
     1
290
     0
176
     1
 90
       50
176
     1
 90
       50
176
     1
 90
       50
176
     1
290
     0
176
     1
 90
       50
176
     1
 62
   256
176
     0
 40
1.0
176
     0
 90
        2
176
     1
  1
strokes_ogs.tif
176
     1
290
     0
176
     1
 40
1.0
176
     1
 40
1.0
176
     1
  0
VISUALSTYLE
  5
40
102
{ACAD_REACTORS
330
2A
102
}
330
2A
100
AcDbVisualStyle
  2
X-Ray
 70
    25
177
     3
291
     0
 70
    58
 90
        2
176
     1
 90
        2
176
     1
 90
        1
176
     1
 90
        1
176
     1
 40
0.5
176
     1
 40
30.0
176
     1
 62
     7
420
 16777215
176
     1
 90
        1
176
     1
 90
        0
176
     1
 62
     7
176
     1
 62
   257
176
     1
 90
        1
176
     1
 90
        1
176
     1
 40
1.0
176
     1
 90
        8
176
     1
 62
     7
176
     1
 40
1.0
176
     1
 90
        1
176
     1
 90
        6
176
     1
 90
        2
176
     1
 62
     7
176
     1
 90
        3
176
     1
 90
        0
176
     1
 90
        0
176
     1
290
     0
176
     1
 90
       13
176
     1
 40
0.0
176
     1
 90
        0
176
     1
290
     0
176
     1
290
     1
176
     1
290
     1
176
     1
290
     0
176
     1
290
     0
176
     1
290
     0
176
     1
290
     0
176
     1
290
     0
176
     1
290
     0
176
     1
 90
       50
176
     1
 40
0.0
176
     1
 40
1.0
176
     1
 90
        0
176
     1
 62
    18
420
        0
176
     1
 90
       50
176
     1
 90
        3
176
     1
 62
     5
420
      255
176
     1
290
     0
176
     1
 90
       50
176
     1
 90
       50
176
     1
 90
       50
176
     1
290
     0
176
     1
 90
       50
176
     1
 62
   256
176
     0
 40
1.0
176
     0
 90
        2
176
     1
  1
strokes_ogs.tif
176
     1
290
     0
176
     1
 40
1.0
176
     1
 40
1.0
176
     1
  0
DICTIONARYVAR
  5
287
102
{ACAD_REACTORS
330
286
102
}
330
286
100
DictionaryVariables
280
     0
  1
1:1
  0
DICTIONARYVAR
  5
28C
102
{ACAD_REACTORS
330
286
102
}
330
286
100
DictionaryVariables
280
     0
  1
Standard
  0
DICTIONARYVAR
  5
28B
102
{ACAD_REACTORS
330
286
102
}
330
286
100
DictionaryVariables
280
     0
  1
Standard
  0
DICTIONARY
  5
288
330
6A
100
AcDbDictionary
280
     1
281
     1
  3
ACAD_ROUNDTRIP_2008_TABLESTYLE_CELLSTYLEMAP
360
289
  0
CELLSTYLEMAP
  5
289
102
{ACAD_REACTORS
330
288
102
}
330
288
100
AcDbCellStyleMap
 90
        3
300
CELLSTYLE
  1
TABLEFORMAT_BEGIN
 90
        5
170
     1
 91
        0
 92
    32768
 62
   257
 93
        1
300
CONTENTFORMAT
  1
CONTENTFORMAT_BEGIN
 90
        0
 91
        0
 92
        4
 93
        0
300

 40
0.0
140
1.0
 94
        5
 62
     0
340
11
144
0.25
309
CONTENTFORMAT_END
171
     1
301
MARGIN
  1
CELLMARGIN_BEGIN
 40
0.06
 40
0.06
 40
0.06
 40
0.06
 40
0.06
 40
0.06
309
CELLMARGIN_END
 94
        6
 95
        1
302
GRIDFORMAT
  1
GRIDFORMAT_BEGIN
 90
        0
 91
        1
 62
     0
 92
       -2
340
14
 93
        0
 40
0.045
309
GRIDFORMAT_END
 95
        2
302
GRIDFORMAT
  1
GRIDFORMAT_BEGIN
 90
        0
 91
        1
 62
     0
 92
       -2
340
14
 93
        0
 40
0.045
309
GRIDFORMAT_END
 95
        4
302
GRIDFORMAT
  1
GRIDFORMAT_BEGIN
 90
        0
 91
        1
 62
     0
 92
       -2
340
14
 93
        0
 40
0.045
309
GRIDFORMAT_END
 95
        8
302
GRIDFORMAT
  1
GRIDFORMAT_BEGIN
 90
        0
 91
        1
 62
     0
 92
       -2
340
14
 93
        0
 40
0.045
309
GRIDFORMAT_END
 95
       16
302
GRIDFORMAT
  1
GRIDFORMAT_BEGIN
 90
        0
 91
        1
 62
     0
 92
       -2
340
14
 93
        0
 40
0.045
309
GRIDFORMAT_END
 95
       32
302
GRIDFORMAT
  1
GRIDFORMAT_BEGIN
 90
        0
 91
        1
 62
     0
 92
       -2
340
14
 93
        0
 40
0.045
309
GRIDFORMAT_END
309
TABLEFORMAT_END
  1
CELLSTYLE_BEGIN
 90
        1
 91
        1
300
_TITLE
309
CELLSTYLE_END
300
CELLSTYLE
  1
TABLEFORMAT_BEGIN
 90
        5
170
     1
 91
        0
 92
        0
 62
   257
 93
        1
300
CONTENTFORMAT
  1
CONTENTFORMAT_BEGIN
 90
        0
 91
        0
 92
        4
 93
        0
300

 40
0.0
140
1.0
 94
        5
 62
     0
340
11
144
0.18
309
CONTENTFORMAT_END
171
     1
301
MARGIN
  1
CELLMARGIN_BEGIN
 40
0.06
 40
0.06
 40
0.06
 40
0.06
 40
0.06
 40
0.06
309
CELLMARGIN_END
 94
        6
 95
        1
302
GRIDFORMAT
  1
GRIDFORMAT_BEGIN
 90
        0
 91
        1
 62
     0
 92
       -2
340
14
 93
        0
 40
0.045
309
GRIDFORMAT_END
 95
        2
302
GRIDFORMAT
  1
GRIDFORMAT_BEGIN
 90
        0
 91
        1
 62
     0
 92
       -2
340
14
 93
        0
 40
0.045
309
GRIDFORMAT_END
 95
        4
302
GRIDFORMAT
  1
GRIDFORMAT_BEGIN
 90
        0
 91
        1
 62
     0
 92
       -2
340
14
 93
        0
 40
0.045
309
GRIDFORMAT_END
 95
        8
302
GRIDFORMAT
  1
GRIDFORMAT_BEGIN
 90
        0
 91
        1
 62
     0
 92
       -2
340
14
 93
        0
 40
0.045
309
GRIDFORMAT_END
 95
       16
302
GRIDFORMAT
  1
GRIDFORMAT_BEGIN
 90
        0
 91
        1
 62
     0
 92
       -2
340
14
 93
        0
 40
0.045
309
GRIDFORMAT_END
 95
       32
302
GRIDFORMAT
  1
GRIDFORMAT_BEGIN
 90
        0
 91
        1
 62
     0
 92
       -2
340
14
 93
        0
 40
0.045
309
GRIDFORMAT_END
309
TABLEFORMAT_END
  1
CELLSTYLE_BEGIN
 90
        2
 91
        1
300
_HEADER
309
CELLSTYLE_END
300
CELLSTYLE
  1
TABLEFORMAT_BEGIN
 90
        5
170
     1
 91
        0
 92
        0
 62
   257
 93
        1
300
CONTENTFORMAT
  1
CONTENTFORMAT_BEGIN
 90
        0
 91
        0
 92
        4
 93
        0
300

 40
0.0
140
1.0
 94
        2
 62
     0
340
11
144
0.18
309
CONTENTFORMAT_END
171
     1
301
MARGIN
  1
CELLMARGIN_BEGIN
 40
0.06
 40
0.06
 40
0.06
 40
0.06
 40
0.06
 40
0.06
309
CELLMARGIN_END
 94
        6
 95
        1
302
GRIDFORMAT
  1
GRIDFORMAT_BEGIN
 90
        0
 91
        1
 62
     0
 92
       -2
340
14
 93
        0
 40
0.045
309
GRIDFORMAT_END
 95
        2
302
GRIDFORMAT
  1
GRIDFORMAT_BEGIN
 90
        0
 91
        1
 62
     0
 92
       -2
340
14
 93
        0
 40
0.045
309
GRIDFORMAT_END
 95
        4
302
GRIDFORMAT
  1
GRIDFORMAT_BEGIN
 90
        0
 91
        1
 62
     0
 92
       -2
340
14
 93
        0
 40
0.045
309
GRIDFORMAT_END
 95
        8
302
GRIDFORMAT
  1
GRIDFORMAT_BEGIN
 90
        0
 91
        1
 62
     0
 92
       -2
340
14
 93
        0
 40
0.045
309
GRIDFORMAT_END
 95
       16
302
GRIDFORMAT
  1
GRIDFORMAT_BEGIN
 90
        0
 91
        1
 62
     0
 92
       -2
340
14
 93
        0
 40
0.045
309
GRIDFORMAT_END
 95
       32
302
GRIDFORMAT
  1
GRIDFORMAT_BEGIN
 90
        0
 91
        1
 62
     0
 92
       -2
340
14
 93
        0
 40
0.045
309
GRIDFORMAT_END
309
TABLEFORMAT_END
  1
CELLSTYLE_BEGIN
 90
        3
 91
        2
300
_DATA
309
CELLSTYLE_END
  0
ENDSEC
  0
EOF