0
SECTION
  2
HEADER
  9
$ACADVER
  1
AC1027
  9
$ACADMAINTVER
 70
     8
  9
$DWGCODEPAGE
  3
ANSI_1252
  9
$REQUIREDVERSIONS
160
                 0
  9
$COMMENTS
  1
File was created by Cadenas
  9
$CUSTOMPROPERTYTAG
  1
NN
  9
$CUSTOMPROPERTY
  1
Steel IMPERIAL-HD Narrow Piloted Flange 2-7/16 thru 4-1/2 Inch Bore
  9
$CUSTOMPROPERTYTAG
  1
NT
  9
$CUSTOMPROPERTY
  1
Steal Heavy Duty Imperial Piloted Flange Bearing-Inch-207-408
  9
$CUSTOMPROPERTYTAG
  1
NB
  9
$CUSTOMPROPERTY
  1
072372
  9
$CUSTOMPROPERTYTAG
  1
NBSYN
  9
$CUSTOMPROPERTY
  1
$PN.
  9
$CUSTOMPROPERTYTAG
  1
LINA
  9
$CUSTOMPROPERTY
  1
072372
  9
$CUSTOMPROPERTYTAG
  1
SS
  9
$CUSTOMPROPERTY
  1
2-11/16
  9
$CUSTOMPROPERTYTAG
  1
PN
  9
$CUSTOMPROPERTY
  1
072372
  9
$CUSTOMPROPERTYTAG
  1
TYPE
  9
$CUSTOMPROPERTY
  1
Expansion
  9
$CUSTOMPROPERTYTAG
  1
EF
  9
$CUSTOMPROPERTY
  1
Expansion
  9
$CUSTOMPROPERTYTAG
  1
DESCRIPTION
  9
$CUSTOMPROPERTY
  1
SFCN-IP-211RE
  9
$CUSTOMPROPERTYTAG
  1
ST
  9
$CUSTOMPROPERTY
  1
Contact Seal
  9
$CUSTOMPROPERTYTAG
  1
A
  9
$CUSTOMPROPERTY
  1
3.50
  9
$CUSTOMPROPERTYTAG
  1
B
  9
$CUSTOMPROPERTY
  1
8.75
  9
$CUSTOMPROPERTYTAG
  1
C
  9
$CUSTOMPROPERTY
  1
2.47
  9
$CUSTOMPROPERTYTAG
  1
D
  9
$CUSTOMPROPERTY
  1
5.30
  9
$CUSTOMPROPERTYTAG
  1
DD
  9
$CUSTOMPROPERTY
  1
7.50
  9
$CUSTOMPROPERTYTAG
  1
F
  9
$CUSTOMPROPERTY
  1
0.625
  9
$CUSTOMPROPERTYTAG
  1
G
  9
$CUSTOMPROPERTY
  1
2.35
  9
$CUSTOMPROPERTYTAG
  1
H
  9
$CUSTOMPROPERTY
  1
0.81
  9
$CUSTOMPROPERTYTAG
  1
K
  9
$CUSTOMPROPERTY
  1
6.375
  9
$CUSTOMPROPERTYTAG
  1
L
  9
$CUSTOMPROPERTY
  1
4.20
  9
$CUSTOMPROPERTYTAG
  1
M
  9
$CUSTOMPROPERTY
  1
0.625
  9
$CUSTOMPROPERTYTAG
  1
N
  9
$CUSTOMPROPERTY
  1
3.60
  9
$CUSTOMPROPERTYTAG
  1
P
  9
$CUSTOMPROPERTY
  1
1.15
  9
$CUSTOMPROPERTYTAG
  1
Q
  9
$CUSTOMPROPERTY
  1
1.25
  9
$CUSTOMPROPERTYTAG
  1
X
  9
$CUSTOMPROPERTY
  1
0.25
  9
$CUSTOMPROPERTYTAG
  1
Y
  9
$CUSTOMPROPERTY
  1
0.025
  9
$CUSTOMPROPERTYTAG
  1
Z
  9
$CUSTOMPROPERTY
  1
3.47
  9
$CUSTOMPROPERTYTAG
  1
COMPANY
  9
$CUSTOMPROPERTY
  1
baldor
  9
$INSBASE
 10
0.0
 20
0.0
 30
0.0
  9
$EXTMIN
 10
1.000000000000000E+20
 20
1.000000000000000E+20
 30
1.000000000000000E+20
  9
$EXTMAX
 10
-1.000000000000000E+20
 20
-1.000000000000000E+20
 30
-1.000000000000000E+20
  9
$LIMMIN
 10
0.0
 20
0.0
  9
$LIMMAX
 10
12.0
 20
9.0
  9
$ORTHOMODE
 70
     0
  9
$REGENMODE
 70
     1
  9
$FILLMODE
 70
     1
  9
$QTEXTMODE
 70
     0
  9
$MIRRTEXT
 70
     1
  9
$LTSCALE
 40
1.0
  9
$ATTMODE
 70
     1
  9
$TEXTSIZE
 40
0.2
  9
$TRACEWID
 40
0.05
  9
$TEXTSTYLE
  7
Standard
  9
$CLAYER
  8
0
  9
$CELTYPE
  6
ByLayer
  9
$CECOLOR
 62
   256
  9
$CELTSCALE
 40
1.0
  9
$DISPSILH
 70
     0
  9
$DIMSCALE
 40
1.0
  9
$DIMASZ
 40
0.18
  9
$DIMEXO
 40
0.0625
  9
$DIMDLI
 40
0.38
  9
$DIMRND
 40
0.0
  9
$DIMDLE
 40
0.0
  9
$DIMEXE
 40
0.18
  9
$DIMTP
 40
0.0
  9
$DIMTM
 40
0.0
  9
$DIMTXT
 40
0.18
  9
$DIMCEN
 40
0.09
  9
$DIMTSZ
 40
0.0
  9
$DIMTOL
 70
     0
  9
$DIMLIM
 70
     0
  9
$DIMTIH
 70
     1
  9
$DIMTOH
 70
     1
  9
$DIMSE1
 70
     0
  9
$DIMSE2
 70
     0
  9
$DIMTAD
 70
     0
  9
$DIMZIN
 70
     0
  9
$DIMBLK
  1

  9
$DIMASO
 70
     1
  9
$DIMSHO
 70
     1
  9
$DIMPOST
  1

  9
$DIMAPOST
  1

  9
$DIMALT
 70
     0
  9
$DIMALTD
 70
     2
  9
$DIMALTF
 40
25.4
  9
$DIMLFAC
 40
1.0
  9
$DIMTOFL
 70
     0
  9
$DIMTVP
 40
0.0
  9
$DIMTIX
 70
     0
  9
$DIMSOXD
 70
     0
  9
$DIMSAH
 70
     0
  9
$DIMBLK1
  1

  9
$DIMBLK2
  1

  9
$DIMSTYLE
  2
Standard
  9
$DIMCLRD
 70
     0
  9
$DIMCLRE
 70
     0
  9
$DIMCLRT
 70
     0
  9
$DIMTFAC
 40
1.0
  9
$DIMGAP
 40
0.09
  9
$DIMJUST
 70
     0
  9
$DIMSD1
 70
     0
  9
$DIMSD2
 70
     0
  9
$DIMTOLJ
 70
     1
  9
$DIMTZIN
 70
     0
  9
$DIMALTZ
 70
     0
  9
$DIMALTTZ
 70
     0
  9
$DIMUPT
 70
     0
  9
$DIMDEC
 70
     4
  9
$DIMTDEC
 70
     4
  9
$DIMALTU
 70
     2
  9
$DIMALTTD
 70
     2
  9
$DIMTXSTY
  7
Standard
  9
$DIMAUNIT
 70
     0
  9
$DIMADEC
 70
     0
  9
$DIMALTRND
 40
0.0
  9
$DIMAZIN
 70
     0
  9
$DIMDSEP
 70
    46
  9
$DIMATFIT
 70
     3
  9
$DIMFRAC
 70
     0
  9
$DIMLDRBLK
  1

  9
$DIMLUNIT
 70
     2
  9
$DIMLWD
 70
    -2
  9
$DIMLWE
 70
    -2
  9
$DIMTMOVE
 70
     0
  9
$DIMFXL
 40
1.0
  9
$DIMFXLON
 70
     0
  9
$DIMJOGANG
 40
0.7853981633974483
  9
$DIMTFILL
 70
     0
  9
$DIMTFILLCLR
 70
     0
  9
$DIMARCSYM
 70
     0
  9
$DIMLTYPE
  6

  9
$DIMLTEX1
  6

  9
$DIMLTEX2
  6

  9
$DIMTXTDIRECTION
 70
     0
  9
$LUNITS
 70
     2
  9
$LUPREC
 70
     4
  9
$SKETCHINC
 40
0.1
  9
$FILLETRAD
 40
0.5
  9
$AUNITS
 70
     0
  9
$AUPREC
 70
     0
  9
$MENU
  1
.
  9
$ELEVATION
 40
0.0
  9
$PELEVATION
 40
0.0
  9
$THICKNESS
 40
0.0
  9
$LIMCHECK
 70
     0
  9
$CHAMFERA
 40
0.0
  9
$CHAMFERB
 40
0.0
  9
$CHAMFERC
 40
0.0
  9
$CHAMFERD
 40
0.0
  9
$SKPOLY
 70
     0
  9
$TDCREATE
 40
2458168.896862477
  9
$TDUCREATE
 40
2458168.85519581
  9
$TDUPDATE
 40
2458168.896862836
  9
$TDUUPDATE
 40
2458168.855196169
  9
$TDINDWG
 40
0.0000000116
  9
$TDUSRTIMER
 40
0.0000000116
  9
$USRTIMER
 70
     1
  9
$ANGBASE
 50
0.0
  9
$ANGDIR
 70
     0
  9
$PDMODE
 70
     0
  9
$PDSIZE
 40
0.0
  9
$PLINEWID
 40
0.0
  9
$SPLFRAME
 70
     0
  9
$SPLINETYPE
 70
     6
  9
$SPLINESEGS
 70
     8
  9
$HANDSEED
  5
2A7
  9
$SURFTAB1
 70
     6
  9
$SURFTAB2
 70
     6
  9
$SURFTYPE
 70
     6
  9
$SURFU
 70
     6
  9
$SURFV
 70
     6
  9
$UCSBASE
  2

  9
$UCSNAME
  2

  9
$UCSORG
 10
0.0
 20
0.0
 30
0.0
  9
$UCSXDIR
 10
1.0
 20
0.0
 30
0.0
  9
$UCSYDIR
 10
0.0
 20
1.0
 30
0.0
  9
$UCSORTHOREF
  2

  9
$UCSORTHOVIEW
 70
     0
  9
$UCSORGTOP
 10
0.0
 20
0.0
 30
0.0
  9
$UCSORGBOTTOM
 10
0.0
 20
0.0
 30
0.0
  9
$UCSORGLEFT
 10
0.0
 20
0.0
 30
0.0
  9
$UCSORGRIGHT
 10
0.0
 20
0.0
 30
0.0
  9
$UCSORGFRONT
 10
0.0
 20
0.0
 30
0.0
  9
$UCSORGBACK
 10
0.0
 20
0.0
 30
0.0
  9
$PUCSBASE
  2

  9
$PUCSNAME
  2

  9
$PUCSORG
 10
0.0
 20
0.0
 30
0.0
  9
$PUCSXDIR
 10
1.0
 20
0.0
 30
0.0
  9
$PUCSYDIR
 10
0.0
 20
1.0
 30
0.0
  9
$PUCSORTHOREF
  2

  9
$PUCSORTHOVIEW
 70
     0
  9
$PUCSORGTOP
 10
0.0
 20
0.0
 30
0.0
  9
$PUCSORGBOTTOM
 10
0.0
 20
0.0
 30
0.0
  9
$PUCSORGLEFT
 10
0.0
 20
0.0
 30
0.0
  9
$PUCSORGRIGHT
 10
0.0
 20
0.0
 30
0.0
  9
$PUCSORGFRONT
 10
0.0
 20
0.0
 30
0.0
  9
$PUCSORGBACK
 10
0.0
 20
0.0
 30
0.0
  9
$USERI1
 70
     0
  9
$USERI2
 70
     0
  9
$USERI3
 70
     0
  9
$USERI4
 70
     0
  9
$USERI5
 70
     0
  9
$USERR1
 40
0.0
  9
$USERR2
 40
0.0
  9
$USERR3
 40
0.0
  9
$USERR4
 40
0.0
  9
$USERR5
 40
0.0
  9
$WORLDVIEW
 70
     1
  9
$SHADEDGE
 70
     3
  9
$SHADEDIF
 70
    70
  9
$TILEMODE
 70
     1
  9
$MAXACTVP
 70
    64
  9
$PINSBASE
 10
0.0
 20
0.0
 30
0.0
  9
$PLIMCHECK
 70
     0
  9
$PEXTMIN
 10
1.000000000000000E+20
 20
1.000000000000000E+20
 30
1.000000000000000E+20
  9
$PEXTMAX
 10
-1.000000000000000E+20
 20
-1.000000000000000E+20
 30
-1.000000000000000E+20
  9
$PLIMMIN
 10
0.0
 20
0.0
  9
$PLIMMAX
 10
12.0
 20
9.0
  9
$UNITMODE
 70
     0
  9
$VISRETAIN
 70
     1
  9
$PLINEGEN
 70
     0
  9
$PSLTSCALE
 70
     1
  9
$TREEDEPTH
 70
  3020
  9
$CMLSTYLE
  2
Standard
  9
$CMLJUST
 70
     0
  9
$CMLSCALE
 40
1.0
  9
$PROXYGRAPHICS
 70
     1
  9
$MEASUREMENT
 70
     0
  9
$CELWEIGHT
370
    -1
  9
$ENDCAPS
280
     0
  9
$JOINSTYLE
280
     0
  9
$LWDISPLAY
290
     0
  9
$INSUNITS
 70
     1
  9
$HYPERLINKBASE
  1

  9
$STYLESHEET
  1

  9
$XEDIT
290
     1
  9
$CEPSNTYPE
380
     0
  9
$PSTYLEMODE
290
     1
  9
$FINGERPRINTGUID
  2
{95195FF8-6BDE-447A-A773-DF2DEAF056ED}
  9
$VERSIONGUID
  2
{FAEB1C32-E019-11D5-929B-00C0DF256EC4}
  9
$EXTNAMES
290
     1
  9
$PSVPSCALE
 40
0.0
  9
$OLESTARTUP
290
     0
  9
$SORTENTS
280
   127
  9
$INDEXCTL
280
     0
  9
$HIDETEXT
280
     1
  9
$XCLIPFRAME
280
     2
  9
$HALOGAP
280
     0
  9
$OBSCOLOR
 70
   257
  9
$OBSLTYPE
280
     0
  9
$INTERSECTIONDISPLAY
280
     0
  9
$INTERSECTIONCOLOR
 70
   257
  9
$DIMASSOC
280
     2
  9
$PROJECTNAME
  1

  9
$CAMERADISPLAY
290
     0
  9
$LENSLENGTH
 40
50.0
  9
$CAMERAHEIGHT
 40
0.0
  9
$STEPSPERSEC
 40
2.0
  9
$STEPSIZE
 40
6.0
  9
$3DDWFPREC
 40
2.0
  9
$PSOLWIDTH
 40
0.25
  9
$PSOLHEIGHT
 40
4.0
  9
$LOFTANG1
 40
1.570796326794897
  9
$LOFTANG2
 40
1.570796326794897
  9
$LOFTMAG1
 40
0.0
  9
$LOFTMAG2
 40
0.0
  9
$LOFTPARAM
 70
     7
  9
$LOFTNORMALS
280
     1
  9
$LATITUDE
 40
37.795
  9
$LONGITUDE
 40
-122.394
  9
$NORTHDIRECTION
 40
0.0
  9
$TIMEZONE
 70
 -8000
  9
$LIGHTGLYPHDISPLAY
280
     1
  9
$TILEMODELIGHTSYNCH
280
     1
  9
$CMATERIAL
347
44
  9
$SOLIDHIST
280
     0
  9
$SHOWHIST
280
     1
  9
$DWFFRAME
280
     2
  9
$DGNFRAME
280
     2
  9
$REALWORLDSCALE
290
     1
  9
$INTERFERECOLOR
 62
   256
  9
$CSHADOW
280
     0
  9
$SHADOWPLANELOCATION
 40
0.0
  0
ENDSEC
  0
SECTION
  2
CLASSES
  0
CLASS
  1
ACDBDICTIONARYWDFLT
  2
AcDbDictionaryWithDefault
  3
ObjectDBX Classes
 90
        0
 91
        4
280
     0
281
     0
  0
CLASS
  1
VISUALSTYLE
  2
AcDbVisualStyle
  3
ObjectDBX Classes
 90
     4095
 91
        4
280
     0
281
     0
  0
CLASS
  1
MATERIAL
  2
AcDbMaterial
  3
ObjectDBX Classes
 90
     1153
 91
        4
280
     0
281
     0
  0
CLASS
  1
SCALE
  2
AcDbScale
  3
ObjectDBX Classes
 90
     1153
 91
        4
280
     0
281
     0
  0
CLASS
  1
TABLESTYLE
  2
AcDbTableStyle
  3
ObjectDBX Classes
 90
     4095
 91
        4
280
     0
281
     0
  0
CLASS
  1
MLEADERSTYLE
  2
AcDbMLeaderStyle
  3
ACDB_MLEADERSTYLE_CLASS
 90
     4095
 91
        4
280
     0
281
     0
  0
CLASS
  1
SUN
  2
AcDbSun
  3
SCENEOE
 90
     1153
 91
        4
280
     0
281
     0
  0
CLASS
  1
DICTIONARYVAR
  2
AcDbDictionaryVar
  3
ObjectDBX Classes
 90
        0
 91
        4
280
     0
281
     0
  0
CLASS
  1
CELLSTYLEMAP
  2
AcDbCellStyleMap
  3
ObjectDBX Classes
 90
     1152
 91
        4
280
     0
281
     0
  0
ENDSEC
  0
SECTION
  2
TABLES
  0
TABLE
  2
VPORT
  5
8
330
0
100
AcDbSymbolTable
 70
     1
  0
VPORT
  5
29
330
8
100
AcDbSymbolTableRecord
100
AcDbViewportTableRecord
  2
*Active
 70
     0
 10
0.0
 20
0.0
 11
1.0
 21
1.0
 12
0.0
 22
0.0
 13
0.0
 23
0.0
 14
0.5
 24
0.5
 15
0.5
 25
0.5
 16
0.0
 26
0.0
 36
1.0
 17
0.0
 27
0.0
 37
0.0
 40
8.925
 41
0.6210285714285716
 42
50.0
 43
0.0
 44
0.0
 50
0.0
 51
0.0
 71
     0
 72
   100
 73
     1
 74
     3
 75
     0
 76
     0
 77
     0
 78
     0
281
     0
 65
     1
110
0.0
120
0.0
130
0.0
111
1.0
121
0.0
131
0.0
112
0.0
122
1.0
132
0.0
 79
     0
146
0.0
348
2F
 60
     3
 61
     5
292
     1
282
     1
141
0.0
142
0.0
 63
   250
361
6D
  0
ENDTAB
  0
TABLE
  2
LTYPE
  5
5
330
0
100
AcDbSymbolTable
 70
     3
  0
LTYPE
  5
14
330
5
100
AcDbSymbolTableRecord
100
AcDbLinetypeTableRecord
  2
ByBlock
 70
     0
  3

 72
    65
 73
     0
 40
0.0
  0
LTYPE
  5
15
330
5
100
AcDbSymbolTableRecord
100
AcDbLinetypeTableRecord
  2
ByLayer
 70
     0
  3

 72
    65
 73
     0
 40
0.0
  0
LTYPE
  5
16
330
5
100
AcDbSymbolTableRecord
100
AcDbLinetypeTableRecord
  2
Continuous
 70
     0
  3
Solid line
 72
    65
 73
     0
 40
0.0
  0
LTYPE
  5
9C
330
5
100
AcDbSymbolTableRecord
100
AcDbLinetypeTableRecord
  2
Dashed
 70
     0
  3

 72
    65
 73
     2
 40
2.0
 49
1.0
 74
     0
 49
-1.0
 74
     0
  0
LTYPE
  5
AA
330
5
100
AcDbSymbolTableRecord
100
AcDbLinetypeTableRecord
  2
Center
 70
     0
  3

 72
    65
 73
     4
 40
1.5
 49
0.45
 74
     0
 49
-0.5
 74
     0
 49
0.05
 74
     0
 49
-0.5
 74
     0
  0
ENDTAB
  0
TABLE
  2
LAYER
  5
2
330
0
100
AcDbSymbolTable
 70
     7
  0
LAYER
  5
10
330
2
100
AcDbSymbolTableRecord
100
AcDbLayerTableRecord
  2
0
 70
     0
 62
     7
  6
Continuous
370
    -3
390
F
347
46
348
0
  0
LAYER
  5
72
330
2
100
AcDbSymbolTableRecord
100
AcDbLayerTableRecord
  2
AM_6
 70
     0
 62
    -2
  6
Continuous
370
    35
390
F
347
46
348
0
  0
LAYER
  5
9D
330
2
100
AcDbSymbolTableRecord
100
AcDbLayerTableRecord
  2
AM_9
 70
     0
 62
     6
  6
Dashed
370
    25
390
F
347
46
348
0
  0
LAYER
  5
A4
330
2
100
AcDbSymbolTableRecord
100
AcDbLayerTableRecord
  2
AM_5
 70
     0
 62
     3
  6
Continuous
370
    25
390
F
347
46
348
0
  0
LAYER
  5
AB
330
2
100
AcDbSymbolTableRecord
100
AcDbLayerTableRecord
  2
AM_7
 70
     0
 62
     7
  6
Center
370
    25
390
F
347
46
348
0
  0
LAYER
  5
AD
330
2
100
AcDbSymbolTableRecord
100
AcDbLayerTableRecord
  2
AM_4
 70
     0
 62
     7
  6
Continuous
370
    50
390
F
347
46
348
0
  0
LAYER
  5
28E
330
2
100
AcDbSymbolTableRecord
100
AcDbLayerTableRecord
  2
ConnectionPoints
 70
     0
 62
     7
  6
Continuous
370
    50
390
F
347
46
348
0
  0
ENDTAB
  0
TABLE
  2
STYLE
  5
3
330
0
100
AcDbSymbolTable
 70
     1
  0
STYLE
  5
11
330
3
100
AcDbSymbolTableRecord
100
AcDbTextStyleTableRecord
  2
Standard
 70
     0
 40
0.0
 41
1.0
 50
0.0
 71
     0
 42
0.2
  3
txt
  4

  0
ENDTAB
  0
TABLE
  2
VIEW
  5
6
330
0
100
AcDbSymbolTable
 70
     0
  0
ENDTAB
  0
TABLE
  2
UCS
  5
7
330
0
100
AcDbSymbolTable
 70
     0
  0
ENDTAB
  0
TABLE
  2
APPID
  5
9
330
0
100
AcDbSymbolTable
 70
     1
  0
APPID
  5
12
330
9
100
AcDbSymbolTableRecord
100
AcDbRegAppTableRecord
  2
ACAD
 70
     0
  0
ENDTAB
  0
TABLE
  2
DIMSTYLE
  5
A
330
0
100
AcDbSymbolTable
 70
     1
100
AcDbDimStyleTable
  0
DIMSTYLE
105
27
330
A
100
AcDbSymbolTableRecord
100
AcDbDimStyleTableRecord
  2
Standard
 70
     0
178
     0
340
11
  0
ENDTAB
  0
TABLE
  2
BLOCK_RECORD
  5
1
330
0
100
AcDbSymbolTable
 70
     9
  0
BLOCK_RECORD
  5
1F
330
1
100
AcDbSymbolTableRecord
100
AcDbBlockTableRecord
  2
*Model_Space
340
22
 70
     0
280
     1
281
     0
  0
BLOCK_RECORD
  5
1B
330
1
100
AcDbSymbolTableRecord
100
AcDbBlockTableRecord
  2
*Paper_Space
340
1E
 70
     0
280
     1
281
     0
  0
BLOCK_RECORD
  5
23
330
1
100
AcDbSymbolTableRecord
100
AcDbBlockTableRecord
  2
*Paper_Space0
340
26
 70
     0
280
     1
281
     0
  0
BLOCK_RECORD
  5
6E
330
1
100
AcDbSymbolTableRecord
100
AcDbBlockTableRecord
  2
1_072372_2
340
0
102
{BLKREFS
331
6F
102
}
 70
     0
280
     1
281
     0
  0
BLOCK_RECORD
  5
90
330
1
100
AcDbSymbolTableRecord
100
AcDbBlockTableRecord
  2
2_405015E_Inch_1_0_in_072372_2
340
0
102
{BLKREFS
331
91
102
}
 70
     0
280
     1
281
     0
  0
BLOCK_RECORD
  5
D5
330
1
100
AcDbSymbolTableRecord
100
AcDbBlockTableRecord
  2
3_405015E_Inch_2_0_in_072372_2
340
0
102
{BLKREFS
331
D6
102
}
 70
     0
280
     1
281
     0
  0
BLOCK_RECORD
  5
114
330
1
100
AcDbSymbolTableRecord
100
AcDbBlockTableRecord
  2
4_ASME_B18_3_10_1_0_in_072372_2
340
0
102
{BLKREFS
331
115
102
}
 70
     0
280
     1
281
     0
  0
BLOCK_RECORD
  5
13D
330
1
100
AcDbSymbolTableRecord
100
AcDbBlockTableRecord
  2
5_ASME_B18_3_10_2_0_in_072372_2
340
0
102
{BLKREFS
331
13E
102
}
 70
     0
280
     1
281
     0
  0
BLOCK_RECORD
  5
166
330
1
100
AcDbSymbolTableRecord
100
AcDbBlockTableRecord
  2
6_070897LWE_0_in_072372_2
340
0
102
{BLKREFS
331
167
102
}
 70
     0
280
     1
281
     0
  0
BLOCK_RECORD
  5
19F
330
1
100
AcDbSymbolTableRecord
100
AcDbBlockTableRecord
  2
7_070897I_0_in_072372_2
340
0
102
{BLKREFS
331
1A0
102
}
 70
     0
280
     1
281
     0
  0
BLOCK_RECORD
  5
228
330
1
100
AcDbSymbolTableRecord
100
AcDbBlockTableRecord
  2
8_B072372_0_in_072372_2
340
0
102
{BLKREFS
331
229
102
}
 70
     0
280
     1
281
     0
  0
ENDTAB
  0
ENDSEC
  0
SECTION
  2
BLOCKS
  0
BLOCK
  5
20
330
1F
100
AcDbEntity
  8
0
100
AcDbBlockBegin
  2
*Model_Space
 70
     0
 10
0.0
 20
0.0
 30
0.0
  3
*Model_Space
  1

  0
ENDBLK
  5
21
330
1F
100
AcDbEntity
  8
0
100
AcDbBlockEnd
  0
BLOCK
  5
1C
330
1B
100
AcDbEntity
 67
     1
  8
0
100
AcDbBlockBegin
  2
*Paper_Space
 70
     0
 10
0.0
 20
0.0
 30
0.0
  3
*Paper_Space
  1

  0
ENDBLK
  5
1D
330
1B
100
AcDbEntity
 67
     1
  8
0
100
AcDbBlockEnd
  0
BLOCK
  5
24
330
23
100
AcDbEntity
  8
0
100
AcDbBlockBegin
  2
*Paper_Space0
 70
     0
 10
0.0
 20
0.0
 30
0.0
  3
*Paper_Space0
  1

  0
ENDBLK
  5
25
330
23
100
AcDbEntity
  8
0
100
AcDbBlockEnd
  0
BLOCK
  5
70
330
6E
100
AcDbEntity
  8
0
100
AcDbBlockBegin
  2
1_072372_2
 70
     2
 10
0.0
 20
0.0
 30
0.0
  3
1_072372_2
  1

  0
ATTDEF
  5
73
330
6E
100
AcDbEntity
  8
AM_6
100
AcDbText
 10
7.717000000000001
 20
4.375
 30
0.0
 40
0.5
  1
Steel IMPERIAL-HD Narrow Piloted Flange 2-7/16 thru 4-1/2 Inch Bore
100
AcDbAttributeDefinition
  3

  2
NN
 70
     8
280
     0
  0
ATTDEF
  5
74
330
6E
100
AcDbEntity
  8
AM_6
100
AcDbText
 10
7.717000000000001
 20
3.875
 30
0.0
 40
0.5
  1
Steal Heavy Duty Imperial Piloted Flange Bearing-Inch-207-408
100
AcDbAttributeDefinition
  3

  2
NT
 70
     8
280
     0
  0
ATTDEF
  5
75
330
6E
100
AcDbEntity
  8
AM_6
100
AcDbText
 10
7.717000000000001
 20
3.375
 30
0.0
 40
0.5
  1
072372
100
AcDbAttributeDefinition
  3

  2
NB
 70
     8
280
     0
  0
ATTDEF
  5
76
330
6E
100
AcDbEntity
  8
AM_6
100
AcDbText
 10
7.717000000000001
 20
2.875
 30
0.0
 40
0.5
  1
$PN.
100
AcDbAttributeDefinition
  3

  2
NBSYN
 70
     8
280
     0
  0
ATTDEF
  5
77
330
6E
100
AcDbEntity
  8
AM_6
100
AcDbText
 10
7.717000000000001
 20
2.375
 30
0.0
 40
0.5
  1
072372
100
AcDbAttributeDefinition
  3

  2
LINA
 70
     8
280
     0
  0
ATTDEF
  5
78
330
6E
100
AcDbEntity
  8
AM_6
100
AcDbText
 10
7.717000000000001
 20
1.875
 30
0.0
 40
0.5
  1
2-11/16
100
AcDbAttributeDefinition
  3

  2
SS
 70
     8
280
     0
  0
ATTDEF
  5
79
330
6E
100
AcDbEntity
  8
AM_6
100
AcDbText
 10
7.717000000000001
 20
1.375
 30
0.0
 40
0.5
  1
072372
100
AcDbAttributeDefinition
  3

  2
PN
 70
     8
280
     0
  0
ATTDEF
  5
7A
330
6E
100
AcDbEntity
  8
AM_6
100
AcDbText
 10
7.717000000000001
 20
0.875
 30
0.0
 40
0.5
  1
Expansion
100
AcDbAttributeDefinition
  3

  2
TYPE
 70
     8
280
     0
  0
ATTDEF
  5
7B
330
6E
100
AcDbEntity
  8
AM_6
100
AcDbText
 10
7.717000000000001
 20
0.375
 30
0.0
 40
0.5
  1
Expansion
100
AcDbAttributeDefinition
  3

  2
EF
 70
     8
280
     0
  0
ATTDEF
  5
7C
330
6E
100
AcDbEntity
  8
AM_6
100
AcDbText
 10
7.717000000000001
 20
-0.125
 30
0.0
 40
0.5
  1
SFCN-IP-211RE
100
AcDbAttributeDefinition
  3

  2
DESCRIPTION
 70
     8
280
     0
  0
ATTDEF
  5
7D
330
6E
100
AcDbEntity
  8
AM_6
100
AcDbText
 10
7.717000000000001
 20
-0.625
 30
0.0
 40
0.5
  1
Contact Seal
100
AcDbAttributeDefinition
  3

  2
ST
 70
     8
280
     0
  0
ATTDEF
  5
7E
330
6E
100
AcDbEntity
  8
AM_6
100
AcDbText
 10
7.717000000000001
 20
-1.125
 30
0.0
 40
0.5
  1
3.50
100
AcDbAttributeDefinition
  3

  2
A
 70
     8
280
     0
  0
ATTDEF
  5
7F
330
6E
100
AcDbEntity
  8
AM_6
100
AcDbText
 10
7.717000000000001
 20
-1.625
 30
0.0
 40
0.5
  1
8.75
100
AcDbAttributeDefinition
  3

  2
B
 70
     8
280
     0
  0
ATTDEF
  5
80
330
6E
100
AcDbEntity
  8
AM_6
100
AcDbText
 10
7.717000000000001
 20
-2.125
 30
0.0
 40
0.5
  1
2.47
100
AcDbAttributeDefinition
  3

  2
C
 70
     8
280
     0
  0
ATTDEF
  5
81
330
6E
100
AcDbEntity
  8
AM_6
100
AcDbText
 10
7.717000000000001
 20
-2.625
 30
0.0
 40
0.5
  1
5.30
100
AcDbAttributeDefinition
  3

  2
D
 70
     8
280
     0
  0
ATTDEF
  5
82
330
6E
100
AcDbEntity
  8
AM_6
100
AcDbText
 10
7.717000000000001
 20
-3.125
 30
0.0
 40
0.5
  1
7.50
100
AcDbAttributeDefinition
  3

  2
DD
 70
     8
280
     0
  0
ATTDEF
  5
83
330
6E
100
AcDbEntity
  8
AM_6
100
AcDbText
 10
7.717000000000001
 20
-3.625
 30
0.0
 40
0.5
  1
0.625
100
AcDbAttributeDefinition
  3

  2
F
 70
     8
280
     0
  0
ATTDEF
  5
84
330
6E
100
AcDbEntity
  8
AM_6
100
AcDbText
 10
7.717000000000001
 20
-4.125
 30
0.0
 40
0.5
  1
2.35
100
AcDbAttributeDefinition
  3

  2
G
 70
     8
280
     0
  0
ATTDEF
  5
85
330
6E
100
AcDbEntity
  8
AM_6
100
AcDbText
 10
7.717000000000001
 20
-4.625
 30
0.0
 40
0.5
  1
0.81
100
AcDbAttributeDefinition
  3

  2
H
 70
     8
280
     0
  0
ATTDEF
  5
86
330
6E
100
AcDbEntity
  8
AM_6
100
AcDbText
 10
7.717000000000001
 20
-5.125
 30
0.0
 40
0.5
  1
6.375
100
AcDbAttributeDefinition
  3

  2
K
 70
     8
280
     0
  0
ATTDEF
  5
87
330
6E
100
AcDbEntity
  8
AM_6
100
AcDbText
 10
7.717000000000001
 20
-5.625
 30
0.0
 40
0.5
  1
4.20
100
AcDbAttributeDefinition
  3

  2
L
 70
     8
280
     0
  0
ATTDEF
  5
88
330
6E
100
AcDbEntity
  8
AM_6
100
AcDbText
 10
7.717000000000001
 20
-6.125
 30
0.0
 40
0.5
  1
0.625
100
AcDbAttributeDefinition
  3

  2
M
 70
     8
280
     0
  0
ATTDEF
  5
89
330
6E
100
AcDbEntity
  8
AM_6
100
AcDbText
 10
7.717000000000001
 20
-6.625
 30
0.0
 40
0.5
  1
3.60
100
AcDbAttributeDefinition
  3

  2
N
 70
     8
280
     0
  0
ATTDEF
  5
8A
330
6E
100
AcDbEntity
  8
AM_6
100
AcDbText
 10
7.717000000000001
 20
-7.125
 30
0.0
 40
0.5
  1
1.15
100
AcDbAttributeDefinition
  3

  2
P
 70
     8
280
     0
  0
ATTDEF
  5
8B
330
6E
100
AcDbEntity
  8
AM_6
100
AcDbText
 10
7.717000000000001
 20
-7.625
 30
0.0
 40
0.5
  1
1.25
100
AcDbAttributeDefinition
  3

  2
Q
 70
     8
280
     0
  0
ATTDEF
  5
8C
330
6E
100
AcDbEntity
  8
AM_6
100
AcDbText
 10
7.717000000000001
 20
-8.125
 30
0.0
 40
0.5
  1
0.25
100
AcDbAttributeDefinition
  3

  2
X
 70
     8
280
     0
  0
ATTDEF
  5
8D
330
6E
100
AcDbEntity
  8
AM_6
100
AcDbText
 10
7.717000000000001
 20
-8.625
 30
0.0
 40
0.5
  1
0.025
100
AcDbAttributeDefinition
  3

  2
Y
 70
     8
280
     0
  0
ATTDEF
  5
8E
330
6E
100
AcDbEntity
  8
AM_6
100
AcDbText
 10
7.717000000000001
 20
-9.125
 30
0.0
 40
0.5
  1
3.47
100
AcDbAttributeDefinition
  3

  2
Z
 70
     8
280
     0
  0
ATTDEF
  5
8F
330
6E
100
AcDbEntity
  8
AM_6
100
AcDbText
 10
7.717000000000001
 20
-9.625
 30
0.0
 40
0.5
  1
baldor
100
AcDbAttributeDefinition
  3

  2
COMPANY
 70
     8
280
     0
  0
INSERT
  5
91
330
6E
100
AcDbEntity
  8
0
100
AcDbBlockReference
  2
2_405015E_Inch_1_0_in_072372_2
 10
0.0
 20
0.0
 30
0.0
  0
INSERT
  5
D6
330
6E
100
AcDbEntity
  8
0
100
AcDbBlockReference
  2
3_405015E_Inch_2_0_in_072372_2
 10
0.0
 20
0.0
 30
0.0
  0
INSERT
  5
115
330
6E
100
AcDbEntity
  8
0
100
AcDbBlockReference
  2
4_ASME_B18_3_10_1_0_in_072372_2
 10
0.0
 20
0.0
 30
0.0
  0
INSERT
  5
13E
330
6E
100
AcDbEntity
  8
0
100
AcDbBlockReference
  2
5_ASME_B18_3_10_2_0_in_072372_2
 10
0.0
 20
0.0
 30
0.0
  0
INSERT
  5
167
330
6E
100
AcDbEntity
  8
0
100
AcDbBlockReference
  2
6_070897LWE_0_in_072372_2
 10
0.0
 20
0.0
 30
0.0
  0
INSERT
  5
1A0
330
6E
100
AcDbEntity
  8
0
100
AcDbBlockReference
  2
7_070897I_0_in_072372_2
 10
0.0
 20
0.0
 30
0.0
  0
INSERT
  5
229
330
6E
100
AcDbEntity
  8
0
100
AcDbBlockReference
  2
8_B072372_0_in_072372_2
 10
0.0
 20
0.0
 30
0.0
  0
ENDBLK
  5
71
330
6E
100
AcDbEntity
  8
0
100
AcDbBlockEnd
  0
BLOCK
  5
92
330
90
100
AcDbEntity
  8
0
100
AcDbBlockBegin
  2
2_405015E_Inch_1_0_in_072372_2
 70
     2
 10
0.0
 20
0.0
 30
0.0
  3
2_405015E_Inch_1_0_in_072372_2
  1

  0
ATTDEF
  5
94
330
90
100
AcDbEntity
  8
AM_6
100
AcDbText
 10
4.295461087879008
 20
-3.215713382995022
 30
0.0
 40
0.5
  1
405015E -Inch
100
AcDbAttributeDefinition
  3

  2
NN
 70
     8
280
     0
  0
ATTDEF
  5
95
330
90
100
AcDbEntity
  8
AM_6
100
AcDbText
 10
4.295461087879008
 20
-3.715713382995022
 30
0.0
 40
0.5
  1
Grease Fitting
100
AcDbAttributeDefinition
  3

  2
NT
 70
     8
280
     0
  0
ATTDEF
  5
96
330
90
100
AcDbEntity
  8
AM_6
100
AcDbText
 10
4.295461087879008
 20
-4.215713382995022
 30
0.0
 40
0.5
  1
405015E-Inch
100
AcDbAttributeDefinition
  3

  2
NB
 70
     8
280
     0
  0
ATTDEF
  5
97
330
90
100
AcDbEntity
  8
AM_6
100
AcDbText
 10
4.295461087879008
 20
-4.715713382995022
 30
0.0
 40
0.5
  1
$MN.-Inch
100
AcDbAttributeDefinition
  3

  2
NBSYN
 70
     8
280
     0
  0
ATTDEF
  5
98
330
90
100
AcDbEntity
  8
AM_6
100
AcDbText
 10
4.295461087879008
 20
-5.215713382995022
 30
0.0
 40
0.5
  1
405015E
100
AcDbAttributeDefinition
  3

  2
LINA
 70
     8
280
     0
  0
ATTDEF
  5
99
330
90
100
AcDbEntity
  8
AM_6
100
AcDbText
 10
4.295461087879008
 20
-5.715713382995022
 30
0.0
 40
0.5
  1
405015E
100
AcDbAttributeDefinition
  3

  2
MN
 70
     8
280
     0
  0
ATTDEF
  5
9A
330
90
100
AcDbEntity
  8
AM_6
100
AcDbText
 10
4.295461087879008
 20
-6.215713382995022
 30
0.0
 40
0.5
  1
1/8 x 27PTF
100
AcDbAttributeDefinition
  3

  2
T
 70
     8
280
     0
  0
ATTDEF
  5
9B
330
90
100
AcDbEntity
  8
AM_6
100
AcDbText
 10
4.295461087879008
 20
-6.715713382995022
 30
0.0
 40
0.5
  1
baldor
100
AcDbAttributeDefinition
  3

  2
COMPANY
 70
     8
280
     0
  0
LINE
  5
9E
330
90
100
AcDbEntity
  8
AM_9
100
AcDbLine
 10
-0.8796933024482251
 20
-3.226733206743487
 30
0.0
 11
-0.9304329304768711
 21
-3.215713382995022
 31
0.0
  0
LINE
  5
9F
330
90
100
AcDbEntity
  8
AM_9
100
AcDbLine
 10
-0.7155587358694564
 20
-3.549816551439476
 30
0.0
 11
-0.7045389121209916
 21
-3.49907692341083
 31
0.0
  0
LINE
  5
A0
330
90
100
AcDbEntity
  8
AM_9
100
AcDbLine
 10
-0.7045389121209916
 20
-3.49907692341083
 30
0.0
 11
-0.8796933024482251
 21
-3.226733206743487
 31
0.0
  0
LINE
  5
A1
330
90
100
AcDbEntity
  8
AM_9
100
AcDbLine
 10
-0.9304329304768711
 20
-3.215713382995022
 30
0.0
 11
-1.126296197425253
 21
-3.333197985710735
 31
0.0
  0
LINE
  5
A2
330
90
100
AcDbEntity
  8
AM_9
100
AcDbLine
 10
-0.9037038025747477
 20
-3.679302014289263
 30
0.0
 11
-0.7155587358694564
 21
-3.549816551439476
 31
0.0
  0
LINE
  5
A3
330
90
100
AcDbEntity
  8
AM_9
100
AcDbLine
 10
-0.7155587358694564
 20
-3.549816551439476
 30
0.0
 11
-0.9304329304768711
 21
-3.215713382995022
 31
0.0
  0
LINE
  5
A5
330
90
100
AcDbEntity
  8
AM_5
100
AcDbLine
 10
-0.8692651557202761
 20
-3.612445050832267
 30
0.0
 11
-0.7045389121209911
 21
-3.49907692341083
 31
0.0
  0
LINE
  5
A6
330
90
100
AcDbEntity
  8
AM_5
100
AcDbLine
 10
-0.9037038025747481
 20
-3.679302014289264
 30
0.0
 11
-0.8692651557202761
 21
-3.612445050832267
 31
0.0
  0
LINE
  5
A7
330
90
100
AcDbEntity
  8
AM_5
100
AcDbLine
 10
-1.070416294407292
 20
-3.299679560800627
 30
0.0
 11
-0.8500259065373542
 21
-3.64235973706181
 31
0.0
  0
LINE
  5
A8
330
90
100
AcDbEntity
  8
AM_5
100
AcDbLine
 10
-1.05117704522437
 20
-3.32959424703017
 30
0.0
 11
-0.8796933024482251
 21
-3.226733206743487
 31
0.0
  0
LINE
  5
A9
330
90
100
AcDbEntity
  8
AM_5
100
AcDbLine
 10
-1.126296197425255
 20
-3.333197985710736
 30
0.0
 11
-1.05117704522437
 21
-3.32959424703017
 31
0.0
  0
LINE
  5
AC
330
90
100
AcDbEntity
  8
AM_7
100
AcDbLine
 10
-1.357316016359112
 20
-3.726406183070174
 30
0.0
 11
-0.7652018259001081
 21
-3.345595488029872
 31
0.0
  0
LINE
  5
AE
330
90
100
AcDbEntity
  8
AM_4
100
AcDbLine
 10
-1.244216664805863
 20
-3.528826992166287
 30
0.0
 11
-1.269448803603832
 21
-3.545054720648118
 31
0.0
  0
LINE
  5
AF
330
90
100
AcDbEntity
  8
AM_4
100
AcDbLine
 10
-1.155854704231015
 20
-3.7216796922339
 30
0.0
 11
-1.130622565433046
 21
-3.70545196375207
 31
0.0
  0
LINE
  5
B0
330
90
100
AcDbEntity
  8
AM_4
100
AcDbLine
 10
-1.133327186846685
 20
-3.322265654598143
 30
0.0
 11
-1.159258964160416
 21
-3.298708062173074
 31
0.0
  0
LINE
  5
B1
330
90
100
AcDbEntity
  8
AM_4
100
AcDbLine
 10
-0.9807799424798785
 20
-3.744326773674626
 30
0.0
 11
-0.9548481651661478
 21
-3.767884366099694
 31
0.0
  0
LINE
  5
B2
330
90
100
AcDbEntity
  8
AM_4
100
AcDbLine
 10
-0.9807799424798785
 20
-3.744326773674626
 30
0.0
 11
-1.217434316173248
 21
-3.376358082870913
 31
0.0
  0
LINE
  5
B3
330
90
100
AcDbEntity
  8
AM_4
100
AcDbLine
 10
-0.8859940314468778
 20
-3.72360170755083
 30
0.0
 11
-0.8966728131533156
 21
-3.690234345401856
 31
0.0
  0
LINE
  5
B4
330
90
100
AcDbEntity
  8
AM_4
100
AcDbLine
 10
-1.228113097879686
 20
-3.342990720721938
 30
0.0
 11
-1.217434316173248
 21
-3.376358082870913
 31
0.0
  0
LINE
  5
B5
330
90
100
AcDbEntity
  8
AM_4
100
AcDbLine
 10
-1.130622565433046
 20
-3.70545196375207
 30
0.0
 11
-1.096025019060993
 21
-3.699632525780837
 31
0.0
  0
LINE
  5
B6
330
90
100
AcDbEntity
  8
AM_4
100
AcDbLine
 10
-1.224570363769823
 20
-3.499760191020157
 30
0.0
 11
-1.244216664805863
 21
-3.528826992166287
 31
0.0
  0
LINE
  5
B7
330
90
100
AcDbEntity
  8
AM_4
100
AcDbLine
 10
-1.130622565433046
 20
-3.70545196375207
 30
0.0
 11
-1.244216664805863
 21
-3.528826992166287
 31
0.0
  0
LINE
  5
B8
330
90
100
AcDbEntity
  8
AM_4
100
AcDbLine
 10
-1.269448803603832
 20
-3.545054720648118
 30
0.0
 11
-1.336140809681601
 21
-3.552278038813812
 31
0.0
  0
LINE
  5
B9
330
90
100
AcDbEntity
  8
AM_4
100
AcDbLine
 10
-1.190091253345122
 20
-3.779367287995532
 30
0.0
 11
-1.155854704231015
 21
-3.7216796922339
 31
0.0
  0
LINE
  5
BA
330
90
100
AcDbEntity
  8
AM_4
100
AcDbLine
 10
-1.155854704231015
 20
-3.7216796922339
 30
0.0
 11
-1.269448803603832
 21
-3.545054720648118
 31
0.0
  0
LINE
  5
BB
330
90
100
AcDbEntity
  8
AM_4
100
AcDbLine
 10
-1.274860764519417
 20
-3.795456041791635
 30
0.0
 11
-1.190091253345122
 21
-3.779367287995532
 31
0.0
  0
LINE
  5
BC
330
90
100
AcDbEntity
  8
AM_4
100
AcDbLine
 10
-1.336140809681601
 20
-3.552278038813812
 30
0.0
 11
-1.385942705429807
 21
-3.62273717025414
 31
0.0
  0
LINE
  5
BD
330
90
100
AcDbEntity
  8
AM_4
100
AcDbLine
 10
-1.274860764519417
 20
-3.795456041791635
 30
0.0
 11
-1.385942705429807
 21
-3.62273717025414
 31
0.0
  0
LINE
  5
BE
330
90
100
AcDbEntity
  8
AM_4
100
AcDbLine
 10
-1.190091253345122
 20
-3.779367287995532
 30
0.0
 11
-1.336140809681601
 21
-3.552278038813812
 31
0.0
  0
LINE
  5
BF
330
90
100
AcDbEntity
  8
AM_4
100
AcDbLine
 10
-1.096025019060993
 20
-3.699632525780837
 30
0.0
 11
-1.021186181245421
 21
-3.715364626006467
 31
0.0
  0
LINE
  5
C0
330
90
100
AcDbEntity
  8
AM_4
100
AcDbLine
 10
-1.207841899281858
 20
-3.425137747352253
 30
0.0
 11
-1.224570363769823
 21
-3.499760191020157
 31
0.0
  0
LINE
  5
C1
330
90
100
AcDbEntity
  8
AM_4
100
AcDbLine
 10
-1.096025019060993
 20
-3.699632525780837
 30
0.0
 11
-1.224570363769823
 21
-3.499760191020157
 31
0.0
  0
LINE
  5
C2
330
90
100
AcDbEntity
  8
AM_4
100
AcDbLine
 10
-1.021186181245421
 20
-3.715364626006467
 30
0.0
 11
-0.9834845638935171
 21
-3.740121417208298
 31
0.0
  0
LINE
  5
C3
330
90
100
AcDbEntity
  8
AM_4
100
AcDbLine
 10
-1.21472969475961
 20
-3.380563439337241
 30
0.0
 11
-1.207841899281858
 21
-3.425137747352253
 31
0.0
  0
LINE
  5
C4
330
90
100
AcDbEntity
  8
AM_4
100
AcDbLine
 10
-1.021186181245421
 20
-3.715364626006467
 30
0.0
 11
-1.207841899281858
 21
-3.425137747352253
 31
0.0
  0
LWPOLYLINE
  5
C5
330
90
100
AcDbEntity
  8
AM_4
100
AcDbPolyline
 90
        3
 70
     0
 43
0.0
 10
-0.9548481651661478
 20
-3.767884366099694
 10
-0.977446141597375
 20
-3.745046725214153
 10
-0.9966327795589867
 20
-3.719677545289428
  0
LINE
  5
C6
330
90
100
AcDbEntity
  8
AM_4
100
AcDbLine
 10
-0.9548481651661478
 20
-3.767884366099694
 30
0.0
 11
-0.8859940314468778
 21
-3.72360170755083
 31
0.0
  0
LWPOLYLINE
  5
C7
330
90
100
AcDbEntity
  8
AM_4
100
AcDbPolyline
 90
        3
 70
     0
 43
0.0
 10
-0.9125256502324235
 20
-3.665585117016658
 10
-0.8974595958099736
 20
-3.693435607637207
 10
-0.8859940314468778
 20
-3.72360170755083
  0
LWPOLYLINE
  5
C8
330
90
100
AcDbEntity
  8
AM_4
100
AcDbPolyline
 90
        3
 70
     0
 43
0.0
 10
-0.9966327795589867
 20
-3.719677545289428
 10
-1.011698833981437
 20
-3.69182705466888
 10
-1.023164398344532
 20
-3.661660954755255
  0
LWPOLYLINE
  5
C9
330
90
100
AcDbEntity
  8
AM_4
100
AcDbPolyline
 90
        3
 70
     0
 43
0.0
 10
-1.099107129326564
 20
-3.560342428272769
 10
-1.13125224204361
 20
-3.505936084816111
 10
-1.159796864701302
 20
-3.449214132066377
  0
LWPOLYLINE
  5
CA
330
90
100
AcDbEntity
  8
AM_4
100
AcDbPolyline
 90
        4
 70
     0
 43
0.0
 10
-1.023164398344532
 20
-3.661660954755255
 10
-1.042134757971585
 20
-3.638792249981844
 10
-1.071650120908395
 20
-3.600398816991612
 10
-1.099107129326564
 20
-3.560342428272769
  0
LINE
  5
CB
330
90
100
AcDbEntity
  8
AM_4
100
AcDbLine
 10
-1.023164398344532
 20
-3.661660954755255
 30
0.0
 11
-0.9543102646252624
 21
-3.617378296206391
 31
0.0
  0
LWPOLYLINE
  5
CC
330
90
100
AcDbEntity
  8
AM_4
100
AcDbPolyline
 90
        3
 70
     0
 43
0.0
 10
-1.090942730982032
 20
-3.404931473517513
 10
-1.051342488301225
 20
-3.454205564974047
 10
-1.015000000000001
 20
-3.506249999999999
  0
LINE
  5
CD
330
90
100
AcDbEntity
  8
AM_4
100
AcDbLine
 10
-1.228113097879686
 20
-3.342990720721938
 30
0.0
 11
-1.159258964160416
 21
-3.298708062173074
 31
0.0
  0
LWPOLYLINE
  5
CE
330
90
100
AcDbEntity
  8
AM_4
100
AcDbPolyline
 90
        3
 70
     0
 43
0.0
 10
-1.201581479094141
 20
-3.401007311256111
 10
-1.21664753351659
 20
-3.373156820635562
 10
-1.228113097879686
 20
-3.342990720721938
  0
LWPOLYLINE
  5
CF
330
90
100
AcDbEntity
  8
AM_4
100
AcDbPolyline
 90
        3
 70
     0
 43
0.0
 10
-1.159796864701302
 20
-3.449214132066377
 10
-1.182394841132529
 20
-3.426376491180836
 10
-1.201581479094141
 20
-3.401007311256111
  0
LINE
  5
D0
330
90
100
AcDbEntity
  8
AM_4
100
AcDbLine
 10
-1.159796864701302
 20
-3.449214132066377
 30
0.0
 11
-1.090942730982032
 21
-3.404931473517513
 31
0.0
  0
LWPOLYLINE
  5
D1
330
90
100
AcDbEntity
  8
AM_4
100
AcDbPolyline
 90
        3
 70
     0
 43
0.0
 10
-1.117474349767577
 20
-3.346914882983341
 10
-1.102408295345128
 20
-3.37476537360389
 10
-1.090942730982032
 20
-3.404931473517513
  0
LWPOLYLINE
  5
D2
330
90
100
AcDbEntity
  8
AM_4
100
AcDbPolyline
 90
        3
 70
     0
 43
0.0
 10
-1.159258964160416
 20
-3.298708062173074
 10
-1.136660987729189
 20
-3.321545703058615
 10
-1.117474349767577
 20
-3.346914882983341
  0
LWPOLYLINE
  5
D3
330
90
100
AcDbEntity
  8
AM_4
100
AcDbPolyline
 90
        4
 70
     0
 43
0.0
 10
-1.015000000000001
 20
-3.506249999999999
 10
-0.9900116338414559
 20
-3.547724488898093
 10
-0.9672498282182193
 20
-3.590630961826738
 10
-0.9543102646252624
 20
-3.617378296206391
  0
LWPOLYLINE
  5
D4
330
90
100
AcDbEntity
  8
AM_4
100
AcDbPolyline
 90
        3
 70
     0
 43
0.0
 10
-0.9543102646252624
 20
-3.617378296206391
 10
-0.9317122881940352
 20
-3.640215937091932
 10
-0.9125256502324235
 20
-3.665585117016658
  0
ENDBLK
  5
93
330
90
100
AcDbEntity
  8
0
100
AcDbBlockEnd
  0
BLOCK
  5
D7
330
D5
100
AcDbEntity
  8
0
100
AcDbBlockBegin
  2
3_405015E_Inch_2_0_in_072372_2
 70
     2
 10
0.0
 20
0.0
 30
0.0
  3
3_405015E_Inch_2_0_in_072372_2
  1

  0
ATTDEF
  5
D9
330
D5
100
AcDbEntity
  8
AM_6
100
AcDbText
 10
4.295461087879008
 20
3.795456041791636
 30
0.0
 40
0.5
  1
405015E -Inch
100
AcDbAttributeDefinition
  3

  2
NN
 70
     8
280
     0
  0
ATTDEF
  5
DA
330
D5
100
AcDbEntity
  8
AM_6
100
AcDbText
 10
4.295461087879008
 20
3.295456041791636
 30
0.0
 40
0.5
  1
Grease Fitting
100
AcDbAttributeDefinition
  3

  2
NT
 70
     8
280
     0
  0
ATTDEF
  5
DB
330
D5
100
AcDbEntity
  8
AM_6
100
AcDbText
 10
4.295461087879008
 20
2.795456041791636
 30
0.0
 40
0.5
  1
405015E-Inch
100
AcDbAttributeDefinition
  3

  2
NB
 70
     8
280
     0
  0
ATTDEF
  5
DC
330
D5
100
AcDbEntity
  8
AM_6
100
AcDbText
 10
4.295461087879008
 20
2.295456041791636
 30
0.0
 40
0.5
  1
$MN.-Inch
100
AcDbAttributeDefinition
  3

  2
NBSYN
 70
     8
280
     0
  0
ATTDEF
  5
DD
330
D5
100
AcDbEntity
  8
AM_6
100
AcDbText
 10
4.295461087879008
 20
1.795456041791636
 30
0.0
 40
0.5
  1
405015E
100
AcDbAttributeDefinition
  3

  2
LINA
 70
     8
280
     0
  0
ATTDEF
  5
DE
330
D5
100
AcDbEntity
  8
AM_6
100
AcDbText
 10
4.295461087879008
 20
1.295456041791636
 30
0.0
 40
0.5
  1
405015E
100
AcDbAttributeDefinition
  3

  2
MN
 70
     8
280
     0
  0
ATTDEF
  5
DF
330
D5
100
AcDbEntity
  8
AM_6
100
AcDbText
 10
4.295461087879008
 20
0.7954560417916361
 30
0.0
 40
0.5
  1
1/8 x 27PTF
100
AcDbAttributeDefinition
  3

  2
T
 70
     8
280
     0
  0
ATTDEF
  5
E0
330
D5
100
AcDbEntity
  8
AM_6
100
AcDbText
 10
4.295461087879008
 20
0.2954560417916361
 30
0.0
 40
0.5
  1
baldor
100
AcDbAttributeDefinition
  3

  2
COMPANY
 70
     8
280
     0
  0
LINE
  5
E1
330
D5
100
AcDbEntity
  8
AM_9
100
AcDbLine
 10
-0.8796933024482247
 20
3.226733206743488
 30
0.0
 11
-0.7045389121209916
 21
3.499076923410831
 31
0.0
  0
LINE
  5
E2
330
D5
100
AcDbEntity
  8
AM_9
100
AcDbLine
 10
-0.7045389121209916
 20
3.499076923410831
 30
0.0
 11
-0.7155587358694564
 21
3.549816551439477
 31
0.0
  0
LINE
  5
E3
330
D5
100
AcDbEntity
  8
AM_9
100
AcDbLine
 10
-0.9304329304768709
 20
3.215713382995022
 30
0.0
 11
-0.8796933024482247
 21
3.226733206743488
 31
0.0
  0
LINE
  5
E4
330
D5
100
AcDbEntity
  8
AM_9
100
AcDbLine
 10
-0.9304329304768709
 20
3.215713382995022
 30
0.0
 11
-0.7155587358694564
 21
3.549816551439477
 31
0.0
  0
LINE
  5
E5
330
D5
100
AcDbEntity
  8
AM_9
100
AcDbLine
 10
-0.7155587358694564
 20
3.549816551439477
 30
0.0
 11
-0.9037038025747478
 21
3.679302014289265
 31
0.0
  0
LINE
  5
E6
330
D5
100
AcDbEntity
  8
AM_9
100
AcDbLine
 10
-1.126296197425253
 20
3.333197985710736
 30
0.0
 11
-0.9304329304768709
 21
3.215713382995022
 31
0.0
  0
LINE
  5
E7
330
D5
100
AcDbEntity
  8
AM_5
100
AcDbLine
 10
-1.05117704522437
 20
3.32959424703017
 30
0.0
 11
-0.8796933024482244
 21
3.226733206743488
 31
0.0
  0
LINE
  5
E8
330
D5
100
AcDbEntity
  8
AM_5
100
AcDbLine
 10
-1.126296197425253
 20
3.333197985710736
 30
0.0
 11
-1.05117704522437
 21
3.329594247030171
 31
0.0
  0
LINE
  5
E9
330
D5
100
AcDbEntity
  8
AM_5
100
AcDbLine
 10
-0.8500259065373548
 20
3.64235973706181
 30
0.0
 11
-1.070416294407292
 21
3.299679560800628
 31
0.0
  0
LINE
  5
EA
330
D5
100
AcDbEntity
  8
AM_5
100
AcDbLine
 10
-0.8692651557202754
 20
3.612445050832267
 30
0.0
 11
-0.7045389121209917
 21
3.499076923410831
 31
0.0
  0
LINE
  5
EB
330
D5
100
AcDbEntity
  8
AM_5
100
AcDbLine
 10
-0.903703802574747
 20
3.679302014289263
 30
0.0
 11
-0.8692651557202755
 21
3.612445050832267
 31
0.0
  0
LINE
  5
EC
330
D5
100
AcDbEntity
  8
AM_7
100
AcDbLine
 10
-1.357316016359112
 20
3.726406183070175
 30
0.0
 11
-0.765201825900108
 21
3.345595488029873
 31
0.0
  0
LINE
  5
ED
330
D5
100
AcDbEntity
  8
AM_4
100
AcDbLine
 10
-1.130622565433046
 20
3.70545196375207
 30
0.0
 11
-1.155854704231015
 21
3.721679692233902
 31
0.0
  0
LINE
  5
EE
330
D5
100
AcDbEntity
  8
AM_4
100
AcDbLine
 10
-1.269448803603832
 20
3.545054720648119
 30
0.0
 11
-1.244216664805863
 21
3.528826992166288
 31
0.0
  0
LINE
  5
EF
330
D5
100
AcDbEntity
  8
AM_4
100
AcDbLine
 10
-1.217434316173248
 20
3.376358082870913
 30
0.0
 11
-0.9807799424798789
 21
3.744326773674627
 31
0.0
  0
LINE
  5
F0
330
D5
100
AcDbEntity
  8
AM_4
100
AcDbLine
 10
-0.954848165166148
 20
3.767884366099695
 30
0.0
 11
-0.9807799424798789
 21
3.744326773674627
 31
0.0
  0
LINE
  5
F1
330
D5
100
AcDbEntity
  8
AM_4
100
AcDbLine
 10
-1.217434316173248
 20
3.376358082870913
 30
0.0
 11
-1.228113097879686
 21
3.342990720721939
 31
0.0
  0
LINE
  5
F2
330
D5
100
AcDbEntity
  8
AM_4
100
AcDbLine
 10
-1.159258964160416
 20
3.298708062173076
 30
0.0
 11
-1.133327186846685
 21
3.322265654598143
 31
0.0
  0
LINE
  5
F3
330
D5
100
AcDbEntity
  8
AM_4
100
AcDbLine
 10
-0.8966728131533158
 20
3.690234345401857
 30
0.0
 11
-0.8859940314468779
 21
3.723601707550832
 31
0.0
  0
LINE
  5
F4
330
D5
100
AcDbEntity
  8
AM_4
100
AcDbLine
 10
-1.244216664805863
 20
3.528826992166288
 30
0.0
 11
-1.130622565433046
 21
3.70545196375207
 31
0.0
  0
LINE
  5
F5
330
D5
100
AcDbEntity
  8
AM_4
100
AcDbLine
 10
-1.244216664805863
 20
3.528826992166288
 30
0.0
 11
-1.224570363769823
 21
3.499760191020158
 31
0.0
  0
LINE
  5
F6
330
D5
100
AcDbEntity
  8
AM_4
100
AcDbLine
 10
-1.096025019060993
 20
3.699632525780838
 30
0.0
 11
-1.130622565433046
 21
3.70545196375207
 31
0.0
  0
LINE
  5
F7
330
D5
100
AcDbEntity
  8
AM_4
100
AcDbLine
 10
-1.269448803603832
 20
3.545054720648119
 30
0.0
 11
-1.155854704231015
 21
3.721679692233902
 31
0.0
  0
LINE
  5
F8
330
D5
100
AcDbEntity
  8
AM_4
100
AcDbLine
 10
-1.155854704231015
 20
3.721679692233902
 30
0.0
 11
-1.190091253345122
 21
3.779367287995532
 31
0.0
  0
LINE
  5
F9
330
D5
100
AcDbEntity
  8
AM_4
100
AcDbLine
 10
-1.336140809681601
 20
3.552278038813812
 30
0.0
 11
-1.269448803603832
 21
3.545054720648119
 31
0.0
  0
LINE
  5
FA
330
D5
100
AcDbEntity
  8
AM_4
100
AcDbLine
 10
-1.385942705429807
 20
3.622737170254141
 30
0.0
 11
-1.274860764519417
 21
3.795456041791636
 31
0.0
  0
LINE
  5
FB
330
D5
100
AcDbEntity
  8
AM_4
100
AcDbLine
 10
-1.336140809681601
 20
3.552278038813812
 30
0.0
 11
-1.190091253345122
 21
3.779367287995532
 31
0.0
  0
LINE
  5
FC
330
D5
100
AcDbEntity
  8
AM_4
100
AcDbLine
 10
-1.385942705429807
 20
3.622737170254141
 30
0.0
 11
-1.336140809681601
 21
3.552278038813812
 31
0.0
  0
LINE
  5
FD
330
D5
100
AcDbEntity
  8
AM_4
100
AcDbLine
 10
-1.190091253345122
 20
3.779367287995532
 30
0.0
 11
-1.274860764519417
 21
3.795456041791636
 31
0.0
  0
LINE
  5
FE
330
D5
100
AcDbEntity
  8
AM_4
100
AcDbLine
 10
-1.224570363769823
 20
3.499760191020158
 30
0.0
 11
-1.096025019060993
 21
3.699632525780838
 31
0.0
  0
LINE
  5
FF
330
D5
100
AcDbEntity
  8
AM_4
100
AcDbLine
 10
-1.224570363769823
 20
3.499760191020158
 30
0.0
 11
-1.207841899281858
 21
3.425137747352253
 31
0.0
  0
LINE
  5
100
330
D5
100
AcDbEntity
  8
AM_4
100
AcDbLine
 10
-1.021186181245422
 20
3.715364626006468
 30
0.0
 11
-1.096025019060993
 21
3.699632525780838
 31
0.0
  0
LINE
  5
101
330
D5
100
AcDbEntity
  8
AM_4
100
AcDbLine
 10
-1.207841899281858
 20
3.425137747352253
 30
0.0
 11
-1.021186181245422
 21
3.715364626006468
 31
0.0
  0
LINE
  5
102
330
D5
100
AcDbEntity
  8
AM_4
100
AcDbLine
 10
-1.207841899281858
 20
3.425137747352253
 30
0.0
 11
-1.21472969475961
 21
3.380563439337242
 31
0.0
  0
LINE
  5
103
330
D5
100
AcDbEntity
  8
AM_4
100
AcDbLine
 10
-0.9834845638935175
 20
3.740121417208299
 30
0.0
 11
-1.021186181245422
 21
3.715364626006468
 31
0.0
  0
LINE
  5
104
330
D5
100
AcDbEntity
  8
AM_4
100
AcDbLine
 10
-0.954848165166148
 20
3.767884366099695
 30
0.0
 11
-0.8859940314468779
 21
3.723601707550832
 31
0.0
  0
LWPOLYLINE
  5
105
330
D5
100
AcDbEntity
  8
AM_4
100
AcDbPolyline
 90
        3
 70
     0
 43
0.0
 10
-0.9966327795589868
 20
3.719677545289429
 10
-0.9775407173922445
 20
3.7449387603411
 10
-0.954848165166148
 20
3.767884366099695
  0
LWPOLYLINE
  5
106
330
D5
100
AcDbEntity
  8
AM_4
100
AcDbPolyline
 90
        3
 70
     0
 43
0.0
 10
-0.8859940314468779
 20
3.723601707550832
 10
-0.89740058751481
 20
3.693566447294387
 10
-0.9125256502324237
 20
3.665585117016659
  0
LWPOLYLINE
  5
107
330
D5
100
AcDbEntity
  8
AM_4
100
AcDbPolyline
 90
        3
 70
     0
 43
0.0
 10
-1.023164398344532
 20
3.661660954755257
 10
-1.0117578422766
 20
3.691696215011701
 10
-0.9966327795589868
 20
3.719677545289429
  0
LINE
  5
108
330
D5
100
AcDbEntity
  8
AM_4
100
AcDbLine
 10
-1.023164398344532
 20
3.661660954755257
 30
0.0
 11
-0.9543102646252625
 21
3.617378296206392
 31
0.0
  0
LWPOLYLINE
  5
109
330
D5
100
AcDbEntity
  8
AM_4
100
AcDbPolyline
 90
        4
 70
     0
 43
0.0
 10
-1.099107129326564
 20
3.56034242827277
 10
-1.071734223916728
 20
3.600283331142583
 10
-1.042134757971585
 20
3.638792249981845
 10
-1.023164398344532
 20
3.661660954755257
  0
LWPOLYLINE
  5
10A
330
D5
100
AcDbEntity
  8
AM_4
100
AcDbPolyline
 90
        3
 70
     0
 43
0.0
 10
-1.015000000000001
 20
3.506250000000001
 10
-1.051171120461339
 20
3.45443293211222
 10
-1.090942730982032
 20
3.404931473517514
  0
LWPOLYLINE
  5
10B
330
D5
100
AcDbEntity
  8
AM_4
100
AcDbPolyline
 90
        3
 70
     0
 43
0.0
 10
-1.159796864701302
 20
3.449214132066378
 10
-1.13138804238379
 20
3.505685842893815
 10
-1.099107129326564
 20
3.56034242827277
  0
LWPOLYLINE
  5
10C
330
D5
100
AcDbEntity
  8
AM_4
100
AcDbPolyline
 90
        3
 70
     0
 43
0.0
 10
-0.9125256502324237
 20
3.665585117016659
 10
-0.931617712399166
 20
3.640323901964988
 10
-0.9543102646252625
 20
3.617378296206392
  0
LWPOLYLINE
  5
10D
330
D5
100
AcDbEntity
  8
AM_4
100
AcDbPolyline
 90
        4
 70
     0
 43
0.0
 10
-0.9543102646252625
 20
3.617378296206392
 10
-0.9672498282182195
 20
3.59063096182674
 10
-0.9899414379905824
 20
3.547848918958197
 10
-1.015000000000001
 20
3.506250000000001
  0
LINE
  5
10E
330
D5
100
AcDbEntity
  8
AM_4
100
AcDbLine
 10
-1.159796864701302
 20
3.449214132066378
 30
0.0
 11
-1.090942730982032
 21
3.404931473517514
 31
0.0
  0
LWPOLYLINE
  5
10F
330
D5
100
AcDbEntity
  8
AM_4
100
AcDbPolyline
 90
        3
 70
     0
 43
0.0
 10
-1.20158147909414
 20
3.401007311256112
 10
-1.182489416927398
 20
3.426268526307783
 10
-1.159796864701302
 20
3.449214132066378
  0
LWPOLYLINE
  5
110
330
D5
100
AcDbEntity
  8
AM_4
100
AcDbPolyline
 90
        3
 70
     0
 43
0.0
 10
-1.228113097879686
 20
3.342990720721939
 10
-1.216706541811754
 20
3.373025980978383
 10
-1.20158147909414
 20
3.401007311256112
  0
LINE
  5
111
330
D5
100
AcDbEntity
  8
AM_4
100
AcDbLine
 10
-1.228113097879686
 20
3.342990720721939
 30
0.0
 11
-1.159258964160416
 21
3.298708062173076
 31
0.0
  0
LWPOLYLINE
  5
112
330
D5
100
AcDbEntity
  8
AM_4
100
AcDbPolyline
 90
        3
 70
     0
 43
0.0
 10
-1.117474349767577
 20
3.346914882983342
 10
-1.13656641193432
 20
3.321653667931671
 10
-1.159258964160416
 20
3.298708062173076
  0
LWPOLYLINE
  5
113
330
D5
100
AcDbEntity
  8
AM_4
100
AcDbPolyline
 90
        3
 70
     0
 43
0.0
 10
-1.090942730982032
 20
3.404931473517514
 10
-1.102349287049964
 20
3.37489621326107
 10
-1.117474349767577
 20
3.346914882983342
  0
ENDBLK
  5
D8
330
D5
100
AcDbEntity
  8
0
100
AcDbBlockEnd
  0
BLOCK
  5
116
330
114
100
AcDbEntity
  8
0
100
AcDbBlockBegin
  2
4_ASME_B18_3_10_1_0_in_072372_2
 70
     2
 10
0.0
 20
0.0
 30
0.0
  3
4_ASME_B18_3_10_1_0_in_072372_2
  1

  0
ATTDEF
  5
118
330
114
100
AcDbEntity
  8
AM_6
100
AcDbText
 10
3.800999666666667
 20
-1.636340277777778
 30
0.0
 40
0.5
  1
ANSI/ASME-B18.3-1998
100
AcDbAttributeDefinition
  3

  2
NN
 70
     8
280
     0
  0
ATTDEF
  5
119
330
114
100
AcDbEntity
  8
AM_6
100
AcDbText
 10
3.800999666666667
 20
-2.136340277777778
 30
0.0
 40
0.5
  1
Socket Button Head Cap Screws
100
AcDbAttributeDefinition
  3

  2
NT
 70
     8
280
     0
  0
ATTDEF
  5
11A
330
114
100
AcDbEntity
  8
AM_6
100
AcDbText
 10
3.800999666666667
 20
-2.636340277777778
 30
0.0
 40
0.5
  1
ASME-B18.3-10
100
AcDbAttributeDefinition
  3

  2
NB
 70
     8
280
     0
  0
ATTDEF
  5
11B
330
114
100
AcDbEntity
  8
AM_6
100
AcDbText
 10
3.800999666666667
 20
-3.136340277777778
 30
0.0
 40
0.5
  1
ASME-B18.3-$NS.
100
AcDbAttributeDefinition
  3

  2
NBSYN
 70
     8
280
     0
  0
ATTDEF
  5
11C
330
114
100
AcDbEntity
  8
AM_6
100
AcDbText
 10
3.800999666666667
 20
-3.636340277777778
 30
0.0
 40
0.5
  1
ASME-B18.3-10
100
AcDbAttributeDefinition
  3

  2
LINA
 70
     8
280
     0
  0
ATTDEF
  5
11D
330
114
100
AcDbEntity
  8
AM_6
100
AcDbText
 10
3.800999666666667
 20
-4.136340277777778
 30
0.0
 40
0.5
  1
10
100
AcDbAttributeDefinition
  3

  2
NS
 70
     8
280
     0
  0
ATTDEF
  5
11E
330
114
100
AcDbEntity
  8
AM_6
100
AcDbText
 10
3.800999666666667
 20
-4.636340277777778
 30
0.0
 40
0.5
  1
0.361
100
AcDbAttributeDefinition
  3

  2
A
 70
     8
280
     0
  0
ATTDEF
  5
11F
330
114
100
AcDbEntity
  8
AM_6
100
AcDbText
 10
3.800999666666667
 20
-5.136340277777778
 30
0.0
 40
0.5
  1
0.101
100
AcDbAttributeDefinition
  3

  2
H
 70
     8
280
     0
  0
ATTDEF
  5
120
330
114
100
AcDbEntity
  8
AM_6
100
AcDbText
 10
3.800999666666667
 20
-5.636340277777778
 30
0.0
 40
0.5
  1
0.800
100
AcDbAttributeDefinition
  3

  2
L
 70
     8
280
     0
  0
ATTDEF
  5
121
330
114
100
AcDbEntity
  8
AM_6
100
AcDbText
 10
3.800999666666667
 20
-6.136340277777778
 30
0.0
 40
0.5
  1
0.020
100
AcDbAttributeDefinition
  3

  2
S
 70
     8
280
     0
  0
ATTDEF
  5
122
330
114
100
AcDbEntity
  8
AM_6
100
AcDbText
 10
3.800999666666667
 20
-6.636340277777778
 30
0.0
 40
0.5
  1
0.125000
100
AcDbAttributeDefinition
  3

  2
J
 70
     8
280
     0
  0
ATTDEF
  5
123
330
114
100
AcDbEntity
  8
AM_6
100
AcDbText
 10
3.800999666666667
 20
-7.136340277777778
 30
0.0
 40
0.5
  1
baldor
100
AcDbAttributeDefinition
  3

  2
COMPANY
 70
     8
280
     0
  0
LINE
  5
124
330
114
100
AcDbEntity
  8
AM_9
100
AcDbLine
 10
-2.039000333333334
 20
-1.744671494129074
 30
0.0
 11
-2.100000333333333
 21
-1.744671494129074
 31
0.0
  0
LINE
  5
125
330
114
100
AcDbEntity
  8
AM_9
100
AcDbLine
 10
-2.039000333333334
 20
-1.889009061426481
 30
0.0
 11
-2.100000333333333
 21
-1.889009061426481
 31
0.0
  0
LINE
  5
126
330
114
100
AcDbEntity
  8
AM_9
100
AcDbLine
 10
-2.039000333333334
 20
-1.780755885953426
 30
0.0
 11
-2.100000333333333
 21
-1.780755885953426
 31
0.0
  0
LINE
  5
127
330
114
100
AcDbEntity
  8
AM_9
100
AcDbLine
 10
-2.039000333333334
 20
-1.744671494129074
 30
0.0
 11
-2.039000333333334
 21
-1.889009061426481
 31
0.0
  0
LINE
  5
128
330
114
100
AcDbEntity
  8
AM_9
100
AcDbLine
 10
-2.039000333333334
 20
-1.852924669602129
 30
0.0
 11
-2.100000333333333
 21
-1.852924669602129
 31
0.0
  0
LINE
  5
129
330
114
100
AcDbEntity
  8
AM_9
100
AcDbLine
 10
-1.199000333333333
 20
-1.746640277777778
 30
0.0
 11
-1.199000333333333
 21
-1.887040277777778
 31
0.0
  0
LINE
  5
12A
330
114
100
AcDbEntity
  8
AM_9
100
AcDbLine
 10
-1.199000333333333
 20
-1.746640277777778
 30
0.0
 11
-1.223800333333334
 21
-1.721840277777778
 31
0.0
  0
LINE
  5
12B
330
114
100
AcDbEntity
  8
AM_9
100
AcDbLine
 10
-1.223800333333334
 20
-1.911840277777778
 30
0.0
 11
-1.199000333333333
 21
-1.887040277777778
 31
0.0
  0
LINE
  5
12C
330
114
100
AcDbEntity
  8
AM_9
100
AcDbLine
 10
-1.223800333333334
 20
-1.721840277777778
 30
0.0
 11
-1.223800333333334
 21
-1.911840277777778
 31
0.0
  0
LINE
  5
12D
330
114
100
AcDbEntity
  8
AM_9
100
AcDbLine
 10
-1.896833333333334
 20
-1.911840277777778
 30
0.0
 11
-1.223800333333334
 21
-1.911840277777778
 31
0.0
  0
LINE
  5
12E
330
114
100
AcDbEntity
  8
AM_9
100
AcDbLine
 10
-1.223800333333334
 20
-1.721840277777778
 30
0.0
 11
-1.896833333333334
 21
-1.721840277777778
 31
0.0
  0
LINE
  5
12F
330
114
100
AcDbEntity
  8
AM_5
100
AcDbLine
 10
-1.199000333333333
 20
-1.887040277777778
 30
0.0
 11
-1.896833333333334
 21
-1.887040277777778
 31
0.0
  0
LINE
  5
130
330
114
100
AcDbEntity
  8
AM_5
100
AcDbLine
 10
-1.199000333333333
 20
-1.746640277777778
 30
0.0
 11
-1.896833333333334
 21
-1.746640277777778
 31
0.0
  0
LINE
  5
131
330
114
100
AcDbEntity
  8
AM_4
100
AcDbLine
 10
-1.999000333333333
 20
-1.911840277777778
 30
0.0
 11
-1.896833333333334
 21
-1.911840277777778
 31
0.0
  0
LINE
  5
132
330
114
100
AcDbEntity
  8
AM_4
100
AcDbLine
 10
-1.896833333333334
 20
-1.721840277777778
 30
0.0
 11
-1.999000333333333
 21
-1.721840277777778
 31
0.0
  0
LINE
  5
133
330
114
100
AcDbEntity
  8
AM_4
100
AcDbLine
 10
-2.100000333333333
 20
-1.717340277777778
 30
0.0
 11
-2.100000333333333
 21
-1.916340277777778
 31
0.0
  0
ARC
  5
134
330
114
100
AcDbEntity
  8
AM_4
100
AcDbCircle
 10
-2.019000333333334
 20
-1.916340277777777
 30
0.0
 40
0.0809999999999995
100
AcDbArc
 50
180.0
 51
270.0
  0
ARC
  5
135
330
114
100
AcDbEntity
  8
AM_4
100
AcDbCircle
 10
-2.019000333333334
 20
-1.717340277777778
 30
0.0
 40
0.0810000000000002
100
AcDbArc
 50
90.0
 51
180.0
  0
LINE
  5
136
330
114
100
AcDbEntity
  8
AM_4
100
AcDbLine
 10
-1.999000333333333
 20
-1.636340277777778
 30
0.0
 11
-1.999000333333333
 21
-1.997340277777778
 31
0.0
  0
LINE
  5
137
330
114
100
AcDbEntity
  8
AM_4
100
AcDbLine
 10
-2.019000333333334
 20
-1.636340277777778
 30
0.0
 11
-2.019000333333334
 21
-1.997340277777778
 31
0.0
  0
LINE
  5
138
330
114
100
AcDbEntity
  8
AM_4
100
AcDbLine
 10
-2.019000333333334
 20
-1.997340277777778
 30
0.0
 11
-1.999000333333333
 21
-1.997340277777778
 31
0.0
  0
LINE
  5
139
330
114
100
AcDbEntity
  8
AM_4
100
AcDbLine
 10
-1.999000333333333
 20
-1.636340277777778
 30
0.0
 11
-2.019000333333334
 21
-1.636340277777778
 31
0.0
  0
LINE
  5
13A
330
114
100
AcDbEntity
  8
AM_5
100
AcDbLine
 10
-1.896833333333334
 20
-1.887040277777778
 30
0.0
 11
-2.039000333333334
 21
-1.887040277777778
 31
0.0
  0
LINE
  5
13B
330
114
100
AcDbEntity
  8
AM_5
100
AcDbLine
 10
-2.299000333333334
 20
-1.911840277777778
 30
0.0
 11
-2.299000333333334
 21
-1.721840277777778
 31
0.0
  0
LINE
  5
13C
330
114
100
AcDbEntity
  8
AM_5
100
AcDbLine
 10
-1.896833333333334
 20
-1.746640277777778
 30
0.0
 11
-2.039000333333334
 21
-1.746640277777778
 31
0.0
  0
ENDBLK
  5
117
330
114
100
AcDbEntity
  8
0
100
AcDbBlockEnd
  0
BLOCK
  5
13F
330
13D
100
AcDbEntity
  8
0
100
AcDbBlockBegin
  2
5_ASME_B18_3_10_2_0_in_072372_2
 70
     2
 10
0.0
 20
0.0
 30
0.0
  3
5_ASME_B18_3_10_2_0_in_072372_2
  1

  0
ATTDEF
  5
141
330
13D
100
AcDbEntity
  8
AM_6
100
AcDbText
 10
3.800999666666667
 20
1.997340277777778
 30
0.0
 40
0.5
  1
ANSI/ASME-B18.3-1998
100
AcDbAttributeDefinition
  3

  2
NN
 70
     8
280
     0
  0
ATTDEF
  5
142
330
13D
100
AcDbEntity
  8
AM_6
100
AcDbText
 10
3.800999666666667
 20
1.497340277777778
 30
0.0
 40
0.5
  1
Socket Button Head Cap Screws
100
AcDbAttributeDefinition
  3

  2
NT
 70
     8
280
     0
  0
ATTDEF
  5
143
330
13D
100
AcDbEntity
  8
AM_6
100
AcDbText
 10
3.800999666666667
 20
0.9973402777777776
 30
0.0
 40
0.5
  1
ASME-B18.3-10
100
AcDbAttributeDefinition
  3

  2
NB
 70
     8
280
     0
  0
ATTDEF
  5
144
330
13D
100
AcDbEntity
  8
AM_6
100
AcDbText
 10
3.800999666666667
 20
0.4973402777777776
 30
0.0
 40
0.5
  1
ASME-B18.3-$NS.
100
AcDbAttributeDefinition
  3

  2
NBSYN
 70
     8
280
     0
  0
ATTDEF
  5
145
330
13D
100
AcDbEntity
  8
AM_6
100
AcDbText
 10
3.800999666666667
 20
-0.0026597222222224
 30
0.0
 40
0.5
  1
ASME-B18.3-10
100
AcDbAttributeDefinition
  3

  2
LINA
 70
     8
280
     0
  0
ATTDEF
  5
146
330
13D
100
AcDbEntity
  8
AM_6
100
AcDbText
 10
3.800999666666667
 20
-0.5026597222222224
 30
0.0
 40
0.5
  1
10
100
AcDbAttributeDefinition
  3

  2
NS
 70
     8
280
     0
  0
ATTDEF
  5
147
330
13D
100
AcDbEntity
  8
AM_6
100
AcDbText
 10
3.800999666666667
 20
-1.002659722222222
 30
0.0
 40
0.5
  1
0.361
100
AcDbAttributeDefinition
  3

  2
A
 70
     8
280
     0
  0
ATTDEF
  5
148
330
13D
100
AcDbEntity
  8
AM_6
100
AcDbText
 10
3.800999666666667
 20
-1.502659722222222
 30
0.0
 40
0.5
  1
0.101
100
AcDbAttributeDefinition
  3

  2
H
 70
     8
280
     0
  0
ATTDEF
  5
149
330
13D
100
AcDbEntity
  8
AM_6
100
AcDbText
 10
3.800999666666667
 20
-2.002659722222222
 30
0.0
 40
0.5
  1
0.800
100
AcDbAttributeDefinition
  3

  2
L
 70
     8
280
     0
  0
ATTDEF
  5
14A
330
13D
100
AcDbEntity
  8
AM_6
100
AcDbText
 10
3.800999666666667
 20
-2.502659722222222
 30
0.0
 40
0.5
  1
0.020
100
AcDbAttributeDefinition
  3

  2
S
 70
     8
280
     0
  0
ATTDEF
  5
14B
330
13D
100
AcDbEntity
  8
AM_6
100
AcDbText
 10
3.800999666666667
 20
-3.002659722222222
 30
0.0
 40
0.5
  1
0.125000
100
AcDbAttributeDefinition
  3

  2
J
 70
     8
280
     0
  0
ATTDEF
  5
14C
330
13D
100
AcDbEntity
  8
AM_6
100
AcDbText
 10
3.800999666666667
 20
-3.502659722222222
 30
0.0
 40
0.5
  1
baldor
100
AcDbAttributeDefinition
  3

  2
COMPANY
 70
     8
280
     0
  0
LINE
  5
14D
330
13D
100
AcDbEntity
  8
AM_9
100
AcDbLine
 10
-2.039000333333334
 20
1.889009061426481
 30
0.0
 11
-2.100000333333333
 21
1.889009061426481
 31
0.0
  0
LINE
  5
14E
330
13D
100
AcDbEntity
  8
AM_9
100
AcDbLine
 10
-2.039000333333334
 20
1.744671494129074
 30
0.0
 11
-2.100000333333333
 21
1.744671494129074
 31
0.0
  0
LINE
  5
14F
330
13D
100
AcDbEntity
  8
AM_9
100
AcDbLine
 10
-2.039000333333334
 20
1.852924669602129
 30
0.0
 11
-2.100000333333333
 21
1.852924669602129
 31
0.0
  0
LINE
  5
150
330
13D
100
AcDbEntity
  8
AM_9
100
AcDbLine
 10
-2.039000333333334
 20
1.889009061426481
 30
0.0
 11
-2.039000333333334
 21
1.744671494129074
 31
0.0
  0
LINE
  5
151
330
13D
100
AcDbEntity
  8
AM_9
100
AcDbLine
 10
-2.039000333333334
 20
1.780755885953426
 30
0.0
 11
-2.100000333333333
 21
1.780755885953426
 31
0.0
  0
LINE
  5
152
330
13D
100
AcDbEntity
  8
AM_9
100
AcDbLine
 10
-1.199000333333333
 20
1.887040277777778
 30
0.0
 11
-1.199000333333333
 21
1.746640277777778
 31
0.0
  0
LINE
  5
153
330
13D
100
AcDbEntity
  8
AM_9
100
AcDbLine
 10
-1.199000333333333
 20
1.887040277777778
 30
0.0
 11
-1.223800333333334
 21
1.911840277777778
 31
0.0
  0
LINE
  5
154
330
13D
100
AcDbEntity
  8
AM_9
100
AcDbLine
 10
-1.223800333333334
 20
1.721840277777778
 30
0.0
 11
-1.199000333333333
 21
1.746640277777778
 31
0.0
  0
LINE
  5
155
330
13D
100
AcDbEntity
  8
AM_9
100
AcDbLine
 10
-1.223800333333334
 20
1.911840277777778
 30
0.0
 11
-1.223800333333334
 21
1.721840277777778
 31
0.0
  0
LINE
  5
156
330
13D
100
AcDbEntity
  8
AM_9
100
AcDbLine
 10
-1.896833333333334
 20
1.721840277777778
 30
0.0
 11
-1.223800333333334
 21
1.721840277777778
 31
0.0
  0
LINE
  5
157
330
13D
100
AcDbEntity
  8
AM_9
100
AcDbLine
 10
-1.223800333333334
 20
1.911840277777778
 30
0.0
 11
-1.896833333333334
 21
1.911840277777778
 31
0.0
  0
LINE
  5
158
330
13D
100
AcDbEntity
  8
AM_5
100
AcDbLine
 10
-1.199000333333333
 20
1.746640277777778
 30
0.0
 11
-1.896833333333334
 21
1.746640277777778
 31
0.0
  0
LINE
  5
159
330
13D
100
AcDbEntity
  8
AM_5
100
AcDbLine
 10
-1.199000333333333
 20
1.887040277777778
 30
0.0
 11
-1.896833333333334
 21
1.887040277777778
 31
0.0
  0
LINE
  5
15A
330
13D
100
AcDbEntity
  8
AM_4
100
AcDbLine
 10
-1.999000333333333
 20
1.721840277777778
 30
0.0
 11
-1.896833333333334
 21
1.721840277777778
 31
0.0
  0
LINE
  5
15B
330
13D
100
AcDbEntity
  8
AM_4
100
AcDbLine
 10
-1.896833333333334
 20
1.911840277777778
 30
0.0
 11
-1.999000333333333
 21
1.911840277777778
 31
0.0
  0
LINE
  5
15C
330
13D
100
AcDbEntity
  8
AM_4
100
AcDbLine
 10
-2.100000333333333
 20
1.916340277777778
 30
0.0
 11
-2.100000333333333
 21
1.717340277777778
 31
0.0
  0
ARC
  5
15D
330
13D
100
AcDbEntity
  8
AM_4
100
AcDbCircle
 10
-2.019000333333334
 20
1.717340277777778
 30
0.0
 40
0.0809999999999995
100
AcDbArc
 50
180.0
 51
270.0
  0
ARC
  5
15E
330
13D
100
AcDbEntity
  8
AM_4
100
AcDbCircle
 10
-2.019000333333334
 20
1.916340277777777
 30
0.0
 40
0.0810000000000002
100
AcDbArc
 50
90.0
 51
180.0
  0
LINE
  5
15F
330
13D
100
AcDbEntity
  8
AM_4
100
AcDbLine
 10
-1.999000333333333
 20
1.997340277777778
 30
0.0
 11
-1.999000333333333
 21
1.636340277777778
 31
0.0
  0
LINE
  5
160
330
13D
100
AcDbEntity
  8
AM_4
100
AcDbLine
 10
-2.019000333333334
 20
1.997340277777778
 30
0.0
 11
-2.019000333333334
 21
1.636340277777778
 31
0.0
  0
LINE
  5
161
330
13D
100
AcDbEntity
  8
AM_4
100
AcDbLine
 10
-2.019000333333334
 20
1.636340277777778
 30
0.0
 11
-1.999000333333333
 21
1.636340277777778
 31
0.0
  0
LINE
  5
162
330
13D
100
AcDbEntity
  8
AM_4
100
AcDbLine
 10
-1.999000333333333
 20
1.997340277777778
 30
0.0
 11
-2.019000333333334
 21
1.997340277777778
 31
0.0
  0
LINE
  5
163
330
13D
100
AcDbEntity
  8
AM_5
100
AcDbLine
 10
-1.896833333333334
 20
1.746640277777778
 30
0.0
 11
-2.039000333333334
 21
1.746640277777778
 31
0.0
  0
LINE
  5
164
330
13D
100
AcDbEntity
  8
AM_5
100
AcDbLine
 10
-2.299000333333334
 20
1.721840277777778
 30
0.0
 11
-2.299000333333334
 21
1.911840277777778
 31
0.0
  0
LINE
  5
165
330
13D
100
AcDbEntity
  8
AM_5
100
AcDbLine
 10
-1.896833333333334
 20
1.887040277777778
 30
0.0
 11
-2.039000333333334
 21
1.887040277777778
 31
0.0
  0
ENDBLK
  5
140
330
13D
100
AcDbEntity
  8
0
100
AcDbBlockEnd
  0
BLOCK
  5
168
330
166
100
AcDbEntity
  8
0
100
AcDbBlockBegin
  2
6_070897LWE_0_in_072372_2
 70
     2
 10
0.0
 20
0.0
 30
0.0
  3
6_070897LWE_0_in_072372_2
  1

  0
ATTDEF
  5
16A
330
166
100
AcDbEntity
  8
AM_6
100
AcDbText
 10
3.543166666666666
 20
2.14
 30
0.0
 40
0.5
  1
Imperial/E Insert Lockwasher -Inch
100
AcDbAttributeDefinition
  3

  2
NN
 70
     8
280
     0
  0
ATTDEF
  5
16B
330
166
100
AcDbEntity
  8
AM_6
100
AcDbText
 10
3.543166666666666
 20
1.64
 30
0.0
 40
0.5
  1
Imperial/E Bearings
100
AcDbAttributeDefinition
  3

  2
NT
 70
     8
280
     0
  0
ATTDEF
  5
16C
330
166
100
AcDbEntity
  8
AM_6
100
AcDbText
 10
3.543166666666666
 20
1.14
 30
0.0
 40
0.5
  1
070897LWE
100
AcDbAttributeDefinition
  3

  2
NB
 70
     8
280
     0
  0
ATTDEF
  5
16D
330
166
100
AcDbEntity
  8
AM_6
100
AcDbText
 10
3.543166666666666
 20
0.6400000000000001
 30
0.0
 40
0.5
  1
$PN.LWE
100
AcDbAttributeDefinition
  3

  2
NBSYN
 70
     8
280
     0
  0
ATTDEF
  5
16E
330
166
100
AcDbEntity
  8
AM_6
100
AcDbText
 10
3.543166666666666
 20
0.1400000000000001
 30
0.0
 40
0.5
  1
070897
100
AcDbAttributeDefinition
  3

  2
LINA
 70
     8
280
     0
  0
ATTDEF
  5
16F
330
166
100
AcDbEntity
  8
AM_6
100
AcDbText
 10
3.543166666666666
 20
-0.3599999999999999
 30
0.0
 40
0.5
  1
2-11/16
100
AcDbAttributeDefinition
  3

  2
SS
 70
     8
280
     0
  0
ATTDEF
  5
170
330
166
100
AcDbEntity
  8
AM_6
100
AcDbText
 10
3.543166666666666
 20
-0.8599999999999999
 30
0.0
 40
0.5
  1
4.280000
100
AcDbAttributeDefinition
  3

  2
E1
 70
     8
280
     0
  0
ATTDEF
  5
171
330
166
100
AcDbEntity
  8
AM_6
100
AcDbText
 10
3.543166666666666
 20
-1.36
 30
0.0
 40
0.5
  1
2.687500
100
AcDbAttributeDefinition
  3

  2
SS1
 70
     8
280
     0
  0
ATTDEF
  5
172
330
166
100
AcDbEntity
  8
AM_6
100
AcDbText
 10
3.543166666666666
 20
-1.86
 30
0.0
 40
0.5
  1
070897
100
AcDbAttributeDefinition
  3

  2
PN
 70
     8
280
     0
  0
ATTDEF
  5
173
330
166
100
AcDbEntity
  8
AM_6
100
AcDbText
 10
3.543166666666666
 20
-2.36
 30
0.0
 40
0.5
  1
INS-IP-211R
100
AcDbAttributeDefinition
  3

  2
DESCRIPTION
 70
     8
280
     0
  0
ATTDEF
  5
174
330
166
100
AcDbEntity
  8
AM_6
100
AcDbText
 10
3.543166666666666
 20
-2.86
 30
0.0
 40
0.5
  1
5.1181
100
AcDbAttributeDefinition
  3

  2
A
 70
     8
280
     0
  0
ATTDEF
  5
175
330
166
100
AcDbEntity
  8
AM_6
100
AcDbText
 10
3.543166666666666
 20
-3.36
 30
0.0
 40
0.5
  1
1-9/32
100
AcDbAttributeDefinition
  3

  2
B
 70
     8
280
     0
  0
ATTDEF
  5
176
330
166
100
AcDbEntity
  8
AM_6
100
AcDbText
 10
3.543166666666666
 20
-3.86
 30
0.0
 40
0.5
  1
1.281250
100
AcDbAttributeDefinition
  3

  2
B1
 70
     8
280
     0
  0
ATTDEF
  5
177
330
166
100
AcDbEntity
  8
AM_6
100
AcDbText
 10
3.543166666666666
 20
-4.359999999999999
 30
0.0
 40
0.5
  1
3-1/2
100
AcDbAttributeDefinition
  3

  2
C
 70
     8
280
     0
  0
ATTDEF
  5
178
330
166
100
AcDbEntity
  8
AM_6
100
AcDbText
 10
3.543166666666666
 20
-4.859999999999999
 30
0.0
 40
0.5
  1
3.500000
100
AcDbAttributeDefinition
  3

  2
C1
 70
     8
280
     0
  0
ATTDEF
  5
179
330
166
100
AcDbEntity
  8
AM_6
100
AcDbText
 10
3.543166666666666
 20
-5.359999999999999
 30
0.0
 40
0.5
  1
1.219
100
AcDbAttributeDefinition
  3

  2
D
 70
     8
280
     0
  0
ATTDEF
  5
17A
330
166
100
AcDbEntity
  8
AM_6
100
AcDbText
 10
3.543166666666666
 20
-5.859999999999999
 30
0.0
 40
0.5
  1
4-9/32
100
AcDbAttributeDefinition
  3

  2
E
 70
     8
280
     0
  0
ATTDEF
  5
17B
330
166
100
AcDbEntity
  8
AM_6
100
AcDbText
 10
3.543166666666666
 20
-6.359999999999999
 30
0.0
 40
0.5
  1
0.1900
100
AcDbAttributeDefinition
  3

  2
NDM
 70
     8
280
     0
  0
ATTDEF
  5
17C
330
166
100
AcDbEntity
  8
AM_6
100
AcDbText
 10
3.543166666666666
 20
-6.859999999999999
 30
0.0
 40
0.5
  1
0.1450
100
AcDbAttributeDefinition
  3

  2
KDM
 70
     8
280
     0
  0
ATTDEF
  5
17D
330
166
100
AcDbEntity
  8
AM_6
100
AcDbText
 10
3.543166666666666
 20
-7.359999999999999
 30
0.0
 40
0.5
  1
3.74
100
AcDbAttributeDefinition
  3

  2
AL
 70
     8
280
     0
  0
ATTDEF
  5
17E
330
166
100
AcDbEntity
  8
AM_6
100
AcDbText
 10
3.543166666666666
 20
-7.859999999999999
 30
0.0
 40
0.5
  1
0.50
100
AcDbAttributeDefinition
  3

  2
BL
 70
     8
280
     0
  0
ATTDEF
  5
17F
330
166
100
AcDbEntity
  8
AM_6
100
AcDbText
 10
3.543166666666666
 20
-8.36
 30
0.0
 40
0.5
  1
0.07
100
AcDbAttributeDefinition
  3

  2
CL
 70
     8
280
     0
  0
ATTDEF
  5
180
330
166
100
AcDbEntity
  8
AM_6
100
AcDbText
 10
3.543166666666666
 20
-8.86
 30
0.0
 40
0.5
  1
0.44
100
AcDbAttributeDefinition
  3

  2
DL
 70
     8
280
     0
  0
ATTDEF
  5
181
330
166
100
AcDbEntity
  8
AM_6
100
AcDbText
 10
3.543166666666666
 20
-9.36
 30
0.0
 40
0.5
  1
baldor
100
AcDbAttributeDefinition
  3

  2
COMPANY
 70
     8
280
     0
  0
LINE
  5
182
330
166
100
AcDbEntity
  8
AM_9
100
AcDbLine
 10
-1.826833333333334
 20
1.289309095649979
 30
0.0
 11
-1.896833333333334
 21
1.289309095649979
 31
0.0
  0
LINE
  5
183
330
166
100
AcDbEntity
  8
AM_9
100
AcDbLine
 10
-1.456833333333334
 20
1.253855032193372
 30
0.0
 11
-1.826833333333334
 21
1.253855032193372
 31
0.0
  0
LINE
  5
184
330
166
100
AcDbEntity
  8
AM_9
100
AcDbLine
 10
-1.456833333333334
 20
1.188244629482645
 30
0.0
 11
-1.896833333333334
 21
1.188244629482645
 31
0.0
  0
LINE
  5
185
330
166
100
AcDbEntity
  8
AM_9
100
AcDbLine
 10
-1.826833333333334
 20
1.349525890284645
 30
0.0
 11
-1.456833333333334
 21
1.349525890284645
 31
0.0
  0
LINE
  5
186
330
166
100
AcDbEntity
  8
AM_9
100
AcDbLine
 10
-1.456833333333334
 20
1.283915487573918
 30
0.0
 11
-1.896833333333334
 21
1.283915487573918
 31
0.0
  0
LINE
  5
187
330
166
100
AcDbEntity
  8
AM_9
100
AcDbLine
 10
-1.456833333333334
 20
1.188244629482645
 30
0.0
 11
-1.456833333333334
 21
1.349525890284645
 31
0.0
  0
LINE
  5
188
330
166
100
AcDbEntity
  8
AM_9
100
AcDbLine
 10
-1.826833333333334
 20
1.384979953741251
 30
0.0
 11
-1.896833333333334
 21
1.384979953741251
 31
0.0
  0
LINE
  5
189
330
166
100
AcDbEntity
  8
AM_9
100
AcDbLine
 10
-1.826833333333334
 20
1.816527777777778
 30
0.0
 11
-1.896833333333334
 21
1.816527777777778
 31
0.0
  0
LINE
  5
18A
330
166
100
AcDbEntity
  8
AM_9
100
AcDbLine
 10
-1.826833333333334
 20
1.911560295261914
 30
0.0
 11
-1.896833333333334
 21
1.911560295261914
 31
0.0
  0
LINE
  5
18B
330
166
100
AcDbEntity
  8
AM_9
100
AcDbLine
 10
-1.826833333333334
 20
-1.816527777777778
 30
0.0
 11
-1.896833333333334
 21
-1.816527777777778
 31
0.0
  0
LINE
  5
18C
330
166
100
AcDbEntity
  8
AM_9
100
AcDbLine
 10
-1.896833333333334
 20
-1.911560295261915
 30
0.0
 11
-1.826833333333334
 21
-1.911560295261915
 31
0.0
  0
LINE
  5
18D
330
166
100
AcDbEntity
  8
AM_9
100
AcDbLine
 10
-1.826833333333334
 20
1.449593095471877
 30
0.0
 11
-1.896833333333334
 21
1.449593095471877
 31
0.0
  0
LINE
  5
18E
330
166
100
AcDbEntity
  8
AM_9
100
AcDbLine
 10
-1.826833333333334
 20
-1.449593095471877
 30
0.0
 11
-1.896833333333334
 21
-1.449593095471877
 31
0.0
  0
LINE
  5
18F
330
166
100
AcDbEntity
  8
AM_9
100
AcDbLine
 10
-1.826833333333334
 20
-1.092192251982084
 30
0.0
 11
-1.896833333333334
 21
-1.092192251982084
 31
0.0
  0
LINE
  5
190
330
166
100
AcDbEntity
  8
AM_9
100
AcDbLine
 10
-1.826833333333334
 20
1.092192251982084
 30
0.0
 11
-1.896833333333334
 21
1.092192251982085
 31
0.0
  0
LINE
  5
191
330
166
100
AcDbEntity
  8
AM_9
100
AcDbLine
 10
-1.826833333333334
 20
0.9578419635566409
 30
0.0
 11
-1.896833333333334
 21
0.9578419635566409
 31
0.0
  0
LINE
  5
192
330
166
100
AcDbEntity
  8
AM_9
100
AcDbLine
 10
-1.826833333333334
 20
-0.9578419635566395
 30
0.0
 11
-1.896833333333334
 21
-0.9578419635566395
 31
0.0
  0
LINE
  5
193
330
166
100
AcDbEntity
  8
AM_9
100
AcDbLine
 10
-1.826833333333334
 20
1.351654254093119
 30
0.0
 11
-1.896833333333334
 21
1.351654254093119
 31
0.0
  0
LINE
  5
194
330
166
100
AcDbEntity
  8
AM_9
100
AcDbLine
 10
-1.826833333333334
 20
1.217303965667675
 30
0.0
 11
-1.896833333333334
 21
1.217303965667675
 31
0.0
  0
LINE
  5
195
330
166
100
AcDbEntity
  8
AM_9
100
AcDbLine
 10
-1.826833333333334
 20
1.379502104843387
 30
0.0
 11
-1.896833333333334
 21
1.379502104843387
 31
0.0
  0
LINE
  5
196
330
166
100
AcDbEntity
  8
AM_9
100
AcDbLine
 10
-1.826833333333334
 20
-1.217303965667674
 30
0.0
 11
-1.896833333333334
 21
-1.217303965667674
 31
0.0
  0
LINE
  5
197
330
166
100
AcDbEntity
  8
AM_9
100
AcDbLine
 10
-1.826833333333334
 20
-1.351654254093115
 30
0.0
 11
-1.896833333333334
 21
-1.351654254093115
 31
0.0
  0
LINE
  5
198
330
166
100
AcDbEntity
  8
AM_9
100
AcDbLine
 10
-1.896833333333334
 20
-1.379502104843386
 30
0.0
 11
-1.826833333333334
 21
-1.379502104843386
 31
0.0
  0
LINE
  5
199
330
166
100
AcDbEntity
  8
AM_9
100
AcDbLine
 10
-1.826833333333334
 20
0.0950000000000005
 30
0.0
 11
-1.896833333333334
 21
0.0950000000000006
 31
0.0
  0
LINE
  5
19A
330
166
100
AcDbEntity
  8
AM_9
100
AcDbLine
 10
-1.826833333333334
 20
-0.0949999999999997
 30
0.0
 11
-1.896833333333334
 21
-0.0949999999999997
 31
0.0
  0
LINE
  5
19B
330
166
100
AcDbEntity
  8
AM_4
100
AcDbLine
 10
-1.826833333333334
 20
2.14
 30
0.0
 11
-1.896833333333334
 21
2.14
 31
0.0
  0
LINE
  5
19C
330
166
100
AcDbEntity
  8
AM_4
100
AcDbLine
 10
-1.896833333333334
 20
-2.14
 30
0.0
 11
-1.826833333333334
 21
-2.14
 31
0.0
  0
LINE
  5
19D
330
166
100
AcDbEntity
  8
AM_4
100
AcDbLine
 10
-1.896833333333334
 20
2.14
 30
0.0
 11
-1.896833333333334
 21
-2.14
 31
0.0
  0
LINE
  5
19E
330
166
100
AcDbEntity
  8
AM_4
100
AcDbLine
 10
-1.826833333333334
 20
2.14
 30
0.0
 11
-1.826833333333334
 21
-2.14
 31
0.0
  0
ENDBLK
  5
169
330
166
100
AcDbEntity
  8
0
100
AcDbBlockEnd
  0
BLOCK
  5
1A1
330
19F
100
AcDbEntity
  8
0
100
AcDbBlockBegin
  2
7_070897I_0_in_072372_2
 70
     2
 10
0.0
 20
0.0
 30
0.0
  3
7_070897I_0_in_072372_2
  1

  0
ATTDEF
  5
1A3
330
19F
100
AcDbEntity
  8
AM_6
100
AcDbText
 10
6.424999999999999
 20
2.55905
 30
0.0
 40
0.5
  1
Imperial Insert -Inch
100
AcDbAttributeDefinition
  3

  2
NN
 70
     8
280
     0
  0
ATTDEF
  5
1A4
330
19F
100
AcDbEntity
  8
AM_6
100
AcDbText
 10
6.424999999999999
 20
2.05905
 30
0.0
 40
0.5
  1
Imperial Bearings
100
AcDbAttributeDefinition
  3

  2
NT
 70
     8
280
     0
  0
ATTDEF
  5
1A5
330
19F
100
AcDbEntity
  8
AM_6
100
AcDbText
 10
6.424999999999999
 20
1.55905
 30
0.0
 40
0.5
  1
070897I
100
AcDbAttributeDefinition
  3

  2
NB
 70
     8
280
     0
  0
ATTDEF
  5
1A6
330
19F
100
AcDbEntity
  8
AM_6
100
AcDbText
 10
6.424999999999999
 20
1.05905
 30
0.0
 40
0.5
  1
$PN.I
100
AcDbAttributeDefinition
  3

  2
NBSYN
 70
     8
280
     0
  0
ATTDEF
  5
1A7
330
19F
100
AcDbEntity
  8
AM_6
100
AcDbText
 10
6.424999999999999
 20
0.5590500000000005
 30
0.0
 40
0.5
  1
070897
100
AcDbAttributeDefinition
  3

  2
LINA
 70
     8
280
     0
  0
ATTDEF
  5
1A8
330
19F
100
AcDbEntity
  8
AM_6
100
AcDbText
 10
6.424999999999999
 20
0.0590500000000005
 30
0.0
 40
0.5
  1
2-11/16
100
AcDbAttributeDefinition
  3

  2
SS
 70
     8
280
     0
  0
ATTDEF
  5
1A9
330
19F
100
AcDbEntity
  8
AM_6
100
AcDbText
 10
6.424999999999999
 20
-0.4409499999999995
 30
0.0
 40
0.5
  1
2.687500
100
AcDbAttributeDefinition
  3

  2
SS1
 70
     8
280
     0
  0
ATTDEF
  5
1AA
330
19F
100
AcDbEntity
  8
AM_6
100
AcDbText
 10
6.424999999999999
 20
-0.9409499999999995
 30
0.0
 40
0.5
  1
070897
100
AcDbAttributeDefinition
  3

  2
PN
 70
     8
280
     0
  0
ATTDEF
  5
1AB
330
19F
100
AcDbEntity
  8
AM_6
100
AcDbText
 10
6.424999999999999
 20
-1.44095
 30
0.0
 40
0.5
  1
INS-IP-211R
100
AcDbAttributeDefinition
  3

  2
DESCRIPTION
 70
     8
280
     0
  0
ATTDEF
  5
1AC
330
19F
100
AcDbEntity
  8
AM_6
100
AcDbText
 10
6.424999999999999
 20
-1.94095
 30
0.0
 40
0.5
  1
Contact Seal
100
AcDbAttributeDefinition
  3

  2
ST
 70
     8
280
     0
  0
ATTDEF
  5
1AD
330
19F
100
AcDbEntity
  8
AM_6
100
AcDbText
 10
6.424999999999999
 20
-2.44095
 30
0.0
 40
0.5
  1
5.1181
100
AcDbAttributeDefinition
  3

  2
A
 70
     8
280
     0
  0
ATTDEF
  5
1AE
330
19F
100
AcDbEntity
  8
AM_6
100
AcDbText
 10
6.424999999999999
 20
-2.94095
 30
0.0
 40
0.5
  1
1-9/32
100
AcDbAttributeDefinition
  3

  2
B
 70
     8
280
     0
  0
ATTDEF
  5
1AF
330
19F
100
AcDbEntity
  8
AM_6
100
AcDbText
 10
6.424999999999999
 20
-3.44095
 30
0.0
 40
0.5
  1
3-1/2
100
AcDbAttributeDefinition
  3

  2
C
 70
     8
280
     0
  0
ATTDEF
  5
1B0
330
19F
100
AcDbEntity
  8
AM_6
100
AcDbText
 10
6.424999999999999
 20
-3.94095
 30
0.0
 40
0.5
  1
1.219
100
AcDbAttributeDefinition
  3

  2
D
 70
     8
280
     0
  0
ATTDEF
  5
1B1
330
19F
100
AcDbEntity
  8
AM_6
100
AcDbText
 10
6.424999999999999
 20
-4.440949999999999
 30
0.0
 40
0.5
  1
4-9/32
100
AcDbAttributeDefinition
  3

  2
E
 70
     8
280
     0
  0
ATTDEF
  5
1B2
330
19F
100
AcDbEntity
  8
AM_6
100
AcDbText
 10
6.424999999999999
 20
-4.940949999999999
 30
0.0
 40
0.5
  1
0.1900
100
AcDbAttributeDefinition
  3

  2
NDM
 70
     8
280
     0
  0
ATTDEF
  5
1B3
330
19F
100
AcDbEntity
  8
AM_6
100
AcDbText
 10
6.424999999999999
 20
-5.440949999999999
 30
0.0
 40
0.5
  1
0.101
100
AcDbAttributeDefinition
  3

  2
H
 70
     8
280
     0
  0
ATTDEF
  5
1B4
330
19F
100
AcDbEntity
  8
AM_6
100
AcDbText
 10
6.424999999999999
 20
-5.940949999999999
 30
0.0
 40
0.5
  1
0.1450
100
AcDbAttributeDefinition
  3

  2
KDM
 70
     8
280
     0
  0
ATTDEF
  5
1B5
330
19F
100
AcDbEntity
  8
AM_6
100
AcDbText
 10
6.424999999999999
 20
-6.440949999999999
 30
0.0
 40
0.5
  1
3.74
100
AcDbAttributeDefinition
  3

  2
AL
 70
     8
280
     0
  0
ATTDEF
  5
1B6
330
19F
100
AcDbEntity
  8
AM_6
100
AcDbText
 10
6.424999999999999
 20
-6.940949999999999
 30
0.0
 40
0.5
  1
0.50
100
AcDbAttributeDefinition
  3

  2
BL
 70
     8
280
     0
  0
ATTDEF
  5
1B7
330
19F
100
AcDbEntity
  8
AM_6
100
AcDbText
 10
6.424999999999999
 20
-7.440949999999999
 30
0.0
 40
0.5
  1
0.07
100
AcDbAttributeDefinition
  3

  2
CL
 70
     8
280
     0
  0
ATTDEF
  5
1B8
330
19F
100
AcDbEntity
  8
AM_6
100
AcDbText
 10
6.424999999999999
 20
-7.940949999999999
 30
0.0
 40
0.5
  1
0.44
100
AcDbAttributeDefinition
  3

  2
DL
 70
     8
280
     0
  0
ATTDEF
  5
1B9
330
19F
100
AcDbEntity
  8
AM_6
100
AcDbText
 10
6.424999999999999
 20
-8.440949999999999
 30
0.0
 40
0.5
  1
0.8000
100
AcDbAttributeDefinition
  3

  2
LL
 70
     8
280
     0
  0
ATTDEF
  5
1BA
330
19F
100
AcDbEntity
  8
AM_6
100
AcDbText
 10
6.424999999999999
 20
-8.940949999999999
 30
0.0
 40
0.5
  1
0.025
100
AcDbAttributeDefinition
  3

  2
Y
 70
     8
280
     0
  0
ATTDEF
  5
1BB
330
19F
100
AcDbEntity
  8
AM_6
100
AcDbText
 10
6.424999999999999
 20
-9.440949999999999
 30
0.0
 40
0.5
  1
0.025000
100
AcDbAttributeDefinition
  3

  2
Y1
 70
     8
280
     0
  0
ATTDEF
  5
1BC
330
19F
100
AcDbEntity
  8
AM_6
100
AcDbText
 10
6.424999999999999
 20
-9.940949999999999
 30
0.0
 40
0.5
  1
3-15/32
100
AcDbAttributeDefinition
  3

  2
Z
 70
     8
280
     0
  0
ATTDEF
  5
1BD
330
19F
100
AcDbEntity
  8
AM_6
100
AcDbText
 10
6.424999999999999
 20
-10.44095
 30
0.0
 40
0.5
  1
3.468750
100
AcDbAttributeDefinition
  3

  2
Z1
 70
     8
280
     0
  0
ATTDEF
  5
1BE
330
19F
100
AcDbEntity
  8
AM_6
100
AcDbText
 10
6.424999999999999
 20
-10.94095
 30
0.0
 40
0.5
  1
baldor
100
AcDbAttributeDefinition
  3

  2
COMPANY
 70
     8
280
     0
  0
LINE
  5
1BF
330
19F
100
AcDbEntity
  8
AM_9
100
AcDbLine
 10
0.8216249999999996
 20
1.352987427504355
 30
0.0
 11
-1.826833333333334
 21
1.352987427504355
 31
0.0
  0
LINE
  5
1C0
330
19F
100
AcDbEntity
  8
AM_9
100
AcDbLine
 10
0.8216249999999996
 20
1.257316569413083
 30
0.0
 11
-1.826833333333334
 21
1.257316569413083
 31
0.0
  0
LINE
  5
1C1
330
19F
100
AcDbEntity
  8
AM_9
100
AcDbLine
 10
-0.9868333333333333
 20
1.816840277777778
 30
0.0
 11
-1.020617323166663
 21
1.889290277777778
 31
0.0
  0
LINE
  5
1C2
330
19F
100
AcDbEntity
  8
AM_9
100
AcDbLine
 10
-1.020617323166663
 20
1.744390277777778
 30
0.0
 11
-0.9868333333333333
 21
1.816840277777778
 31
0.0
  0
LINE
  5
1C3
330
19F
100
AcDbEntity
  8
AM_9
100
AcDbLine
 10
-0.9868333333333356
 20
-1.816840277777778
 30
0.0
 11
-1.020617323166669
 21
-1.744390277777778
 31
0.0
  0
LINE
  5
1C4
330
19F
100
AcDbEntity
  8
AM_9
100
AcDbLine
 10
-1.020617323166669
 20
-1.889290277777778
 30
0.0
 11
-0.9868333333333356
 21
-1.816840277777778
 31
0.0
  0
LINE
  5
1C5
330
19F
100
AcDbEntity
  8
AM_9
100
AcDbLine
 10
-1.020617323166663
 20
1.744390277777778
 30
0.0
 11
-1.020617323166663
 21
1.889290277777778
 31
0.0
  0
LINE
  5
1C6
330
19F
100
AcDbEntity
  8
AM_9
100
AcDbLine
 10
-1.020617323166663
 20
1.889290277777778
 30
0.0
 11
-1.804283333333333
 21
1.889290277777778
 31
0.0
  0
LINE
  5
1C7
330
19F
100
AcDbEntity
  8
AM_9
100
AcDbLine
 10
-1.804283333333333
 20
1.744390277777778
 30
0.0
 11
-1.020617323166663
 21
1.744390277777778
 31
0.0
  0
LINE
  5
1C8
330
19F
100
AcDbEntity
  8
AM_9
100
AcDbLine
 10
-1.804283333333337
 20
-1.889290277777778
 30
0.0
 11
-1.020617323166669
 21
-1.889290277777778
 31
0.0
  0
LINE
  5
1C9
330
19F
100
AcDbEntity
  8
AM_9
100
AcDbLine
 10
-1.020617323166669
 20
-1.744390277777778
 30
0.0
 11
-1.804283333333337
 21
-1.744390277777778
 31
0.0
  0
LINE
  5
1CA
330
19F
100
AcDbEntity
  8
AM_9
100
AcDbLine
 10
-1.020617323166669
 20
-1.744390277777778
 30
0.0
 11
-1.020617323166669
 21
-1.889290277777778
 31
0.0
  0
LINE
  5
1CB
330
19F
100
AcDbEntity
  8
AM_9
100
AcDbLine
 10
-1.804283333333333
 20
1.744390277777778
 30
0.0
 11
-1.804283333333333
 21
1.889290277777778
 31
0.0
  0
LINE
  5
1CC
330
19F
100
AcDbEntity
  8
AM_9
100
AcDbLine
 10
-1.804283333333333
 20
1.889290277777778
 30
0.0
 11
-1.826833333333334
 21
1.911840277777778
 31
0.0
  0
LINE
  5
1CD
330
19F
100
AcDbEntity
  8
AM_9
100
AcDbLine
 10
-1.826833333333334
 20
1.721840277777778
 30
0.0
 11
-1.804283333333333
 21
1.744390277777778
 31
0.0
  0
LINE
  5
1CE
330
19F
100
AcDbEntity
  8
AM_9
100
AcDbLine
 10
-1.804283333333337
 20
-1.744390277777778
 30
0.0
 11
-1.826833333333314
 21
-1.721840277777778
 31
0.0
  0
LINE
  5
1CF
330
19F
100
AcDbEntity
  8
AM_9
100
AcDbLine
 10
-1.826833333333314
 20
-1.911840277777778
 30
0.0
 11
-1.804283333333337
 21
-1.889290277777778
 31
0.0
  0
LINE
  5
1D0
330
19F
100
AcDbEntity
  8
AM_9
100
AcDbLine
 10
-1.804283333333337
 20
-1.744390277777778
 30
0.0
 11
-1.804283333333337
 21
-1.889290277777778
 31
0.0
  0
LINE
  5
1D1
330
19F
100
AcDbEntity
  8
AM_9
100
AcDbLine
 10
0.8216249999999996
 20
1.283915487573918
 30
0.0
 11
-2.1
 21
1.283915487573918
 31
0.0
  0
LINE
  5
1D2
330
19F
100
AcDbEntity
  8
AM_9
100
AcDbLine
 10
-2.1
 20
1.188244629482645
 30
0.0
 11
0.8216249999999996
 21
1.188244629482645
 31
0.0
  0
LINE
  5
1D3
330
19F
100
AcDbEntity
  8
AM_9
100
AcDbLine
 10
0.8216249999999996
 20
1.34375
 30
0.0
 11
-2.1
 21
1.34375
 31
0.0
  0
LINE
  5
1D4
330
19F
100
AcDbEntity
  8
AM_9
100
AcDbLine
 10
-2.1
 20
-1.34375
 30
0.0
 11
0.8216249999999996
 21
-1.34375
 31
0.0
  0
LINE
  5
1D5
330
19F
100
AcDbEntity
  8
AM_9
100
AcDbLine
 10
1.4
 20
1.414473684210526
 30
0.0
 11
0.8216249999999996
 21
1.414473684210526
 31
0.0
  0
LINE
  5
1D6
330
19F
100
AcDbEntity
  8
AM_9
100
AcDbLine
 10
0.8216249999999996
 20
-1.414473684210526
 30
0.0
 11
1.4
 21
-1.414473684210526
 31
0.0
  0
LINE
  5
1D7
330
19F
100
AcDbEntity
  8
AM_9
100
AcDbLine
 10
-2.1
 20
1.349525890284645
 30
0.0
 11
-1.826833333333334
 21
1.349525890284645
 31
0.0
  0
LINE
  5
1D8
330
19F
100
AcDbEntity
  8
AM_9
100
AcDbLine
 10
-1.826833333333334
 20
1.253855032193372
 30
0.0
 11
-2.1
 21
1.253855032193372
 31
0.0
  0
LINE
  5
1D9
330
19F
100
AcDbEntity
  8
AM_9
100
AcDbLine
 10
-1.826833333333334
 20
1.414473684210526
 30
0.0
 11
-1.896833333333334
 21
1.414473684210526
 31
0.0
  0
LINE
  5
1DA
330
19F
100
AcDbEntity
  8
AM_9
100
AcDbLine
 10
-1.896833333333334
 20
-1.414473684210526
 30
0.0
 11
-1.826833333333334
 21
-1.414473684210526
 31
0.0
  0
LINE
  5
1DB
330
19F
100
AcDbEntity
  8
AM_9
100
AcDbLine
 10
-1.386833333333334
 20
-1.145512985522207
 30
0.0
 11
-1.826833333333334
 21
-1.145512985522207
 31
0.0
  0
LINE
  5
1DC
330
19F
100
AcDbEntity
  8
AM_9
100
AcDbLine
 10
-1.386833333333334
 20
1.145512985522207
 30
0.0
 11
-1.826833333333334
 21
1.145512985522207
 31
0.0
  0
LINE
  5
1DD
330
19F
100
AcDbEntity
  8
AM_9
100
AcDbLine
 10
-1.386833333333334
 20
-1.145512985522207
 30
0.0
 11
-1.386833333333334
 21
-1.337454706708775
 31
0.0
  0
LINE
  5
1DE
330
19F
100
AcDbEntity
  8
AM_9
100
AcDbLine
 10
-1.386833333333334
 20
1.337454706708775
 30
0.0
 11
-1.386833333333334
 21
1.145512985522207
 31
0.0
  0
LINE
  5
1DF
330
19F
100
AcDbEntity
  8
AM_9
100
AcDbLine
 10
1.4
 20
-1.734375
 30
0.0
 11
1.4
 21
1.734375
 31
0.0
  0
LINE
  5
1E0
330
19F
100
AcDbEntity
  8
AM_9
100
AcDbLine
 10
1.424999999999998
 20
1.734375
 30
0.0
 11
1.4
 21
1.734375
 31
0.0
  0
LINE
  5
1E1
330
19F
100
AcDbEntity
  8
AM_9
100
AcDbLine
 10
1.4
 20
-1.734375
 30
0.0
 11
1.424999999999998
 21
-1.734375
 31
0.0
  0
LINE
  5
1E2
330
19F
100
AcDbEntity
  8
AM_9
100
AcDbLine
 10
1.25
 20
1.927083333333333
 30
0.0
 11
1.077875
 21
1.927083333333333
 31
0.0
  0
LINE
  5
1E3
330
19F
100
AcDbEntity
  8
AM_9
100
AcDbLine
 10
1.077875
 20
-1.927083333333333
 30
0.0
 11
1.25
 21
-1.927083333333333
 31
0.0
  0
LINE
  5
1E4
330
19F
100
AcDbEntity
  8
AM_9
100
AcDbLine
 10
-1.22
 20
-2.161816086953242
 30
0.0
 11
-0.4596250000000003
 21
-2.18836896705553
 31
0.0
  0
LINE
  5
1E5
330
19F
100
AcDbEntity
  8
AM_9
100
AcDbLine
 10
-0.4596250000000003
 20
2.18836896705553
 30
0.0
 11
-1.22
 21
2.161816086953242
 31
0.0
  0
LINE
  5
1E6
330
19F
100
AcDbEntity
  8
AM_9
100
AcDbLine
 10
1.077874999999999
 20
-2.153368966601195
 30
0.0
 11
1.077874999999999
 21
2.153368966601195
 31
0.0
  0
ARC
  5
1E7
330
19F
100
AcDbEntity
  8
AM_9
100
AcDbCircle
 10
0.977875
 20
2.153368966601196
 30
0.0
 40
0.0999999999999992
100
AcDbArc
 50
0.0
 51
59.99999999999994
  0
ARC
  5
1E8
330
19F
100
AcDbEntity
  8
AM_9
100
AcDbCircle
 10
0.9778749999999987
 20
-2.153368966601195
 30
0.0
 40
0.1000000000000008
100
AcDbArc
 50
300.0000000000004
 51
0.0
  0
LINE
  5
1E9
330
19F
100
AcDbEntity
  8
AM_9
100
AcDbLine
 10
1.027875
 20
-2.239971506979639
 30
0.0
 11
1.027875
 21
2.239971506979639
 31
0.0
  0
LINE
  5
1EA
330
19F
100
AcDbEntity
  8
AM_9
100
AcDbLine
 10
1.027875
 20
2.239971506979639
 30
0.0
 11
0.8216249999999996
 21
2.35905
 31
0.0
  0
LINE
  5
1EB
330
19F
100
AcDbEntity
  8
AM_9
100
AcDbLine
 10
0.8216249999999996
 20
-2.35905
 30
0.0
 11
1.027875
 21
-2.239971506979639
 31
0.0
  0
LINE
  5
1EC
330
19F
100
AcDbEntity
  8
AM_9
100
AcDbLine
 10
0.21798650161996
 20
2.4949875
 30
0.0
 11
0.1440134983800392
 21
2.4949875
 31
0.0
  0
LINE
  5
1ED
330
19F
100
AcDbEntity
  8
AM_9
100
AcDbLine
 10
0.1440134983800392
 20
-2.4949875
 30
0.0
 11
0.21798650161996
 21
-2.4949875
 31
0.0
  0
LINE
  5
1EE
330
19F
100
AcDbEntity
  8
AM_9
100
AcDbLine
 10
0.21798650161996
 20
-2.4949875
 30
0.0
 11
0.21798650161996
 21
2.4949875
 31
0.0
  0
LINE
  5
1EF
330
19F
100
AcDbEntity
  8
AM_9
100
AcDbLine
 10
0.21798650161996
 20
-2.4949875
 30
0.0
 11
0.2549730032399202
 21
-2.55905
 31
0.0
  0
LINE
  5
1F0
330
19F
100
AcDbEntity
  8
AM_9
100
AcDbLine
 10
0.2549730032399202
 20
2.55905
 30
0.0
 11
0.21798650161996
 21
2.4949875
 31
0.0
  0
LINE
  5
1F1
330
19F
100
AcDbEntity
  8
AM_9
100
AcDbLine
 10
0.2549730032399202
 20
-2.55905
 30
0.0
 11
0.2549730032399202
 21
2.55905
 31
0.0
  0
LINE
  5
1F2
330
19F
100
AcDbEntity
  8
AM_9
100
AcDbLine
 10
0.7716249999999999
 20
2.55905
 30
0.0
 11
0.2549730032399202
 21
2.55905
 31
0.0
  0
LINE
  5
1F3
330
19F
100
AcDbEntity
  8
AM_9
100
AcDbLine
 10
0.2549730032399202
 20
-2.55905
 30
0.0
 11
0.7716249999999999
 21
-2.55905
 31
0.0
  0
LINE
  5
1F4
330
19F
100
AcDbEntity
  8
AM_9
100
AcDbLine
 10
0.1440134983800392
 20
-2.4949875
 30
0.0
 11
0.1440134983800392
 21
2.4949875
 31
0.0
  0
LINE
  5
1F5
330
19F
100
AcDbEntity
  8
AM_9
100
AcDbLine
 10
0.1440134983800392
 20
2.4949875
 30
0.0
 11
0.1070269967600788
 21
2.55905
 31
0.0
  0
LINE
  5
1F6
330
19F
100
AcDbEntity
  8
AM_9
100
AcDbLine
 10
0.1070269967600788
 20
-2.55905
 30
0.0
 11
0.1440134983800392
 21
-2.4949875
 31
0.0
  0
LINE
  5
1F7
330
19F
100
AcDbEntity
  8
AM_9
100
AcDbLine
 10
0.8216249999999996
 20
-2.50905
 30
0.0
 11
0.8216249999999996
 21
2.50905
 31
0.0
  0
LINE
  5
1F8
330
19F
100
AcDbEntity
  8
AM_9
100
AcDbLine
 10
0.7716249999999999
 20
-2.55905
 30
0.0
 11
0.7716249999999999
 21
2.55905
 31
0.0
  0
ARC
  5
1F9
330
19F
100
AcDbEntity
  8
AM_9
100
AcDbCircle
 10
0.7716249999999987
 20
2.509049999999999
 30
0.0
 40
0.0500000000000008
100
AcDbArc
 50
0.0
 51
90.0
  0
ARC
  5
1FA
330
19F
100
AcDbEntity
  8
AM_9
100
AcDbCircle
 10
0.7716249999999987
 20
-2.509049999999999
 30
0.0
 40
0.0500000000000007
100
AcDbArc
 50
270.0
 51
0.0
  0
LINE
  5
1FB
330
19F
100
AcDbEntity
  8
AM_9
100
AcDbLine
 10
-0.4596250000000003
 20
-2.50905
 30
0.0
 11
-0.4596250000000003
 21
2.50905
 31
0.0
  0
ARC
  5
1FC
330
19F
100
AcDbEntity
  8
AM_9
100
AcDbCircle
 10
-0.4096250000000008
 20
2.509050000000001
 30
0.0
 40
0.0499999999999998
100
AcDbArc
 50
90.0
 51
180.0
  0
ARC
  5
1FD
330
19F
100
AcDbEntity
  8
AM_9
100
AcDbCircle
 10
-0.4096250000000005
 20
-2.509050000000001
 30
0.0
 40
0.0499999999999998
100
AcDbArc
 50
180.0
 51
270.0
  0
LINE
  5
1FE
330
19F
100
AcDbEntity
  8
AM_9
100
AcDbLine
 10
0.1070269967600788
 20
-2.55905
 30
0.0
 11
0.1070269967600788
 21
2.55905
 31
0.0
  0
LINE
  5
1FF
330
19F
100
AcDbEntity
  8
AM_9
100
AcDbLine
 10
-0.4096250000000003
 20
-2.55905
 30
0.0
 11
-0.4096250000000003
 21
2.55905
 31
0.0
  0
LINE
  5
200
330
19F
100
AcDbEntity
  8
AM_9
100
AcDbLine
 10
0.1070269967600788
 20
2.55905
 30
0.0
 11
-0.4096250000000003
 21
2.55905
 31
0.0
  0
LINE
  5
201
330
19F
100
AcDbEntity
  8
AM_9
100
AcDbLine
 10
-0.4096250000000003
 20
-2.55905
 30
0.0
 11
0.1070269967600788
 21
-2.55905
 31
0.0
  0
LINE
  5
202
330
19F
100
AcDbEntity
  8
AM_5
100
AcDbLine
 10
-1.066833333333333
 20
1.889290277777778
 30
0.0
 11
-1.066833333333333
 21
1.911840277777778
 31
0.0
  0
LINE
  5
203
330
19F
100
AcDbEntity
  8
AM_5
100
AcDbLine
 10
-1.066833333333333
 20
1.911840277777778
 30
0.0
 11
-1.053814084763107
 21
1.889290277777778
 31
0.0
  0
LINE
  5
204
330
19F
100
AcDbEntity
  8
AM_5
100
AcDbLine
 10
-1.066833333333333
 20
1.744390277777778
 30
0.0
 11
-1.066833333333333
 21
1.721840277777778
 31
0.0
  0
LINE
  5
205
330
19F
100
AcDbEntity
  8
AM_5
100
AcDbLine
 10
-1.066833333333333
 20
1.721840277777778
 30
0.0
 11
-1.053814084763108
 21
1.744390277777778
 31
0.0
  0
LINE
  5
206
330
19F
100
AcDbEntity
  8
AM_5
100
AcDbLine
 10
-1.066833333333318
 20
-1.889290277777778
 30
0.0
 11
-1.066833333333318
 21
-1.911840277777778
 31
0.0
  0
LINE
  5
207
330
19F
100
AcDbEntity
  8
AM_5
100
AcDbLine
 10
-1.066833333333318
 20
-1.911840277777778
 30
0.0
 11
-1.053814084763111
 21
-1.889290277777778
 31
0.0
  0
LINE
  5
208
330
19F
100
AcDbEntity
  8
AM_5
100
AcDbLine
 10
-1.066833333333318
 20
-1.744390277777778
 30
0.0
 11
-1.066833333333318
 21
-1.721840277777778
 31
0.0
  0
LINE
  5
209
330
19F
100
AcDbEntity
  8
AM_5
100
AcDbLine
 10
-1.066833333333318
 20
-1.721840277777778
 30
0.0
 11
-1.053814084763111
 21
-1.744390277777778
 31
0.0
  0
LINE
  5
20A
330
19F
100
AcDbEntity
  8
AM_7
100
AcDbLine
 10
-0.9448333333333333
 20
1.816840277777778
 30
0.0
 11
-2.145050333333333
 21
1.816840277777778
 31
0.0
  0
LINE
  5
20B
330
19F
100
AcDbEntity
  8
AM_7
100
AcDbLine
 10
-0.9448333333333366
 20
-1.816840277777778
 30
0.0
 11
-2.145050333333333
 21
-1.816840277777778
 31
0.0
  0
ARC
  5
20C
330
19F
100
AcDbEntity
  8
AM_4
100
AcDbCircle
 10
-1.776833333333334
 20
-2.092340561259646
 30
0.0
 40
0.0499999999999998
100
AcDbArc
 50
180.0
 51
268.0000000000001
  0
ARC
  5
20D
330
19F
100
AcDbEntity
  8
AM_4
100
AcDbCircle
 10
-1.776833333333333
 20
2.092340561259646
 30
0.0
 40
0.0500000000000003
100
AcDbArc
 50
92.00000000000023
 51
180.0
  0
LWPOLYLINE
  5
20E
330
19F
100
AcDbEntity
  8
AM_4
100
AcDbPolyline
 90
        6
 70
     0
 43
0.0
 10
-1.778578308168459
 20
-1.68126873179059
 10
-1.794932855520174
 20
-1.678876161346741
 10
-1.809253833641607
 20
-1.672792404581568
 10
-1.81997683994175
 20
-1.663682867646965
 10
-1.825905870670556
 20
-1.652512800281862
 10
-1.826833333333334
 20
-1.645685988665757
  0
LWPOLYLINE
  5
20F
330
19F
100
AcDbEntity
  8
AM_4
100
AcDbPolyline
 90
        6
 70
     0
 43
0.0
 10
-1.826833333333334
 20
1.645685988665756
 10
-1.826303406027257
 20
1.650856707133888
 10
-1.821049174789223
 20
1.662310724868606
 10
-1.81073359551393
 20
1.671858426813062
 10
-1.79659150615002
 20
1.678393042311169
 10
-1.778578308168459
 20
1.68126873179059
  0
LINE
  5
210
330
19F
100
AcDbEntity
  8
AM_4
100
AcDbLine
 10
-1.896833333333334
 20
1.414473684210526
 30
0.0
 11
-2.1
 21
1.414473684210526
 31
0.0
  0
LINE
  5
211
330
19F
100
AcDbEntity
  8
AM_4
100
AcDbLine
 10
-2.1
 20
-1.414473684210526
 30
0.0
 11
-1.896833333333334
 21
-1.414473684210526
 31
0.0
  0
LINE
  5
212
330
19F
100
AcDbEntity
  8
AM_4
100
AcDbLine
 10
-2.1
 20
-1.414473684210526
 30
0.0
 11
-2.1
 21
1.414473684210526
 31
0.0
  0
LINE
  5
213
330
19F
100
AcDbEntity
  8
AM_4
100
AcDbLine
 10
-1.386833333333334
 20
-1.499066376115481
 30
0.0
 11
-1.826833333333334
 21
-1.499066376115481
 31
0.0
  0
LINE
  5
214
330
19F
100
AcDbEntity
  8
AM_4
100
AcDbLine
 10
-1.386833333333334
 20
1.499066376115481
 30
0.0
 11
-1.826833333333334
 21
1.499066376115481
 31
0.0
  0
LINE
  5
215
330
19F
100
AcDbEntity
  8
AM_4
100
AcDbLine
 10
1.424999999999999
 20
-1.882612179487178
 30
0.0
 11
1.424999999999999
 21
1.882612179487178
 31
0.0
  0
ARC
  5
216
330
19F
100
AcDbEntity
  8
AM_4
100
AcDbCircle
 10
1.380528846153846
 20
1.88261217948718
 30
0.0
 40
0.0444711538461533
100
AcDbArc
 50
0.0000008537736463
 51
90.0
  0
ARC
  5
217
330
19F
100
AcDbEntity
  8
AM_4
100
AcDbCircle
 10
1.380528846153846
 20
-1.88261217948718
 30
0.0
 40
0.0444711538461533
100
AcDbArc
 50
270.0
 51
0.0000008537736463
  0
LINE
  5
218
330
19F
100
AcDbEntity
  8
AM_4
100
AcDbLine
 10
1.380528846153846
 20
-1.927083333333333
 30
0.0
 11
1.380528846153846
 21
1.927083333333333
 31
0.0
  0
LINE
  5
219
330
19F
100
AcDbEntity
  8
AM_4
100
AcDbLine
 10
1.380528846153846
 20
1.927083333333333
 30
0.0
 11
1.25
 21
1.927083333333333
 31
0.0
  0
LINE
  5
21A
330
19F
100
AcDbEntity
  8
AM_4
100
AcDbLine
 10
1.25
 20
-1.927083333333333
 30
0.0
 11
1.380528846153846
 21
-1.927083333333333
 31
0.0
  0
LWPOLYLINE
  5
21B
330
19F
100
AcDbEntity
  8
AM_4
100
AcDbPolyline
 90
        6
 70
     0
 43
0.0
 10
-1.778578308168459
 20
1.327715341197316
 10
-1.794932855520174
 20
1.325322770753467
 10
-1.809253833641607
 20
1.319239013988293
 10
-1.81997683994175
 20
1.310129477053691
 10
-1.825905870670556
 20
1.298959409688588
 10
-1.826833333333334
 20
1.292132598072483
  0
LWPOLYLINE
  5
21C
330
19F
100
AcDbEntity
  8
AM_4
100
AcDbPolyline
 90
        6
 70
     0
 43
0.0
 10
-1.826833333333334
 20
-1.292132598072483
 10
-1.826303406027257
 20
-1.297303316540614
 10
-1.821049174789223
 20
-1.308757334275331
 10
-1.81073359551393
 20
-1.318305036219789
 10
-1.79659150615002
 20
-1.324839651717895
 10
-1.778578308168459
 20
-1.327715341197316
  0
LINE
  5
21D
330
19F
100
AcDbEntity
  8
AM_4
100
AcDbLine
 10
-1.778578308168459
 20
-1.327715341197316
 30
0.0
 11
-1.778578308168459
 21
1.327715341197316
 31
0.0
  0
LINE
  5
21E
330
19F
100
AcDbEntity
  8
AM_4
100
AcDbLine
 10
-1.778578308168459
 20
-1.327715341197316
 30
0.0
 11
-1.386833333333334
 21
-1.337454706708775
 31
0.0
  0
LINE
  5
21F
330
19F
100
AcDbEntity
  8
AM_4
100
AcDbLine
 10
-1.386833333333334
 20
-1.337454706708775
 30
0.0
 11
-1.386833333333334
 21
-1.691008097302049
 31
0.0
  0
LINE
  5
220
330
19F
100
AcDbEntity
  8
AM_4
100
AcDbLine
 10
-1.386833333333334
 20
-1.691008097302049
 30
0.0
 11
-1.778578308168459
 21
-1.68126873179059
 31
0.0
  0
LINE
  5
221
330
19F
100
AcDbEntity
  8
AM_4
100
AcDbLine
 10
-1.778578308168459
 20
1.68126873179059
 30
0.0
 11
-1.778578308168459
 21
2.142310102610601
 31
0.0
  0
LINE
  5
222
330
19F
100
AcDbEntity
  8
AM_4
100
AcDbLine
 10
-1.778578308168459
 20
1.68126873179059
 30
0.0
 11
-1.386833333333334
 21
1.691008097302049
 31
0.0
  0
LINE
  5
223
330
19F
100
AcDbEntity
  8
AM_4
100
AcDbLine
 10
-1.386833333333334
 20
1.691008097302049
 30
0.0
 11
-1.386833333333334
 21
1.337454706708775
 31
0.0
  0
LINE
  5
224
330
19F
100
AcDbEntity
  8
AM_4
100
AcDbLine
 10
-1.386833333333334
 20
1.337454706708775
 30
0.0
 11
-1.778578308168459
 21
1.327715341197316
 31
0.0
  0
LINE
  5
225
330
19F
100
AcDbEntity
  8
AM_4
100
AcDbLine
 10
-1.778578308168459
 20
-2.142310102610601
 30
0.0
 11
-1.22
 21
-2.161816086953242
 31
0.0
  0
LINE
  5
226
330
19F
100
AcDbEntity
  8
AM_4
100
AcDbLine
 10
-1.22
 20
2.161816086953242
 30
0.0
 11
-1.778578308168459
 21
2.142310102610601
 31
0.0
  0
LINE
  5
227
330
19F
100
AcDbEntity
  8
AM_4
100
AcDbLine
 10
-1.778578308168459
 20
-2.142310102610601
 30
0.0
 11
-1.778578308168459
 21
-1.68126873179059
 31
0.0
  0
ENDBLK
  5
1A2
330
19F
100
AcDbEntity
  8
0
100
AcDbBlockEnd
  0
BLOCK
  5
22A
330
228
100
AcDbEntity
  8
0
100
AcDbBlockBegin
  2
8_B072372_0_in_072372_2
 70
     2
 10
0.0
 20
0.0
 30
0.0
  3
8_B072372_0_in_072372_2
  1

  0
ATTDEF
  5
22C
330
228
100
AcDbEntity
  8
AM_6
100
AcDbText
 10
7.717000000000001
 20
4.375
 30
0.0
 40
0.5
  1
SFCN-207-408-(Contact Seal)-Housing
100
AcDbAttributeDefinition
  3

  2
NN
 70
     8
280
     0
  0
ATTDEF
  5
22D
330
228
100
AcDbEntity
  8
AM_6
100
AcDbText
 10
7.717000000000001
 20
3.875
 30
0.0
 40
0.5
  1
Steal Heavy Duty Imperial Piloted Flange Bearing-Inch-207-408
100
AcDbAttributeDefinition
  3

  2
NT
 70
     8
280
     0
  0
ATTDEF
  5
22E
330
228
100
AcDbEntity
  8
AM_6
100
AcDbText
 10
7.717000000000001
 20
3.375
 30
0.0
 40
0.5
  1
B072372
100
AcDbAttributeDefinition
  3

  2
NB
 70
     8
280
     0
  0
ATTDEF
  5
22F
330
228
100
AcDbEntity
  8
AM_6
100
AcDbText
 10
7.717000000000001
 20
2.875
 30
0.0
 40
0.5
  1
$PN.
100
AcDbAttributeDefinition
  3

  2
NBSYN
 70
     8
280
     0
  0
ATTDEF
  5
230
330
228
100
AcDbEntity
  8
AM_6
100
AcDbText
 10
7.717000000000001
 20
2.375
 30
0.0
 40
0.5
  1
B072372
100
AcDbAttributeDefinition
  3

  2
LINA
 70
     8
280
     0
  0
ATTDEF
  5
231
330
228
100
AcDbEntity
  8
AM_6
100
AcDbText
 10
7.717000000000001
 20
1.875
 30
0.0
 40
0.5
  1
2-11/16
100
AcDbAttributeDefinition
  3

  2
SS
 70
     8
280
     0
  0
ATTDEF
  5
232
330
228
100
AcDbEntity
  8
AM_6
100
AcDbText
 10
7.717000000000001
 20
1.375
 30
0.0
 40
0.5
  1
2.68750
100
AcDbAttributeDefinition
  3

  2
SS1
 70
     8
280
     0
  0
ATTDEF
  5
233
330
228
100
AcDbEntity
  8
AM_6
100
AcDbText
 10
7.717000000000001
 20
0.875
 30
0.0
 40
0.5
  1
072348
100
AcDbAttributeDefinition
  3

  2
PN1
 70
     8
280
     0
  0
ATTDEF
  5
234
330
228
100
AcDbEntity
  8
AM_6
100
AcDbText
 10
7.717000000000001
 20
0.375
 30
0.0
 40
0.5
  1
072372
100
AcDbAttributeDefinition
  3

  2
PN2
 70
     8
280
     0
  0
ATTDEF
  5
235
330
228
100
AcDbEntity
  8
AM_6
100
AcDbText
 10
7.717000000000001
 20
-0.125
 30
0.0
 40
0.5
  1
Expansion
100
AcDbAttributeDefinition
  3

  2
TYPE
 70
     8
280
     0
  0
ATTDEF
  5
236
330
228
100
AcDbEntity
  8
AM_6
100
AcDbText
 10
7.717000000000001
 20
-0.625
 30
0.0
 40
0.5
  1
Contact Seal
100
AcDbAttributeDefinition
  3

  2
ST
 70
     8
280
     0
  0
ATTDEF
  5
237
330
228
100
AcDbEntity
  8
AM_6
100
AcDbText
 10
7.717000000000001
 20
-1.125
 30
0.0
 40
0.5
  1
SFCN-IP-211R
100
AcDbAttributeDefinition
  3

  2
DESCRIPTIONS
 70
     8
280
     0
  0
ATTDEF
  5
238
330
228
100
AcDbEntity
  8
AM_6
100
AcDbText
 10
7.717000000000001
 20
-1.625
 30
0.0
 40
0.5
  1
3.50
100
AcDbAttributeDefinition
  3

  2
A
 70
     8
280
     0
  0
ATTDEF
  5
239
330
228
100
AcDbEntity
  8
AM_6
100
AcDbText
 10
7.717000000000001
 20
-2.125
 30
0.0
 40
0.5
  1
3.500
100
AcDbAttributeDefinition
  3

  2
A1
 70
     8
280
     0
  0
ATTDEF
  5
23A
330
228
100
AcDbEntity
  8
AM_6
100
AcDbText
 10
7.717000000000001
 20
-2.625
 30
0.0
 40
0.5
  1
8.75
100
AcDbAttributeDefinition
  3

  2
B
 70
     8
280
     0
  0
ATTDEF
  5
23B
330
228
100
AcDbEntity
  8
AM_6
100
AcDbText
 10
7.717000000000001
 20
-3.125
 30
0.0
 40
0.5
  1
8.7500
100
AcDbAttributeDefinition
  3

  2
B1
 70
     8
280
     0
  0
ATTDEF
  5
23C
330
228
100
AcDbEntity
  8
AM_6
100
AcDbText
 10
7.717000000000001
 20
-3.625
 30
0.0
 40
0.5
  1
2.47
100
AcDbAttributeDefinition
  3

  2
C
 70
     8
280
     0
  0
ATTDEF
  5
23D
330
228
100
AcDbEntity
  8
AM_6
100
AcDbText
 10
7.717000000000001
 20
-4.125
 30
0.0
 40
0.5
  1
2.4700
100
AcDbAttributeDefinition
  3

  2
C1
 70
     8
280
     0
  0
ATTDEF
  5
23E
330
228
100
AcDbEntity
  8
AM_6
100
AcDbText
 10
7.717000000000001
 20
-4.625
 30
0.0
 40
0.5
  1
5.30
100
AcDbAttributeDefinition
  3

  2
D
 70
     8
280
     0
  0
ATTDEF
  5
23F
330
228
100
AcDbEntity
  8
AM_6
100
AcDbText
 10
7.717000000000001
 20
-5.125
 30
0.0
 40
0.5
  1
5.3000
100
AcDbAttributeDefinition
  3

  2
D1
 70
     8
280
     0
  0
ATTDEF
  5
240
330
228
100
AcDbEntity
  8
AM_6
100
AcDbText
 10
7.717000000000001
 20
-5.625
 30
0.0
 40
0.5
  1
7.500
100
AcDbAttributeDefinition
  3

  2
DD
 70
     8
280
     0
  0
ATTDEF
  5
241
330
228
100
AcDbEntity
  8
AM_6
100
AcDbText
 10
7.717000000000001
 20
-6.125
 30
0.0
 40
0.5
  1
7.5000
100
AcDbAttributeDefinition
  3

  2
DD1
 70
     8
280
     0
  0
ATTDEF
  5
242
330
228
100
AcDbEntity
  8
AM_6
100
AcDbText
 10
7.717000000000001
 20
-6.625
 30
0.0
 40
0.5
  1
0.0000
100
AcDbAttributeDefinition
  3

  2
E
 70
     8
280
     0
  0
ATTDEF
  5
243
330
228
100
AcDbEntity
  8
AM_6
100
AcDbText
 10
7.717000000000001
 20
-7.125
 30
0.0
 40
0.5
  1
0.0000
100
AcDbAttributeDefinition
  3

  2
E1
 70
     8
280
     0
  0
ATTDEF
  5
244
330
228
100
AcDbEntity
  8
AM_6
100
AcDbText
 10
7.717000000000001
 20
-7.625
 30
0.0
 40
0.5
  1
0.6250
100
AcDbAttributeDefinition
  3

  2
F
 70
     8
280
     0
  0
ATTDEF
  5
245
330
228
100
AcDbEntity
  8
AM_6
100
AcDbText
 10
7.717000000000001
 20
-8.125
 30
0.0
 40
0.5
  1
0.62500
100
AcDbAttributeDefinition
  3

  2
F1
 70
     8
280
     0
  0
ATTDEF
  5
246
330
228
100
AcDbEntity
  8
AM_6
100
AcDbText
 10
7.717000000000001
 20
-8.625
 30
0.0
 40
0.5
  1
2.35
100
AcDbAttributeDefinition
  3

  2
G
 70
     8
280
     0
  0
ATTDEF
  5
247
330
228
100
AcDbEntity
  8
AM_6
100
AcDbText
 10
7.717000000000001
 20
-9.125
 30
0.0
 40
0.5
  1
2.35
100
AcDbAttributeDefinition
  3

  2
G1
 70
     8
280
     0
  0
ATTDEF
  5
248
330
228
100
AcDbEntity
  8
AM_6
100
AcDbText
 10
7.717000000000001
 20
-9.625
 30
0.0
 40
0.5
  1
0.81
100
AcDbAttributeDefinition
  3

  2
H
 70
     8
280
     0
  0
ATTDEF
  5
249
330
228
100
AcDbEntity
  8
AM_6
100
AcDbText
 10
7.717000000000001
 20
-10.125
 30
0.0
 40
0.5
  1
0.81
100
AcDbAttributeDefinition
  3

  2
H1
 70
     8
280
     0
  0
ATTDEF
  5
24A
330
228
100
AcDbEntity
  8
AM_6
100
AcDbText
 10
7.717000000000001
 20
-10.625
 30
0.0
 40
0.5
  1
6.375
100
AcDbAttributeDefinition
  3

  2
K
 70
     8
280
     0
  0
ATTDEF
  5
24B
330
228
100
AcDbEntity
  8
AM_6
100
AcDbText
 10
7.717000000000001
 20
-11.125
 30
0.0
 40
0.5
  1
6.375
100
AcDbAttributeDefinition
  3

  2
K1
 70
     8
280
     0
  0
ATTDEF
  5
24C
330
228
100
AcDbEntity
  8
AM_6
100
AcDbText
 10
7.717000000000001
 20
-11.625
 30
0.0
 40
0.5
  1
4.20
100
AcDbAttributeDefinition
  3

  2
L
 70
     8
280
     0
  0
ATTDEF
  5
24D
330
228
100
AcDbEntity
  8
AM_6
100
AcDbText
 10
7.717000000000001
 20
-12.125
 30
0.0
 40
0.5
  1
4.20
100
AcDbAttributeDefinition
  3

  2
L1
 70
     8
280
     0
  0
ATTDEF
  5
24E
330
228
100
AcDbEntity
  8
AM_6
100
AcDbText
 10
7.717000000000001
 20
-12.625
 30
0.0
 40
0.5
  1
0.6250
100
AcDbAttributeDefinition
  3

  2
M
 70
     8
280
     0
  0
ATTDEF
  5
24F
330
228
100
AcDbEntity
  8
AM_6
100
AcDbText
 10
7.717000000000001
 20
-13.125
 30
0.0
 40
0.5
  1
0.6250
100
AcDbAttributeDefinition
  3

  2
M1
 70
     8
280
     0
  0
ATTDEF
  5
250
330
228
100
AcDbEntity
  8
AM_6
100
AcDbText
 10
7.717000000000001
 20
-13.625
 30
0.0
 40
0.5
  1
3.60
100
AcDbAttributeDefinition
  3

  2
N
 70
     8
280
     0
  0
ATTDEF
  5
251
330
228
100
AcDbEntity
  8
AM_6
100
AcDbText
 10
7.717000000000001
 20
-14.125
 30
0.0
 40
0.5
  1
3.60
100
AcDbAttributeDefinition
  3

  2
N1
 70
     8
280
     0
  0
ATTDEF
  5
252
330
228
100
AcDbEntity
  8
AM_6
100
AcDbText
 10
7.717000000000001
 20
-14.625
 30
0.0
 40
0.5
  1
1.15
100
AcDbAttributeDefinition
  3

  2
P
 70
     8
280
     0
  0
ATTDEF
  5
253
330
228
100
AcDbEntity
  8
AM_6
100
AcDbText
 10
7.717000000000001
 20
-15.125
 30
0.0
 40
0.5
  1
1.15
100
AcDbAttributeDefinition
  3

  2
P1
 70
     8
280
     0
  0
ATTDEF
  5
254
330
228
100
AcDbEntity
  8
AM_6
100
AcDbText
 10
7.717000000000001
 20
-15.625
 30
0.0
 40
0.5
  1
1.25
100
AcDbAttributeDefinition
  3

  2
Q
 70
     8
280
     0
  0
ATTDEF
  5
255
330
228
100
AcDbEntity
  8
AM_6
100
AcDbText
 10
7.717000000000001
 20
-16.125
 30
0.0
 40
0.5
  1
1.25
100
AcDbAttributeDefinition
  3

  2
Q1
 70
     8
280
     0
  0
ATTDEF
  5
256
330
228
100
AcDbEntity
  8
AM_6
100
AcDbText
 10
7.717000000000001
 20
-16.625
 30
0.0
 40
0.5
  1
0.25
100
AcDbAttributeDefinition
  3

  2
X
 70
     8
280
     0
  0
ATTDEF
  5
257
330
228
100
AcDbEntity
  8
AM_6
100
AcDbText
 10
7.717000000000001
 20
-17.125
 30
0.0
 40
0.5
  1
0.25
100
AcDbAttributeDefinition
  3

  2
X1
 70
     8
280
     0
  0
ATTDEF
  5
258
330
228
100
AcDbEntity
  8
AM_6
100
AcDbText
 10
7.717000000000001
 20
-17.625
 30
0.0
 40
0.5
  1
0.025
100
AcDbAttributeDefinition
  3

  2
Y
 70
     8
280
     0
  0
ATTDEF
  5
259
330
228
100
AcDbEntity
  8
AM_6
100
AcDbText
 10
7.717000000000001
 20
-18.125
 30
0.0
 40
0.5
  1
0.025
100
AcDbAttributeDefinition
  3

  2
Y1
 70
     8
280
     0
  0
ATTDEF
  5
25A
330
228
100
AcDbEntity
  8
AM_6
100
AcDbText
 10
7.717000000000001
 20
-18.625
 30
0.0
 40
0.5
  1
3.47
100
AcDbAttributeDefinition
  3

  2
Z
 70
     8
280
     0
  0
ATTDEF
  5
25B
330
228
100
AcDbEntity
  8
AM_6
100
AcDbText
 10
7.717000000000001
 20
-19.125
 30
0.0
 40
0.5
  1
3.47
100
AcDbAttributeDefinition
  3

  2
Z1
 70
     8
280
     0
  0
ATTDEF
  5
25C
330
228
100
AcDbEntity
  8
AM_6
100
AcDbText
 10
7.717000000000001
 20
-19.625
 30
0.0
 40
0.5
  1
5.1181
100
AcDbAttributeDefinition
  3

  2
BORE
 70
     8
280
     0
  0
ATTDEF
  5
25D
330
228
100
AcDbEntity
  8
AM_6
100
AcDbText
 10
7.717000000000001
 20
-20.125
 30
0.0
 40
0.5
  1
0.1021670
100
AcDbAttributeDefinition
  3

  2
O
 70
     8
280
     0
  0
ATTDEF
  5
25E
330
228
100
AcDbEntity
  8
AM_6
100
AcDbText
 10
7.717000000000001
 20
-20.625
 30
0.0
 40
0.5
  1
baldor
100
AcDbAttributeDefinition
  3

  2
COMPANY
 70
     8
280
     0
  0
LINE
  5
25F
330
228
100
AcDbEntity
  8
AM_9
100
AcDbLine
 10
-0.7087499999999999
 20
-2.817123599814148
 30
0.0
 11
-0.8099999999999999
 21
-2.817123599814148
 31
0.0
  0
LINE
  5
260
330
228
100
AcDbEntity
  8
AM_9
100
AcDbLine
 10
-0.7087500000000001
 20
-3.082864941900634
 30
0.0
 11
-0.8099999999999998
 21
-3.082864941900634
 31
0.0
  0
LINE
  5
261
330
228
100
AcDbEntity
  8
AM_9
100
AcDbLine
 10
-0.7087499999999999
 20
2.817123599814148
 30
0.0
 11
-0.8099999999999999
 21
2.817123599814148
 31
0.0
  0
LINE
  5
262
330
228
100
AcDbEntity
  8
AM_9
100
AcDbLine
 10
-0.7087500000000001
 20
3.082864941900634
 30
0.0
 11
-0.8099999999999998
 21
3.082864941900633
 31
0.0
  0
LINE
  5
263
330
228
100
AcDbEntity
  8
AM_9
100
AcDbLine
 10
-0.7087499999999999
 20
-2.817123599814148
 30
0.0
 11
-0.7087499999999998
 21
-3.6069383031438
 31
0.0
  0
LINE
  5
264
330
228
100
AcDbEntity
  8
AM_9
100
AcDbLine
 10
-0.7087499999999998
 20
3.606938303143798
 30
0.0
 11
-0.7087499999999999
 21
2.817123599814148
 31
0.0
  0
LINE
  5
265
330
228
100
AcDbEntity
  8
AM_9
100
AcDbLine
 10
-1.22
 20
-2.55905
 30
0.0
 11
1.25
 21
-2.55905
 31
0.0
  0
LINE
  5
266
330
228
100
AcDbEntity
  8
AM_9
100
AcDbLine
 10
1.25
 20
2.55905
 30
0.0
 11
-1.22
 21
2.55905
 31
0.0
  0
LINE
  5
267
330
228
100
AcDbEntity
  8
AM_9
100
AcDbLine
 10
-0.8099999999999999
 20
2.339150429449553
 30
0.0
 11
0.0000000000000002
 21
2.339150429449553
 31
0.0
  0
LINE
  5
268
330
228
100
AcDbEntity
  8
AM_9
100
AcDbLine
 10
0.0000000000000002
 20
2.964150429449553
 30
0.0
 11
-0.8099999999999999
 21
2.964150429449553
 31
0.0
  0
LINE
  5
269
330
228
100
AcDbEntity
  8
AM_9
100
AcDbLine
 10
-0.8099999999999999
 20
-2.964150429449553
 30
0.0
 11
0.0000000000000002
 21
-2.964150429449553
 31
0.0
  0
LINE
  5
26A
330
228
100
AcDbEntity
  8
AM_9
100
AcDbLine
 10
0.0000000000000002
 20
-2.339150429449553
 30
0.0
 11
-0.8099999999999999
 21
-2.339150429449553
 31
0.0
  0
LINE
  5
26B
330
228
100
AcDbEntity
  8
AM_9
100
AcDbLine
 10
0.0000000000000002
 20
0.2632999999999999
 30
0.0
 11
-0.7087499999999998
 21
0.2632999999999999
 31
0.0
  0
LINE
  5
26C
330
228
100
AcDbEntity
  8
AM_9
100
AcDbLine
 10
-0.7087499999999998
 20
-0.2632999999999999
 30
0.0
 11
0.0000000000000002
 21
-0.2632999999999999
 31
0.0
  0
LINE
  5
26D
330
228
100
AcDbEntity
  8
AM_5
100
AcDbLine
 10
-0.0000000000000002
 20
-0.3125
 30
0.0
 11
-0.7087500000000003
 21
-0.3125
 31
0.0
  0
LINE
  5
26E
330
228
100
AcDbEntity
  8
AM_5
100
AcDbLine
 10
-0.0000000000000002
 20
0.3125
 30
0.0
 11
-0.7087500000000003
 21
0.3125
 31
0.0
  0
LINE
  5
26F
330
228
100
AcDbEntity
  8
AM_7
100
AcDbLine
 10
0.0404999999999998
 20
-2.651650429449553
 30
0.0
 11
-0.8505000000000003
 21
-2.651650429449553
 31
0.0
  0
LINE
  5
270
330
228
100
AcDbEntity
  8
AM_7
100
AcDbLine
 10
0.0404999999999998
 20
2.651650429449553
 30
0.0
 11
-0.8505000000000003
 21
2.651650429449553
 31
0.0
  0
LINE
  5
271
330
228
100
AcDbEntity
  8
AM_7
100
AcDbLine
 10
2.717
 20
0.0
 30
0.0
 11
-2.717
 21
0.0
 31
0.0
  0
LINE
  5
272
330
228
100
AcDbEntity
  8
AM_4
100
AcDbLine
 10
-1.220000000000001
 20
-3.187500000000001
 30
0.0
 11
-0.81
 21
-3.824999999999999
 31
0.0
  0
LINE
  5
273
330
228
100
AcDbEntity
  8
AM_4
100
AcDbLine
 10
-0.7087500000000001
 20
-3.824999999999999
 30
0.0
 11
-0.81
 21
-3.824999999999999
 31
0.0
  0
LINE
  5
274
330
228
100
AcDbEntity
  8
AM_4
100
AcDbLine
 10
-0.7087500000000001
 20
3.824999999999999
 30
0.0
 11
-0.81
 21
3.824999999999999
 31
0.0
  0
LINE
  5
275
330
228
100
AcDbEntity
  8
AM_4
100
AcDbLine
 10
-0.81
 20
3.824999999999999
 30
0.0
 11
-1.220000000000001
 21
3.187500000000001
 31
0.0
  0
LINE
  5
276
330
228
100
AcDbEntity
  8
AM_4
100
AcDbLine
 10
-0.8099999999999998
 20
-3.082864941900634
 30
0.0
 11
-1.220000000000001
 21
-3.082864941900634
 31
0.0
  0
LINE
  5
277
330
228
100
AcDbEntity
  8
AM_4
100
AcDbLine
 10
-0.8099999999999998
 20
3.082864941900633
 30
0.0
 11
-1.22
 21
3.082864941900635
 31
0.0
  0
LINE
  5
278
330
228
100
AcDbEntity
  8
AM_4
100
AcDbLine
 10
-1.22
 20
2.583418115209847
 30
0.0
 11
-0.8099999999999999
 21
2.583418115209849
 31
0.0
  0
LINE
  5
279
330
228
100
AcDbEntity
  8
AM_4
100
AcDbLine
 10
-1.220000000000001
 20
3.187500000000001
 30
0.0
 11
-1.220000000000001
 21
-3.187500000000001
 31
0.0
  0
LINE
  5
27A
330
228
100
AcDbEntity
  8
AM_4
100
AcDbLine
 10
-1.22
 20
-2.583418115209848
 30
0.0
 11
-0.8099999999999999
 21
-2.583418115209848
 31
0.0
  0
LINE
  5
27B
330
228
100
AcDbEntity
  8
AM_4
100
AcDbLine
 10
-1.22
 20
1.867111965578285
 30
0.0
 11
-0.8099999999999999
 21
1.867111965578285
 31
0.0
  0
LINE
  5
27C
330
228
100
AcDbEntity
  8
AM_4
100
AcDbLine
 10
-1.22
 20
-1.867111965578283
 30
0.0
 11
-0.8099999999999999
 21
-1.867111965578283
 31
0.0
  0
LINE
  5
27D
330
228
100
AcDbEntity
  8
AM_4
100
AcDbLine
 10
0.0
 20
-3.1875
 30
0.0
 11
1.25
 21
-3.1875
 31
0.0
  0
LINE
  5
27E
330
228
100
AcDbEntity
  8
AM_4
100
AcDbLine
 10
1.25
 20
3.1875
 30
0.0
 11
0.0
 21
3.1875
 31
0.0
  0
LINE
  5
27F
330
228
100
AcDbEntity
  8
AM_4
100
AcDbLine
 10
1.25
 20
3.1875
 30
0.0
 11
1.25
 21
-3.1875
 31
0.0
  0
LINE
  5
280
330
228
100
AcDbEntity
  8
AM_4
100
AcDbLine
 10
-0.7087499999999999
 20
-1.491298385089373
 30
0.0
 11
-0.8099999999999999
 21
-1.491298385089373
 31
0.0
  0
LINE
  5
281
330
228
100
AcDbEntity
  8
AM_4
100
AcDbLine
 10
-0.8099999999999999
 20
-3.6069383031438
 30
0.0
 11
-0.8099999999999999
 21
-1.491298385089373
 31
0.0
  0
LINE
  5
282
330
228
100
AcDbEntity
  8
AM_4
100
AcDbLine
 10
-0.8099999999999999
 20
1.491298385089371
 30
0.0
 11
-0.8099999999999999
 21
3.606938303143798
 31
0.0
  0
LINE
  5
283
330
228
100
AcDbEntity
  8
AM_4
100
AcDbLine
 10
-0.7087499999999999
 20
1.491298385089371
 30
0.0
 11
-0.8099999999999999
 21
1.491298385089371
 31
0.0
  0
LINE
  5
284
330
228
100
AcDbEntity
  8
AM_4
100
AcDbLine
 10
-0.7087499999999998
 20
3.606938303143798
 30
0.0
 11
-0.7087499999999999
 21
4.375
 31
0.0
  0
LINE
  5
285
330
228
100
AcDbEntity
  8
AM_4
100
AcDbLine
 10
-0.8099999999999999
 20
3.606938303143798
 30
0.0
 11
-0.7087499999999998
 21
3.606938303143798
 31
0.0
  0
LINE
  5
286
330
228
100
AcDbEntity
  8
AM_4
100
AcDbLine
 10
-0.7087499999999997
 20
2.476009102833455
 30
0.0
 11
-0.8099999999999998
 21
2.476009102833455
 31
0.0
  0
LINE
  5
287
330
228
100
AcDbEntity
  8
AM_4
100
AcDbLine
 10
-0.7087499999999997
 20
-2.476009102833456
 30
0.0
 11
-0.7087499999999997
 21
2.476009102833455
 31
0.0
  0
LINE
  5
288
330
228
100
AcDbEntity
  8
AM_4
100
AcDbLine
 10
-0.8099999999999998
 20
-2.476009102833456
 30
0.0
 11
-0.7087499999999997
 21
-2.476009102833456
 31
0.0
  0
LINE
  5
289
330
228
100
AcDbEntity
  8
AM_4
100
AcDbLine
 10
-0.7087499999999998
 20
-3.6069383031438
 30
0.0
 11
-0.8099999999999999
 21
-3.6069383031438
 31
0.0
  0
LINE
  5
28A
330
228
100
AcDbEntity
  8
AM_4
100
AcDbLine
 10
-0.7087499999999999
 20
-4.375
 30
0.0
 11
0.0
 21
-4.375
 31
0.0
  0
LINE
  5
28B
330
228
100
AcDbEntity
  8
AM_4
100
AcDbLine
 10
0.0
 20
4.375
 30
0.0
 11
-0.7087499999999999
 21
4.375
 31
0.0
  0
LINE
  5
28C
330
228
100
AcDbEntity
  8
AM_4
100
AcDbLine
 10
0.0
 20
4.375
 30
0.0
 11
0.0
 21
-4.375
 31
0.0
  0
LINE
  5
28D
330
228
100
AcDbEntity
  8
AM_4
100
AcDbLine
 10
-0.7087499999999999
 20
-4.375
 30
0.0
 11
-0.7087499999999998
 21
-3.6069383031438
 31
0.0
  0
ENDBLK
  5
22B
330
228
100
AcDbEntity
  8
0
100
AcDbBlockEnd
  0
ENDSEC
  0
SECTION
  2
ENTITIES
  0
INSERT
  5
6F
330
1F
100
AcDbEntity
  8
0
100
AcDbBlockReference
  2
1_072372_2
 10
0.0
 20
0.0
 30
0.0
  0
POINT
  5
28F
330
1F
100
AcDbEntity
  8
ConnectionPoints
100
AcDbPoint
 10
-1.015000000000001
 20
3.506250000000001
 30
0.0000000000000001
  0
POINT
  5
290
330
1F
100
AcDbEntity
  8
ConnectionPoints
100
AcDbPoint
 10
-1.999000333333333
 20
-1.816840277777778
 30
0.0000000000000001
  0
POINT
  5
291
330
1F
100
AcDbEntity
  8
ConnectionPoints
100
AcDbPoint
 10
-1.999000333333333
 20
1.816840277777778
 30
0.0000000000000001
  0
POINT
  5
292
330
1F
100
AcDbEntity
  8
ConnectionPoints
100
AcDbPoint
 10
-1.826833333333334
 20
0.0
 30
0.0000000000000001
  0
POINT
  5
293
330
1F
100
AcDbEntity
  8
ConnectionPoints
100
AcDbPoint
 10
-2.1
 20
0.0
 30
0.0000000000000001
  0
POINT
  5
294
330
1F
100
AcDbEntity
  8
ConnectionPoints
100
AcDbPoint
 10
-2.025833333333333
 20
0.0
 30
0.0000000000000001
  0
POINT
  5
295
330
1F
100
AcDbEntity
  8
ConnectionPoints
100
AcDbPoint
 10
-1.826833333333334
 20
1.816840277777778
 30
0.0000000000000001
  0
POINT
  5
296
330
1F
100
AcDbEntity
  8
ConnectionPoints
100
AcDbPoint
 10
-1.999
 20
1.816840277777778
 30
0.0000000000000001
  0
POINT
  5
297
330
1F
100
AcDbEntity
  8
ConnectionPoints
100
AcDbPoint
 10
-1.826833333333334
 20
-1.816840277777778
 30
0.0000000000000001
  0
POINT
  5
298
330
1F
100
AcDbEntity
  8
ConnectionPoints
100
AcDbPoint
 10
-1.999
 20
-1.816840277777778
 30
0.0000000000000001
  0
POINT
  5
299
330
1F
100
AcDbEntity
  8
ConnectionPoints
100
AcDbPoint
 10
-1.826833333333334
 20
0.0
 30
0.0000000000000001
  0
POINT
  5
29A
330
1F
100
AcDbEntity
  8
ConnectionPoints
100
AcDbPoint
 10
-1.015000000000001
 20
3.506250000000001
 30
0.0000000000000001
  0
POINT
  5
29B
330
1F
100
AcDbEntity
  8
ConnectionPoints
100
AcDbPoint
 10
-1.015000000000001
 20
-3.506249999999999
 30
0.0000000000000001
  0
POINT
  5
29C
330
1F
100
AcDbEntity
  8
ConnectionPoints
100
AcDbPoint
 10
-2.1
 20
0.0
 30
0.0000000000000001
  0
POINT
  5
29D
330
1F
100
AcDbEntity
  8
ConnectionPoints
100
AcDbPoint
 10
-2.35
 20
0.0
 30
0.0000000000000001
  0
ENDSEC
  0
SECTION
  2
OBJECTS
  0
DICTIONARY
  5
C
330
0
100
AcDbDictionary
281
     1
  3
ACAD_DETAILVIEWSTYLE
350
2A5
  3
ACAD_GROUP
350
D
  3
ACAD_LAYOUT
350
1A
  3
ACAD_MATERIAL
350
43
  3
ACAD_MLEADERSTYLE
350
6B
  3
ACAD_MLINESTYLE
350
17
  3
ACAD_PLOTSETTINGS
350
19
  3
ACAD_PLOTSTYLENAME
350
E
  3
ACAD_SCALELIST
350
47
  3
ACAD_SECTIONVIEWSTYLE
350
2A6
  3
ACAD_TABLESTYLE
350
69
  3
ACAD_VISUALSTYLE
350
2A
  3
ACDB_RECOMPOSE_DATA
350
2A2
  3
AcDbVariableDictionary
350
29E
  0
SUN
  5
6D
330
29
100
AcDbSun
 90
        1
290
     0
 63
     7
421
 16777215
 40
1.0
291
     1
 91
  2455826
 92
 54000000
292
     0
 70
     2
 71
   256
280
     1
  0
DICTIONARY
  5
2A5
102
{ACAD_REACTORS
330
C
102
}
330
C
100
AcDbDictionary
281
     1
  0
DICTIONARY
  5
D
102
{ACAD_REACTORS
330
C
102
}
330
C
100
AcDbDictionary
281
     1
  0
DICTIONARY
  5
1A
102
{ACAD_REACTORS
330
C
102
}
330
C
100
AcDbDictionary
281
     1
  3
Layout1
350
1E
  3
Layout2
350
26
  3
Model
350
22
  0
DICTIONARY
  5
43
102
{ACAD_REACTORS
330
C
102
}
330
C
100
AcDbDictionary
281
     1
  3
ByBlock
350
45
  3
ByLayer
350
44
  3
Global
350
46
  0
DICTIONARY
  5
6B
102
{ACAD_REACTORS
330
C
102
}
330
C
100
AcDbDictionary
281
     1
  3
Standard
350
6C
  0
DICTIONARY
  5
17
102
{ACAD_REACTORS
330
C
102
}
330
C
100
AcDbDictionary
281
     1
  3
Standard
350
18
  0
DICTIONARY
  5
19
102
{ACAD_REACTORS
330
C
102
}
330
C
100
AcDbDictionary
281
     1
  0
ACDBDICTIONARYWDFLT
  5
E
102
{ACAD_REACTORS
330
C
102
}
330
C
100
AcDbDictionary
281
     1
  3
Normal
350
F
100
AcDbDictionaryWithDefault
340
F
  0
DICTIONARY
  5
47
102
{ACAD_REACTORS
330
C
102
}
330
C
100
AcDbDictionary
281
     1
  3
A0
350
48
  3
A1
350
49
  3
A2
350
4A
  3
A3
350
4B
  3
A4
350
4C
  3
A5
350
4D
  3
A6
350
4E
  3
A7
350
4F
  3
A8
350
50
  3
A9
350
51
  3
B0
350
52
  3
B1
350
53
  3
B2
350
54
  3
B3
350
55
  3
B4
350
56
  3
B5
350
57
  3
B6
350
58
  3
B7
350
59
  3
B8
350
5A
  3
B9
350
5B
  3
C0
350
5C
  3
C1
350
5D
  3
C2
350
5E
  3
C3
350
5F
  3
C4
350
60
  3
C5
350
61
  3
C6
350
62
  3
C7
350
63
  3
C8
350
64
  3
C9
350
65
  3
D0
350
66
  3
D1
350
67
  3
D2
350
68
  0
DICTIONARY
  5
2A6
102
{ACAD_REACTORS
330
C
102
}
330
C
100
AcDbDictionary
281
     1
  0
DICTIONARY
  5
69
102
{ACAD_REACTORS
330
C
102
}
330
C
100
AcDbDictionary
281
     1
  3
Standard
350
6A
  0
DICTIONARY
  5
2A
102
{ACAD_REACTORS
330
C
102
}
330
C
100
AcDbDictionary
281
     1
  3
2dWireframe
350
2F
  3
Basic
350
32
  3
Brighten
350
36
  3
ColorChange
350
3A
  3
Conceptual
350
34
  3
Dim
350
35
  3
EdgeColorOff
350
3D
  3
Facepattern
350
39
  3
Flat
350
2B
  3
FlatWithEdges
350
2C
  3
Gouraud
350
2D
  3
GouraudWithEdges
350
2E
  3
Hidden
350
31
  3
JitterOff
350
3B
  3
Linepattern
350
38
  3
OverhangOff
350
3C
  3
Realistic
350
33
  3
Shaded
350
42
  3
Shaded with edges
350
41
  3
Shades of Gray
350
3E
  3
Sketchy
350
3F
  3
Thicken
350
37
  3
Wireframe
350
30
  3
X-Ray
350
40
  0
XRECORD
  5
2A2
102
{ACAD_REACTORS
330
C
102
}
330
C
100
AcDbXrecord
280
     1
 90
        1
330
6A
  0
DICTIONARY
  5
29E
102
{ACAD_REACTORS
330
C
102
}
330
C
100
AcDbDictionary
281
     1
  3
CANNOSCALE
350
29F
  3
CMLEADERSTYLE
350
2A4
  3
CTABLESTYLE
350
2A3
  0
LAYOUT
  5
1E
102
{ACAD_REACTORS
330
1A
102
}
330
1A
100
AcDbPlotSettings
  1

  2
none_device
  4

  6

 40
0.0
 41
0.0
 42
0.0
 43
0.0
 44
0.0
 45
0.0
 46
0.0
 47
0.0
 48
0.0
 49
0.0
140
0.0
141
0.0
142
1.0
143
1.0
 70
   688
 72
     0
 73
     0
 74
     5
  7

 75
    16
 76
     0
 77
     2
 78
   300
147
1.0
148
0.0
149
0.0
100
AcDbLayout
  1
Layout1
 70
     1
 71
     1
 10
0.0
 20
0.0
 11
12.0
 21
9.0
 12
0.0
 22
0.0
 32
0.0
 14
1.000000000000000E+20
 24
1.000000000000000E+20
 34
1.000000000000000E+20
 15
-1.000000000000000E+20
 25
-1.000000000000000E+20
 35
-1.000000000000000E+20
146
0.0
 13
0.0
 23
0.0
 33
0.0
 16
1.0
 26
0.0
 36
0.0
 17
0.0
 27
1.0
 37
0.0
 76
     0
330
1B
  0
LAYOUT
  5
26
102
{ACAD_REACTORS
330
1A
102
}
330
1A
100
AcDbPlotSettings
  1

  2
none_device
  4

  6

 40
0.0
 41
0.0
 42
0.0
 43
0.0
 44
0.0
 45
0.0
 46
0.0
 47
0.0
 48
0.0
 49
0.0
140
0.0
141
0.0
142
1.0
143
1.0
 70
   688
 72
     0
 73
     0
 74
     5
  7

 75
    16
 76
     0
 77
     2
 78
   300
147
1.0
148
0.0
149
0.0
100
AcDbLayout
  1
Layout2
 70
     1
 71
     2
 10
0.0
 20
0.0
 11
0.0
 21
0.0
 12
0.0
 22
0.0
 32
0.0
 14
0.0
 24
0.0
 34
0.0
 15
0.0
 25
0.0
 35
0.0
146
0.0
 13
0.0
 23
0.0
 33
0.0
 16
1.0
 26
0.0
 36
0.0
 17
0.0
 27
1.0
 37
0.0
 76
     0
330
23
  0
LAYOUT
  5
22
102
{ACAD_REACTORS
330
1A
102
}
330
1A
100
AcDbPlotSettings
  1

  2
none_device
  4
Letter_(8.50_x_11.00_Inches)
  6

 40
6.35
 41
6.35
 42
6.35000508
 43
6.35000508
 44
215.9
 45
279.4
 46
0.0
 47
0.0
 48
0.0
 49
0.0
140
0.0
141
0.0
142
1.0
143
1.0
 70
  1712
 72
     0
 73
     0
 74
     0
  7

 75
     0
 76
     0
 77
     2
 78
   300
147
1.0
148
0.0
149
0.0
100
AcDbLayout
  1
Model
 70
     1
 71
     0
 10
0.0
 20
0.0
 11
12.0
 21
9.0
 12
0.0
 22
0.0
 32
0.0
 14
1.000000000000000E+20
 24
1.000000000000000E+20
 34
1.000000000000000E+20
 15
-1.000000000000000E+20
 25
-1.000000000000000E+20
 35
-1.000000000000000E+20
146
0.0
 13
0.0
 23
0.0
 33
0.0
 16
1.0
 26
0.0
 36
0.0
 17
0.0
 27
1.0
 37
0.0
 76
     0
330
1F
331
29
  0
MATERIAL
  5
45
102
{ACAD_REACTORS
330
43
102
}
330
43
100
AcDbMaterial
  1
ByBlock
 72
     1
 94
      127
  0
MATERIAL
  5
44
102
{ACAD_REACTORS
330
43
102
}
330
43
100
AcDbMaterial
  1
ByLayer
 72
     1
 94
      127
  0
MATERIAL
  5
46
102
{ACAD_REACTORS
330
43
102
}
330
43
100
AcDbMaterial
  1
Global
 72
     1
 94
      127
  0
MLEADERSTYLE
  5
6C
102
{ACAD_REACTORS
330
6B
102
}
330
6B
100
AcDbMLeaderStyle
179
     2
170
     2
171
     1
172
     0
 90
        2
 40
0.0
 41
0.0
173
     1
 91
-1056964608
340
14
 92
       -2
290
     1
 42
0.09
291
     1
 43
0.36
  3
Standard
341
0
 44
0.18
300

342
11
174
     1
178
     6
175
     1
176
     0
 93
-1056964608
 45
0.18
292
     0
297
     0
 46
0.18
343
0
 94
-1056964608
 47
1.0
 49
1.0
140
1.0
293
     1
141
0.0
294
     1
177
     0
142
1.0
295
     0
296
     0
143
0.125
271
     0
272
     9
273
     9
298
     0
  0
MLINESTYLE
  5
18
102
{ACAD_REACTORS
330
17
102
}
330
17
100
AcDbMlineStyle
  2
Standard
 70
     0
  3

 62
   256
 51
90.0
 52
90.0
 71
     2
 49
0.5
 62
   256
  6
BYLAYER
 49
-0.5
 62
   256
  6
BYLAYER
  0
ACDBPLACEHOLDER
  5
F
102
{ACAD_REACTORS
330
E
102
}
330
E
  0
SCALE
  5
48
102
{ACAD_REACTORS
330
47
102
}
330
47
100
AcDbScale
 70
     0
300
1:1
140
1.0
141
1.0
290
     1
  0
SCALE
  5
49
102
{ACAD_REACTORS
330
47
102
}
330
47
100
AcDbScale
 70
     0
300
1:2
140
1.0
141
2.0
290
     0
  0
SCALE
  5
4A
102
{ACAD_REACTORS
330
47
102
}
330
47
100
AcDbScale
 70
     0
300
1:4
140
1.0
141
4.0
290
     0
  0
SCALE
  5
4B
102
{ACAD_REACTORS
330
47
102
}
330
47
100
AcDbScale
 70
     0
300
1:5
140
1.0
141
5.0
290
     0
  0
SCALE
  5
4C
102
{ACAD_REACTORS
330
47
102
}
330
47
100
AcDbScale
 70
     0
300
1:8
140
1.0
141
8.0
290
     0
  0
SCALE
  5
4D
102
{ACAD_REACTORS
330
47
102
}
330
47
100
AcDbScale
 70
     0
300
1:10
140
1.0
141
10.0
290
     0
  0
SCALE
  5
4E
102
{ACAD_REACTORS
330
47
102
}
330
47
100
AcDbScale
 70
     0
300
1:16
140
1.0
141
16.0
290
     0
  0
SCALE
  5
4F
102
{ACAD_REACTORS
330
47
102
}
330
47
100
AcDbScale
 70
     0
300
1:20
140
1.0
141
20.0
290
     0
  0
SCALE
  5
50
102
{ACAD_REACTORS
330
47
102
}
330
47
100
AcDbScale
 70
     0
300
1:30
140
1.0
141
30.0
290
     0
  0
SCALE
  5
51
102
{ACAD_REACTORS
330
47
102
}
330
47
100
AcDbScale
 70
     0
300
1:40
140
1.0
141
40.0
290
     0
  0
SCALE
  5
52
102
{ACAD_REACTORS
330
47
102
}
330
47
100
AcDbScale
 70
     0
300
1:50
140
1.0
141
50.0
290
     0
  0
SCALE
  5
53
102
{ACAD_REACTORS
330
47
102
}
330
47
100
AcDbScale
 70
     0
300
1:100
140
1.0
141
100.0
290
     0
  0
SCALE
  5
54
102
{ACAD_REACTORS
330
47
102
}
330
47
100
AcDbScale
 70
     0
300
2:1
140
2.0
141
1.0
290
     0
  0
SCALE
  5
55
102
{ACAD_REACTORS
330
47
102
}
330
47
100
AcDbScale
 70
     0
300
4:1
140
4.0
141
1.0
290
     0
  0
SCALE
  5
56
102
{ACAD_REACTORS
330
47
102
}
330
47
100
AcDbScale
 70
     0
300
8:1
140
8.0
141
1.0
290
     0
  0
SCALE
  5
57
102
{ACAD_REACTORS
330
47
102
}
330
47
100
AcDbScale
 70
     0
300
10:1
140
10.0
141
1.0
290
     0
  0
SCALE
  5
58
102
{ACAD_REACTORS
330
47
102
}
330
47
100
AcDbScale
 70
     0
300
100:1
140
100.0
141
1.0
290
     0
  0
SCALE
  5
59
102
{ACAD_REACTORS
330
47
102
}
330
47
100
AcDbScale
 70
     0
300
1/128" = 1'-0"
140
0.0078125
141
12.0
290
     0
  0
SCALE
  5
5A
102
{ACAD_REACTORS
330
47
102
}
330
47
100
AcDbScale
 70
     0
300
1/64" = 1'-0"
140
0.015625
141
12.0
290
     0
  0
SCALE
  5
5B
102
{ACAD_REACTORS
330
47
102
}
330
47
100
AcDbScale
 70
     0
300
1/32" = 1'-0"
140
0.03125
141
12.0
290
     0
  0
SCALE
  5
5C
102
{ACAD_REACTORS
330
47
102
}
330
47
100
AcDbScale
 70
     0
300
1/16" = 1'-0"
140
0.0625
141
12.0
290
     0
  0
SCALE
  5
5D
102
{ACAD_REACTORS
330
47
102
}
330
47
100
AcDbScale
 70
     0
300
3/32" = 1'-0"
140
0.09375
141
12.0
290
     0
  0
SCALE
  5
5E
102
{ACAD_REACTORS
330
47
102
}
330
47
100
AcDbScale
 70
     0
300
1/8" = 1'-0"
140
0.125
141
12.0
290
     0
  0
SCALE
  5
5F
102
{ACAD_REACTORS
330
47
102
}
330
47
100
AcDbScale
 70
     0
300
3/16" = 1'-0"
140
0.1875
141
12.0
290
     0
  0
SCALE
  5
60
102
{ACAD_REACTORS
330
47
102
}
330
47
100
AcDbScale
 70
     0
300
1/4" = 1'-0"
140
0.25
141
12.0
290
     0
  0
SCALE
  5
61
102
{ACAD_REACTORS
330
47
102
}
330
47
100
AcDbScale
 70
     0
300
3/8" = 1'-0"
140
0.375
141
12.0
290
     0
  0
SCALE
  5
62
102
{ACAD_REACTORS
330
47
102
}
330
47
100
AcDbScale
 70
     0
300
1/2" = 1'-0"
140
0.5
141
12.0
290
     0
  0
SCALE
  5
63
102
{ACAD_REACTORS
330
47
102
}
330
47
100
AcDbScale
 70
     0
300
3/4" = 1'-0"
140
0.75
141
12.0
290
     0
  0
SCALE
  5
64
102
{ACAD_REACTORS
330
47
102
}
330
47
100
AcDbScale
 70
     0
300
1" = 1'-0"
140
1.0
141
12.0
290
     0
  0
SCALE
  5
65
102
{ACAD_REACTORS
330
47
102
}
330
47
100
AcDbScale
 70
     0
300
1-1/2" = 1'-0"
140
1.5
141
12.0
290
     0
  0
SCALE
  5
66
102
{ACAD_REACTORS
330
47
102
}
330
47
100
AcDbScale
 70
     0
300
3" = 1'-0"
140
3.0
141
12.0
290
     0
  0
SCALE
  5
67
102
{ACAD_REACTORS
330
47
102
}
330
47
100
AcDbScale
 70
     0
300
6" = 1'-0"
140
6.0
141
12.0
290
     0
  0
SCALE
  5
68
102
{ACAD_REACTORS
330
47
102
}
330
47
100
AcDbScale
 70
     0
300
1'-0" = 1'-0"
140
12.0
141
12.0
290
     0
  0
TABLESTYLE
  5
6A
102
{ACAD_REACTORS
330
69
102
}
102
{ACAD_XDICTIONARY
360
2A0
102
}
330
69
100
AcDbTableStyle
  3
Standard
 70
     0
 71
     0
 40
0.06
 41
0.06
280
     0
281
     0
  7
Standard
140
0.18
170
     2
 62
     0
 63
   257
283
     0
 90
        4
 91
        0
  1

274
    -2
284
     1
 64
     0
275
    -2
285
     1
 65
     0
276
    -2
286
     1
 66
     0
277
    -2
287
     1
 67
     0
278
    -2
288
     1
 68
     0
279
    -2
289
     1
 69
     0
  7
Standard
140
0.25
170
     5
 62
     0
 63
   257
283
     0
 90
        4
 91
        0
  1

274
    -2
284
     1
 64
     0
275
    -2
285
     1
 65
     0
276
    -2
286
     1
 66
     0
277
    -2
287
     1
 67
     0
278
    -2
288
     1
 68
     0
279
    -2
289
     1
 69
     0
  7
Standard
140
0.18
170
     5
 62
     0
 63
   257
283
     0
 90
        4
 91
        0
  1

274
    -2
284
     1
 64
     0
275
    -2
285
     1
 65
     0
276
    -2
286
     1
 66
     0
277
    -2
287
     1
 67
     0
278
    -2
288
     1
 68
     0
279
    -2
289
     1
 69
     0
  0
VISUALSTYLE
  5
2F
102
{ACAD_REACTORS
330
2A
102
}
330
2A
100
AcDbVisualStyle
  2
2dWireframe
 70
     4
177
     3
291
     0
 70
    58
 90
        0
176
     1
 90
        2
176
     1
 90
        0
176
     1
 90
        0
176
     1
 40
0.6
176
     1
 40
30.0
176
     1
 62
     7
420
 16777215
176
     1
 90
        1
176
     1
 90
        4
176
     1
 62
     7
176
     1
 62
   257
176
     1
 90
        1
176
     1
 90
        1
176
     1
 40
1.0
176
     1
 90
        0
176
     1
 62
   257
176
     1
 40
1.0
176
     1
 90
        1
176
     1
 90
        6
176
     1
 90
        2
176
     1
 62
     7
176
     1
 90
        5
176
     1
 90
        0
176
     1
 90
        0
176
     1
290
     0
176
     1
 90
        1
176
     1
 40
0.0
176
     1
 90
        0
176
     1
290
     1
176
     1
290
     1
176
     1
290
     0
176
     1
290
     0
176
     1
290
     0
176
     1
290
     0
176
     1
290
     0
176
     1
290
     0
176
     1
290
     0
176
     1
 90
       50
176
     1
 40
0.0
176
     1
 40
1.0
176
     1
 90
        0
176
     1
 62
    18
420
        0
176
     1
 90
       50
176
     1
 90
        3
176
     1
 62
     5
420
      255
176
     1
290
     0
176
     1
 90
       50
176
     1
 90
       50
176
     1
 90
       50
176
     1
290
     0
176
     1
 90
       50
176
     1
 62
   256
176
     0
 40
1.0
176
     0
 90
        2
176
     1
  1
strokes_ogs.tif
176
     1
290
     0
176
     1
 40
1.0
176
     1
 40
1.0
176
     1
  0
VISUALSTYLE
  5
32
102
{ACAD_REACTORS
330
2A
102
}
330
2A
100
AcDbVisualStyle
  2
Basic
 70
     7
177
     3
291
     1
 70
    58
 90
        1
176
     1
 90
        0
176
     1
 90
        1
176
     1
 90
        0
176
     1
 40
0.6
176
     1
 40
30.0
176
     1
 62
     7
420
 16777215
176
     1
 90
        0
176
     1
 90
        4
176
     1
 62
     7
176
     1
 62
   257
176
     1
 90
        1
176
     1
 90
        1
176
     1
 40
1.0
176
     1
 90
        8
176
     1
 62
     7
176
     1
 40
1.0
176
     1
 90
        1
176
     1
 90
        6
176
     1
 90
        2
176
     1
 62
     7
176
     1
 90
        5
176
     1
 90
        0
176
     1
 90
        0
176
     1
290
     0
176
     1
 90
        1
176
     1
 40
0.0
176
     1
 90
        0
176
     1
290
     0
176
     1
290
     1
176
     1
290
     1
176
     1
290
     0
176
     1
290
     0
176
     1
290
     0
176
     1
290
     0
176
     1
290
     0
176
     1
290
     0
176
     1
 90
       50
176
     1
 40
0.0
176
     1
 40
1.0
176
     1
 90
        0
176
     1
 62
    18
420
        0
176
     1
 90
       50
176
     1
 90
        3
176
     1
 62
     5
420
      255
176
     1
290
     0
176
     1
 90
       50
176
     1
 90
       50
176
     1
 90
       50
176
     1
290
     0
176
     1
 90
       50
176
     1
 62
   256
176
     0
 40
1.0
176
     0
 90
        2
176
     1
  1
strokes_ogs.tif
176
     1
290
     0
176
     1
 40
1.0
176
     1
 40
1.0
176
     1
  0
VISUALSTYLE
  5
36
102
{ACAD_REACTORS
330
2A
102
}
330
2A
100
AcDbVisualStyle
  2
Brighten
 70
    12
177
     3
291
     1
 70
    58
 90
        2
176
     1
 90
        2
176
     1
 90
        0
176
     1
 90
        0
176
     1
 40
0.6
176
     1
 40
30.0
176
     1
 62
     7
420
 16777215
176
     1
 90
        1
176
     1
 90
        4
176
     1
 62
     7
176
     1
 62
   257
176
     1
 90
        1
176
     1
 90
        1
176
     1
 40
1.0
176
     1
 90
        8
176
     1
 62
     7
176
     1
 40
1.0
176
     1
 90
        1
176
     1
 90
        6
176
     1
 90
        2
176
     1
 62
     7
176
     1
 90
        5
176
     1
 90
        0
176
     1
 90
        0
176
     1
290
     0
176
     1
 90
        1
176
     1
 40
50.0
176
     1
 90
        0
176
     1
290
     0
176
     1
290
     1
176
     1
290
     1
176
     1
290
     0
176
     1
290
     0
176
     1
290
     0
176
     1
290
     0
176
     1
290
     0
176
     1
290
     0
176
     1
 90
       50
176
     1
 40
0.0
176
     1
 40
1.0
176
     1
 90
        0
176
     1
 62
    18
420
        0
176
     1
 90
       50
176
     1
 90
        3
176
     1
 62
     5
420
      255
176
     1
290
     0
176
     1
 90
       50
176
     1
 90
       50
176
     1
 90
       50
176
     1
290
     0
176
     1
 90
       50
176
     1
 62
   256
176
     0
 40
1.0
176
     0
 90
        2
176
     1
  1
strokes_ogs.tif
176
     1
290
     0
176
     1
 40
1.0
176
     1
 40
1.0
176
     1
  0
VISUALSTYLE
  5
3A
102
{ACAD_REACTORS
330
2A
102
}
330
2A
100
AcDbVisualStyle
  2
ColorChange
 70
    16
177
     3
291
     1
 70
    58
 90
        2
176
     1
 90
        2
176
     1
 90
        3
176
     1
 90
        0
176
     1
 40
0.6
176
     1
 40
30.0
176
     1
 62
     8
420
  8421504
176
     1
 90
        1
176
     1
 90
        4
176
     1
 62
     7
176
     1
 62
   257
176
     1
 90
        1
176
     1
 90
        1
176
     1
 40
1.0
176
     1
 90
        8
176
     1
 62
     8
420
  8421504
176
     1
 40
1.0
176
     1
 90
        1
176
     1
 90
        6
176
     1
 90
        2
176
     1
 62
     7
176
     1
 90
        5
176
     1
 90
        0
176
     1
 90
        0
176
     1
290
     0
176
     1
 90
        1
176
     1
 40
0.0
176
     1
 90
        0
176
     1
290
     0
176
     1
290
     1
176
     1
290
     1
176
     1
290
     0
176
     1
290
     0
176
     1
290
     0
176
     1
290
     0
176
     1
290
     0
176
     1
290
     0
176
     1
 90
       50
176
     1
 40
0.0
176
     1
 40
1.0
176
     1
 90
        0
176
     1
 62
    18
420
        0
176
     1
 90
       50
176
     1
 90
        3
176
     1
 62
     5
420
      255
176
     1
290
     0
176
     1
 90
       50
176
     1
 90
       50
176
     1
 90
       50
176
     1
290
     0
176
     1
 90
       50
176
     1
 62
   256
176
     0
 40
1.0
176
     0
 90
        2
176
     1
  1
strokes_ogs.tif
176
     1
290
     0
176
     1
 40
1.0
176
     1
 40
1.0
176
     1
  0
VISUALSTYLE
  5
34
102
{ACAD_REACTORS
330
2A
102
}
330
2A
100
AcDbVisualStyle
  2
Conceptual
 70
     9
177
     3
291
     0
 70
    58
 90
        3
176
     1
 90
        2
176
     1
 90
        0
176
     1
 90
        0
176
     1
 40
0.6
176
     1
 40
30.0
176
     1
 62
     7
420
 16777215
176
     1
 90
        2
176
     1
 90
        2
176
     1
 62
     7
176
     1
 62
   257
176
     1
 90
        1
176
     1
 90
        1
176
     1
 40
179.0
176
     1
 90
        8
176
     1
 62
     7
176
     1
 40
1.0
176
     1
 90
        1
176
     1
 90
        6
176
     1
 90
        2
176
     1
 62
     7
176
     1
 90
        3
176
     1
 90
        0
176
     1
 90
        0
176
     1
290
     0
176
     1
 90
        1
176
     1
 40
0.0
176
     1
 90
        0
176
     1
290
     0
176
     1
290
     1
176
     1
290
     1
176
     1
290
     0
176
     1
290
     0
176
     1
290
     0
176
     1
290
     0
176
     1
290
     0
176
     1
290
     0
176
     1
 90
       50
176
     1
 40
0.0
176
     1
 40
1.0
176
     1
 90
        0
176
     1
 62
    18
420
        0
176
     1
 90
       50
176
     1
 90
        3
176
     1
 62
     5
420
      255
176
     1
290
     0
176
     1
 90
       50
176
     1
 90
       50
176
     1
 90
       50
176
     1
290
     0
176
     1
 90
       50
176
     1
 62
   256
176
     0
 40
1.0
176
     0
 90
        2
176
     1
  1
strokes_ogs.tif
176
     1
290
     0
176
     1
 40
1.0
176
     1
 40
1.0
176
     1
  0
VISUALSTYLE
  5
35
102
{ACAD_REACTORS
330
2A
102
}
330
2A
100
AcDbVisualStyle
  2
Dim
 70
    11
177
     3
291
     1
 70
    58
 90
        2
176
     1
 90
        2
176
     1
 90
        0
176
     1
 90
        0
176
     1
 40
0.6
176
     1
 40
30.0
176
     1
 62
     7
420
 16777215
176
     1
 90
        1
176
     1
 90
        4
176
     1
 62
     7
176
     1
 62
   257
176
     1
 90
        1
176
     1
 90
        1
176
     1
 40
1.0
176
     1
 90
        8
176
     1
 62
     7
176
     1
 40
1.0
176
     1
 90
        1
176
     1
 90
        6
176
     1
 90
        2
176
     1
 62
     7
176
     1
 90
        5
176
     1
 90
        0
176
     1
 90
        0
176
     1
290
     0
176
     1
 90
        1
176
     1
 40
-50.0
176
     1
 90
        0
176
     1
290
     0
176
     1
290
     1
176
     1
290
     1
176
     1
290
     0
176
     1
290
     0
176
     1
290
     0
176
     1
290
     0
176
     1
290
     0
176
     1
290
     0
176
     1
 90
       50
176
     1
 40
0.0
176
     1
 40
1.0
176
     1
 90
        0
176
     1
 62
    18
420
        0
176
     1
 90
       50
176
     1
 90
        3
176
     1
 62
     5
420
      255
176
     1
290
     0
176
     1
 90
       50
176
     1
 90
       50
176
     1
 90
       50
176
     1
290
     0
176
     1
 90
       50
176
     1
 62
   256
176
     0
 40
1.0
176
     0
 90
        2
176
     1
  1
strokes_ogs.tif
176
     1
290
     0
176
     1
 40
1.0
176
     1
 40
1.0
176
     1
  0
VISUALSTYLE
  5
3D
102
{ACAD_REACTORS
330
2A
102
}
330
2A
100
AcDbVisualStyle
  2
EdgeColorOff
 70
    22
177
     3
291
     1
 70
    58
 90
        2
176
     0
 90
        2
176
     0
 90
        0
176
     0
 90
        0
176
     0
 40
0.6
176
     0
 40
30.0
176
     0
 62
     7
420
 16777215
176
     0
 90
        1
176
     0
 90
        4
176
     0
 62
     7
176
     0
 62
   257
176
     0
 90
        1
176
     0
 90
        1
176
     0
 40
1.0
176
     0
 90
        8
176
     2
 62
     7
176
     0
 40
1.0
176
     0
 90
        1
176
     0
 90
        6
176
     0
 90
        2
176
     0
 62
     7
176
     0
 90
        5
176
     0
 90
        0
176
     0
 90
        0
176
     0
290
     0
176
     0
 90
        1
176
     0
 40
0.0
176
     0
 90
        0
176
     0
290
     0
176
     0
290
     1
176
     0
290
     1
176
     0
290
     0
176
     0
290
     0
176
     0
290
     0
176
     0
290
     0
176
     0
290
     0
176
     0
290
     0
176
     0
 90
       50
176
     0
 40
0.0
176
     0
 40
1.0
176
     0
 90
        0
176
     0
 62
    18
420
        0
176
     0
 90
       50
176
     0
 90
        3
176
     0
 62
     5
420
      255
176
     0
290
     0
176
     0
 90
       50
176
     0
 90
       50
176
     0
 90
       50
176
     0
290
     0
176
     0
 90
       50
176
     0
 62
   256
176
     0
 40
1.0
176
     0
 90
        2
176
     0
  1
strokes_ogs.tif
176
     0
290
     0
176
     0
 40
1.0
176
     0
 40
1.0
176
     0
  0
VISUALSTYLE
  5
39
102
{ACAD_REACTORS
330
2A
102
}
330
2A
100
AcDbVisualStyle
  2
Facepattern
 70
    15
177
     3
291
     1
 70
    58
 90
        2
176
     1
 90
        2
176
     1
 90
        0
176
     1
 90
        0
176
     1
 40
0.6
176
     1
 40
30.0
176
     1
 62
     7
420
 16777215
176
     1
 90
        1
176
     1
 90
        4
176
     1
 62
     7
176
     1
 62
   257
176
     1
 90
        1
176
     1
 90
        1
176
     1
 40
1.0
176
     1
 90
        8
176
     1
 62
     7
176
     1
 40
1.0
176
     1
 90
        1
176
     1
 90
        6
176
     1
 90
        2
176
     1
 62
     7
176
     1
 90
        5
176
     1
 90
        0
176
     1
 90
        0
176
     1
290
     0
176
     1
 90
        1
176
     1
 40
0.0
176
     1
 90
        0
176
     1
290
     0
176
     1
290
     1
176
     1
290
     1
176
     1
290
     0
176
     1
290
     0
176
     1
290
     0
176
     1
290
     0
176
     1
290
     0
176
     1
290
     0
176
     1
 90
       50
176
     1
 40
0.0
176
     1
 40
1.0
176
     1
 90
        0
176
     1
 62
    18
420
        0
176
     1
 90
       50
176
     1
 90
        3
176
     1
 62
     5
420
      255
176
     1
290
     0
176
     1
 90
       50
176
     1
 90
       50
176
     1
 90
       50
176
     1
290
     0
176
     1
 90
       50
176
     1
 62
   256
176
     0
 40
1.0
176
     0
 90
        2
176
     1
  1
strokes_ogs.tif
176
     1
290
     0
176
     1
 40
1.0
176
     1
 40
1.0
176
     1
  0
VISUALSTYLE
  5
2B
102
{ACAD_REACTORS
330
2A
102
}
330
2A
100
AcDbVisualStyle
  2
Flat
 70
     0
177
     3
291
     1
 70
    58
 90
        2
176
     1
 90
        1
176
     1
 90
        1
176
     1
 90
        2
176
     1
 40
0.6
176
     1
 40
30.0
176
     1
 62
     7
420
 16777215
176
     1
 90
        0
176
     1
 90
        0
176
     1
 62
     7
176
     1
 62
   257
176
     1
 90
        1
176
     1
 90
        1
176
     1
 40
1.0
176
     1
 90
        8
176
     1
 62
     7
176
     1
 40
1.0
176
     1
 90
        1
176
     1
 90
        6
176
     1
 90
        2
176
     1
 62
     7
176
     1
 90
        5
176
     1
 90
        0
176
     1
 90
        0
176
     1
290
     0
176
     1
 90
       13
176
     1
 40
0.0
176
     1
 90
        0
176
     1
290
     0
176
     1
290
     1
176
     1
290
     1
176
     1
290
     0
176
     1
290
     0
176
     1
290
     0
176
     1
290
     0
176
     1
290
     0
176
     1
290
     0
176
     1
 90
       50
176
     1
 40
0.0
176
     1
 40
1.0
176
     1
 90
        0
176
     1
 62
    18
420
        0
176
     1
 90
       50
176
     1
 90
        3
176
     1
 62
     5
420
      255
176
     1
290
     0
176
     1
 90
       50
176
     1
 90
       50
176
     1
 90
       50
176
     1
290
     0
176
     1
 90
       50
176
     1
 62
   256
176
     0
 40
1.0
176
     0
 90
        2
176
     1
  1
strokes_ogs.tif
176
     1
290
     0
176
     1
 40
1.0
176
     1
 40
1.0
176
     1
  0
VISUALSTYLE
  5
2C
102
{ACAD_REACTORS
330
2A
102
}
330
2A
100
AcDbVisualStyle
  2
FlatWithEdges
 70
     1
177
     3
291
     1
 70
    58
 90
        2
176
     1
 90
        1
176
     1
 90
        1
176
     1
 90
        2
176
     1
 40
0.6
176
     1
 40
30.0
176
     1
 62
     7
420
 16777215
176
     1
 90
        1
176
     1
 90
        0
176
     1
 62
     7
176
     1
 62
   257
176
     1
 90
        1
176
     1
 90
        1
176
     1
 40
1.0
176
     1
 90
        0
176
     1
 62
   257
176
     1
 40
1.0
176
     1
 90
        1
176
     1
 90
        6
176
     1
 90
        2
176
     1
 62
     7
176
     1
 90
        5
176
     1
 90
        0
176
     1
 90
        0
176
     1
290
     0
176
     1
 90
       13
176
     1
 40
0.0
176
     1
 90
        0
176
     1
290
     0
176
     1
290
     1
176
     1
290
     1
176
     1
290
     0
176
     1
290
     0
176
     1
290
     0
176
     1
290
     0
176
     1
290
     0
176
     1
290
     0
176
     1
 90
       50
176
     1
 40
0.0
176
     1
 40
1.0
176
     1
 90
        0
176
     1
 62
    18
420
        0
176
     1
 90
       50
176
     1
 90
        3
176
     1
 62
     5
420
      255
176
     1
290
     0
176
     1
 90
       50
176
     1
 90
       50
176
     1
 90
       50
176
     1
290
     0
176
     1
 90
       50
176
     1
 62
   256
176
     0
 40
1.0
176
     0
 90
        2
176
     1
  1
strokes_ogs.tif
176
     1
290
     0
176
     1
 40
1.0
176
     1
 40
1.0
176
     1
  0
VISUALSTYLE
  5
2D
102
{ACAD_REACTORS
330
2A
102
}
330
2A
100
AcDbVisualStyle
  2
Gouraud
 70
     2
177
     3
291
     1
 70
    58
 90
        2
176
     1
 90
        2
176
     1
 90
        1
176
     1
 90
        2
176
     1
 40
0.6
176
     1
 40
30.0
176
     1
 62
     7
420
 16777215
176
     1
 90
        0
176
     1
 90
        0
176
     1
 62
     7
176
     1
 62
   257
176
     1
 90
        1
176
     1
 90
        1
176
     1
 40
1.0
176
     1
 90
        0
176
     1
 62
     7
176
     1
 40
1.0
176
     1
 90
        1
176
     1
 90
        6
176
     1
 90
        2
176
     1
 62
     7
176
     1
 90
        5
176
     1
 90
        0
176
     1
 90
        0
176
     1
290
     0
176
     1
 90
       13
176
     1
 40
0.0
176
     1
 90
        0
176
     1
290
     0
176
     1
290
     1
176
     1
290
     1
176
     1
290
     0
176
     1
290
     0
176
     1
290
     0
176
     1
290
     0
176
     1
290
     0
176
     1
290
     0
176
     1
 90
       50
176
     1
 40
0.0
176
     1
 40
1.0
176
     1
 90
        0
176
     1
 62
    18
420
        0
176
     1
 90
       50
176
     1
 90
        3
176
     1
 62
     5
420
      255
176
     1
290
     0
176
     1
 90
       50
176
     1
 90
       50
176
     1
 90
       50
176
     1
290
     0
176
     1
 90
       50
176
     1
 62
   256
176
     0
 40
1.0
176
     0
 90
        2
176
     1
  1
strokes_ogs.tif
176
     1
290
     0
176
     1
 40
1.0
176
     1
 40
1.0
176
     1
  0
VISUALSTYLE
  5
2E
102
{ACAD_REACTORS
330
2A
102
}
330
2A
100
AcDbVisualStyle
  2
GouraudWithEdges
 70
     3
177
     3
291
     1
 70
    58
 90
        2
176
     1
 90
        2
176
     1
 90
        1
176
     1
 90
        2
176
     1
 40
0.6
176
     1
 40
30.0
176
     1
 62
     7
420
 16777215
176
     1
 90
        1
176
     1
 90
        0
176
     1
 62
     7
176
     1
 62
   257
176
     1
 90
        1
176
     1
 90
        1
176
     1
 40
1.0
176
     1
 90
        0
176
     1
 62
   257
176
     1
 40
1.0
176
     1
 90
        1
176
     1
 90
        6
176
     1
 90
        2
176
     1
 62
     7
176
     1
 90
        5
176
     1
 90
        0
176
     1
 90
        0
176
     1
290
     0
176
     1
 90
       13
176
     1
 40
0.0
176
     1
 90
        0
176
     1
290
     0
176
     1
290
     1
176
     1
290
     1
176
     1
290
     0
176
     1
290
     0
176
     1
290
     0
176
     1
290
     0
176
     1
290
     0
176
     1
290
     0
176
     1
 90
       50
176
     1
 40
0.0
176
     1
 40
1.0
176
     1
 90
        0
176
     1
 62
    18
420
        0
176
     1
 90
       50
176
     1
 90
        3
176
     1
 62
     5
420
      255
176
     1
290
     0
176
     1
 90
       50
176
     1
 90
       50
176
     1
 90
       50
176
     1
290
     0
176
     1
 90
       50
176
     1
 62
   256
176
     0
 40
1.0
176
     0
 90
        2
176
     1
  1
strokes_ogs.tif
176
     1
290
     0
176
     1
 40
1.0
176
     1
 40
1.0
176
     1
  0
VISUALSTYLE
  5
31
102
{ACAD_REACTORS
330
2A
102
}
330
2A
100
AcDbVisualStyle
  2
Hidden
 70
     6
177
     3
291
     0
 70
    58
 90
        1
176
     1
 90
        2
176
     1
 90
        2
176
     1
 90
        0
176
     1
 40
0.6
176
     1
 40
30.0
176
     1
 62
     7
420
 16777215
176
     1
 90
        2
176
     1
 90
        2
176
     1
 62
     7
176
     1
 62
   257
176
     1
 90
        2
176
     1
 90
        1
176
     1
 40
40.0
176
     1
 90
        0
176
     1
 62
   257
176
     1
 40
1.0
176
     1
 90
        1
176
     1
 90
        6
176
     1
 90
        2
176
     1
 62
     7
176
     1
 90
        3
176
     1
 90
        0
176
     1
 90
        0
176
     1
290
     0
176
     1
 90
        1
176
     1
 40
0.0
176
     1
 90
        0
176
     1
290
     0
176
     1
290
     1
176
     1
290
     1
176
     1
290
     0
176
     1
290
     0
176
     1
290
     0
176
     1
290
     0
176
     1
290
     0
176
     1
290
     0
176
     1
 90
       50
176
     1
 40
0.0
176
     1
 40
1.0
176
     1
 90
        0
176
     1
 62
    18
420
        0
176
     1
 90
       50
176
     1
 90
        3
176
     1
 62
     5
420
      255
176
     1
290
     0
176
     1
 90
       50
176
     1
 90
       50
176
     1
 90
       50
176
     1
290
     0
176
     1
 90
       50
176
     1
 62
   256
176
     0
 40
1.0
176
     0
 90
        2
176
     1
  1
strokes_ogs.tif
176
     1
290
     0
176
     1
 40
1.0
176
     1
 40
1.0
176
     1
  0
VISUALSTYLE
  5
3B
102
{ACAD_REACTORS
330
2A
102
}
330
2A
100
AcDbVisualStyle
  2
JitterOff
 70
    20
177
     3
291
     1
 70
    58
 90
        2
176
     0
 90
        2
176
     0
 90
        0
176
     0
 90
        0
176
     0
 40
0.6
176
     0
 40
30.0
176
     0
 62
     7
420
 16777215
176
     0
 90
        1
176
     0
 90
        4
176
     0
 62
     7
176
     0
 62
   257
176
     0
 90
        1
176
     0
 90
        1
176
     0
 40
1.0
176
     0
 90
       10
176
     2
 62
     7
176
     0
 40
1.0
176
     0
 90
        1
176
     0
 90
        6
176
     0
 90
        2
176
     0
 62
     7
176
     0
 90
        5
176
     0
 90
        0
176
     0
 90
        0
176
     0
290
     0
176
     0
 90
        1
176
     0
 40
0.0
176
     0
 90
        0
176
     0
290
     0
176
     0
290
     1
176
     0
290
     1
176
     0
290
     0
176
     0
290
     0
176
     0
290
     0
176
     0
290
     0
176
     0
290
     0
176
     0
290
     0
176
     0
 90
       50
176
     0
 40
0.0
176
     0
 40
1.0
176
     0
 90
        0
176
     0
 62
    18
420
        0
176
     0
 90
       50
176
     0
 90
        3
176
     0
 62
     5
420
      255
176
     0
290
     0
176
     0
 90
       50
176
     0
 90
       50
176
     0
 90
       50
176
     0
290
     0
176
     0
 90
       50
176
     0
 62
   256
176
     0
 40
1.0
176
     0
 90
        2
176
     0
  1
strokes_ogs.tif
176
     0
290
     0
176
     0
 40
1.0
176
     0
 40
1.0
176
     0
  0
VISUALSTYLE
  5
38
102
{ACAD_REACTORS
330
2A
102
}
330
2A
100
AcDbVisualStyle
  2
Linepattern
 70
    14
177
     3
291
     1
 70
    58
 90
        2
176
     1
 90
        2
176
     1
 90
        0
176
     1
 90
        0
176
     1
 40
0.6
176
     1
 40
30.0
176
     1
 62
     7
420
 16777215
176
     1
 90
        1
176
     1
 90
        4
176
     1
 62
     7
176
     1
 62
   257
176
     1
 90
        7
176
     1
 90
        7
176
     1
 40
1.0
176
     1
 90
        8
176
     1
 62
     7
176
     1
 40
1.0
176
     1
 90
        1
176
     1
 90
        6
176
     1
 90
        2
176
     1
 62
     7
176
     1
 90
        5
176
     1
 90
        0
176
     1
 90
        0
176
     1
290
     0
176
     1
 90
        1
176
     1
 40
0.0
176
     1
 90
        0
176
     1
290
     0
176
     1
290
     1
176
     1
290
     1
176
     1
290
     0
176
     1
290
     0
176
     1
290
     0
176
     1
290
     0
176
     1
290
     0
176
     1
290
     0
176
     1
 90
       50
176
     1
 40
0.0
176
     1
 40
1.0
176
     1
 90
        0
176
     1
 62
    18
420
        0
176
     1
 90
       50
176
     1
 90
        3
176
     1
 62
     5
420
      255
176
     1
290
     0
176
     1
 90
       50
176
     1
 90
       50
176
     1
 90
       50
176
     1
290
     0
176
     1
 90
       50
176
     1
 62
   256
176
     0
 40
1.0
176
     0
 90
        2
176
     1
  1
strokes_ogs.tif
176
     1
290
     0
176
     1
 40
1.0
176
     1
 40
1.0
176
     1
  0
VISUALSTYLE
  5
3C
102
{ACAD_REACTORS
330
2A
102
}
330
2A
100
AcDbVisualStyle
  2
OverhangOff
 70
    21
177
     3
291
     1
 70
    58
 90
        2
176
     0
 90
        2
176
     0
 90
        0
176
     0
 90
        0
176
     0
 40
0.6
176
     0
 40
30.0
176
     0
 62
     7
420
 16777215
176
     0
 90
        1
176
     0
 90
        4
176
     0
 62
     7
176
     0
 62
   257
176
     0
 90
        1
176
     0
 90
        1
176
     0
 40
1.0
176
     0
 90
        9
176
     2
 62
     7
176
     0
 40
1.0
176
     0
 90
        1
176
     0
 90
        6
176
     0
 90
        2
176
     0
 62
     7
176
     0
 90
        5
176
     0
 90
        0
176
     0
 90
        0
176
     0
290
     0
176
     0
 90
        1
176
     0
 40
0.0
176
     0
 90
        0
176
     0
290
     0
176
     0
290
     1
176
     0
290
     1
176
     0
290
     0
176
     0
290
     0
176
     0
290
     0
176
     0
290
     0
176
     0
290
     0
176
     0
290
     0
176
     0
 90
       50
176
     0
 40
0.0
176
     0
 40
1.0
176
     0
 90
        0
176
     0
 62
    18
420
        0
176
     0
 90
       50
176
     0
 90
        3
176
     0
 62
     5
420
      255
176
     0
290
     0
176
     0
 90
       50
176
     0
 90
       50
176
     0
 90
       50
176
     0
290
     0
176
     0
 90
       50
176
     0
 62
   256
176
     0
 40
1.0
176
     0
 90
        2
176
     0
  1
strokes_ogs.tif
176
     0
290
     0
176
     0
 40
1.0
176
     0
 40
1.0
176
     0
  0
VISUALSTYLE
  5
33
102
{ACAD_REACTORS
330
2A
102
}
330
2A
100
AcDbVisualStyle
  2
Realistic
 70
     8
177
     3
291
     0
 70
    58
 90
        2
176
     1
 90
        3
176
     1
 90
        0
176
     1
 90
        2
176
     1
 40
0.6
176
     1
 40
30.0
176
     1
 62
     7
420
 16777215
176
     1
 90
        0
176
     1
 90
        0
176
     1
 62
     7
176
     1
 62
   257
176
     1
 90
        1
176
     1
 90
        1
176
     1
 40
1.0
176
     1
 90
        8
176
     1
 62
   257
176
     1
 40
1.0
176
     1
 90
        1
176
     1
 90
        6
176
     1
 90
        2
176
     1
 62
     7
176
     1
 90
        3
176
     1
 90
        0
176
     1
 90
        0
176
     1
290
     0
176
     1
 90
       13
176
     1
 40
0.0
176
     1
 90
        0
176
     1
290
     0
176
     1
290
     1
176
     1
290
     1
176
     1
290
     0
176
     1
290
     0
176
     1
290
     0
176
     1
290
     0
176
     1
290
     0
176
     1
290
     0
176
     1
 90
       50
176
     1
 40
0.0
176
     1
 40
1.0
176
     1
 90
        0
176
     1
 62
    18
420
        0
176
     1
 90
       50
176
     1
 90
        3
176
     1
 62
     5
420
      255
176
     1
290
     0
176
     1
 90
       50
176
     1
 90
       50
176
     1
 90
       50
176
     1
290
     0
176
     1
 90
       50
176
     1
 62
   256
176
     0
 40
1.0
176
     0
 90
        2
176
     1
  1
strokes_ogs.tif
176
     1
290
     0
176
     1
 40
1.0
176
     1
 40
1.0
176
     1
  0
VISUALSTYLE
  5
42
102
{ACAD_REACTORS
330
2A
102
}
330
2A
100
AcDbVisualStyle
  2
Shaded
 70
    27
177
     3
291
     0
 70
    58
 90
        2
176
     1
 90
        2
176
     1
 90
        1
176
     1
 90
        2
176
     1
 40
0.6
176
     1
 40
30.0
176
     1
 62
     7
420
 16777215
176
     1
 90
        0
176
     1
 90
        4
176
     1
 62
     7
176
     1
 62
   257
176
     1
 90
        1
176
     1
 90
        1
176
     1
 40
1.0
176
     1
 90
        8
176
     1
 62
   257
176
     1
 40
1.0
176
     1
 90
        1
176
     1
 90
        6
176
     1
 90
        2
176
     1
 62
     8
420
  7895160
176
     1
 90
        3
176
     1
 90
        0
176
     1
 90
        0
176
     1
290
     0
176
     1
 90
        5
176
     1
 40
0.0
176
     1
 90
        0
176
     1
290
     0
176
     1
290
     1
176
     1
290
     1
176
     1
290
     0
176
     1
290
     0
176
     1
290
     0
176
     1
290
     0
176
     1
290
     0
176
     1
290
     0
176
     1
 90
       50
176
     1
 40
0.0
176
     1
 40
1.0
176
     1
 90
        0
176
     1
 62
    18
420
        0
176
     1
 90
       50
176
     1
 90
        3
176
     1
 62
     5
420
      255
176
     1
290
     0
176
     1
 90
       50
176
     1
 90
       50
176
     1
 90
       50
176
     1
290
     0
176
     1
 90
       50
176
     1
 62
   256
176
     0
 40
1.0
176
     0
 90
        2
176
     1
  1
strokes_ogs.tif
176
     1
290
     0
176
     1
 40
1.0
176
     1
 40
1.0
176
     1
  0
VISUALSTYLE
  5
41
102
{ACAD_REACTORS
330
2A
102
}
330
2A
100
AcDbVisualStyle
  2
Shaded with edges
 70
    26
177
     3
291
     0
 70
    58
 90
        2
176
     1
 90
        2
176
     1
 90
        1
176
     1
 90
        2
176
     1
 40
0.6
176
     1
 40
30.0
176
     1
 62
     7
420
 16777215
176
     1
 90
        1
176
     1
 90
       10
176
     1
 62
     7
176
     1
 62
   257
176
     1
 90
        2
176
     1
 90
        1
176
     1
 40
1.0
176
     1
 90
        8
176
     1
 62
   257
176
     1
 40
1.0
176
     1
 90
        1
176
     1
 90
        6
176
     1
 90
        2
176
     1
 62
     7
176
     1
 90
        3
176
     1
 90
        0
176
     1
 90
        0
176
     1
290
     0
176
     1
 90
        5
176
     1
 40
0.0
176
     1
 90
        0
176
     1
290
     0
176
     1
290
     1
176
     1
290
     1
176
     1
290
     0
176
     1
290
     0
176
     1
290
     0
176
     1
290
     0
176
     1
290
     0
176
     1
290
     0
176
     1
 90
       50
176
     1
 40
0.0
176
     1
 40
1.0
176
     1
 90
        0
176
     1
 62
    18
420
        0
176
     1
 90
       50
176
     1
 90
        3
176
     1
 62
     5
420
      255
176
     1
290
     0
176
     1
 90
       50
176
     1
 90
       50
176
     1
 90
       50
176
     1
290
     0
176
     1
 90
       50
176
     1
 62
   256
176
     0
 40
1.0
176
     0
 90
        2
176
     1
  1
strokes_ogs.tif
176
     1
290
     0
176
     1
 40
1.0
176
     1
 40
1.0
176
     1
  0
VISUALSTYLE
  5
3E
102
{ACAD_REACTORS
330
2A
102
}
330
2A
100
AcDbVisualStyle
  2
Shades of Gray
 70
    23
177
     3
291
     0
 70
    58
 90
        2
176
     1
 90
        2
176
     1
 90
        3
176
     1
 90
        0
176
     1
 40
0.6
176
     1
 40
30.0
176
     1
 62
     7
420
 16777215
176
     1
 90
        2
176
     1
 90
        2
176
     1
 62
     7
176
     1
 62
     7
176
     1
 90
        1
176
     1
 90
        1
176
     1
 40
40.0
176
     1
 90
        8
176
     1
 62
     7
176
     1
 40
1.0
176
     1
 90
        1
176
     1
 90
        6
176
     1
 90
        2
176
     1
 62
     7
176
     1
 90
        3
176
     1
 90
        0
176
     1
 90
        0
176
     1
290
     0
176
     1
 90
        1
176
     1
 40
0.0
176
     1
 90
        0
176
     1
290
     0
176
     1
290
     1
176
     1
290
     1
176
     1
290
     0
176
     1
290
     0
176
     1
290
     0
176
     1
290
     0
176
     1
290
     0
176
     1
290
     0
176
     1
 90
       50
176
     1
 40
0.0
176
     1
 40
1.0
176
     1
 90
        0
176
     1
 62
    18
420
        0
176
     1
 90
       50
176
     1
 90
        3
176
     1
 62
     5
420
      255
176
     1
290
     0
176
     1
 90
       50
176
     1
 90
       50
176
     1
 90
       50
176
     1
290
     0
176
     1
 90
       50
176
     1
 62
   256
176
     0
 40
1.0
176
     0
 90
        2
176
     1
  1
strokes_ogs.tif
176
     1
290
     0
176
     1
 40
1.0
176
     1
 40
1.0
176
     1
  0
VISUALSTYLE
  5
3F
102
{ACAD_REACTORS
330
2A
102
}
330
2A
100
AcDbVisualStyle
  2
Sketchy
 70
    24
177
     3
291
     0
 70
    58
 90
        1
176
     1
 90
        2
176
     1
 90
        2
176
     1
 90
        0
176
     1
 40
0.6
176
     1
 40
30.0
176
     1
 62
     7
420
 16777215
176
     1
 90
        2
176
     1
 90
        2
176
     1
 62
     7
176
     1
 62
     7
176
     1
 90
        1
176
     1
 90
        1
176
     1
 40
40.0
176
     1
 90
       11
176
     1
 62
     7
176
     1
 40
1.0
176
     1
 90
        1
176
     1
 90
        6
176
     1
 90
        2
176
     1
 62
     7
176
     1
 90
        6
176
     1
 90
        0
176
     1
 90
        0
176
     1
290
     0
176
     1
 90
        1
176
     1
 40
0.0
176
     1
 90
        0
176
     1
290
     0
176
     1
290
     1
176
     1
290
     1
176
     1
290
     0
176
     1
290
     0
176
     1
290
     0
176
     1
290
     0
176
     1
290
     0
176
     1
290
     0
176
     1
 90
       50
176
     1
 40
0.0
176
     1
 40
1.0
176
     1
 90
        0
176
     1
 62
    18
420
        0
176
     1
 90
       50
176
     1
 90
        3
176
     1
 62
     5
420
      255
176
     1
290
     0
176
     1
 90
       50
176
     1
 90
       50
176
     1
 90
       50
176
     1
290
     0
176
     1
 90
       50
176
     1
 62
   256
176
     0
 40
1.0
176
     0
 90
        2
176
     1
  1
strokes_ogs.tif
176
     1
290
     0
176
     1
 40
1.0
176
     1
 40
1.0
176
     1
  0
VISUALSTYLE
  5
37
102
{ACAD_REACTORS
330
2A
102
}
330
2A
100
AcDbVisualStyle
  2
Thicken
 70
    13
177
     3
291
     1
 70
    58
 90
        2
176
     1
 90
        2
176
     1
 90
        0
176
     1
 90
        0
176
     1
 40
0.6
176
     1
 40
30.0
176
     1
 62
     7
420
 16777215
176
     1
 90
        1
176
     1
 90
        4
176
     1
 62
     7
176
     1
 62
   257
176
     1
 90
        1
176
     1
 90
        1
176
     1
 40
1.0
176
     1
 90
       12
176
     1
 62
     7
176
     1
 40
1.0
176
     1
 90
        1
176
     1
 90
        6
176
     1
 90
        2
176
     1
 62
     7
176
     1
 90
        5
176
     1
 90
        0
176
     1
 90
        0
176
     1
290
     0
176
     1
 90
        1
176
     1
 40
0.0
176
     1
 90
        0
176
     1
290
     0
176
     1
290
     1
176
     1
290
     1
176
     1
290
     0
176
     1
290
     0
176
     1
290
     0
176
     1
290
     0
176
     1
290
     0
176
     1
290
     0
176
     1
 90
       50
176
     1
 40
0.0
176
     1
 40
1.0
176
     1
 90
        0
176
     1
 62
    18
420
        0
176
     1
 90
       50
176
     1
 90
        3
176
     1
 62
     5
420
      255
176
     1
290
     0
176
     1
 90
       50
176
     1
 90
       50
176
     1
 90
       50
176
     1
290
     0
176
     1
 90
       50
176
     1
 62
   256
176
     0
 40
1.0
176
     0
 90
        2
176
     1
  1
strokes_ogs.tif
176
     1
290
     0
176
     1
 40
1.0
176
     1
 40
1.0
176
     1
  0
VISUALSTYLE
  5
30
102
{ACAD_REACTORS
330
2A
102
}
330
2A
100
AcDbVisualStyle
  2
Wireframe
 70
     5
177
     3
291
     0
 70
    58
 90
        0
176
     1
 90
        2
176
     1
 90
        0
176
     1
 90
        0
176
     1
 40
0.6
176
     1
 40
30.0
176
     1
 62
     7
420
 16777215
176
     1
 90
        1
176
     1
 90
        4
176
     1
 62
     7
176
     1
 62
   257
176
     1
 90
        1
176
     1
 90
        1
176
     1
 40
1.0
176
     1
 90
        0
176
     1
 62
   257
176
     1
 40
1.0
176
     1
 90
        1
176
     1
 90
        6
176
     1
 90
        2
176
     1
 62
     7
176
     1
 90
        3
176
     1
 90
        0
176
     1
 90
        0
176
     1
290
     0
176
     1
 90
        1
176
     1
 40
0.0
176
     1
 90
        0
176
     1
290
     0
176
     1
290
     1
176
     1
290
     1
176
     1
290
     0
176
     1
290
     0
176
     1
290
     0
176
     1
290
     0
176
     1
290
     0
176
     1
290
     0
176
     1
 90
       50
176
     1
 40
0.0
176
     1
 40
1.0
176
     1
 90
        0
176
     1
 62
    18
420
        0
176
     1
 90
       50
176
     1
 90
        3
176
     1
 62
     5
420
      255
176
     1
290
     0
176
     1
 90
       50
176
     1
 90
       50
176
     1
 90
       50
176
     1
290
     0
176
     1
 90
       50
176
     1
 62
   256
176
     0
 40
1.0
176
     0
 90
        2
176
     1
  1
strokes_ogs.tif
176
     1
290
     0
176
     1
 40
1.0
176
     1
 40
1.0
176
     1
  0
VISUALSTYLE
  5
40
102
{ACAD_REACTORS
330
2A
102
}
330
2A
100
AcDbVisualStyle
  2
X-Ray
 70
    25
177
     3
291
     0
 70
    58
 90
        2
176
     1
 90
        2
176
     1
 90
        1
176
     1
 90
        1
176
     1
 40
0.5
176
     1
 40
30.0
176
     1
 62
     7
420
 16777215
176
     1
 90
        1
176
     1
 90
        0
176
     1
 62
     7
176
     1
 62
   257
176
     1
 90
        1
176
     1
 90
        1
176
     1
 40
1.0
176
     1
 90
        8
176
     1
 62
     7
176
     1
 40
1.0
176
     1
 90
        1
176
     1
 90
        6
176
     1
 90
        2
176
     1
 62
     7
176
     1
 90
        3
176
     1
 90
        0
176
     1
 90
        0
176
     1
290
     0
176
     1
 90
       13
176
     1
 40
0.0
176
     1
 90
        0
176
     1
290
     0
176
     1
290
     1
176
     1
290
     1
176
     1
290
     0
176
     1
290
     0
176
     1
290
     0
176
     1
290
     0
176
     1
290
     0
176
     1
290
     0
176
     1
 90
       50
176
     1
 40
0.0
176
     1
 40
1.0
176
     1
 90
        0
176
     1
 62
    18
420
        0
176
     1
 90
       50
176
     1
 90
        3
176
     1
 62
     5
420
      255
176
     1
290
     0
176
     1
 90
       50
176
     1
 90
       50
176
     1
 90
       50
176
     1
290
     0
176
     1
 90
       50
176
     1
 62
   256
176
     0
 40
1.0
176
     0
 90
        2
176
     1
  1
strokes_ogs.tif
176
     1
290
     0
176
     1
 40
1.0
176
     1
 40
1.0
176
     1
  0
DICTIONARYVAR
  5
29F
102
{ACAD_REACTORS
330
29E
102
}
330
29E
100
DictionaryVariables
280
     0
  1
1:1
  0
DICTIONARYVAR
  5
2A4
102
{ACAD_REACTORS
330
29E
102
}
330
29E
100
DictionaryVariables
280
     0
  1
Standard
  0
DICTIONARYVAR
  5
2A3
102
{ACAD_REACTORS
330
29E
102
}
330
29E
100
DictionaryVariables
280
     0
  1
Standard
  0
DICTIONARY
  5
2A0
330
6A
100
AcDbDictionary
280
     1
281
     1
  3
ACAD_ROUNDTRIP_2008_TABLESTYLE_CELLSTYLEMAP
360
2A1
  0
CELLSTYLEMAP
  5
2A1
102
{ACAD_REACTORS
330
2A0
102
}
330
2A0
100
AcDbCellStyleMap
 90
        3
300
CELLSTYLE
  1
TABLEFORMAT_BEGIN
 90
        5
170
     1
 91
        0
 92
    32768
 62
   257
 93
        1
300
CONTENTFORMAT
  1
CONTENTFORMAT_BEGIN
 90
        0
 91
        0
 92
        4
 93
        0
300

 40
0.0
140
1.0
 94
        5
 62
     0
340
11
144
0.25
309
CONTENTFORMAT_END
171
     1
301
MARGIN
  1
CELLMARGIN_BEGIN
 40
0.06
 40
0.06
 40
0.06
 40
0.06
 40
0.06
 40
0.06
309
CELLMARGIN_END
 94
        6
 95
        1
302
GRIDFORMAT
  1
GRIDFORMAT_BEGIN
 90
        0
 91
        1
 62
     0
 92
       -2
340
14
 93
        0
 40
0.045
309
GRIDFORMAT_END
 95
        2
302
GRIDFORMAT
  1
GRIDFORMAT_BEGIN
 90
        0
 91
        1
 62
     0
 92
       -2
340
14
 93
        0
 40
0.045
309
GRIDFORMAT_END
 95
        4
302
GRIDFORMAT
  1
GRIDFORMAT_BEGIN
 90
        0
 91
        1
 62
     0
 92
       -2
340
14
 93
        0
 40
0.045
309
GRIDFORMAT_END
 95
        8
302
GRIDFORMAT
  1
GRIDFORMAT_BEGIN
 90
        0
 91
        1
 62
     0
 92
       -2
340
14
 93
        0
 40
0.045
309
GRIDFORMAT_END
 95
       16
302
GRIDFORMAT
  1
GRIDFORMAT_BEGIN
 90
        0
 91
        1
 62
     0
 92
       -2
340
14
 93
        0
 40
0.045
309
GRIDFORMAT_END
 95
       32
302
GRIDFORMAT
  1
GRIDFORMAT_BEGIN
 90
        0
 91
        1
 62
     0
 92
       -2
340
14
 93
        0
 40
0.045
309
GRIDFORMAT_END
309
TABLEFORMAT_END
  1
CELLSTYLE_BEGIN
 90
        1
 91
        1
300
_TITLE
309
CELLSTYLE_END
300
CELLSTYLE
  1
TABLEFORMAT_BEGIN
 90
        5
170
     1
 91
        0
 92
        0
 62
   257
 93
        1
300
CONTENTFORMAT
  1
CONTENTFORMAT_BEGIN
 90
        0
 91
        0
 92
        4
 93
        0
300

 40
0.0
140
1.0
 94
        5
 62
     0
340
11
144
0.18
309
CONTENTFORMAT_END
171
     1
301
MARGIN
  1
CELLMARGIN_BEGIN
 40
0.06
 40
0.06
 40
0.06
 40
0.06
 40
0.06
 40
0.06
309
CELLMARGIN_END
 94
        6
 95
        1
302
GRIDFORMAT
  1
GRIDFORMAT_BEGIN
 90
        0
 91
        1
 62
     0
 92
       -2
340
14
 93
        0
 40
0.045
309
GRIDFORMAT_END
 95
        2
302
GRIDFORMAT
  1
GRIDFORMAT_BEGIN
 90
        0
 91
        1
 62
     0
 92
       -2
340
14
 93
        0
 40
0.045
309
GRIDFORMAT_END
 95
        4
302
GRIDFORMAT
  1
GRIDFORMAT_BEGIN
 90
        0
 91
        1
 62
     0
 92
       -2
340
14
 93
        0
 40
0.045
309
GRIDFORMAT_END
 95
        8
302
GRIDFORMAT
  1
GRIDFORMAT_BEGIN
 90
        0
 91
        1
 62
     0
 92
       -2
340
14
 93
        0
 40
0.045
309
GRIDFORMAT_END
 95
       16
302
GRIDFORMAT
  1
GRIDFORMAT_BEGIN
 90
        0
 91
        1
 62
     0
 92
       -2
340
14
 93
        0
 40
0.045
309
GRIDFORMAT_END
 95
       32
302
GRIDFORMAT
  1
GRIDFORMAT_BEGIN
 90
        0
 91
        1
 62
     0
 92
       -2
340
14
 93
        0
 40
0.045
309
GRIDFORMAT_END
309
TABLEFORMAT_END
  1
CELLSTYLE_BEGIN
 90
        2
 91
        1
300
_HEADER
309
CELLSTYLE_END
300
CELLSTYLE
  1
TABLEFORMAT_BEGIN
 90
        5
170
     1
 91
        0
 92
        0
 62
   257
 93
        1
300
CONTENTFORMAT
  1
CONTENTFORMAT_BEGIN
 90
        0
 91
        0
 92
        4
 93
        0
300

 40
0.0
140
1.0
 94
        2
 62
     0
340
11
144
0.18
309
CONTENTFORMAT_END
171
     1
301
MARGIN
  1
CELLMARGIN_BEGIN
 40
0.06
 40
0.06
 40
0.06
 40
0.06
 40
0.06
 40
0.06
309
CELLMARGIN_END
 94
        6
 95
        1
302
GRIDFORMAT
  1
GRIDFORMAT_BEGIN
 90
        0
 91
        1
 62
     0
 92
       -2
340
14
 93
        0
 40
0.045
309
GRIDFORMAT_END
 95
        2
302
GRIDFORMAT
  1
GRIDFORMAT_BEGIN
 90
        0
 91
        1
 62
     0
 92
       -2
340
14
 93
        0
 40
0.045
309
GRIDFORMAT_END
 95
        4
302
GRIDFORMAT
  1
GRIDFORMAT_BEGIN
 90
        0
 91
        1
 62
     0
 92
       -2
340
14
 93
        0
 40
0.045
309
GRIDFORMAT_END
 95
        8
302
GRIDFORMAT
  1
GRIDFORMAT_BEGIN
 90
        0
 91
        1
 62
     0
 92
       -2
340
14
 93
        0
 40
0.045
309
GRIDFORMAT_END
 95
       16
302
GRIDFORMAT
  1
GRIDFORMAT_BEGIN
 90
        0
 91
        1
 62
     0
 92
       -2
340
14
 93
        0
 40
0.045
309
GRIDFORMAT_END
 95
       32
302
GRIDFORMAT
  1
GRIDFORMAT_BEGIN
 90
        0
 91
        1
 62
     0
 92
       -2
340
14
 93
        0
 40
0.045
309
GRIDFORMAT_END
309
TABLEFORMAT_END
  1
CELLSTYLE_BEGIN
 90
        3
 91
        2
300
_DATA
309
CELLSTYLE_END
  0
ENDSEC
  0
EOF