0
SECTION
  2
HEADER
  9
$ACADVER
  1
AC1027
  9
$ACADMAINTVER
 70
     8
  9
$DWGCODEPAGE
  3
ANSI_1252
  9
$REQUIREDVERSIONS
160
                 0
  9
$COMMENTS
  1
File was created by Cadenas
  9
$CUSTOMPROPERTYTAG
  1
NN
  9
$CUSTOMPROPERTY
  1
Steel IMPERIAL-HD Narrow Piloted Flange 1-7/16 thru 2-1/4 Inch Bore
  9
$CUSTOMPROPERTYTAG
  1
NT
  9
$CUSTOMPROPERTY
  1
-Steal Heavy Duty Imperial Piloted Flange Bearing-inch-107-204
  9
$CUSTOMPROPERTYTAG
  1
NB
  9
$CUSTOMPROPERTY
  1
072363
  9
$CUSTOMPROPERTYTAG
  1
NBSYN
  9
$CUSTOMPROPERTY
  1
$PN.
  9
$CUSTOMPROPERTYTAG
  1
LINA
  9
$CUSTOMPROPERTY
  1
072363
  9
$CUSTOMPROPERTYTAG
  1
SS
  9
$CUSTOMPROPERTY
  1
1-1/2
  9
$CUSTOMPROPERTYTAG
  1
PN
  9
$CUSTOMPROPERTY
  1
072363
  9
$CUSTOMPROPERTYTAG
  1
TYPE
  9
$CUSTOMPROPERTY
  1
Expansion
  9
$CUSTOMPROPERTYTAG
  1
EF
  9
$CUSTOMPROPERTY
  1
Expansion
  9
$CUSTOMPROPERTYTAG
  1
DESCRIPTION
  9
$CUSTOMPROPERTY
  1
SFCN-IP-108RE
  9
$CUSTOMPROPERTYTAG
  1
ST
  9
$CUSTOMPROPERTY
  1
Contact Seal
  9
$CUSTOMPROPERTYTAG
  1
A
  9
$CUSTOMPROPERTY
  1
2.63
  9
$CUSTOMPROPERTYTAG
  1
B
  9
$CUSTOMPROPERTY
  1
5.25
  9
$CUSTOMPROPERTYTAG
  1
C
  9
$CUSTOMPROPERTY
  1
1.93
  9
$CUSTOMPROPERTYTAG
  1
D
  9
$CUSTOMPROPERTY
  1
3.09
  9
$CUSTOMPROPERTYTAG
  1
DD
  9
$CUSTOMPROPERTY
  1
4.38
  9
$CUSTOMPROPERTYTAG
  1
E
  9
$CUSTOMPROPERTY
  1
0
  9
$CUSTOMPROPERTYTAG
  1
F
  9
$CUSTOMPROPERTY
  1
0.4375
  9
$CUSTOMPROPERTYTAG
  1
G
  9
$CUSTOMPROPERTY
  1
1.84
  9
$CUSTOMPROPERTYTAG
  1
H
  9
$CUSTOMPROPERTY
  1
0.50
  9
$CUSTOMPROPERTYTAG
  1
K
  9
$CUSTOMPROPERTY
  1
3.625
  9
$CUSTOMPROPERTYTAG
  1
L
  9
$CUSTOMPROPERTY
  1
2.72
  9
$CUSTOMPROPERTYTAG
  1
M
  9
$CUSTOMPROPERTY
  1
0.4375
  9
$CUSTOMPROPERTYTAG
  1
N
  9
$CUSTOMPROPERTY
  1
2.78
  9
$CUSTOMPROPERTYTAG
  1
P
  9
$CUSTOMPROPERTY
  1
1.69
  9
$CUSTOMPROPERTYTAG
  1
Q
  9
$CUSTOMPROPERTY
  1
0.94
  9
$CUSTOMPROPERTYTAG
  1
X
  9
$CUSTOMPROPERTY
  1
0.19
  9
$CUSTOMPROPERTYTAG
  1
Y
  9
$CUSTOMPROPERTY
  1
0.02
  9
$CUSTOMPROPERTYTAG
  1
Z
  9
$CUSTOMPROPERTY
  1
1.80
  9
$CUSTOMPROPERTYTAG
  1
COMPANY
  9
$CUSTOMPROPERTY
  1
baldor
  9
$INSBASE
 10
0.0
 20
0.0
 30
0.0
  9
$EXTMIN
 10
1.000000000000000E+20
 20
1.000000000000000E+20
 30
1.000000000000000E+20
  9
$EXTMAX
 10
-1.000000000000000E+20
 20
-1.000000000000000E+20
 30
-1.000000000000000E+20
  9
$LIMMIN
 10
0.0
 20
0.0
  9
$LIMMAX
 10
12.0
 20
9.0
  9
$ORTHOMODE
 70
     0
  9
$REGENMODE
 70
     1
  9
$FILLMODE
 70
     1
  9
$QTEXTMODE
 70
     0
  9
$MIRRTEXT
 70
     1
  9
$LTSCALE
 40
1.0
  9
$ATTMODE
 70
     1
  9
$TEXTSIZE
 40
0.2
  9
$TRACEWID
 40
0.05
  9
$TEXTSTYLE
  7
Standard
  9
$CLAYER
  8
0
  9
$CELTYPE
  6
ByLayer
  9
$CECOLOR
 62
   256
  9
$CELTSCALE
 40
1.0
  9
$DISPSILH
 70
     0
  9
$DIMSCALE
 40
1.0
  9
$DIMASZ
 40
0.18
  9
$DIMEXO
 40
0.0625
  9
$DIMDLI
 40
0.38
  9
$DIMRND
 40
0.0
  9
$DIMDLE
 40
0.0
  9
$DIMEXE
 40
0.18
  9
$DIMTP
 40
0.0
  9
$DIMTM
 40
0.0
  9
$DIMTXT
 40
0.18
  9
$DIMCEN
 40
0.09
  9
$DIMTSZ
 40
0.0
  9
$DIMTOL
 70
     0
  9
$DIMLIM
 70
     0
  9
$DIMTIH
 70
     1
  9
$DIMTOH
 70
     1
  9
$DIMSE1
 70
     0
  9
$DIMSE2
 70
     0
  9
$DIMTAD
 70
     0
  9
$DIMZIN
 70
     0
  9
$DIMBLK
  1

  9
$DIMASO
 70
     1
  9
$DIMSHO
 70
     1
  9
$DIMPOST
  1

  9
$DIMAPOST
  1

  9
$DIMALT
 70
     0
  9
$DIMALTD
 70
     2
  9
$DIMALTF
 40
25.4
  9
$DIMLFAC
 40
1.0
  9
$DIMTOFL
 70
     0
  9
$DIMTVP
 40
0.0
  9
$DIMTIX
 70
     0
  9
$DIMSOXD
 70
     0
  9
$DIMSAH
 70
     0
  9
$DIMBLK1
  1

  9
$DIMBLK2
  1

  9
$DIMSTYLE
  2
Standard
  9
$DIMCLRD
 70
     0
  9
$DIMCLRE
 70
     0
  9
$DIMCLRT
 70
     0
  9
$DIMTFAC
 40
1.0
  9
$DIMGAP
 40
0.09
  9
$DIMJUST
 70
     0
  9
$DIMSD1
 70
     0
  9
$DIMSD2
 70
     0
  9
$DIMTOLJ
 70
     1
  9
$DIMTZIN
 70
     0
  9
$DIMALTZ
 70
     0
  9
$DIMALTTZ
 70
     0
  9
$DIMUPT
 70
     0
  9
$DIMDEC
 70
     4
  9
$DIMTDEC
 70
     4
  9
$DIMALTU
 70
     2
  9
$DIMALTTD
 70
     2
  9
$DIMTXSTY
  7
Standard
  9
$DIMAUNIT
 70
     0
  9
$DIMADEC
 70
     0
  9
$DIMALTRND
 40
0.0
  9
$DIMAZIN
 70
     0
  9
$DIMDSEP
 70
    46
  9
$DIMATFIT
 70
     3
  9
$DIMFRAC
 70
     0
  9
$DIMLDRBLK
  1

  9
$DIMLUNIT
 70
     2
  9
$DIMLWD
 70
    -2
  9
$DIMLWE
 70
    -2
  9
$DIMTMOVE
 70
     0
  9
$DIMFXL
 40
1.0
  9
$DIMFXLON
 70
     0
  9
$DIMJOGANG
 40
0.7853981633974483
  9
$DIMTFILL
 70
     0
  9
$DIMTFILLCLR
 70
     0
  9
$DIMARCSYM
 70
     0
  9
$DIMLTYPE
  6

  9
$DIMLTEX1
  6

  9
$DIMLTEX2
  6

  9
$DIMTXTDIRECTION
 70
     0
  9
$LUNITS
 70
     2
  9
$LUPREC
 70
     4
  9
$SKETCHINC
 40
0.1
  9
$FILLETRAD
 40
0.5
  9
$AUNITS
 70
     0
  9
$AUPREC
 70
     0
  9
$MENU
  1
.
  9
$ELEVATION
 40
0.0
  9
$PELEVATION
 40
0.0
  9
$THICKNESS
 40
0.0
  9
$LIMCHECK
 70
     0
  9
$CHAMFERA
 40
0.0
  9
$CHAMFERB
 40
0.0
  9
$CHAMFERC
 40
0.0
  9
$CHAMFERD
 40
0.0
  9
$SKPOLY
 70
     0
  9
$TDCREATE
 40
2458168.896975324
  9
$TDUCREATE
 40
2458168.855308658
  9
$TDUPDATE
 40
2458168.896975509
  9
$TDUUPDATE
 40
2458168.855308842
  9
$TDINDWG
 40
0.0000000116
  9
$TDUSRTIMER
 40
0.0000000116
  9
$USRTIMER
 70
     1
  9
$ANGBASE
 50
0.0
  9
$ANGDIR
 70
     0
  9
$PDMODE
 70
     0
  9
$PDSIZE
 40
0.0
  9
$PLINEWID
 40
0.0
  9
$SPLFRAME
 70
     0
  9
$SPLINETYPE
 70
     6
  9
$SPLINESEGS
 70
     8
  9
$HANDSEED
  5
29A
  9
$SURFTAB1
 70
     6
  9
$SURFTAB2
 70
     6
  9
$SURFTYPE
 70
     6
  9
$SURFU
 70
     6
  9
$SURFV
 70
     6
  9
$UCSBASE
  2

  9
$UCSNAME
  2

  9
$UCSORG
 10
0.0
 20
0.0
 30
0.0
  9
$UCSXDIR
 10
1.0
 20
0.0
 30
0.0
  9
$UCSYDIR
 10
0.0
 20
1.0
 30
0.0
  9
$UCSORTHOREF
  2

  9
$UCSORTHOVIEW
 70
     0
  9
$UCSORGTOP
 10
0.0
 20
0.0
 30
0.0
  9
$UCSORGBOTTOM
 10
0.0
 20
0.0
 30
0.0
  9
$UCSORGLEFT
 10
0.0
 20
0.0
 30
0.0
  9
$UCSORGRIGHT
 10
0.0
 20
0.0
 30
0.0
  9
$UCSORGFRONT
 10
0.0
 20
0.0
 30
0.0
  9
$UCSORGBACK
 10
0.0
 20
0.0
 30
0.0
  9
$PUCSBASE
  2

  9
$PUCSNAME
  2

  9
$PUCSORG
 10
0.0
 20
0.0
 30
0.0
  9
$PUCSXDIR
 10
1.0
 20
0.0
 30
0.0
  9
$PUCSYDIR
 10
0.0
 20
1.0
 30
0.0
  9
$PUCSORTHOREF
  2

  9
$PUCSORTHOVIEW
 70
     0
  9
$PUCSORGTOP
 10
0.0
 20
0.0
 30
0.0
  9
$PUCSORGBOTTOM
 10
0.0
 20
0.0
 30
0.0
  9
$PUCSORGLEFT
 10
0.0
 20
0.0
 30
0.0
  9
$PUCSORGRIGHT
 10
0.0
 20
0.0
 30
0.0
  9
$PUCSORGFRONT
 10
0.0
 20
0.0
 30
0.0
  9
$PUCSORGBACK
 10
0.0
 20
0.0
 30
0.0
  9
$USERI1
 70
     0
  9
$USERI2
 70
     0
  9
$USERI3
 70
     0
  9
$USERI4
 70
     0
  9
$USERI5
 70
     0
  9
$USERR1
 40
0.0
  9
$USERR2
 40
0.0
  9
$USERR3
 40
0.0
  9
$USERR4
 40
0.0
  9
$USERR5
 40
0.0
  9
$WORLDVIEW
 70
     1
  9
$SHADEDGE
 70
     3
  9
$SHADEDIF
 70
    70
  9
$TILEMODE
 70
     1
  9
$MAXACTVP
 70
    64
  9
$PINSBASE
 10
0.0
 20
0.0
 30
0.0
  9
$PLIMCHECK
 70
     0
  9
$PEXTMIN
 10
1.000000000000000E+20
 20
1.000000000000000E+20
 30
1.000000000000000E+20
  9
$PEXTMAX
 10
-1.000000000000000E+20
 20
-1.000000000000000E+20
 30
-1.000000000000000E+20
  9
$PLIMMIN
 10
0.0
 20
0.0
  9
$PLIMMAX
 10
12.0
 20
9.0
  9
$UNITMODE
 70
     0
  9
$VISRETAIN
 70
     1
  9
$PLINEGEN
 70
     0
  9
$PSLTSCALE
 70
     1
  9
$TREEDEPTH
 70
  3020
  9
$CMLSTYLE
  2
Standard
  9
$CMLJUST
 70
     0
  9
$CMLSCALE
 40
1.0
  9
$PROXYGRAPHICS
 70
     1
  9
$MEASUREMENT
 70
     0
  9
$CELWEIGHT
370
    -1
  9
$ENDCAPS
280
     0
  9
$JOINSTYLE
280
     0
  9
$LWDISPLAY
290
     0
  9
$INSUNITS
 70
     1
  9
$HYPERLINKBASE
  1

  9
$STYLESHEET
  1

  9
$XEDIT
290
     1
  9
$CEPSNTYPE
380
     0
  9
$PSTYLEMODE
290
     1
  9
$FINGERPRINTGUID
  2
{6C5AF05D-5A69-4533-958A-5DD28214FB02}
  9
$VERSIONGUID
  2
{FAEB1C32-E019-11D5-929B-00C0DF256EC4}
  9
$EXTNAMES
290
     1
  9
$PSVPSCALE
 40
0.0
  9
$OLESTARTUP
290
     0
  9
$SORTENTS
280
   127
  9
$INDEXCTL
280
     0
  9
$HIDETEXT
280
     1
  9
$XCLIPFRAME
280
     2
  9
$HALOGAP
280
     0
  9
$OBSCOLOR
 70
   257
  9
$OBSLTYPE
280
     0
  9
$INTERSECTIONDISPLAY
280
     0
  9
$INTERSECTIONCOLOR
 70
   257
  9
$DIMASSOC
280
     2
  9
$PROJECTNAME
  1

  9
$CAMERADISPLAY
290
     0
  9
$LENSLENGTH
 40
50.0
  9
$CAMERAHEIGHT
 40
0.0
  9
$STEPSPERSEC
 40
2.0
  9
$STEPSIZE
 40
6.0
  9
$3DDWFPREC
 40
2.0
  9
$PSOLWIDTH
 40
0.25
  9
$PSOLHEIGHT
 40
4.0
  9
$LOFTANG1
 40
1.570796326794897
  9
$LOFTANG2
 40
1.570796326794897
  9
$LOFTMAG1
 40
0.0
  9
$LOFTMAG2
 40
0.0
  9
$LOFTPARAM
 70
     7
  9
$LOFTNORMALS
280
     1
  9
$LATITUDE
 40
37.795
  9
$LONGITUDE
 40
-122.394
  9
$NORTHDIRECTION
 40
0.0
  9
$TIMEZONE
 70
 -8000
  9
$LIGHTGLYPHDISPLAY
280
     1
  9
$TILEMODELIGHTSYNCH
280
     1
  9
$CMATERIAL
347
44
  9
$SOLIDHIST
280
     0
  9
$SHOWHIST
280
     1
  9
$DWFFRAME
280
     2
  9
$DGNFRAME
280
     2
  9
$REALWORLDSCALE
290
     1
  9
$INTERFERECOLOR
 62
   256
  9
$CSHADOW
280
     0
  9
$SHADOWPLANELOCATION
 40
0.0
  0
ENDSEC
  0
SECTION
  2
CLASSES
  0
CLASS
  1
ACDBDICTIONARYWDFLT
  2
AcDbDictionaryWithDefault
  3
ObjectDBX Classes
 90
        0
 91
        4
280
     0
281
     0
  0
CLASS
  1
VISUALSTYLE
  2
AcDbVisualStyle
  3
ObjectDBX Classes
 90
     4095
 91
        4
280
     0
281
     0
  0
CLASS
  1
MATERIAL
  2
AcDbMaterial
  3
ObjectDBX Classes
 90
     1153
 91
        4
280
     0
281
     0
  0
CLASS
  1
SCALE
  2
AcDbScale
  3
ObjectDBX Classes
 90
     1153
 91
        4
280
     0
281
     0
  0
CLASS
  1
TABLESTYLE
  2
AcDbTableStyle
  3
ObjectDBX Classes
 90
     4095
 91
        4
280
     0
281
     0
  0
CLASS
  1
MLEADERSTYLE
  2
AcDbMLeaderStyle
  3
ACDB_MLEADERSTYLE_CLASS
 90
     4095
 91
        4
280
     0
281
     0
  0
CLASS
  1
SUN
  2
AcDbSun
  3
SCENEOE
 90
     1153
 91
        4
280
     0
281
     0
  0
CLASS
  1
DICTIONARYVAR
  2
AcDbDictionaryVar
  3
ObjectDBX Classes
 90
        0
 91
        4
280
     0
281
     0
  0
CLASS
  1
CELLSTYLEMAP
  2
AcDbCellStyleMap
  3
ObjectDBX Classes
 90
     1152
 91
        4
280
     0
281
     0
  0
ENDSEC
  0
SECTION
  2
TABLES
  0
TABLE
  2
VPORT
  5
8
330
0
100
AcDbSymbolTable
 70
     1
  0
VPORT
  5
29
330
8
100
AcDbSymbolTableRecord
100
AcDbViewportTableRecord
  2
*Active
 70
     0
 10
0.0
 20
0.0
 11
1.0
 21
1.0
 12
-0.0389999952316273
 22
0.0
 13
0.0
 23
0.0
 14
0.5
 24
0.5
 15
0.5
 25
0.5
 16
0.0
 26
0.0
 36
1.0
 17
0.0
 27
0.0
 37
0.0
 40
5.355
 41
0.7939047637212839
 42
50.0
 43
0.0
 44
0.0
 50
0.0
 51
0.0
 71
     0
 72
   100
 73
     1
 74
     3
 75
     0
 76
     0
 77
     0
 78
     0
281
     0
 65
     1
110
0.0
120
0.0
130
0.0
111
1.0
121
0.0
131
0.0
112
0.0
122
1.0
132
0.0
 79
     0
146
0.0
348
2F
 60
     3
 61
     5
292
     1
282
     1
141
0.0
142
0.0
 63
   250
361
6D
  0
ENDTAB
  0
TABLE
  2
LTYPE
  5
5
330
0
100
AcDbSymbolTable
 70
     3
  0
LTYPE
  5
14
330
5
100
AcDbSymbolTableRecord
100
AcDbLinetypeTableRecord
  2
ByBlock
 70
     0
  3

 72
    65
 73
     0
 40
0.0
  0
LTYPE
  5
15
330
5
100
AcDbSymbolTableRecord
100
AcDbLinetypeTableRecord
  2
ByLayer
 70
     0
  3

 72
    65
 73
     0
 40
0.0
  0
LTYPE
  5
16
330
5
100
AcDbSymbolTableRecord
100
AcDbLinetypeTableRecord
  2
Continuous
 70
     0
  3
Solid line
 72
    65
 73
     0
 40
0.0
  0
LTYPE
  5
9D
330
5
100
AcDbSymbolTableRecord
100
AcDbLinetypeTableRecord
  2
Dashed
 70
     0
  3

 72
    65
 73
     2
 40
2.0
 49
1.0
 74
     0
 49
-1.0
 74
     0
  0
LTYPE
  5
AB
330
5
100
AcDbSymbolTableRecord
100
AcDbLinetypeTableRecord
  2
Center
 70
     0
  3

 72
    65
 73
     4
 40
1.5
 49
0.45
 74
     0
 49
-0.5
 74
     0
 49
0.05
 74
     0
 49
-0.5
 74
     0
  0
ENDTAB
  0
TABLE
  2
LAYER
  5
2
330
0
100
AcDbSymbolTable
 70
     7
  0
LAYER
  5
10
330
2
100
AcDbSymbolTableRecord
100
AcDbLayerTableRecord
  2
0
 70
     0
 62
     7
  6
Continuous
370
    -3
390
F
347
46
348
0
  0
LAYER
  5
72
330
2
100
AcDbSymbolTableRecord
100
AcDbLayerTableRecord
  2
AM_6
 70
     0
 62
    -2
  6
Continuous
370
    35
390
F
347
46
348
0
  0
LAYER
  5
9E
330
2
100
AcDbSymbolTableRecord
100
AcDbLayerTableRecord
  2
AM_9
 70
     0
 62
     6
  6
Dashed
370
    25
390
F
347
46
348
0
  0
LAYER
  5
A5
330
2
100
AcDbSymbolTableRecord
100
AcDbLayerTableRecord
  2
AM_5
 70
     0
 62
     3
  6
Continuous
370
    25
390
F
347
46
348
0
  0
LAYER
  5
AC
330
2
100
AcDbSymbolTableRecord
100
AcDbLayerTableRecord
  2
AM_7
 70
     0
 62
     7
  6
Center
370
    25
390
F
347
46
348
0
  0
LAYER
  5
AE
330
2
100
AcDbSymbolTableRecord
100
AcDbLayerTableRecord
  2
AM_4
 70
     0
 62
     7
  6
Continuous
370
    50
390
F
347
46
348
0
  0
LAYER
  5
281
330
2
100
AcDbSymbolTableRecord
100
AcDbLayerTableRecord
  2
ConnectionPoints
 70
     0
 62
     7
  6
Continuous
370
    50
390
F
347
46
348
0
  0
ENDTAB
  0
TABLE
  2
STYLE
  5
3
330
0
100
AcDbSymbolTable
 70
     1
  0
STYLE
  5
11
330
3
100
AcDbSymbolTableRecord
100
AcDbTextStyleTableRecord
  2
Standard
 70
     0
 40
0.0
 41
1.0
 50
0.0
 71
     0
 42
0.2
  3
txt
  4

  0
ENDTAB
  0
TABLE
  2
VIEW
  5
6
330
0
100
AcDbSymbolTable
 70
     0
  0
ENDTAB
  0
TABLE
  2
UCS
  5
7
330
0
100
AcDbSymbolTable
 70
     0
  0
ENDTAB
  0
TABLE
  2
APPID
  5
9
330
0
100
AcDbSymbolTable
 70
     1
  0
APPID
  5
12
330
9
100
AcDbSymbolTableRecord
100
AcDbRegAppTableRecord
  2
ACAD
 70
     0
  0
ENDTAB
  0
TABLE
  2
DIMSTYLE
  5
A
330
0
100
AcDbSymbolTable
 70
     1
100
AcDbDimStyleTable
  0
DIMSTYLE
105
27
330
A
100
AcDbSymbolTableRecord
100
AcDbDimStyleTableRecord
  2
Standard
 70
     0
178
     0
340
11
  0
ENDTAB
  0
TABLE
  2
BLOCK_RECORD
  5
1
330
0
100
AcDbSymbolTable
 70
     9
  0
BLOCK_RECORD
  5
1F
330
1
100
AcDbSymbolTableRecord
100
AcDbBlockTableRecord
  2
*Model_Space
340
22
 70
     0
280
     1
281
     0
  0
BLOCK_RECORD
  5
1B
330
1
100
AcDbSymbolTableRecord
100
AcDbBlockTableRecord
  2
*Paper_Space
340
1E
 70
     0
280
     1
281
     0
  0
BLOCK_RECORD
  5
23
330
1
100
AcDbSymbolTableRecord
100
AcDbBlockTableRecord
  2
*Paper_Space0
340
26
 70
     0
280
     1
281
     0
  0
BLOCK_RECORD
  5
6E
330
1
100
AcDbSymbolTableRecord
100
AcDbBlockTableRecord
  2
1_072363_2
340
0
102
{BLKREFS
331
6F
102
}
 70
     0
280
     1
281
     0
  0
BLOCK_RECORD
  5
91
330
1
100
AcDbSymbolTableRecord
100
AcDbBlockTableRecord
  2
2_405015E_Inch_1_0_in_072363_2
340
0
102
{BLKREFS
331
92
102
}
 70
     0
280
     1
281
     0
  0
BLOCK_RECORD
  5
D6
330
1
100
AcDbSymbolTableRecord
100
AcDbBlockTableRecord
  2
3_405015E_Inch_2_0_in_072363_2
340
0
102
{BLKREFS
331
D7
102
}
 70
     0
280
     1
281
     0
  0
BLOCK_RECORD
  5
115
330
1
100
AcDbSymbolTableRecord
100
AcDbBlockTableRecord
  2
4_ASME_B18_3_10_1_0_in_072363_2
340
0
102
{BLKREFS
331
116
102
}
 70
     0
280
     1
281
     0
  0
BLOCK_RECORD
  5
13E
330
1
100
AcDbSymbolTableRecord
100
AcDbBlockTableRecord
  2
5_ASME_B18_3_10_2_0_in_072363_2
340
0
102
{BLKREFS
331
13F
102
}
 70
     0
280
     1
281
     0
  0
BLOCK_RECORD
  5
167
330
1
100
AcDbSymbolTableRecord
100
AcDbBlockTableRecord
  2
6_070885LW_0_in_072363_2
340
0
102
{BLKREFS
331
168
102
}
 70
     0
280
     1
281
     0
  0
BLOCK_RECORD
  5
19D
330
1
100
AcDbSymbolTableRecord
100
AcDbBlockTableRecord
  2
7_070885I_0_in_072363_2
340
0
102
{BLKREFS
331
19E
102
}
 70
     0
280
     1
281
     0
  0
BLOCK_RECORD
  5
22A
330
1
100
AcDbSymbolTableRecord
100
AcDbBlockTableRecord
  2
8_B072363_0_in_072363_2
340
0
102
{BLKREFS
331
22B
102
}
 70
     0
280
     1
281
     0
  0
ENDTAB
  0
ENDSEC
  0
SECTION
  2
BLOCKS
  0
BLOCK
  5
20
330
1F
100
AcDbEntity
  8
0
100
AcDbBlockBegin
  2
*Model_Space
 70
     0
 10
0.0
 20
0.0
 30
0.0
  3
*Model_Space
  1

  0
ENDBLK
  5
21
330
1F
100
AcDbEntity
  8
0
100
AcDbBlockEnd
  0
BLOCK
  5
1C
330
1B
100
AcDbEntity
 67
     1
  8
0
100
AcDbBlockBegin
  2
*Paper_Space
 70
     0
 10
0.0
 20
0.0
 30
0.0
  3
*Paper_Space
  1

  0
ENDBLK
  5
1D
330
1B
100
AcDbEntity
 67
     1
  8
0
100
AcDbBlockEnd
  0
BLOCK
  5
24
330
23
100
AcDbEntity
  8
0
100
AcDbBlockBegin
  2
*Paper_Space0
 70
     0
 10
0.0
 20
0.0
 30
0.0
  3
*Paper_Space0
  1

  0
ENDBLK
  5
25
330
23
100
AcDbEntity
  8
0
100
AcDbBlockEnd
  0
BLOCK
  5
70
330
6E
100
AcDbEntity
  8
0
100
AcDbBlockBegin
  2
1_072363_2
 70
     2
 10
0.0
 20
0.0
 30
0.0
  3
1_072363_2
  1

  0
ATTDEF
  5
73
330
6E
100
AcDbEntity
  8
AM_6
100
AcDbText
 10
7.045000009536743
 20
2.625
 30
0.0
 40
0.5
  1
Steel IMPERIAL-HD Narrow Piloted Flange 1-7/16 thru 2-1/4 Inch Bore
100
AcDbAttributeDefinition
  3

  2
NN
 70
     8
280
     0
  0
ATTDEF
  5
74
330
6E
100
AcDbEntity
  8
AM_6
100
AcDbText
 10
7.045000009536743
 20
2.125
 30
0.0
 40
0.5
  1
-Steal Heavy Duty Imperial Piloted Flange Bearing-inch-107-204
100
AcDbAttributeDefinition
  3

  2
NT
 70
     8
280
     0
  0
ATTDEF
  5
75
330
6E
100
AcDbEntity
  8
AM_6
100
AcDbText
 10
7.045000009536743
 20
1.625
 30
0.0
 40
0.5
  1
072363
100
AcDbAttributeDefinition
  3

  2
NB
 70
     8
280
     0
  0
ATTDEF
  5
76
330
6E
100
AcDbEntity
  8
AM_6
100
AcDbText
 10
7.045000009536743
 20
1.125
 30
0.0
 40
0.5
  1
$PN.
100
AcDbAttributeDefinition
  3

  2
NBSYN
 70
     8
280
     0
  0
ATTDEF
  5
77
330
6E
100
AcDbEntity
  8
AM_6
100
AcDbText
 10
7.045000009536743
 20
0.625
 30
0.0
 40
0.5
  1
072363
100
AcDbAttributeDefinition
  3

  2
LINA
 70
     8
280
     0
  0
ATTDEF
  5
78
330
6E
100
AcDbEntity
  8
AM_6
100
AcDbText
 10
7.045000009536743
 20
0.125
 30
0.0
 40
0.5
  1
1-1/2
100
AcDbAttributeDefinition
  3

  2
SS
 70
     8
280
     0
  0
ATTDEF
  5
79
330
6E
100
AcDbEntity
  8
AM_6
100
AcDbText
 10
7.045000009536743
 20
-0.375
 30
0.0
 40
0.5
  1
072363
100
AcDbAttributeDefinition
  3

  2
PN
 70
     8
280
     0
  0
ATTDEF
  5
7A
330
6E
100
AcDbEntity
  8
AM_6
100
AcDbText
 10
7.045000009536743
 20
-0.875
 30
0.0
 40
0.5
  1
Expansion
100
AcDbAttributeDefinition
  3

  2
TYPE
 70
     8
280
     0
  0
ATTDEF
  5
7B
330
6E
100
AcDbEntity
  8
AM_6
100
AcDbText
 10
7.045000009536743
 20
-1.375
 30
0.0
 40
0.5
  1
Expansion
100
AcDbAttributeDefinition
  3

  2
EF
 70
     8
280
     0
  0
ATTDEF
  5
7C
330
6E
100
AcDbEntity
  8
AM_6
100
AcDbText
 10
7.045000009536743
 20
-1.875
 30
0.0
 40
0.5
  1
SFCN-IP-108RE
100
AcDbAttributeDefinition
  3

  2
DESCRIPTION
 70
     8
280
     0
  0
ATTDEF
  5
7D
330
6E
100
AcDbEntity
  8
AM_6
100
AcDbText
 10
7.045000009536743
 20
-2.375
 30
0.0
 40
0.5
  1
Contact Seal
100
AcDbAttributeDefinition
  3

  2
ST
 70
     8
280
     0
  0
ATTDEF
  5
7E
330
6E
100
AcDbEntity
  8
AM_6
100
AcDbText
 10
7.045000009536743
 20
-2.875
 30
0.0
 40
0.5
  1
2.63
100
AcDbAttributeDefinition
  3

  2
A
 70
     8
280
     0
  0
ATTDEF
  5
7F
330
6E
100
AcDbEntity
  8
AM_6
100
AcDbText
 10
7.045000009536743
 20
-3.375
 30
0.0
 40
0.5
  1
5.25
100
AcDbAttributeDefinition
  3

  2
B
 70
     8
280
     0
  0
ATTDEF
  5
80
330
6E
100
AcDbEntity
  8
AM_6
100
AcDbText
 10
7.045000009536743
 20
-3.875
 30
0.0
 40
0.5
  1
1.93
100
AcDbAttributeDefinition
  3

  2
C
 70
     8
280
     0
  0
ATTDEF
  5
81
330
6E
100
AcDbEntity
  8
AM_6
100
AcDbText
 10
7.045000009536743
 20
-4.375
 30
0.0
 40
0.5
  1
3.09
100
AcDbAttributeDefinition
  3

  2
D
 70
     8
280
     0
  0
ATTDEF
  5
82
330
6E
100
AcDbEntity
  8
AM_6
100
AcDbText
 10
7.045000009536743
 20
-4.875
 30
0.0
 40
0.5
  1
4.38
100
AcDbAttributeDefinition
  3

  2
DD
 70
     8
280
     0
  0
ATTDEF
  5
83
330
6E
100
AcDbEntity
  8
AM_6
100
AcDbText
 10
7.045000009536743
 20
-5.375
 30
0.0
 40
0.5
  1
0
100
AcDbAttributeDefinition
  3

  2
E
 70
     8
280
     0
  0
ATTDEF
  5
84
330
6E
100
AcDbEntity
  8
AM_6
100
AcDbText
 10
7.045000009536743
 20
-5.875
 30
0.0
 40
0.5
  1
0.4375
100
AcDbAttributeDefinition
  3

  2
F
 70
     8
280
     0
  0
ATTDEF
  5
85
330
6E
100
AcDbEntity
  8
AM_6
100
AcDbText
 10
7.045000009536743
 20
-6.375
 30
0.0
 40
0.5
  1
1.84
100
AcDbAttributeDefinition
  3

  2
G
 70
     8
280
     0
  0
ATTDEF
  5
86
330
6E
100
AcDbEntity
  8
AM_6
100
AcDbText
 10
7.045000009536743
 20
-6.875
 30
0.0
 40
0.5
  1
0.50
100
AcDbAttributeDefinition
  3

  2
H
 70
     8
280
     0
  0
ATTDEF
  5
87
330
6E
100
AcDbEntity
  8
AM_6
100
AcDbText
 10
7.045000009536743
 20
-7.375
 30
0.0
 40
0.5
  1
3.625
100
AcDbAttributeDefinition
  3

  2
K
 70
     8
280
     0
  0
ATTDEF
  5
88
330
6E
100
AcDbEntity
  8
AM_6
100
AcDbText
 10
7.045000009536743
 20
-7.875
 30
0.0
 40
0.5
  1
2.72
100
AcDbAttributeDefinition
  3

  2
L
 70
     8
280
     0
  0
ATTDEF
  5
89
330
6E
100
AcDbEntity
  8
AM_6
100
AcDbText
 10
7.045000009536743
 20
-8.375
 30
0.0
 40
0.5
  1
0.4375
100
AcDbAttributeDefinition
  3

  2
M
 70
     8
280
     0
  0
ATTDEF
  5
8A
330
6E
100
AcDbEntity
  8
AM_6
100
AcDbText
 10
7.045000009536743
 20
-8.875
 30
0.0
 40
0.5
  1
2.78
100
AcDbAttributeDefinition
  3

  2
N
 70
     8
280
     0
  0
ATTDEF
  5
8B
330
6E
100
AcDbEntity
  8
AM_6
100
AcDbText
 10
7.045000009536743
 20
-9.375
 30
0.0
 40
0.5
  1
1.69
100
AcDbAttributeDefinition
  3

  2
P
 70
     8
280
     0
  0
ATTDEF
  5
8C
330
6E
100
AcDbEntity
  8
AM_6
100
AcDbText
 10
7.045000009536743
 20
-9.875
 30
0.0
 40
0.5
  1
0.94
100
AcDbAttributeDefinition
  3

  2
Q
 70
     8
280
     0
  0
ATTDEF
  5
8D
330
6E
100
AcDbEntity
  8
AM_6
100
AcDbText
 10
7.045000009536743
 20
-10.375
 30
0.0
 40
0.5
  1
0.19
100
AcDbAttributeDefinition
  3

  2
X
 70
     8
280
     0
  0
ATTDEF
  5
8E
330
6E
100
AcDbEntity
  8
AM_6
100
AcDbText
 10
7.045000009536743
 20
-10.875
 30
0.0
 40
0.5
  1
0.02
100
AcDbAttributeDefinition
  3

  2
Y
 70
     8
280
     0
  0
ATTDEF
  5
8F
330
6E
100
AcDbEntity
  8
AM_6
100
AcDbText
 10
7.045000009536743
 20
-11.375
 30
0.0
 40
0.5
  1
1.80
100
AcDbAttributeDefinition
  3

  2
Z
 70
     8
280
     0
  0
ATTDEF
  5
90
330
6E
100
AcDbEntity
  8
AM_6
100
AcDbText
 10
7.045000009536743
 20
-11.875
 30
0.0
 40
0.5
  1
baldor
100
AcDbAttributeDefinition
  3

  2
COMPANY
 70
     8
280
     0
  0
INSERT
  5
92
330
6E
100
AcDbEntity
  8
0
100
AcDbBlockReference
  2
2_405015E_Inch_1_0_in_072363_2
 10
0.0
 20
0.0
 30
0.0
  0
INSERT
  5
D7
330
6E
100
AcDbEntity
  8
0
100
AcDbBlockReference
  2
3_405015E_Inch_2_0_in_072363_2
 10
0.0
 20
0.0
 30
0.0
  0
INSERT
  5
116
330
6E
100
AcDbEntity
  8
0
100
AcDbBlockReference
  2
4_ASME_B18_3_10_1_0_in_072363_2
 10
0.0
 20
0.0
 30
0.0
  0
INSERT
  5
13F
330
6E
100
AcDbEntity
  8
0
100
AcDbBlockReference
  2
5_ASME_B18_3_10_2_0_in_072363_2
 10
0.0
 20
0.0
 30
0.0
  0
INSERT
  5
168
330
6E
100
AcDbEntity
  8
0
100
AcDbBlockReference
  2
6_070885LW_0_in_072363_2
 10
0.0
 20
0.0
 30
0.0
  0
INSERT
  5
19E
330
6E
100
AcDbEntity
  8
0
100
AcDbBlockReference
  2
7_070885I_0_in_072363_2
 10
0.0
 20
0.0
 30
0.0
  0
INSERT
  5
22B
330
6E
100
AcDbEntity
  8
0
100
AcDbBlockReference
  2
8_B072363_0_in_072363_2
 10
0.0
 20
0.0
 30
0.0
  0
ENDBLK
  5
71
330
6E
100
AcDbEntity
  8
0
100
AcDbBlockEnd
  0
BLOCK
  5
93
330
91
100
AcDbEntity
  8
0
100
AcDbBlockBegin
  2
2_405015E_Inch_1_0_in_072363_2
 70
     2
 10
0.0
 20
0.0
 30
0.0
  3
2_405015E_Inch_1_0_in_072363_2
  1

  0
ATTDEF
  5
95
330
91
100
AcDbEntity
  8
AM_6
100
AcDbText
 10
4.550442429686938
 20
-1.684421482822759
 30
0.0
 40
0.5
  1
405015E -Inch
100
AcDbAttributeDefinition
  3

  2
NN
 70
     8
280
     0
  0
ATTDEF
  5
96
330
91
100
AcDbEntity
  8
AM_6
100
AcDbText
 10
4.550442429686938
 20
-2.184421482822759
 30
0.0
 40
0.5
  1
Grease Fitting
100
AcDbAttributeDefinition
  3

  2
NT
 70
     8
280
     0
  0
ATTDEF
  5
97
330
91
100
AcDbEntity
  8
AM_6
100
AcDbText
 10
4.550442429686938
 20
-2.684421482822759
 30
0.0
 40
0.5
  1
405015E-Inch
100
AcDbAttributeDefinition
  3

  2
NB
 70
     8
280
     0
  0
ATTDEF
  5
98
330
91
100
AcDbEntity
  8
AM_6
100
AcDbText
 10
4.550442429686938
 20
-3.184421482822759
 30
0.0
 40
0.5
  1
$MN.-Inch
100
AcDbAttributeDefinition
  3

  2
NBSYN
 70
     8
280
     0
  0
ATTDEF
  5
99
330
91
100
AcDbEntity
  8
AM_6
100
AcDbText
 10
4.550442429686938
 20
-3.684421482822759
 30
0.0
 40
0.5
  1
405015E
100
AcDbAttributeDefinition
  3

  2
LINA
 70
     8
280
     0
  0
ATTDEF
  5
9A
330
91
100
AcDbEntity
  8
AM_6
100
AcDbText
 10
4.550442429686938
 20
-4.184421482822759
 30
0.0
 40
0.5
  1
405015E
100
AcDbAttributeDefinition
  3

  2
MN
 70
     8
280
     0
  0
ATTDEF
  5
9B
330
91
100
AcDbEntity
  8
AM_6
100
AcDbText
 10
4.550442429686938
 20
-4.684421482822759
 30
0.0
 40
0.5
  1
1/8 x 27PTF
100
AcDbAttributeDefinition
  3

  2
T
 70
     8
280
     0
  0
ATTDEF
  5
9C
330
91
100
AcDbEntity
  8
AM_6
100
AcDbText
 10
4.550442429686938
 20
-5.184421482822759
 30
0.0
 40
0.5
  1
baldor
100
AcDbAttributeDefinition
  3

  2
COMPANY
 70
     8
280
     0
  0
LINE
  5
9F
330
91
100
AcDbEntity
  8
AM_9
100
AcDbLine
 10
-0.7175517108784267
 20
-1.684421482822759
 30
0.0
 11
-0.7689030710797438
 21
-1.692101598278088
 31
0.0
  0
LINE
  5
A0
330
91
100
AcDbEntity
  8
AM_9
100
AcDbLine
 10
-0.4495575703130624
 20
-1.928352096294254
 30
0.0
 11
-0.4572376857683916
 21
-1.877000736092937
 31
0.0
  0
LINE
  5
A1
330
91
100
AcDbEntity
  8
AM_9
100
AcDbLine
 10
-0.4572376857683916
 20
-1.877000736092937
 30
0.0
 11
-0.7175517108784267
 21
-1.684421482822759
 31
0.0
  0
LINE
  5
A2
330
91
100
AcDbEntity
  8
AM_9
100
AcDbLine
 10
-0.7689030710797438
 20
-1.692101598278088
 30
0.0
 11
-0.9104081355145113
 21
-1.871381736481612
 31
0.0
  0
LINE
  5
A3
330
91
100
AcDbEntity
  8
AM_9
100
AcDbLine
 10
-0.5795918644854882
 20
-2.116118263518387
 30
0.0
 11
-0.4495575703130624
 21
-1.928352096294254
 31
0.0
  0
LINE
  5
A4
330
91
100
AcDbEntity
  8
AM_9
100
AcDbLine
 10
-0.4495575703130624
 20
-1.928352096294254
 30
0.0
 11
-0.7689030710797438
 21
-1.692101598278088
 31
0.0
  0
LINE
  5
A6
330
91
100
AcDbEntity
  8
AM_5
100
AcDbLine
 10
-0.5710863302915042
 20
-2.041395242648429
 30
0.0
 11
-0.4572376857683915
 21
-1.877000736092937
 31
0.0
  0
LINE
  5
A7
330
91
100
AcDbEntity
  8
AM_5
100
AcDbLine
 10
-0.5795918644854882
 20
-2.116118263518388
 30
0.0
 11
-0.5710863302915042
 21
-2.041395242648429
 31
0.0
  0
LINE
  5
A8
330
91
100
AcDbEntity
  8
AM_5
100
AcDbLine
 10
-0.8700366590229595
 20
-1.820233009658323
 30
0.0
 11
-0.5424930053651654
 21
-2.062548467721486
 31
0.0
  0
LINE
  5
A9
330
91
100
AcDbEntity
  8
AM_5
100
AcDbLine
 10
-0.8414433340966208
 20
-1.84138623473138
 30
0.0
 11
-0.7175517108784268
 21
-1.684421482822759
 31
0.0
  0
LINE
  5
AA
330
91
100
AcDbEntity
  8
AM_5
100
AcDbLine
 10
-0.9104081355145108
 20
-1.871381736481612
 30
0.0
 11
-0.8414433340966208
 21
-1.84138623473138
 31
0.0
  0
LINE
  5
AD
330
91
100
AcDbEntity
  8
AM_7
100
AcDbLine
 10
-0.9870579538957442
 20
-2.320945579059078
 30
0.0
 11
-0.5683631147247266
 21
-1.754985658524456
 31
0.0
  0
LINE
  5
AF
330
91
100
AcDbEntity
  8
AM_4
100
AcDbLine
 10
-0.9513327183042525
 20
-2.096106286358864
 30
0.0
 11
-0.9691748279280176
 21
-2.120223896608919
 31
0.0
  0
LINE
  5
B0
330
91
100
AcDbEntity
  8
AM_4
100
AcDbLine
 10
-0.800351556177633
 20
-2.245118663975274
 30
0.0
 11
-0.7825094465538681
 21
-2.221001053725219
 31
0.0
  0
LINE
  5
B1
330
91
100
AcDbEntity
  8
AM_4
100
AcDbLine
 10
-0.5473300006967182
 20
-2.151264685261508
 30
0.0
 11
-0.569142425260016
 21
-2.123848716006619
 31
0.0
  0
LINE
  5
B2
330
91
100
AcDbEntity
  8
AM_4
100
AcDbLine
 10
-0.6286161240058992
 20
-2.204240750173469
 30
0.0
 11
-0.5960180255885072
 21
-2.217077463735927
 31
0.0
  0
LINE
  5
B3
330
91
100
AcDbEntity
  8
AM_4
100
AcDbLine
 10
-0.6286161240058992
 20
-2.204240750173469
 30
0.0
 11
-0.9803312734858667
 21
-1.94404331816023
 31
0.0
  0
LINE
  5
B4
330
91
100
AcDbEntity
  8
AM_4
100
AcDbLine
 10
-0.9208575747399834
 20
-1.86365128399338
 30
0.0
 11
-0.9534556731573754
 21
-1.850814570430922
 31
0.0
  0
LINE
  5
B5
330
91
100
AcDbEntity
  8
AM_4
100
AcDbLine
 10
-1.002143698049164
 20
-1.916627348905341
 30
0.0
 11
-0.9803312734858667
 21
-1.94404331816023
 31
0.0
  0
LINE
  5
B6
330
91
100
AcDbEntity
  8
AM_4
100
AcDbLine
 10
-0.7825094465538681
 20
-2.221001053725219
 30
0.0
 11
-0.7522207831848581
 21
-2.20329645136916
 31
0.0
  0
LINE
  5
B7
330
91
100
AcDbEntity
  8
AM_4
100
AcDbLine
 10
-0.9432645590662194
 20
-2.061963045742643
 30
0.0
 11
-0.9513327183042525
 21
-2.096106286358864
 31
0.0
  0
LINE
  5
B8
330
91
100
AcDbEntity
  8
AM_4
100
AcDbLine
 10
-0.7825094465538681
 20
-2.221001053725219
 30
0.0
 11
-0.9513327183042525
 21
-2.096106286358864
 31
0.0
  0
LINE
  5
B9
330
91
100
AcDbEntity
  8
AM_4
100
AcDbLine
 10
-0.8854815162931292
 20
-2.356286474200023
 30
0.0
 11
-0.8119181651751081
 21
-2.311195994099148
 31
0.0
  0
LINE
  5
BA
330
91
100
AcDbEntity
  8
AM_4
100
AcDbLine
 10
-1.028976657425602
 20
-2.150617007485264
 30
0.0
 11
-1.050571224300994
 21
-2.234153782051349
 31
0.0
  0
LINE
  5
BB
330
91
100
AcDbEntity
  8
AM_4
100
AcDbLine
 10
-0.8854815162931292
 20
-2.356286474200023
 30
0.0
 11
-1.050571224300994
 21
-2.234153782051349
 31
0.0
  0
LINE
  5
BC
330
91
100
AcDbEntity
  8
AM_4
100
AcDbLine
 10
-0.9691748279280176
 20
-2.120223896608919
 30
0.0
 11
-1.028976657425602
 21
-2.150617007485264
 31
0.0
  0
LINE
  5
BD
330
91
100
AcDbEntity
  8
AM_4
100
AcDbLine
 10
-0.8119181651751081
 20
-2.311195994099148
 30
0.0
 11
-0.800351556177633
 21
-2.245118663975274
 31
0.0
  0
LINE
  5
BE
330
91
100
AcDbEntity
  8
AM_4
100
AcDbLine
 10
-0.8119181651751081
 20
-2.311195994099148
 30
0.0
 11
-1.028976657425602
 21
-2.150617007485264
 31
0.0
  0
LINE
  5
BF
330
91
100
AcDbEntity
  8
AM_4
100
AcDbLine
 10
-0.800351556177633
 20
-2.245118663975274
 30
0.0
 11
-0.9691748279280176
 21
-2.120223896608919
 31
0.0
  0
LINE
  5
C0
330
91
100
AcDbEntity
  8
AM_4
100
AcDbLine
 10
-0.7522207831848581
 20
-2.20329645136916
 30
0.0
 11
-0.6766645738970274
 21
-2.191480789680189
 31
0.0
  0
LINE
  5
C1
330
91
100
AcDbEntity
  8
AM_4
100
AcDbLine
 10
-0.9540718440264924
 20
-1.986256023512984
 30
0.0
 11
-0.9432645590662194
 21
-2.061963045742643
 31
0.0
  0
LINE
  5
C2
330
91
100
AcDbEntity
  8
AM_4
100
AcDbLine
 10
-0.7522207831848581
 20
-2.20329645136916
 30
0.0
 11
-0.9432645590662194
 21
-2.061963045742643
 31
0.0
  0
LINE
  5
C3
330
91
100
AcDbEntity
  8
AM_4
100
AcDbLine
 10
-0.6766645738970274
 20
-2.191480789680189
 30
0.0
 11
-0.6326357257142416
 21
-2.201267065236174
 31
0.0
  0
LINE
  5
C4
330
91
100
AcDbEntity
  8
AM_4
100
AcDbLine
 10
-0.9763116717775242
 20
-1.947017003097524
 30
0.0
 11
-0.9540718440264924
 21
-1.986256023512984
 31
0.0
  0
LINE
  5
C5
330
91
100
AcDbEntity
  8
AM_4
100
AcDbLine
 10
-0.6766645738970274
 20
-2.191480789680189
 30
0.0
 11
-0.9540718440264924
 21
-1.986256023512984
 31
0.0
  0
LWPOLYLINE
  5
C6
330
91
100
AcDbEntity
  8
AM_4
100
AcDbPolyline
 90
        4
 70
     0
 43
0.0
 10
-0.7449999999999997
 20
-1.993749999999999
 10
-0.7069334791300993
 20
-2.023674766690703
 10
-0.6704414001841674
 20
-2.055727744533806
 10
-0.6488614188118824
 20
-2.076152156553861
  0
LINE
  5
C7
330
91
100
AcDbEntity
  8
AM_4
100
AcDbLine
 10
-1.002143698049164
 20
-1.916627348905341
 30
0.0
 11
-0.9534556731573754
 21
-1.850814570430922
 31
0.0
  0
LWPOLYLINE
  5
C8
330
91
100
AcDbEntity
  8
AM_4
100
AcDbPolyline
 90
        3
 70
     0
 43
0.0
 10
-0.9567708259186295
 20
-1.961473241105379
 10
-0.9807302483694871
 20
-1.94077102143002
 10
-1.002143698049164
 20
-1.916627348905341
  0
LINE
  5
C9
330
91
100
AcDbEntity
  8
AM_4
100
AcDbLine
 10
-0.9006122799340001
 20
-1.991739877612987
 30
0.0
 11
-0.8519242550422111
 21
-1.925927099138568
 31
0.0
  0
LWPOLYLINE
  5
CA
330
91
100
AcDbEntity
  8
AM_4
100
AcDbPolyline
 90
        3
 70
     0
 43
0.0
 10
-0.9534556731573754
 20
-1.850814570430922
 10
-0.9242301171450895
 20
-1.864159728945378
 10
-0.8972971271727461
 20
-1.88108120693853
  0
LINE
  5
CB
330
91
100
AcDbEntity
  8
AM_4
100
AcDbLine
 10
-0.6975494437036714
 20
-2.14196493502828
 30
0.0
 11
-0.6488614188118824
 21
-2.076152156553861
 31
0.0
  0
LWPOLYLINE
  5
CC
330
91
100
AcDbEntity
  8
AM_4
100
AcDbPolyline
 90
        3
 70
     0
 43
0.0
 10
-0.5960180255885072
 20
-2.217077463735927
 10
-0.6252435816007932
 20
-2.20373230522147
 10
-0.6521765715731364
 20
-2.186810827228319
  0
LINE
  5
CD
330
91
100
AcDbEntity
  8
AM_4
100
AcDbLine
 10
-0.5960180255885072
 20
-2.217077463735927
 30
0.0
 11
-0.5473300006967182
 21
-2.151264685261508
 31
0.0
  0
LWPOLYLINE
  5
CE
330
91
100
AcDbEntity
  8
AM_4
100
AcDbPolyline
 90
        3
 70
     0
 43
0.0
 10
-0.5927028728272532
 20
-2.106418793061469
 10
-0.5687434503763955
 20
-2.127121012736829
 10
-0.5473300006967182
 20
-2.151264685261508
  0
LWPOLYLINE
  5
CF
330
91
100
AcDbEntity
  8
AM_4
100
AcDbPolyline
 90
        3
 70
     0
 43
0.0
 10
-0.6488614188118824
 20
-2.076152156553861
 10
-0.6196358627995965
 20
-2.089497315068318
 10
-0.5927028728272532
 20
-2.106418793061469
  0
LWPOLYLINE
  5
D0
330
91
100
AcDbEntity
  8
AM_4
100
AcDbPolyline
 90
        3
 70
     0
 43
0.0
 10
-0.8972971271727461
 20
-1.88108120693853
 10
-0.8733377047218885
 20
-1.901783426613889
 10
-0.8519242550422111
 20
-1.925927099138568
  0
LWPOLYLINE
  5
D1
330
91
100
AcDbEntity
  8
AM_4
100
AcDbPolyline
 90
        3
 70
     0
 43
0.0
 10
-0.8519242550422111
 20
-1.925927099138568
 10
-0.7974299726500051
 20
-1.957965958291231
 10
-0.7449999999999997
 20
-1.993749999999999
  0
LWPOLYLINE
  5
D2
330
91
100
AcDbEntity
  8
AM_4
100
AcDbPolyline
 90
        3
 70
     0
 43
0.0
 10
-0.8044736987458828
 20
-2.074142034166849
 10
-0.8538159757255317
 20
-2.034661682314578
 10
-0.9006122799340001
 20
-1.991739877612987
  0
LWPOLYLINE
  5
D3
330
91
100
AcDbEntity
  8
AM_4
100
AcDbPolyline
 90
        3
 70
     0
 43
0.0
 10
-0.9006122799340001
 20
-1.991739877612987
 10
-0.929837835946286
 20
-1.978394719098531
 10
-0.9567708259186295
 20
-1.961473241105379
  0
LWPOLYLINE
  5
D4
330
91
100
AcDbEntity
  8
AM_4
100
AcDbPolyline
 90
        3
 70
     0
 43
0.0
 10
-0.6521765715731364
 20
-2.186810827228319
 10
-0.676135994023994
 20
-2.166108607552959
 10
-0.6975494437036714
 20
-2.14196493502828
  0
LWPOLYLINE
  5
D5
330
91
100
AcDbEntity
  8
AM_4
100
AcDbPolyline
 90
        4
 70
     0
 43
0.0
 10
-0.6975494437036714
 20
-2.14196493502828
 10
-0.7233939119203125
 20
-2.12730493281163
 10
-0.7646014499986469
 20
-2.101865767110105
 10
-0.8044736987458828
 20
-2.074142034166849
  0
ENDBLK
  5
94
330
91
100
AcDbEntity
  8
0
100
AcDbBlockEnd
  0
BLOCK
  5
D8
330
D6
100
AcDbEntity
  8
0
100
AcDbBlockBegin
  2
3_405015E_Inch_2_0_in_072363_2
 70
     2
 10
0.0
 20
0.0
 30
0.0
  3
3_405015E_Inch_2_0_in_072363_2
  1

  0
ATTDEF
  5
DA
330
D6
100
AcDbEntity
  8
AM_6
100
AcDbText
 10
4.550442429686938
 20
2.356286474200024
 30
0.0
 40
0.5
  1
405015E -Inch
100
AcDbAttributeDefinition
  3

  2
NN
 70
     8
280
     0
  0
ATTDEF
  5
DB
330
D6
100
AcDbEntity
  8
AM_6
100
AcDbText
 10
4.550442429686938
 20
1.856286474200024
 30
0.0
 40
0.5
  1
Grease Fitting
100
AcDbAttributeDefinition
  3

  2
NT
 70
     8
280
     0
  0
ATTDEF
  5
DC
330
D6
100
AcDbEntity
  8
AM_6
100
AcDbText
 10
4.550442429686938
 20
1.356286474200024
 30
0.0
 40
0.5
  1
405015E-Inch
100
AcDbAttributeDefinition
  3

  2
NB
 70
     8
280
     0
  0
ATTDEF
  5
DD
330
D6
100
AcDbEntity
  8
AM_6
100
AcDbText
 10
4.550442429686938
 20
0.8562864742000236
 30
0.0
 40
0.5
  1
$MN.-Inch
100
AcDbAttributeDefinition
  3

  2
NBSYN
 70
     8
280
     0
  0
ATTDEF
  5
DE
330
D6
100
AcDbEntity
  8
AM_6
100
AcDbText
 10
4.550442429686938
 20
0.3562864742000236
 30
0.0
 40
0.5
  1
405015E
100
AcDbAttributeDefinition
  3

  2
LINA
 70
     8
280
     0
  0
ATTDEF
  5
DF
330
D6
100
AcDbEntity
  8
AM_6
100
AcDbText
 10
4.550442429686938
 20
-0.1437135257999764
 30
0.0
 40
0.5
  1
405015E
100
AcDbAttributeDefinition
  3

  2
MN
 70
     8
280
     0
  0
ATTDEF
  5
E0
330
D6
100
AcDbEntity
  8
AM_6
100
AcDbText
 10
4.550442429686938
 20
-0.6437135257999764
 30
0.0
 40
0.5
  1
1/8 x 27PTF
100
AcDbAttributeDefinition
  3

  2
T
 70
     8
280
     0
  0
ATTDEF
  5
E1
330
D6
100
AcDbEntity
  8
AM_6
100
AcDbText
 10
4.550442429686938
 20
-1.143713525799976
 30
0.0
 40
0.5
  1
baldor
100
AcDbAttributeDefinition
  3

  2
COMPANY
 70
     8
280
     0
  0
LINE
  5
E2
330
D6
100
AcDbEntity
  8
AM_9
100
AcDbLine
 10
-0.7175517108784256
 20
1.68442148282276
 30
0.0
 11
-0.457237685768391
 21
1.877000736092939
 31
0.0
  0
LINE
  5
E3
330
D6
100
AcDbEntity
  8
AM_9
100
AcDbLine
 10
-0.457237685768391
 20
1.877000736092939
 30
0.0
 11
-0.449557570313062
 21
1.928352096294256
 31
0.0
  0
LINE
  5
E4
330
D6
100
AcDbEntity
  8
AM_9
100
AcDbLine
 10
-0.7689030710797428
 20
1.692101598278089
 30
0.0
 11
-0.7175517108784256
 21
1.68442148282276
 31
0.0
  0
LINE
  5
E5
330
D6
100
AcDbEntity
  8
AM_9
100
AcDbLine
 10
-0.7689030710797428
 20
1.692101598278089
 30
0.0
 11
-0.449557570313062
 21
1.928352096294256
 31
0.0
  0
LINE
  5
E6
330
D6
100
AcDbEntity
  8
AM_9
100
AcDbLine
 10
-0.449557570313062
 20
1.928352096294256
 30
0.0
 11
-0.5795918644854884
 21
2.116118263518389
 31
0.0
  0
LINE
  5
E7
330
D6
100
AcDbEntity
  8
AM_9
100
AcDbLine
 10
-0.9104081355145107
 20
1.871381736481612
 30
0.0
 11
-0.7689030710797428
 21
1.692101598278089
 31
0.0
  0
LINE
  5
E8
330
D6
100
AcDbEntity
  8
AM_5
100
AcDbLine
 10
-0.8414433340966202
 20
1.841386234731381
 30
0.0
 11
-0.7175517108784256
 21
1.68442148282276
 31
0.0
  0
LINE
  5
E9
330
D6
100
AcDbEntity
  8
AM_5
100
AcDbLine
 10
-0.9104081355145104
 20
1.871381736481612
 30
0.0
 11
-0.8414433340966202
 21
1.841386234731381
 31
0.0
  0
LINE
  5
EA
330
D6
100
AcDbEntity
  8
AM_5
100
AcDbLine
 10
-0.5424930053651656
 20
2.062548467721487
 30
0.0
 11
-0.8700366590229588
 21
1.820233009658324
 31
0.0
  0
LINE
  5
EB
330
D6
100
AcDbEntity
  8
AM_5
100
AcDbLine
 10
-0.5710863302915042
 20
2.041395242648431
 30
0.0
 11
-0.457237685768391
 21
1.877000736092939
 31
0.0
  0
LINE
  5
EC
330
D6
100
AcDbEntity
  8
AM_5
100
AcDbLine
 10
-0.5795918644854883
 20
2.116118263518388
 30
0.0
 11
-0.5710863302915042
 21
2.041395242648431
 31
0.0
  0
LINE
  5
ED
330
D6
100
AcDbEntity
  8
AM_7
100
AcDbLine
 10
-0.9870579538957454
 20
2.320945579059078
 30
0.0
 11
-0.5683631147247256
 21
1.754985658524458
 31
0.0
  0
LINE
  5
EE
330
D6
100
AcDbEntity
  8
AM_4
100
AcDbLine
 10
-0.7825094465538688
 20
2.22100105372522
 30
0.0
 11
-0.8003515561776339
 21
2.245118663975274
 31
0.0
  0
LINE
  5
EF
330
D6
100
AcDbEntity
  8
AM_4
100
AcDbLine
 10
-0.9691748279280178
 20
2.120223896608919
 30
0.0
 11
-0.9513327183042528
 21
2.096106286358864
 31
0.0
  0
LINE
  5
F0
330
D6
100
AcDbEntity
  8
AM_4
100
AcDbLine
 10
-0.9803312734858665
 20
1.94404331816023
 30
0.0
 11
-0.6286161240058997
 21
2.20424075017347
 31
0.0
  0
LINE
  5
F1
330
D6
100
AcDbEntity
  8
AM_4
100
AcDbLine
 10
-0.5960180255885078
 20
2.217077463735928
 30
0.0
 11
-0.6286161240058997
 21
2.20424075017347
 31
0.0
  0
LINE
  5
F2
330
D6
100
AcDbEntity
  8
AM_4
100
AcDbLine
 10
-0.9803312734858665
 20
1.94404331816023
 30
0.0
 11
-1.002143698049164
 21
1.916627348905341
 31
0.0
  0
LINE
  5
F3
330
D6
100
AcDbEntity
  8
AM_4
100
AcDbLine
 10
-0.5691424252600162
 20
2.123848716006621
 30
0.0
 11
-0.5473300006967186
 21
2.15126468526151
 31
0.0
  0
LINE
  5
F4
330
D6
100
AcDbEntity
  8
AM_4
100
AcDbLine
 10
-0.9534556731573748
 20
1.850814570430922
 30
0.0
 11
-0.9208575747399829
 21
1.863651283993381
 31
0.0
  0
LINE
  5
F5
330
D6
100
AcDbEntity
  8
AM_4
100
AcDbLine
 10
-0.9513327183042528
 20
2.096106286358864
 30
0.0
 11
-0.7825094465538687
 21
2.22100105372522
 31
0.0
  0
LINE
  5
F6
330
D6
100
AcDbEntity
  8
AM_4
100
AcDbLine
 10
-0.9513327183042528
 20
2.096106286358864
 30
0.0
 11
-0.9432645590662195
 21
2.061963045742644
 31
0.0
  0
LINE
  5
F7
330
D6
100
AcDbEntity
  8
AM_4
100
AcDbLine
 10
-0.7522207831848586
 20
2.203296451369161
 30
0.0
 11
-0.7825094465538687
 21
2.22100105372522
 31
0.0
  0
LINE
  5
F8
330
D6
100
AcDbEntity
  8
AM_4
100
AcDbLine
 10
-0.9691748279280178
 20
2.120223896608919
 30
0.0
 11
-0.8003515561776339
 21
2.245118663975274
 31
0.0
  0
LINE
  5
F9
330
D6
100
AcDbEntity
  8
AM_4
100
AcDbLine
 10
-0.8003515561776339
 20
2.245118663975274
 30
0.0
 11
-0.8119181651751091
 21
2.311195994099149
 31
0.0
  0
LINE
  5
FA
330
D6
100
AcDbEntity
  8
AM_4
100
AcDbLine
 10
-1.028976657425603
 20
2.150617007485264
 30
0.0
 11
-0.9691748279280178
 21
2.120223896608919
 31
0.0
  0
LINE
  5
FB
330
D6
100
AcDbEntity
  8
AM_4
100
AcDbLine
 10
-1.050571224300995
 20
2.234153782051349
 30
0.0
 11
-0.8854815162931303
 21
2.356286474200024
 31
0.0
  0
LINE
  5
FC
330
D6
100
AcDbEntity
  8
AM_4
100
AcDbLine
 10
-1.028976657425603
 20
2.150617007485264
 30
0.0
 11
-0.8119181651751091
 21
2.311195994099149
 31
0.0
  0
LINE
  5
FD
330
D6
100
AcDbEntity
  8
AM_4
100
AcDbLine
 10
-1.050571224300995
 20
2.234153782051349
 30
0.0
 11
-1.028976657425603
 21
2.150617007485264
 31
0.0
  0
LINE
  5
FE
330
D6
100
AcDbEntity
  8
AM_4
100
AcDbLine
 10
-0.8119181651751091
 20
2.311195994099149
 30
0.0
 11
-0.8854815162931303
 21
2.356286474200024
 31
0.0
  0
LINE
  5
FF
330
D6
100
AcDbEntity
  8
AM_4
100
AcDbLine
 10
-0.9432645590662195
 20
2.061963045742644
 30
0.0
 11
-0.7522207831848586
 21
2.203296451369161
 31
0.0
  0
LINE
  5
100
330
D6
100
AcDbEntity
  8
AM_4
100
AcDbLine
 10
-0.9432645590662195
 20
2.061963045742644
 30
0.0
 11
-0.9540718440264921
 21
1.986256023512984
 31
0.0
  0
LINE
  5
101
330
D6
100
AcDbEntity
  8
AM_4
100
AcDbLine
 10
-0.6766645738970279
 20
2.19148078968019
 30
0.0
 11
-0.7522207831848586
 21
2.203296451369161
 31
0.0
  0
LINE
  5
102
330
D6
100
AcDbEntity
  8
AM_4
100
AcDbLine
 10
-0.9540718440264921
 20
1.986256023512984
 30
0.0
 11
-0.6766645738970279
 21
2.19148078968019
 31
0.0
  0
LINE
  5
103
330
D6
100
AcDbEntity
  8
AM_4
100
AcDbLine
 10
-0.9540718440264921
 20
1.986256023512984
 30
0.0
 11
-0.9763116717775239
 21
1.947017003097524
 31
0.0
  0
LINE
  5
104
330
D6
100
AcDbEntity
  8
AM_4
100
AcDbLine
 10
-0.6326357257142422
 20
2.201267065236176
 30
0.0
 11
-0.6766645738970279
 21
2.19148078968019
 31
0.0
  0
LINE
  5
105
330
D6
100
AcDbEntity
  8
AM_4
100
AcDbLine
 10
-0.5960180255885078
 20
2.217077463735928
 30
0.0
 11
-0.5473300006967186
 21
2.15126468526151
 31
0.0
  0
LWPOLYLINE
  5
106
330
D6
100
AcDbEntity
  8
AM_4
100
AcDbPolyline
 90
        3
 70
     0
 43
0.0
 10
-0.6521765715731368
 20
2.18681082722832
 10
-0.6253702849664126
 20
2.203664871906784
 10
-0.5960180255885078
 20
2.217077463735928
  0
LWPOLYLINE
  5
107
330
D6
100
AcDbEntity
  8
AM_4
100
AcDbPolyline
 90
        3
 70
     0
 43
0.0
 10
-0.5473300006967186
 20
2.15126468526151
 10
-0.5686418974442725
 20
2.127222442499554
 10
-0.5927028728272534
 20
2.106418793061471
  0
LINE
  5
108
330
D6
100
AcDbEntity
  8
AM_4
100
AcDbLine
 10
-0.6975494437036718
 20
2.141964935028281
 30
0.0
 11
-0.6488614188118826
 21
2.076152156553863
 31
0.0
  0
LWPOLYLINE
  5
109
330
D6
100
AcDbEntity
  8
AM_4
100
AcDbPolyline
 90
        3
 70
     0
 43
0.0
 10
-0.900612279934
 20
1.991739877612988
 10
-0.8540316568065259
 20
2.03447582101315
 10
-0.804473698745883
 20
2.07414203416685
  0
LWPOLYLINE
  5
10A
330
D6
100
AcDbEntity
  8
AM_4
100
AcDbPolyline
 90
        3
 70
     0
 43
0.0
 10
-0.7449999999999996
 20
1.993750000000001
 10
-0.797189141135515
 20
1.958117823144625
 10
-0.8519242550422108
 20
1.925927099138569
  0
LWPOLYLINE
  5
10B
330
D6
100
AcDbEntity
  8
AM_4
100
AcDbPolyline
 90
        4
 70
     0
 43
0.0
 10
-0.804473698745883
 20
2.07414203416685
 10
-0.7647210262950821
 20
2.10178758906544
 10
-0.7233939119203129
 20
2.127304932811632
 10
-0.6975494437036718
 20
2.141964935028281
  0
LWPOLYLINE
  5
10C
330
D6
100
AcDbEntity
  8
AM_4
100
AcDbPolyline
 90
        3
 70
     0
 43
0.0
 10
-0.6975494437036718
 20
2.141964935028281
 10
-0.6762375469561177
 20
2.166007177790237
 10
-0.6521765715731368
 20
2.18681082722832
  0
LINE
  5
10D
330
D6
100
AcDbEntity
  8
AM_4
100
AcDbLine
 10
-0.900612279934
 20
1.991739877612988
 30
0.0
 11
-0.8519242550422108
 21
1.925927099138569
 31
0.0
  0
LWPOLYLINE
  5
10E
330
D6
100
AcDbEntity
  8
AM_4
100
AcDbPolyline
 90
        3
 70
     0
 43
0.0
 10
-0.9567708259186292
 20
1.96147324110538
 10
-0.9299645393119047
 20
1.978327285783844
 10
-0.900612279934
 20
1.991739877612988
  0
LWPOLYLINE
  5
10F
330
D6
100
AcDbEntity
  8
AM_4
100
AcDbPolyline
 90
        3
 70
     0
 43
0.0
 10
-1.002143698049164
 20
1.916627348905341
 10
-0.9808318013016101
 20
1.940669591667297
 10
-0.9567708259186292
 20
1.96147324110538
  0
LINE
  5
110
330
D6
100
AcDbEntity
  8
AM_4
100
AcDbLine
 10
-1.002143698049164
 20
1.916627348905341
 30
0.0
 11
-0.9534556731573748
 21
1.850814570430922
 31
0.0
  0
LWPOLYLINE
  5
111
330
D6
100
AcDbEntity
  8
AM_4
100
AcDbPolyline
 90
        3
 70
     0
 43
0.0
 10
-0.8972971271727458
 20
1.88108120693853
 10
-0.92410341377947
 20
1.864227162260066
 10
-0.9534556731573748
 20
1.850814570430922
  0
LWPOLYLINE
  5
112
330
D6
100
AcDbEntity
  8
AM_4
100
AcDbPolyline
 90
        3
 70
     0
 43
0.0
 10
-0.8519242550422108
 20
1.925927099138569
 10
-0.8732361517897649
 20
1.901884856376613
 10
-0.8972971271727458
 20
1.88108120693853
  0
LWPOLYLINE
  5
113
330
D6
100
AcDbEntity
  8
AM_4
100
AcDbPolyline
 90
        3
 70
     0
 43
0.0
 10
-0.5927028728272534
 20
2.106418793061471
 10
-0.6195091594339778
 20
2.089564748383007
 10
-0.6488614188118826
 20
2.076152156553863
  0
LWPOLYLINE
  5
114
330
D6
100
AcDbEntity
  8
AM_4
100
AcDbPolyline
 90
        4
 70
     0
 43
0.0
 10
-0.6488614188118826
 20
2.076152156553863
 10
-0.6704414001841674
 20
2.055727744533807
 10
-0.7068237368406003
 20
2.023766237599919
 10
-0.7449999999999996
 20
1.993750000000001
  0
ENDBLK
  5
D9
330
D6
100
AcDbEntity
  8
0
100
AcDbBlockEnd
  0
BLOCK
  5
117
330
115
100
AcDbEntity
  8
0
100
AcDbBlockBegin
  2
4_ASME_B18_3_10_1_0_in_072363_2
 70
     2
 10
0.0
 20
0.0
 30
0.0
  3
4_ASME_B18_3_10_1_0_in_072363_2
  1

  0
ATTDEF
  5
119
330
115
100
AcDbEntity
  8
AM_6
100
AcDbText
 10
4.250999966666667
 20
-0.9158541666666666
 30
0.0
 40
0.5
  1
ANSI/ASME B18.3-1998
100
AcDbAttributeDefinition
  3

  2
NN
 70
     8
280
     0
  0
ATTDEF
  5
11A
330
115
100
AcDbEntity
  8
AM_6
100
AcDbText
 10
4.250999966666667
 20
-1.415854166666667
 30
0.0
 40
0.5
  1
Socket Button Head Cap Screws
100
AcDbAttributeDefinition
  3

  2
NT
 70
     8
280
     0
  0
ATTDEF
  5
11B
330
115
100
AcDbEntity
  8
AM_6
100
AcDbText
 10
4.250999966666667
 20
-1.915854166666667
 30
0.0
 40
0.5
  1
ASME B18.3-10
100
AcDbAttributeDefinition
  3

  2
NB
 70
     8
280
     0
  0
ATTDEF
  5
11C
330
115
100
AcDbEntity
  8
AM_6
100
AcDbText
 10
4.250999966666667
 20
-2.415854166666667
 30
0.0
 40
0.5
  1
ASME B18.3-$NS.
100
AcDbAttributeDefinition
  3

  2
NBSYN
 70
     8
280
     0
  0
ATTDEF
  5
11D
330
115
100
AcDbEntity
  8
AM_6
100
AcDbText
 10
4.250999966666667
 20
-2.915854166666667
 30
0.0
 40
0.5
  1
ASME B18.3-10
100
AcDbAttributeDefinition
  3

  2
LINA
 70
     8
280
     0
  0
ATTDEF
  5
11E
330
115
100
AcDbEntity
  8
AM_6
100
AcDbText
 10
4.250999966666667
 20
-3.415854166666667
 30
0.0
 40
0.5
  1
10
100
AcDbAttributeDefinition
  3

  2
NS
 70
     8
280
     0
  0
ATTDEF
  5
11F
330
115
100
AcDbEntity
  8
AM_6
100
AcDbText
 10
4.250999966666667
 20
-3.915854166666667
 30
0.0
 40
0.5
  1
0.361
100
AcDbAttributeDefinition
  3

  2
A
 70
     8
280
     0
  0
ATTDEF
  5
120
330
115
100
AcDbEntity
  8
AM_6
100
AcDbText
 10
4.250999966666667
 20
-4.415854166666667
 30
0.0
 40
0.5
  1
0.101
100
AcDbAttributeDefinition
  3

  2
H
 70
     8
280
     0
  0
ATTDEF
  5
121
330
115
100
AcDbEntity
  8
AM_6
100
AcDbText
 10
4.250999966666667
 20
-4.915854166666667
 30
0.0
 40
0.5
  1
0.800
100
AcDbAttributeDefinition
  3

  2
L
 70
     8
280
     0
  0
ATTDEF
  5
122
330
115
100
AcDbEntity
  8
AM_6
100
AcDbText
 10
4.250999966666667
 20
-5.415854166666667
 30
0.0
 40
0.5
  1
0.020
100
AcDbAttributeDefinition
  3

  2
S
 70
     8
280
     0
  0
ATTDEF
  5
123
330
115
100
AcDbEntity
  8
AM_6
100
AcDbText
 10
4.250999966666667
 20
-5.915854166666667
 30
0.0
 40
0.5
  1
0.125000
100
AcDbAttributeDefinition
  3

  2
J
 70
     8
280
     0
  0
ATTDEF
  5
124
330
115
100
AcDbEntity
  8
AM_6
100
AcDbText
 10
4.250999966666667
 20
-6.415854166666667
 30
0.0
 40
0.5
  1
baldor
100
AcDbAttributeDefinition
  3

  2
COMPANY
 70
     8
280
     0
  0
LINE
  5
125
330
115
100
AcDbEntity
  8
AM_9
100
AcDbLine
 10
-1.589000033333333
 20
-1.024185383017963
 30
0.0
 11
-1.650000033333333
 21
-1.024185383017963
 31
0.0
  0
LINE
  5
126
330
115
100
AcDbEntity
  8
AM_9
100
AcDbLine
 10
-1.589000033333333
 20
-1.16852295031537
 30
0.0
 11
-1.650000033333333
 21
-1.16852295031537
 31
0.0
  0
LINE
  5
127
330
115
100
AcDbEntity
  8
AM_9
100
AcDbLine
 10
-1.589000033333333
 20
-1.024185383017963
 30
0.0
 11
-1.589000033333333
 21
-1.16852295031537
 31
0.0
  0
LINE
  5
128
330
115
100
AcDbEntity
  8
AM_9
100
AcDbLine
 10
-1.589000033333333
 20
-1.060269774842315
 30
0.0
 11
-1.650000033333333
 21
-1.060269774842315
 31
0.0
  0
LINE
  5
129
330
115
100
AcDbEntity
  8
AM_9
100
AcDbLine
 10
-1.589000033333333
 20
-1.132438558491018
 30
0.0
 11
-1.650000033333333
 21
-1.132438558491018
 31
0.0
  0
LINE
  5
12A
330
115
100
AcDbEntity
  8
AM_9
100
AcDbLine
 10
-0.7490000333333331
 20
-1.019954166666666
 30
0.0
 11
-0.7490000333333331
 21
-1.172754166666667
 31
0.0
  0
LINE
  5
12B
330
115
100
AcDbEntity
  8
AM_9
100
AcDbLine
 10
-0.7490000333333331
 20
-1.019954166666666
 30
0.0
 11
-0.7676000333333332
 21
-1.001354166666667
 31
0.0
  0
LINE
  5
12C
330
115
100
AcDbEntity
  8
AM_9
100
AcDbLine
 10
-0.7676000333333332
 20
-1.191354166666666
 30
0.0
 11
-0.7490000333333331
 21
-1.172754166666667
 31
0.0
  0
LINE
  5
12D
330
115
100
AcDbEntity
  8
AM_9
100
AcDbLine
 10
-0.7676000333333332
 20
-1.001354166666667
 30
0.0
 11
-0.7676000333333332
 21
-1.191354166666666
 31
0.0
  0
LINE
  5
12E
330
115
100
AcDbEntity
  8
AM_9
100
AcDbLine
 10
-1.488333333333333
 20
-1.191354166666666
 30
0.0
 11
-0.7676000333333332
 21
-1.191354166666666
 31
0.0
  0
LINE
  5
12F
330
115
100
AcDbEntity
  8
AM_9
100
AcDbLine
 10
-0.7676000333333332
 20
-1.001354166666667
 30
0.0
 11
-1.488333333333333
 21
-1.001354166666667
 31
0.0
  0
LINE
  5
130
330
115
100
AcDbEntity
  8
AM_5
100
AcDbLine
 10
-1.469000033333333
 20
-1.191354166666667
 30
0.0
 11
-1.469000033333333
 21
-1.001354166666667
 31
0.0
  0
LINE
  5
131
330
115
100
AcDbEntity
  8
AM_5
100
AcDbLine
 10
-1.469000033333333
 20
-1.172754166666667
 30
0.0
 11
-1.488333333333333
 21
-1.183916252625991
 31
0.0
  0
LINE
  5
132
330
115
100
AcDbEntity
  8
AM_5
100
AcDbLine
 10
-1.469000033333334
 20
-1.019954166666666
 30
0.0
 11
-1.488333333333334
 21
-1.008792080707342
 31
0.0
  0
LINE
  5
133
330
115
100
AcDbEntity
  8
AM_4
100
AcDbLine
 10
-1.549000033333333
 20
-1.191354166666666
 30
0.0
 11
-1.488333333333333
 21
-1.191354166666666
 31
0.0
  0
LINE
  5
134
330
115
100
AcDbEntity
  8
AM_4
100
AcDbLine
 10
-1.488333333333333
 20
-1.001354166666667
 30
0.0
 11
-1.549000033333333
 21
-1.001354166666667
 31
0.0
  0
LINE
  5
135
330
115
100
AcDbEntity
  8
AM_4
100
AcDbLine
 10
-1.650000033333333
 20
-0.9968541666666666
 30
0.0
 11
-1.650000033333333
 21
-1.195854166666667
 31
0.0
  0
ARC
  5
136
330
115
100
AcDbEntity
  8
AM_4
100
AcDbCircle
 10
-1.569000033333334
 20
-1.195854166666667
 30
0.0
 40
0.0809999999999993
100
AcDbArc
 50
180.0
 51
270.0
  0
ARC
  5
137
330
115
100
AcDbEntity
  8
AM_4
100
AcDbCircle
 10
-1.569000033333334
 20
-0.9968541666666655
 30
0.0
 40
0.0809999999999989
100
AcDbArc
 50
90.0
 51
180.0
  0
LINE
  5
138
330
115
100
AcDbEntity
  8
AM_4
100
AcDbLine
 10
-1.549000033333333
 20
-0.9158541666666666
 30
0.0
 11
-1.549000033333333
 21
-1.276854166666666
 31
0.0
  0
LINE
  5
139
330
115
100
AcDbEntity
  8
AM_4
100
AcDbLine
 10
-1.569000033333333
 20
-0.9158541666666666
 30
0.0
 11
-1.569000033333333
 21
-1.276854166666666
 31
0.0
  0
LINE
  5
13A
330
115
100
AcDbEntity
  8
AM_4
100
AcDbLine
 10
-1.569000033333333
 20
-1.276854166666666
 30
0.0
 11
-1.549000033333333
 21
-1.276854166666666
 31
0.0
  0
LINE
  5
13B
330
115
100
AcDbEntity
  8
AM_4
100
AcDbLine
 10
-1.549000033333333
 20
-0.9158541666666666
 30
0.0
 11
-1.569000033333333
 21
-0.9158541666666666
 31
0.0
  0
LINE
  5
13C
330
115
100
AcDbEntity
  8
AM_5
100
AcDbLine
 10
-1.488333333333333
 20
-1.183916252625991
 30
0.0
 11
-1.501216178354114
 21
-1.191354166666666
 31
0.0
  0
LINE
  5
13D
330
115
100
AcDbEntity
  8
AM_5
100
AcDbLine
 10
-1.488333333333334
 20
-1.008792080707342
 30
0.0
 11
-1.501216178354114
 21
-1.001354166666667
 31
0.0
  0
ENDBLK
  5
118
330
115
100
AcDbEntity
  8
0
100
AcDbBlockEnd
  0
BLOCK
  5
140
330
13E
100
AcDbEntity
  8
0
100
AcDbBlockBegin
  2
5_ASME_B18_3_10_2_0_in_072363_2
 70
     2
 10
0.0
 20
0.0
 30
0.0
  3
5_ASME_B18_3_10_2_0_in_072363_2
  1

  0
ATTDEF
  5
142
330
13E
100
AcDbEntity
  8
AM_6
100
AcDbText
 10
4.250999966666667
 20
1.276854166666666
 30
0.0
 40
0.5
  1
ANSI/ASME B18.3-1998
100
AcDbAttributeDefinition
  3

  2
NN
 70
     8
280
     0
  0
ATTDEF
  5
143
330
13E
100
AcDbEntity
  8
AM_6
100
AcDbText
 10
4.250999966666667
 20
0.7768541666666664
 30
0.0
 40
0.5
  1
Socket Button Head Cap Screws
100
AcDbAttributeDefinition
  3

  2
NT
 70
     8
280
     0
  0
ATTDEF
  5
144
330
13E
100
AcDbEntity
  8
AM_6
100
AcDbText
 10
4.250999966666667
 20
0.2768541666666664
 30
0.0
 40
0.5
  1
ASME B18.3-10
100
AcDbAttributeDefinition
  3

  2
NB
 70
     8
280
     0
  0
ATTDEF
  5
145
330
13E
100
AcDbEntity
  8
AM_6
100
AcDbText
 10
4.250999966666667
 20
-0.2231458333333336
 30
0.0
 40
0.5
  1
ASME B18.3-$NS.
100
AcDbAttributeDefinition
  3

  2
NBSYN
 70
     8
280
     0
  0
ATTDEF
  5
146
330
13E
100
AcDbEntity
  8
AM_6
100
AcDbText
 10
4.250999966666667
 20
-0.7231458333333336
 30
0.0
 40
0.5
  1
ASME B18.3-10
100
AcDbAttributeDefinition
  3

  2
LINA
 70
     8
280
     0
  0
ATTDEF
  5
147
330
13E
100
AcDbEntity
  8
AM_6
100
AcDbText
 10
4.250999966666667
 20
-1.223145833333334
 30
0.0
 40
0.5
  1
10
100
AcDbAttributeDefinition
  3

  2
NS
 70
     8
280
     0
  0
ATTDEF
  5
148
330
13E
100
AcDbEntity
  8
AM_6
100
AcDbText
 10
4.250999966666667
 20
-1.723145833333334
 30
0.0
 40
0.5
  1
0.361
100
AcDbAttributeDefinition
  3

  2
A
 70
     8
280
     0
  0
ATTDEF
  5
149
330
13E
100
AcDbEntity
  8
AM_6
100
AcDbText
 10
4.250999966666667
 20
-2.223145833333334
 30
0.0
 40
0.5
  1
0.101
100
AcDbAttributeDefinition
  3

  2
H
 70
     8
280
     0
  0
ATTDEF
  5
14A
330
13E
100
AcDbEntity
  8
AM_6
100
AcDbText
 10
4.250999966666667
 20
-2.723145833333334
 30
0.0
 40
0.5
  1
0.800
100
AcDbAttributeDefinition
  3

  2
L
 70
     8
280
     0
  0
ATTDEF
  5
14B
330
13E
100
AcDbEntity
  8
AM_6
100
AcDbText
 10
4.250999966666667
 20
-3.223145833333334
 30
0.0
 40
0.5
  1
0.020
100
AcDbAttributeDefinition
  3

  2
S
 70
     8
280
     0
  0
ATTDEF
  5
14C
330
13E
100
AcDbEntity
  8
AM_6
100
AcDbText
 10
4.250999966666667
 20
-3.723145833333334
 30
0.0
 40
0.5
  1
0.125000
100
AcDbAttributeDefinition
  3

  2
J
 70
     8
280
     0
  0
ATTDEF
  5
14D
330
13E
100
AcDbEntity
  8
AM_6
100
AcDbText
 10
4.250999966666667
 20
-4.223145833333334
 30
0.0
 40
0.5
  1
baldor
100
AcDbAttributeDefinition
  3

  2
COMPANY
 70
     8
280
     0
  0
LINE
  5
14E
330
13E
100
AcDbEntity
  8
AM_9
100
AcDbLine
 10
-1.589000033333333
 20
1.16852295031537
 30
0.0
 11
-1.650000033333333
 21
1.16852295031537
 31
0.0
  0
LINE
  5
14F
330
13E
100
AcDbEntity
  8
AM_9
100
AcDbLine
 10
-1.589000033333333
 20
1.024185383017963
 30
0.0
 11
-1.650000033333333
 21
1.024185383017963
 31
0.0
  0
LINE
  5
150
330
13E
100
AcDbEntity
  8
AM_9
100
AcDbLine
 10
-1.589000033333333
 20
1.16852295031537
 30
0.0
 11
-1.589000033333333
 21
1.024185383017963
 31
0.0
  0
LINE
  5
151
330
13E
100
AcDbEntity
  8
AM_9
100
AcDbLine
 10
-1.589000033333333
 20
1.132438558491018
 30
0.0
 11
-1.650000033333333
 21
1.132438558491018
 31
0.0
  0
LINE
  5
152
330
13E
100
AcDbEntity
  8
AM_9
100
AcDbLine
 10
-1.589000033333333
 20
1.060269774842315
 30
0.0
 11
-1.650000033333333
 21
1.060269774842315
 31
0.0
  0
LINE
  5
153
330
13E
100
AcDbEntity
  8
AM_9
100
AcDbLine
 10
-0.7490000333333331
 20
1.172754166666667
 30
0.0
 11
-0.7490000333333331
 21
1.019954166666666
 31
0.0
  0
LINE
  5
154
330
13E
100
AcDbEntity
  8
AM_9
100
AcDbLine
 10
-0.7490000333333331
 20
1.172754166666667
 30
0.0
 11
-0.7676000333333332
 21
1.191354166666666
 31
0.0
  0
LINE
  5
155
330
13E
100
AcDbEntity
  8
AM_9
100
AcDbLine
 10
-0.7676000333333332
 20
1.001354166666667
 30
0.0
 11
-0.7490000333333331
 21
1.019954166666666
 31
0.0
  0
LINE
  5
156
330
13E
100
AcDbEntity
  8
AM_9
100
AcDbLine
 10
-0.7676000333333332
 20
1.191354166666666
 30
0.0
 11
-0.7676000333333332
 21
1.001354166666667
 31
0.0
  0
LINE
  5
157
330
13E
100
AcDbEntity
  8
AM_9
100
AcDbLine
 10
-1.488333333333333
 20
1.001354166666667
 30
0.0
 11
-0.7676000333333332
 21
1.001354166666667
 31
0.0
  0
LINE
  5
158
330
13E
100
AcDbEntity
  8
AM_9
100
AcDbLine
 10
-0.7676000333333332
 20
1.191354166666666
 30
0.0
 11
-1.488333333333333
 21
1.191354166666666
 31
0.0
  0
LINE
  5
159
330
13E
100
AcDbEntity
  8
AM_5
100
AcDbLine
 10
-1.469000033333333
 20
1.019954166666666
 30
0.0
 11
-1.488333333333333
 21
1.008792080707343
 31
0.0
  0
LINE
  5
15A
330
13E
100
AcDbEntity
  8
AM_5
100
AcDbLine
 10
-1.469000033333333
 20
1.191354166666667
 30
0.0
 11
-1.469000033333333
 21
1.001354166666667
 31
0.0
  0
LINE
  5
15B
330
13E
100
AcDbEntity
  8
AM_5
100
AcDbLine
 10
-1.469000033333333
 20
1.172754166666667
 30
0.0
 11
-1.488333333333333
 21
1.183916252625991
 31
0.0
  0
LINE
  5
15C
330
13E
100
AcDbEntity
  8
AM_4
100
AcDbLine
 10
-1.549000033333333
 20
1.001354166666667
 30
0.0
 11
-1.488333333333333
 21
1.001354166666667
 31
0.0
  0
LINE
  5
15D
330
13E
100
AcDbEntity
  8
AM_4
100
AcDbLine
 10
-1.488333333333333
 20
1.191354166666666
 30
0.0
 11
-1.549000033333333
 21
1.191354166666666
 31
0.0
  0
LINE
  5
15E
330
13E
100
AcDbEntity
  8
AM_4
100
AcDbLine
 10
-1.650000033333333
 20
1.195854166666667
 30
0.0
 11
-1.650000033333333
 21
0.9968541666666666
 31
0.0
  0
ARC
  5
15F
330
13E
100
AcDbEntity
  8
AM_4
100
AcDbCircle
 10
-1.569000033333334
 20
0.9968541666666658
 30
0.0
 40
0.0809999999999991
100
AcDbArc
 50
180.0
 51
270.0
  0
ARC
  5
160
330
13E
100
AcDbEntity
  8
AM_4
100
AcDbCircle
 10
-1.569000033333334
 20
1.195854166666667
 30
0.0
 40
0.0809999999999993
100
AcDbArc
 50
90.0
 51
180.0
  0
LINE
  5
161
330
13E
100
AcDbEntity
  8
AM_4
100
AcDbLine
 10
-1.549000033333333
 20
1.276854166666666
 30
0.0
 11
-1.549000033333333
 21
0.9158541666666666
 31
0.0
  0
LINE
  5
162
330
13E
100
AcDbEntity
  8
AM_4
100
AcDbLine
 10
-1.569000033333333
 20
1.276854166666666
 30
0.0
 11
-1.569000033333333
 21
0.9158541666666666
 31
0.0
  0
LINE
  5
163
330
13E
100
AcDbEntity
  8
AM_4
100
AcDbLine
 10
-1.569000033333333
 20
0.9158541666666666
 30
0.0
 11
-1.549000033333333
 21
0.9158541666666666
 31
0.0
  0
LINE
  5
164
330
13E
100
AcDbEntity
  8
AM_4
100
AcDbLine
 10
-1.549000033333333
 20
1.276854166666666
 30
0.0
 11
-1.569000033333333
 21
1.276854166666666
 31
0.0
  0
LINE
  5
165
330
13E
100
AcDbEntity
  8
AM_5
100
AcDbLine
 10
-1.488333333333333
 20
1.008792080707343
 30
0.0
 11
-1.501216178354114
 21
1.001354166666667
 31
0.0
  0
LINE
  5
166
330
13E
100
AcDbEntity
  8
AM_5
100
AcDbLine
 10
-1.488333333333333
 20
1.183916252625991
 30
0.0
 11
-1.501216178354114
 21
1.191354166666666
 31
0.0
  0
ENDBLK
  5
141
330
13E
100
AcDbEntity
  8
0
100
AcDbBlockEnd
  0
BLOCK
  5
169
330
167
100
AcDbEntity
  8
0
100
AcDbBlockBegin
  2
6_070885LW_0_in_072363_2
 70
     2
 10
0.0
 20
0.0
 30
0.0
  3
6_070885LW_0_in_072363_2
  1

  0
ATTDEF
  5
16B
330
167
100
AcDbEntity
  8
AM_6
100
AcDbText
 10
3.951666666666667
 20
1.359375
 30
0.0
 40
0.5
  1
Imperial Insert Lockwasher -Inch
100
AcDbAttributeDefinition
  3

  2
NN
 70
     8
280
     0
  0
ATTDEF
  5
16C
330
167
100
AcDbEntity
  8
AM_6
100
AcDbText
 10
3.951666666666667
 20
0.859375
 30
0.0
 40
0.5
  1
Imperial Bearings
100
AcDbAttributeDefinition
  3

  2
NT
 70
     8
280
     0
  0
ATTDEF
  5
16D
330
167
100
AcDbEntity
  8
AM_6
100
AcDbText
 10
3.951666666666667
 20
0.359375
 30
0.0
 40
0.5
  1
070885LW
100
AcDbAttributeDefinition
  3

  2
NB
 70
     8
280
     0
  0
ATTDEF
  5
16E
330
167
100
AcDbEntity
  8
AM_6
100
AcDbText
 10
3.951666666666667
 20
-0.140625
 30
0.0
 40
0.5
  1
$PN.LW
100
AcDbAttributeDefinition
  3

  2
NBSYN
 70
     8
280
     0
  0
ATTDEF
  5
16F
330
167
100
AcDbEntity
  8
AM_6
100
AcDbText
 10
3.951666666666667
 20
-0.640625
 30
0.0
 40
0.5
  1
070885
100
AcDbAttributeDefinition
  3

  2
LINA
 70
     8
280
     0
  0
ATTDEF
  5
170
330
167
100
AcDbEntity
  8
AM_6
100
AcDbText
 10
3.951666666666667
 20
-1.140625
 30
0.0
 40
0.5
  1
1-1/2
100
AcDbAttributeDefinition
  3

  2
SS
 70
     8
280
     0
  0
ATTDEF
  5
171
330
167
100
AcDbEntity
  8
AM_6
100
AcDbText
 10
3.951666666666667
 20
-1.640625
 30
0.0
 40
0.5
  1
1.500000
100
AcDbAttributeDefinition
  3

  2
SS1
 70
     8
280
     0
  0
ATTDEF
  5
172
330
167
100
AcDbEntity
  8
AM_6
100
AcDbText
 10
3.951666666666667
 20
-2.140625
 30
0.0
 40
0.5
  1
070885
100
AcDbAttributeDefinition
  3

  2
PN
 70
     8
280
     0
  0
ATTDEF
  5
173
330
167
100
AcDbEntity
  8
AM_6
100
AcDbText
 10
3.951666666666667
 20
-2.640625
 30
0.0
 40
0.5
  1
INS-IP-108R
100
AcDbAttributeDefinition
  3

  2
DESCRIPTION
 70
     8
280
     0
  0
ATTDEF
  5
174
330
167
100
AcDbEntity
  8
AM_6
100
AcDbText
 10
3.951666666666667
 20
-3.140625
 30
0.0
 40
0.5
  1
3.1496
100
AcDbAttributeDefinition
  3

  2
A
 70
     8
280
     0
  0
ATTDEF
  5
175
330
167
100
AcDbEntity
  8
AM_6
100
AcDbText
 10
3.951666666666667
 20
-3.640625
 30
0.0
 40
0.5
  1
61/64
100
AcDbAttributeDefinition
  3

  2
B
 70
     8
280
     0
  0
ATTDEF
  5
176
330
167
100
AcDbEntity
  8
AM_6
100
AcDbText
 10
3.951666666666667
 20
-4.140625
 30
0.0
 40
0.5
  1
2-5/8
100
AcDbAttributeDefinition
  3

  2
C
 70
     8
280
     0
  0
ATTDEF
  5
177
330
167
100
AcDbEntity
  8
AM_6
100
AcDbText
 10
3.951666666666667
 20
-4.640625
 30
0.0
 40
0.5
  1
0.970
100
AcDbAttributeDefinition
  3

  2
D
 70
     8
280
     0
  0
ATTDEF
  5
178
330
167
100
AcDbEntity
  8
AM_6
100
AcDbText
 10
3.951666666666667
 20
-5.140625
 30
0.0
 40
0.5
  1
2-23/32
100
AcDbAttributeDefinition
  3

  2
E
 70
     8
280
     0
  0
ATTDEF
  5
179
330
167
100
AcDbEntity
  8
AM_6
100
AcDbText
 10
3.951666666666667
 20
-5.640625
 30
0.0
 40
0.5
  1
0.1900
100
AcDbAttributeDefinition
  3

  2
NDM
 70
     8
280
     0
  0
ATTDEF
  5
17A
330
167
100
AcDbEntity
  8
AM_6
100
AcDbText
 10
3.951666666666667
 20
-6.140625
 30
0.0
 40
0.5
  1
0.1450
100
AcDbAttributeDefinition
  3

  2
KDM
 70
     8
280
     0
  0
ATTDEF
  5
17B
330
167
100
AcDbEntity
  8
AM_6
100
AcDbText
 10
3.951666666666667
 20
-6.640625
 30
0.0
 40
0.5
  1
2.22
100
AcDbAttributeDefinition
  3

  2
AL
 70
     8
280
     0
  0
ATTDEF
  5
17C
330
167
100
AcDbEntity
  8
AM_6
100
AcDbText
 10
3.951666666666667
 20
-7.140625
 30
0.0
 40
0.5
  1
0.38
100
AcDbAttributeDefinition
  3

  2
BL
 70
     8
280
     0
  0
ATTDEF
  5
17D
330
167
100
AcDbEntity
  8
AM_6
100
AcDbText
 10
3.951666666666667
 20
-7.640625
 30
0.0
 40
0.5
  1
0.07
100
AcDbAttributeDefinition
  3

  2
CL
 70
     8
280
     0
  0
ATTDEF
  5
17E
330
167
100
AcDbEntity
  8
AM_6
100
AcDbText
 10
3.951666666666667
 20
-8.140625
 30
0.0
 40
0.5
  1
0.44
100
AcDbAttributeDefinition
  3

  2
DL
 70
     8
280
     0
  0
ATTDEF
  5
17F
330
167
100
AcDbEntity
  8
AM_6
100
AcDbText
 10
3.951666666666667
 20
-8.640625
 30
0.0
 40
0.5
  1
baldor
100
AcDbAttributeDefinition
  3

  2
COMPANY
 70
     8
280
     0
  0
LINE
  5
180
330
167
100
AcDbEntity
  8
AM_9
100
AcDbLine
 10
-1.418333333333333
 20
0.7075770434422116
 30
0.0
 11
-1.488333333333333
 21
0.7075770434422116
 31
0.0
  0
LINE
  5
181
330
167
100
AcDbEntity
  8
AM_9
100
AcDbLine
 10
-1.048333333333333
 20
0.6877236546957103
 30
0.0
 11
-1.418333333333333
 21
0.6877236546957103
 31
0.0
  0
LINE
  5
182
330
167
100
AcDbEntity
  8
AM_9
100
AcDbLine
 10
-1.048333333333333
 20
0.6509735709764805
 30
0.0
 11
-1.488333333333333
 21
0.6509735709764805
 31
0.0
  0
LINE
  5
183
330
167
100
AcDbEntity
  8
AM_9
100
AcDbLine
 10
-1.418333333333333
 20
0.7604335068450773
 30
0.0
 11
-1.048333333333333
 21
0.7604335068450773
 31
0.0
  0
LINE
  5
184
330
167
100
AcDbEntity
  8
AM_9
100
AcDbLine
 10
-1.048333333333333
 20
0.7236834231258475
 30
0.0
 11
-1.488333333333333
 21
0.7236834231258475
 31
0.0
  0
LINE
  5
185
330
167
100
AcDbEntity
  8
AM_9
100
AcDbLine
 10
-1.048333333333333
 20
0.6509735709764805
 30
0.0
 11
-1.048333333333333
 21
0.7604335068450773
 31
0.0
  0
LINE
  5
186
330
167
100
AcDbEntity
  8
AM_9
100
AcDbLine
 10
-1.418333333333333
 20
0.7802868955915786
 30
0.0
 11
-1.488333333333333
 21
0.7802868955915786
 31
0.0
  0
LINE
  5
187
330
167
100
AcDbEntity
  8
AM_9
100
AcDbLine
 10
-1.418333333333333
 20
1.096354166666666
 30
0.0
 11
-1.488333333333333
 21
1.096354166666667
 31
0.0
  0
LINE
  5
188
330
167
100
AcDbEntity
  8
AM_9
100
AcDbLine
 10
-1.418333333333333
 20
1.187319953131503
 30
0.0
 11
-1.488333333333333
 21
1.187319953131503
 31
0.0
  0
LINE
  5
189
330
167
100
AcDbEntity
  8
AM_9
100
AcDbLine
 10
-1.418333333333333
 20
-1.096354166666667
 30
0.0
 11
-1.488333333333333
 21
-1.096354166666667
 31
0.0
  0
LINE
  5
18A
330
167
100
AcDbEntity
  8
AM_9
100
AcDbLine
 10
-1.488333333333333
 20
-1.191443622710965
 30
0.0
 11
-1.418333333333333
 21
-1.191443622710965
 31
0.0
  0
LINE
  5
18B
330
167
100
AcDbEntity
  8
AM_9
100
AcDbLine
 10
-1.418333333333333
 20
0.8052261613532464
 30
0.0
 11
-1.488333333333333
 21
0.8052261613532463
 31
0.0
  0
LINE
  5
18C
330
167
100
AcDbEntity
  8
AM_9
100
AcDbLine
 10
-1.418333333333333
 20
-0.8052261613532463
 30
0.0
 11
-1.488333333333333
 21
-0.8052261613532463
 31
0.0
  0
LINE
  5
18D
330
167
100
AcDbEntity
  8
AM_9
100
AcDbLine
 10
-1.418333333333333
 20
-0.6365560232944153
 30
0.0
 11
-1.488333333333333
 21
-0.6365560232944153
 31
0.0
  0
LINE
  5
18E
330
167
100
AcDbEntity
  8
AM_9
100
AcDbLine
 10
-1.418333333333333
 20
0.6365560232944159
 30
0.0
 11
-1.488333333333333
 21
0.6365560232944159
 31
0.0
  0
LINE
  5
18F
330
167
100
AcDbEntity
  8
AM_9
100
AcDbLine
 10
-1.418333333333333
 20
0.5022057348689717
 30
0.0
 11
-1.488333333333333
 21
0.5022057348689717
 31
0.0
  0
LINE
  5
190
330
167
100
AcDbEntity
  8
AM_9
100
AcDbLine
 10
-1.418333333333333
 20
-0.5022057348689714
 30
0.0
 11
-1.488333333333333
 21
-0.5022057348689714
 31
0.0
  0
LINE
  5
191
330
167
100
AcDbEntity
  8
AM_9
100
AcDbLine
 10
-1.418333333333333
 20
0.8424146100448484
 30
0.0
 11
-1.488333333333333
 21
0.8424146100448484
 31
0.0
  0
LINE
  5
192
330
167
100
AcDbEntity
  8
AM_9
100
AcDbLine
 10
-1.418333333333333
 20
0.7080643216194045
 30
0.0
 11
-1.488333333333333
 21
0.7080643216194045
 31
0.0
  0
LINE
  5
193
330
167
100
AcDbEntity
  8
AM_9
100
AcDbLine
 10
-1.418333333333333
 20
0.8703027331320836
 30
0.0
 11
-1.488333333333333
 21
0.8703027331320836
 31
0.0
  0
LINE
  5
194
330
167
100
AcDbEntity
  8
AM_9
100
AcDbLine
 10
-1.418333333333333
 20
-0.7080643216194038
 30
0.0
 11
-1.488333333333333
 21
-0.7080643216194038
 31
0.0
  0
LINE
  5
195
330
167
100
AcDbEntity
  8
AM_9
100
AcDbLine
 10
-1.418333333333333
 20
-0.8424146100448394
 30
0.0
 11
-1.488333333333333
 21
-0.8424146100448394
 31
0.0
  0
LINE
  5
196
330
167
100
AcDbEntity
  8
AM_9
100
AcDbLine
 10
-1.488333333333333
 20
-0.8703027331320833
 30
0.0
 11
-1.418333333333333
 21
-0.8703027331320833
 31
0.0
  0
LINE
  5
197
330
167
100
AcDbEntity
  8
AM_9
100
AcDbLine
 10
-1.418333333333333
 20
0.0950000000000005
 30
0.0
 11
-1.488333333333333
 21
0.0950000000000003
 31
0.0
  0
LINE
  5
198
330
167
100
AcDbEntity
  8
AM_9
100
AcDbLine
 10
-1.418333333333333
 20
-0.0949999999999996
 30
0.0
 11
-1.488333333333333
 21
-0.0949999999999996
 31
0.0
  0
LINE
  5
199
330
167
100
AcDbEntity
  8
AM_4
100
AcDbLine
 10
-1.418333333333333
 20
1.359375
 30
0.0
 11
-1.488333333333333
 21
1.359375
 31
0.0
  0
LINE
  5
19A
330
167
100
AcDbEntity
  8
AM_4
100
AcDbLine
 10
-1.488333333333333
 20
-1.359375
 30
0.0
 11
-1.418333333333333
 21
-1.359375
 31
0.0
  0
LINE
  5
19B
330
167
100
AcDbEntity
  8
AM_4
100
AcDbLine
 10
-1.488333333333333
 20
1.359375
 30
0.0
 11
-1.488333333333333
 21
-1.359375
 31
0.0
  0
LINE
  5
19C
330
167
100
AcDbEntity
  8
AM_4
100
AcDbLine
 10
-1.418333333333333
 20
1.359375
 30
0.0
 11
-1.418333333333333
 21
-1.359375
 31
0.0
  0
ENDBLK
  5
16A
330
167
100
AcDbEntity
  8
0
100
AcDbBlockEnd
  0
BLOCK
  5
19F
330
19D
100
AcDbEntity
  8
0
100
AcDbBlockBegin
  2
7_070885I_0_in_072363_2
 70
     2
 10
0.0
 20
0.0
 30
0.0
  3
7_070885I_0_in_072363_2
  1

  0
ATTDEF
  5
1A1
330
19D
100
AcDbEntity
  8
AM_6
100
AcDbText
 10
5.995
 20
1.5748
 30
0.0
 40
0.5
  1
Imperial Insert -Inch
100
AcDbAttributeDefinition
  3

  2
NN
 70
     8
280
     0
  0
ATTDEF
  5
1A2
330
19D
100
AcDbEntity
  8
AM_6
100
AcDbText
 10
5.995
 20
1.0748
 30
0.0
 40
0.5
  1
Imperial Bearings
100
AcDbAttributeDefinition
  3

  2
NT
 70
     8
280
     0
  0
ATTDEF
  5
1A3
330
19D
100
AcDbEntity
  8
AM_6
100
AcDbText
 10
5.995
 20
0.5747999999999998
 30
0.0
 40
0.5
  1
070885I
100
AcDbAttributeDefinition
  3

  2
NB
 70
     8
280
     0
  0
ATTDEF
  5
1A4
330
19D
100
AcDbEntity
  8
AM_6
100
AcDbText
 10
5.995
 20
0.0747999999999998
 30
0.0
 40
0.5
  1
$PN.I
100
AcDbAttributeDefinition
  3

  2
NBSYN
 70
     8
280
     0
  0
ATTDEF
  5
1A5
330
19D
100
AcDbEntity
  8
AM_6
100
AcDbText
 10
5.995
 20
-0.4252000000000002
 30
0.0
 40
0.5
  1
070885
100
AcDbAttributeDefinition
  3

  2
LINA
 70
     8
280
     0
  0
ATTDEF
  5
1A6
330
19D
100
AcDbEntity
  8
AM_6
100
AcDbText
 10
5.995
 20
-0.9252000000000002
 30
0.0
 40
0.5
  1
1-1/2
100
AcDbAttributeDefinition
  3

  2
SS
 70
     8
280
     0
  0
ATTDEF
  5
1A7
330
19D
100
AcDbEntity
  8
AM_6
100
AcDbText
 10
5.995
 20
-1.4252
 30
0.0
 40
0.5
  1
1.500000
100
AcDbAttributeDefinition
  3

  2
SS1
 70
     8
280
     0
  0
ATTDEF
  5
1A8
330
19D
100
AcDbEntity
  8
AM_6
100
AcDbText
 10
5.995
 20
-1.9252
 30
0.0
 40
0.5
  1
070885
100
AcDbAttributeDefinition
  3

  2
PN
 70
     8
280
     0
  0
ATTDEF
  5
1A9
330
19D
100
AcDbEntity
  8
AM_6
100
AcDbText
 10
5.995
 20
-2.4252
 30
0.0
 40
0.5
  1
INS-IP-108R
100
AcDbAttributeDefinition
  3

  2
DESCRIPTION
 70
     8
280
     0
  0
ATTDEF
  5
1AA
330
19D
100
AcDbEntity
  8
AM_6
100
AcDbText
 10
5.995
 20
-2.9252
 30
0.0
 40
0.5
  1
Contact Seal
100
AcDbAttributeDefinition
  3

  2
ST
 70
     8
280
     0
  0
ATTDEF
  5
1AB
330
19D
100
AcDbEntity
  8
AM_6
100
AcDbText
 10
5.995
 20
-3.4252
 30
0.0
 40
0.5
  1
3.1496
100
AcDbAttributeDefinition
  3

  2
A
 70
     8
280
     0
  0
ATTDEF
  5
1AC
330
19D
100
AcDbEntity
  8
AM_6
100
AcDbText
 10
5.995
 20
-3.9252
 30
0.0
 40
0.5
  1
61/64
100
AcDbAttributeDefinition
  3

  2
B
 70
     8
280
     0
  0
ATTDEF
  5
1AD
330
19D
100
AcDbEntity
  8
AM_6
100
AcDbText
 10
5.995
 20
-4.4252
 30
0.0
 40
0.5
  1
2-5/8
100
AcDbAttributeDefinition
  3

  2
C
 70
     8
280
     0
  0
ATTDEF
  5
1AE
330
19D
100
AcDbEntity
  8
AM_6
100
AcDbText
 10
5.995
 20
-4.9252
 30
0.0
 40
0.5
  1
0.970
100
AcDbAttributeDefinition
  3

  2
D
 70
     8
280
     0
  0
ATTDEF
  5
1AF
330
19D
100
AcDbEntity
  8
AM_6
100
AcDbText
 10
5.995
 20
-5.4252
 30
0.0
 40
0.5
  1
2-23/32
100
AcDbAttributeDefinition
  3

  2
E
 70
     8
280
     0
  0
ATTDEF
  5
1B0
330
19D
100
AcDbEntity
  8
AM_6
100
AcDbText
 10
5.995
 20
-5.9252
 30
0.0
 40
0.5
  1
0.1900
100
AcDbAttributeDefinition
  3

  2
NDM
 70
     8
280
     0
  0
ATTDEF
  5
1B1
330
19D
100
AcDbEntity
  8
AM_6
100
AcDbText
 10
5.995
 20
-6.4252
 30
0.0
 40
0.5
  1
0.101
100
AcDbAttributeDefinition
  3

  2
H
 70
     8
280
     0
  0
ATTDEF
  5
1B2
330
19D
100
AcDbEntity
  8
AM_6
100
AcDbText
 10
5.995
 20
-6.9252
 30
0.0
 40
0.5
  1
0.1450
100
AcDbAttributeDefinition
  3

  2
KDM
 70
     8
280
     0
  0
ATTDEF
  5
1B3
330
19D
100
AcDbEntity
  8
AM_6
100
AcDbText
 10
5.995
 20
-7.4252
 30
0.0
 40
0.5
  1
2.22
100
AcDbAttributeDefinition
  3

  2
AL
 70
     8
280
     0
  0
ATTDEF
  5
1B4
330
19D
100
AcDbEntity
  8
AM_6
100
AcDbText
 10
5.995
 20
-7.9252
 30
0.0
 40
0.5
  1
0.38
100
AcDbAttributeDefinition
  3

  2
BL
 70
     8
280
     0
  0
ATTDEF
  5
1B5
330
19D
100
AcDbEntity
  8
AM_6
100
AcDbText
 10
5.995
 20
-8.4252
 30
0.0
 40
0.5
  1
0.07
100
AcDbAttributeDefinition
  3

  2
CL
 70
     8
280
     0
  0
ATTDEF
  5
1B6
330
19D
100
AcDbEntity
  8
AM_6
100
AcDbText
 10
5.995
 20
-8.9252
 30
0.0
 40
0.5
  1
0.44
100
AcDbAttributeDefinition
  3

  2
DL
 70
     8
280
     0
  0
ATTDEF
  5
1B7
330
19D
100
AcDbEntity
  8
AM_6
100
AcDbText
 10
5.995
 20
-9.4252
 30
0.0
 40
0.5
  1
0.8000
100
AcDbAttributeDefinition
  3

  2
LL
 70
     8
280
     0
  0
ATTDEF
  5
1B8
330
19D
100
AcDbEntity
  8
AM_6
100
AcDbText
 10
5.995
 20
-9.9252
 30
0.0
 40
0.5
  1
0.020
100
AcDbAttributeDefinition
  3

  2
Y
 70
     8
280
     0
  0
ATTDEF
  5
1B9
330
19D
100
AcDbEntity
  8
AM_6
100
AcDbText
 10
5.995
 20
-10.4252
 30
0.0
 40
0.5
  1
0.020000
100
AcDbAttributeDefinition
  3

  2
Y1
 70
     8
280
     0
  0
ATTDEF
  5
1BA
330
19D
100
AcDbEntity
  8
AM_6
100
AcDbText
 10
5.995
 20
-10.9252
 30
0.0
 40
0.5
  1
1-51/64
100
AcDbAttributeDefinition
  3

  2
Z
 70
     8
280
     0
  0
ATTDEF
  5
1BB
330
19D
100
AcDbEntity
  8
AM_6
100
AcDbText
 10
5.995
 20
-11.4252
 30
0.0
 40
0.5
  1
1.796875
100
AcDbAttributeDefinition
  3

  2
Z1
 70
     8
280
     0
  0
ATTDEF
  5
1BC
330
19D
100
AcDbEntity
  8
AM_6
100
AcDbText
 10
5.995
 20
-11.9252
 30
0.0
 40
0.5
  1
baldor
100
AcDbAttributeDefinition
  3

  2
COMPANY
 70
     8
280
     0
  0
LINE
  5
1BD
330
19D
100
AcDbEntity
  8
AM_9
100
AcDbLine
 10
0.4815625000000004
 20
0.7623720376271025
 30
0.0
 11
-1.418333333333333
 21
0.7623720376271025
 31
0.0
  0
LINE
  5
1BE
330
19D
100
AcDbEntity
  8
AM_9
100
AcDbLine
 10
0.4815625000000004
 20
0.6896621854777354
 30
0.0
 11
-1.418333333333333
 21
0.6896621854777354
 31
0.0
  0
LINE
  5
1BF
330
19D
100
AcDbEntity
  8
AM_9
100
AcDbLine
 10
-0.578333333333338
 20
-1.096354166666667
 30
0.0
 11
-0.6121173231666429
 21
-1.023904166666667
 31
0.0
  0
LINE
  5
1C0
330
19D
100
AcDbEntity
  8
AM_9
100
AcDbLine
 10
-0.6121173231666429
 20
-1.168804166666666
 30
0.0
 11
-0.578333333333338
 21
-1.096354166666667
 31
0.0
  0
LINE
  5
1C1
330
19D
100
AcDbEntity
  8
AM_9
100
AcDbLine
 10
-0.5783333333333333
 20
1.096354166666667
 30
0.0
 11
-0.6121173231666627
 21
1.168804166666666
 31
0.0
  0
LINE
  5
1C2
330
19D
100
AcDbEntity
  8
AM_9
100
AcDbLine
 10
-0.6121173231666627
 20
1.023904166666667
 30
0.0
 11
-0.5783333333333333
 21
1.096354166666667
 31
0.0
  0
LINE
  5
1C3
330
19D
100
AcDbEntity
  8
AM_9
100
AcDbLine
 10
-0.6121173231666627
 20
1.023904166666667
 30
0.0
 11
-0.6121173231666627
 21
1.168804166666666
 31
0.0
  0
LINE
  5
1C4
330
19D
100
AcDbEntity
  8
AM_9
100
AcDbLine
 10
-0.6121173231666627
 20
1.168804166666666
 30
0.0
 11
-1.395783333333333
 21
1.168804166666666
 31
0.0
  0
LINE
  5
1C5
330
19D
100
AcDbEntity
  8
AM_9
100
AcDbLine
 10
-1.395783333333333
 20
1.023904166666667
 30
0.0
 11
-0.6121173231666627
 21
1.023904166666667
 31
0.0
  0
LINE
  5
1C6
330
19D
100
AcDbEntity
  8
AM_9
100
AcDbLine
 10
-1.39578333333334
 20
-1.168804166666666
 30
0.0
 11
-0.6121173231666429
 21
-1.168804166666666
 31
0.0
  0
LINE
  5
1C7
330
19D
100
AcDbEntity
  8
AM_9
100
AcDbLine
 10
-0.6121173231666429
 20
-1.023904166666667
 30
0.0
 11
-1.39578333333334
 21
-1.023904166666667
 31
0.0
  0
LINE
  5
1C8
330
19D
100
AcDbEntity
  8
AM_9
100
AcDbLine
 10
-0.6121173231666429
 20
-1.023904166666667
 30
0.0
 11
-0.6121173231666429
 21
-1.168804166666666
 31
0.0
  0
LINE
  5
1C9
330
19D
100
AcDbEntity
  8
AM_9
100
AcDbLine
 10
-1.395783333333333
 20
1.023904166666667
 30
0.0
 11
-1.395783333333333
 21
1.168804166666666
 31
0.0
  0
LINE
  5
1CA
330
19D
100
AcDbEntity
  8
AM_9
100
AcDbLine
 10
-1.395783333333333
 20
1.168804166666666
 30
0.0
 11
-1.418333333333333
 21
1.191354166666666
 31
0.0
  0
LINE
  5
1CB
330
19D
100
AcDbEntity
  8
AM_9
100
AcDbLine
 10
-1.418333333333333
 20
1.001354166666667
 30
0.0
 11
-1.395783333333333
 21
1.023904166666667
 31
0.0
  0
LINE
  5
1CC
330
19D
100
AcDbEntity
  8
AM_9
100
AcDbLine
 10
-1.39578333333334
 20
-1.023904166666667
 30
0.0
 11
-1.418333333333331
 21
-1.001354166666667
 31
0.0
  0
LINE
  5
1CD
330
19D
100
AcDbEntity
  8
AM_9
100
AcDbLine
 10
-1.418333333333331
 20
-1.191354166666666
 30
0.0
 11
-1.39578333333334
 21
-1.168804166666666
 31
0.0
  0
LINE
  5
1CE
330
19D
100
AcDbEntity
  8
AM_9
100
AcDbLine
 10
-1.39578333333334
 20
-1.023904166666667
 30
0.0
 11
-1.39578333333334
 21
-1.168804166666666
 31
0.0
  0
LINE
  5
1CF
330
19D
100
AcDbEntity
  8
AM_9
100
AcDbLine
 10
0.4815625000000004
 20
0.7236834231258478
 30
0.0
 11
-1.65
 21
0.7236834231258474
 31
0.0
  0
LINE
  5
1D0
330
19D
100
AcDbEntity
  8
AM_9
100
AcDbLine
 10
-1.418333333333333
 20
0.6509735709764809
 30
0.0
 11
0.4815625000000004
 21
0.6509735709764809
 31
0.0
  0
LINE
  5
1D1
330
19D
100
AcDbEntity
  8
AM_9
100
AcDbLine
 10
-1.65
 20
0.6509735709764806
 30
0.0
 11
-0.9783333333333333
 21
0.6505382386916234
 31
0.0
  0
LINE
  5
1D2
330
19D
100
AcDbEntity
  8
AM_9
100
AcDbLine
 10
0.4815624999999999
 20
0.7500000000000002
 30
0.0
 11
-1.65
 21
0.7500000000000002
 31
0.0
  0
LINE
  5
1D3
330
19D
100
AcDbEntity
  8
AM_9
100
AcDbLine
 10
-1.65
 20
-0.7500000000000002
 30
0.0
 11
0.4815624999999999
 21
-0.7500000000000002
 31
0.0
  0
LINE
  5
1D4
330
19D
100
AcDbEntity
  8
AM_9
100
AcDbLine
 10
0.9750000000000001
 20
0.7894736842105261
 30
0.0
 11
0.4815625000000002
 21
0.7894736842105261
 31
0.0
  0
LINE
  5
1D5
330
19D
100
AcDbEntity
  8
AM_9
100
AcDbLine
 10
0.4815625000000002
 20
-0.7894736842105261
 30
0.0
 11
0.9750000000000001
 21
-0.7894736842105261
 31
0.0
  0
LINE
  5
1D6
330
19D
100
AcDbEntity
  8
AM_9
100
AcDbLine
 10
-1.65
 20
0.7604335068450774
 30
0.0
 11
-1.418333333333333
 21
0.7604335068450776
 31
0.0
  0
LINE
  5
1D7
330
19D
100
AcDbEntity
  8
AM_9
100
AcDbLine
 10
-1.418333333333333
 20
0.6877236546957105
 30
0.0
 11
-1.65
 21
0.6877236546957105
 31
0.0
  0
LINE
  5
1D8
330
19D
100
AcDbEntity
  8
AM_9
100
AcDbLine
 10
-1.418333333333333
 20
0.7894736842105263
 30
0.0
 11
-1.488333333333333
 21
0.7894736842105263
 31
0.0
  0
LINE
  5
1D9
330
19D
100
AcDbEntity
  8
AM_9
100
AcDbLine
 10
-1.488333333333333
 20
-0.7894736842105263
 30
0.0
 11
-1.418333333333333
 21
-0.7894736842105263
 31
0.0
  0
LINE
  5
1DA
330
19D
100
AcDbEntity
  8
AM_9
100
AcDbLine
 10
0.9750000000000001
 20
-0.8984375
 30
0.0
 11
0.9750000000000001
 21
0.8984375
 31
0.0
  0
LINE
  5
1DB
330
19D
100
AcDbEntity
  8
AM_9
100
AcDbLine
 10
0.9950000000000004
 20
0.8984375
 30
0.0
 11
0.9750000000000001
 21
0.8984375
 31
0.0
  0
LINE
  5
1DC
330
19D
100
AcDbEntity
  8
AM_9
100
AcDbLine
 10
0.9750000000000001
 20
-0.8984375
 30
0.0
 11
0.9950000000000004
 21
-0.8984375
 31
0.0
  0
LINE
  5
1DD
330
19D
100
AcDbEntity
  8
AM_9
100
AcDbLine
 10
-0.9783333333333333
 20
-0.6505382386916239
 30
0.0
 11
-1.418333333333333
 21
-0.6505382386916239
 31
0.0
  0
LINE
  5
1DE
330
19D
100
AcDbEntity
  8
AM_9
100
AcDbLine
 10
-0.9783333333333333
 20
-0.9192388155425117
 30
0.0
 11
-0.9899999999999998
 21
-0.9192388155425117
 31
0.0
  0
LINE
  5
1DF
330
19D
100
AcDbEntity
  8
AM_9
100
AcDbLine
 10
-0.9783333333333333
 20
0.9192388155425117
 30
0.0
 11
-0.9899999999999998
 21
0.9192388155425117
 31
0.0
  0
LINE
  5
1E0
330
19D
100
AcDbEntity
  8
AM_9
100
AcDbLine
 10
0.9400000000000001
 20
0.9982638888888888
 30
0.0
 11
0.6721874999999997
 21
0.9982638888888888
 31
0.0
  0
LINE
  5
1E1
330
19D
100
AcDbEntity
  8
AM_9
100
AcDbLine
 10
0.6721874999999997
 20
-0.9982638888888888
 30
0.0
 11
0.9400000000000001
 21
-0.9982638888888888
 31
0.0
  0
LINE
  5
1E2
330
19D
100
AcDbEntity
  8
AM_9
100
AcDbLine
 10
-0.9783333333333333
 20
-0.6505382386916239
 30
0.0
 11
-0.9783333333333333
 21
-1.097109460963668
 31
0.0
  0
LINE
  5
1E3
330
19D
100
AcDbEntity
  8
AM_9
100
AcDbLine
 10
-0.9783333333333333
 20
1.097109460963668
 30
0.0
 11
-0.9783333333333333
 21
0.6505382386916234
 31
0.0
  0
LINE
  5
1E4
330
19D
100
AcDbEntity
  8
AM_9
100
AcDbLine
 10
0.6721875000000003
 20
-1.207007578016764
 30
0.0
 11
0.6721875000000003
 21
1.207007578016764
 31
0.0
  0
ARC
  5
1E5
330
19D
100
AcDbEntity
  8
AM_9
100
AcDbCircle
 10
0.5721875000000005
 20
1.207007578016765
 30
0.0
 40
0.0999999999999998
100
AcDbArc
 50
0.0
 51
60.00000000000025
  0
ARC
  5
1E6
330
19D
100
AcDbEntity
  8
AM_9
100
AcDbCircle
 10
0.5721875000000004
 20
-1.207007578016765
 30
0.0
 40
0.0999999999999998
100
AcDbArc
 50
299.9999999999998
 51
0.0
  0
LINE
  5
1E7
330
19D
100
AcDbEntity
  8
AM_9
100
AcDbLine
 10
0.6221875
 20
-1.293610118395209
 30
0.0
 11
0.6221875
 21
1.293610118395209
 31
0.0
  0
LINE
  5
1E8
330
19D
100
AcDbEntity
  8
AM_9
100
AcDbLine
 10
0.6221875
 20
1.293610118395209
 30
0.0
 11
0.4815624999999999
 21
1.3748
 31
0.0
  0
LINE
  5
1E9
330
19D
100
AcDbEntity
  8
AM_9
100
AcDbLine
 10
0.4815624999999999
 20
-1.3748
 30
0.0
 11
0.6221875
 21
-1.293610118395209
 31
0.0
  0
LINE
  5
1EA
330
19D
100
AcDbEntity
  8
AM_9
100
AcDbLine
 10
-0.9900000013761352
 20
-0.8281180101472551
 30
0.0
 11
-0.9783333333333333
 21
-0.8284088841127804
 31
0.0
  0
LINE
  5
1EB
330
19D
100
AcDbEntity
  8
AM_9
100
AcDbLine
 10
-0.9783333333333333
 20
-1.097109460963668
 30
0.0
 11
-0.9900000013761353
 21
-1.096818586998143
 31
0.0
  0
LINE
  5
1EC
330
19D
100
AcDbEntity
  8
AM_9
100
AcDbLine
 10
-0.9900000013761353
 20
1.096818586998143
 30
0.0
 11
-0.9783333333333333
 21
1.097109460963668
 31
0.0
  0
LINE
  5
1ED
330
19D
100
AcDbEntity
  8
AM_9
100
AcDbLine
 10
-0.9783333333333333
 20
0.8284088841127797
 30
0.0
 11
-0.9900000013761352
 21
0.8281180101472546
 31
0.0
  0
LINE
  5
1EE
330
19D
100
AcDbEntity
  8
AM_9
100
AcDbLine
 10
-0.9900000000000001
 20
-1.374332729598965
 30
0.0
 11
-0.4715624999999999
 21
-1.392436966032342
 31
0.0
  0
LINE
  5
1EF
330
19D
100
AcDbEntity
  8
AM_9
100
AcDbLine
 10
-0.4715624999999999
 20
1.392436966032342
 30
0.0
 11
-0.9900000000000001
 21
1.374332729598965
 31
0.0
  0
LINE
  5
1F0
330
19D
100
AcDbEntity
  8
AM_9
100
AcDbLine
 10
0.0325143487660681
 20
1.52714375
 30
0.0
 11
-0.0225143487660678
 21
1.52714375
 31
0.0
  0
LINE
  5
1F1
330
19D
100
AcDbEntity
  8
AM_9
100
AcDbLine
 10
-0.0225143487660678
 20
-1.52714375
 30
0.0
 11
0.0325143487660681
 21
-1.52714375
 31
0.0
  0
LINE
  5
1F2
330
19D
100
AcDbEntity
  8
AM_9
100
AcDbLine
 10
-0.4715624999999999
 20
-1.5248
 30
0.0
 11
-0.4715624999999999
 21
1.5248
 31
0.0
  0
ARC
  5
1F3
330
19D
100
AcDbEntity
  8
AM_9
100
AcDbCircle
 10
-0.4215625000000002
 20
1.5248
 30
0.0
 40
0.0499999999999996
100
AcDbArc
 50
90.0
 51
180.0
  0
ARC
  5
1F4
330
19D
100
AcDbEntity
  8
AM_9
100
AcDbCircle
 10
-0.4215624999999998
 20
-1.524799999999999
 30
0.0
 40
0.05
100
AcDbArc
 50
180.0
 51
270.0
  0
LINE
  5
1F5
330
19D
100
AcDbEntity
  8
AM_9
100
AcDbLine
 10
-0.0225143487660678
 20
-1.52714375
 30
0.0
 11
-0.0225143487660678
 21
1.52714375
 31
0.0
  0
LINE
  5
1F6
330
19D
100
AcDbEntity
  8
AM_9
100
AcDbLine
 10
-0.0225143487660678
 20
1.52714375
 30
0.0
 11
-0.0500286975321358
 21
1.5748
 31
0.0
  0
LINE
  5
1F7
330
19D
100
AcDbEntity
  8
AM_9
100
AcDbLine
 10
-0.0500286975321358
 20
-1.5748
 30
0.0
 11
-0.0225143487660678
 21
-1.52714375
 31
0.0
  0
LINE
  5
1F8
330
19D
100
AcDbEntity
  8
AM_9
100
AcDbLine
 10
0.0325143487660681
 20
-1.52714375
 30
0.0
 11
0.0325143487660681
 21
1.52714375
 31
0.0
  0
LINE
  5
1F9
330
19D
100
AcDbEntity
  8
AM_9
100
AcDbLine
 10
0.0325143487660681
 20
-1.52714375
 30
0.0
 11
0.0600286975321363
 21
-1.5748
 31
0.0
  0
LINE
  5
1FA
330
19D
100
AcDbEntity
  8
AM_9
100
AcDbLine
 10
0.0600286975321363
 20
1.5748
 30
0.0
 11
0.0325143487660681
 21
1.52714375
 31
0.0
  0
LINE
  5
1FB
330
19D
100
AcDbEntity
  8
AM_9
100
AcDbLine
 10
0.0600286975321363
 20
-1.5748
 30
0.0
 11
0.0600286975321363
 21
1.5748
 31
0.0
  0
LINE
  5
1FC
330
19D
100
AcDbEntity
  8
AM_9
100
AcDbLine
 10
0.4315625000000002
 20
1.5748
 30
0.0
 11
0.0600286975321363
 21
1.5748
 31
0.0
  0
LINE
  5
1FD
330
19D
100
AcDbEntity
  8
AM_9
100
AcDbLine
 10
0.0600286975321363
 20
-1.5748
 30
0.0
 11
0.4315625000000002
 21
-1.5748
 31
0.0
  0
LINE
  5
1FE
330
19D
100
AcDbEntity
  8
AM_9
100
AcDbLine
 10
0.4815624999999999
 20
-1.5248
 30
0.0
 11
0.4815624999999999
 21
1.5248
 31
0.0
  0
LINE
  5
1FF
330
19D
100
AcDbEntity
  8
AM_9
100
AcDbLine
 10
0.4315625000000002
 20
-1.5748
 30
0.0
 11
0.4315625000000002
 21
1.5748
 31
0.0
  0
ARC
  5
200
330
19D
100
AcDbEntity
  8
AM_9
100
AcDbCircle
 10
0.4315625000000003
 20
1.5248
 30
0.0
 40
0.0499999999999997
100
AcDbArc
 50
0.0
 51
90.0
  0
ARC
  5
201
330
19D
100
AcDbEntity
  8
AM_9
100
AcDbCircle
 10
0.4315625000000003
 20
-1.5248
 30
0.0
 40
0.0499999999999998
100
AcDbArc
 50
270.0
 51
0.0
  0
LINE
  5
202
330
19D
100
AcDbEntity
  8
AM_9
100
AcDbLine
 10
-0.0500286975321358
 20
-1.5748
 30
0.0
 11
-0.0500286975321358
 21
1.5748
 31
0.0
  0
LINE
  5
203
330
19D
100
AcDbEntity
  8
AM_9
100
AcDbLine
 10
-0.4215625000000003
 20
-1.5748
 30
0.0
 11
-0.4215625000000003
 21
1.5748
 31
0.0
  0
LINE
  5
204
330
19D
100
AcDbEntity
  8
AM_9
100
AcDbLine
 10
-0.0500286975321358
 20
1.5748
 30
0.0
 11
-0.4215625000000003
 21
1.5748
 31
0.0
  0
LINE
  5
205
330
19D
100
AcDbEntity
  8
AM_9
100
AcDbLine
 10
-0.4215625000000003
 20
-1.5748
 30
0.0
 11
-0.0500286975321358
 21
-1.5748
 31
0.0
  0
LINE
  5
206
330
19D
100
AcDbEntity
  8
AM_5
100
AcDbLine
 10
-0.6583333333333332
 20
1.168804166666666
 30
0.0
 11
-0.6583333333333332
 21
1.191354166666666
 31
0.0
  0
LINE
  5
207
330
19D
100
AcDbEntity
  8
AM_5
100
AcDbLine
 10
-0.6583333333333332
 20
1.191354166666666
 30
0.0
 11
-0.6453140847631071
 21
1.168804166666666
 31
0.0
  0
LINE
  5
208
330
19D
100
AcDbEntity
  8
AM_5
100
AcDbLine
 10
-0.6583333333333332
 20
1.023904166666667
 30
0.0
 11
-0.6583333333333332
 21
1.001354166666667
 31
0.0
  0
LINE
  5
209
330
19D
100
AcDbEntity
  8
AM_5
100
AcDbLine
 10
-0.6583333333333332
 20
1.001354166666667
 30
0.0
 11
-0.6453140847631074
 21
1.023904166666667
 31
0.0
  0
LINE
  5
20A
330
19D
100
AcDbEntity
  8
AM_5
100
AcDbLine
 10
-0.6583333333333345
 20
-1.168804166666666
 30
0.0
 11
-0.6583333333333345
 21
-1.191354166666666
 31
0.0
  0
LINE
  5
20B
330
19D
100
AcDbEntity
  8
AM_5
100
AcDbLine
 10
-0.6583333333333345
 20
-1.191354166666666
 30
0.0
 11
-0.6453140847631272
 21
-1.168804166666666
 31
0.0
  0
LINE
  5
20C
330
19D
100
AcDbEntity
  8
AM_5
100
AcDbLine
 10
-0.6583333333333345
 20
-1.023904166666667
 30
0.0
 11
-0.6583333333333345
 21
-1.001354166666667
 31
0.0
  0
LINE
  5
20D
330
19D
100
AcDbEntity
  8
AM_5
100
AcDbLine
 10
-0.6583333333333345
 20
-1.001354166666667
 30
0.0
 11
-0.645314084763127
 21
-1.023904166666667
 31
0.0
  0
LINE
  5
20E
330
19D
100
AcDbEntity
  8
AM_7
100
AcDbLine
 10
-0.5363333333333331
 20
1.096354166666667
 30
0.0
 11
-1.695050033333333
 21
1.096354166666667
 31
0.0
  0
LINE
  5
20F
330
19D
100
AcDbEntity
  8
AM_7
100
AcDbLine
 10
-0.5363333333333385
 20
-1.096354166666667
 30
0.0
 11
-1.695050033333333
 21
-1.096354166666667
 31
0.0
  0
LINE
  5
210
330
19D
100
AcDbEntity
  8
AM_4
100
AcDbLine
 10
-1.488333333333333
 20
0.7894736842105263
 30
0.0
 11
-1.65
 21
0.7894736842105263
 31
0.0
  0
LINE
  5
211
330
19D
100
AcDbEntity
  8
AM_4
100
AcDbLine
 10
-1.65
 20
-0.7894736842105263
 30
0.0
 11
-1.488333333333333
 21
-0.7894736842105263
 31
0.0
  0
LINE
  5
212
330
19D
100
AcDbEntity
  8
AM_4
100
AcDbLine
 10
-1.65
 20
-0.7894736842105263
 30
0.0
 11
-1.65
 21
0.7894736842105263
 31
0.0
  0
ARC
  5
213
330
19D
100
AcDbEntity
  8
AM_4
100
AcDbCircle
 10
-1.368333333333333
 20
-1.311090561259646
 30
0.0
 40
0.0499999999999998
100
AcDbArc
 50
180.0
 51
268.0000000000002
  0
ARC
  5
214
330
19D
100
AcDbEntity
  8
AM_4
100
AcDbCircle
 10
-1.368333333333333
 20
1.311090561259646
 30
0.0
 40
0.0499999999999996
100
AcDbArc
 50
91.99999999999976
 51
180.0
  0
LWPOLYLINE
  5
215
330
19D
100
AcDbEntity
  8
AM_4
100
AcDbPolyline
 90
        6
 70
     0
 43
0.0
 10
-1.418333333333333
 20
1.051644804876985
 10
-1.417821153345449
 20
1.056745917779431
 10
-1.412575969166354
 20
1.068288439312639
 10
-1.402230922695886
 20
1.077904345034989
 10
-1.388059162505154
 20
1.084467122687451
 10
-1.370078308168458
 20
1.087341527345923
  0
LWPOLYLINE
  5
216
330
19D
100
AcDbEntity
  8
AM_4
100
AcDbPolyline
 90
        6
 70
     0
 43
0.0
 10
-1.370078308168458
 20
-1.087341527345923
 10
-1.386397767759576
 20
-1.084951493284856
 10
-1.400687212123401
 20
-1.078879906620323
 10
-1.411410152478868
 20
-1.06978237286775
 10
-1.417378046236281
 20
-1.058595723464173
 10
-1.418333333333333
 20
-1.051644804876985
  0
LINE
  5
217
330
19D
100
AcDbEntity
  8
AM_4
100
AcDbLine
 10
-0.9899999999999998
 20
-0.9192388155425117
 30
0.0
 11
-1.418333333333333
 21
-0.9192388155425117
 31
0.0
  0
LINE
  5
218
330
19D
100
AcDbEntity
  8
AM_4
100
AcDbLine
 10
-0.9899999999999998
 20
0.9192388155425117
 30
0.0
 11
-1.418333333333333
 21
0.9192388155425117
 31
0.0
  0
LINE
  5
219
330
19D
100
AcDbEntity
  8
AM_4
100
AcDbLine
 10
0.9949999999999999
 20
-0.9752270299145298
 30
0.0
 11
0.9949999999999999
 21
0.9752270299145298
 31
0.0
  0
ARC
  5
21A
330
19D
100
AcDbEntity
  8
AM_4
100
AcDbCircle
 10
0.9719631410256412
 20
0.9752270299145301
 30
0.0
 40
0.0230368589743587
100
AcDbArc
 50
0.0000008537736463
 51
90.0
  0
ARC
  5
21B
330
19D
100
AcDbEntity
  8
AM_4
100
AcDbCircle
 10
0.9719631410256412
 20
-0.9752270299145301
 30
0.0
 40
0.0230368589743587
100
AcDbArc
 50
270.0
 51
0.0000008537736463
  0
LINE
  5
21C
330
19D
100
AcDbEntity
  8
AM_4
100
AcDbLine
 10
0.9719631410256405
 20
-0.9982638888888888
 30
0.0
 11
0.9719631410256405
 21
0.9982638888888888
 31
0.0
  0
LINE
  5
21D
330
19D
100
AcDbEntity
  8
AM_4
100
AcDbLine
 10
0.9719631410256405
 20
0.9982638888888888
 30
0.0
 11
0.9400000000000001
 21
0.9982638888888888
 31
0.0
  0
LINE
  5
21E
330
19D
100
AcDbEntity
  8
AM_4
100
AcDbLine
 10
0.9400000000000001
 20
-0.9982638888888888
 30
0.0
 11
0.9719631410256405
 21
-0.9982638888888888
 31
0.0
  0
LWPOLYLINE
  5
21F
330
19D
100
AcDbEntity
  8
AM_4
100
AcDbPolyline
 90
        6
 70
     0
 43
0.0
 10
-1.370078308168458
 20
0.8186409504950346
 10
-1.386397767759576
 20
0.8162509164339673
 10
-1.400687212123401
 20
0.810179329769434
 10
-1.411410152478868
 20
0.8010817960168621
 10
-1.417378046236281
 20
0.7898951466132845
 10
-1.418333333333333
 20
0.7829442280260964
  0
LWPOLYLINE
  5
220
330
19D
100
AcDbEntity
  8
AM_4
100
AcDbPolyline
 90
        6
 70
     0
 43
0.0
 10
-1.418333333333333
 20
-0.7829442280260974
 10
-1.417821153345449
 20
-0.7880453409285433
 10
-1.412575969166354
 20
-0.7995878624617514
 10
-1.402230922695886
 20
-0.8092037681841014
 10
-1.388059162505154
 20
-0.8157665458365635
 10
-1.370078308168458
 20
-0.8186409504950352
  0
LINE
  5
221
330
19D
100
AcDbEntity
  8
AM_4
100
AcDbLine
 10
-1.370078308168458
 20
-0.8186409504950352
 30
0.0
 11
-1.370078308168458
 21
0.8186409504950346
 31
0.0
  0
LINE
  5
222
330
19D
100
AcDbEntity
  8
AM_4
100
AcDbLine
 10
-1.370078308168458
 20
-0.8186409504950352
 30
0.0
 11
-0.9900000013761352
 21
-0.8281180101472551
 31
0.0
  0
LINE
  5
223
330
19D
100
AcDbEntity
  8
AM_4
100
AcDbLine
 10
-0.9900000013761353
 20
-1.096818586998143
 30
0.0
 11
-1.370078308168458
 21
-1.087341527345923
 31
0.0
  0
LINE
  5
224
330
19D
100
AcDbEntity
  8
AM_4
100
AcDbLine
 10
-1.370078308168458
 20
1.087341527345923
 30
0.0
 11
-1.370078308168458
 21
1.361060102610601
 31
0.0
  0
LINE
  5
225
330
19D
100
AcDbEntity
  8
AM_4
100
AcDbLine
 10
-1.370078308168458
 20
1.087341527345923
 30
0.0
 11
-0.9900000013761353
 21
1.096818586998143
 31
0.0
  0
LINE
  5
226
330
19D
100
AcDbEntity
  8
AM_4
100
AcDbLine
 10
-0.9900000013761352
 20
0.8281180101472546
 30
0.0
 11
-1.370078308168458
 21
0.8186409504950346
 31
0.0
  0
LINE
  5
227
330
19D
100
AcDbEntity
  8
AM_4
100
AcDbLine
 10
-1.370078308168458
 20
-1.361060102610601
 30
0.0
 11
-0.9900000000000001
 21
-1.374332729598965
 31
0.0
  0
LINE
  5
228
330
19D
100
AcDbEntity
  8
AM_4
100
AcDbLine
 10
-0.9900000000000001
 20
1.374332729598965
 30
0.0
 11
-1.370078308168458
 21
1.361060102610601
 31
0.0
  0
LINE
  5
229
330
19D
100
AcDbEntity
  8
AM_4
100
AcDbLine
 10
-1.370078308168458
 20
-1.361060102610601
 30
0.0
 11
-1.370078308168458
 21
-1.087341527345923
 31
0.0
  0
ENDBLK
  5
1A0
330
19D
100
AcDbEntity
  8
0
100
AcDbBlockEnd
  0
BLOCK
  5
22C
330
22A
100
AcDbEntity
  8
0
100
AcDbBlockBegin
  2
8_B072363_0_in_072363_2
 70
     2
 10
0.0
 20
0.0
 30
0.0
  3
8_B072363_0_in_072363_2
  1

  0
ATTDEF
  5
22E
330
22A
100
AcDbEntity
  8
AM_6
100
AcDbText
 10
7.045000009536743
 20
2.625
 30
0.0
 40
0.5
  1
SFC-107-204-(Contact Seal)-Housing
100
AcDbAttributeDefinition
  3

  2
NN
 70
     8
280
     0
  0
ATTDEF
  5
22F
330
22A
100
AcDbEntity
  8
AM_6
100
AcDbText
 10
7.045000009536743
 20
2.125
 30
0.0
 40
0.5
  1
-Steal Heavy Duty Imperial Piloted Flange Bearing-inch-107-204
100
AcDbAttributeDefinition
  3

  2
NT
 70
     8
280
     0
  0
ATTDEF
  5
230
330
22A
100
AcDbEntity
  8
AM_6
100
AcDbText
 10
7.045000009536743
 20
1.625
 30
0.0
 40
0.5
  1
B072363
100
AcDbAttributeDefinition
  3

  2
NB
 70
     8
280
     0
  0
ATTDEF
  5
231
330
22A
100
AcDbEntity
  8
AM_6
100
AcDbText
 10
7.045000009536743
 20
1.125
 30
0.0
 40
0.5
  1
$PN.
100
AcDbAttributeDefinition
  3

  2
NBSYN
 70
     8
280
     0
  0
ATTDEF
  5
232
330
22A
100
AcDbEntity
  8
AM_6
100
AcDbText
 10
7.045000009536743
 20
0.625
 30
0.0
 40
0.5
  1
B072363
100
AcDbAttributeDefinition
  3

  2
LINA
 70
     8
280
     0
  0
ATTDEF
  5
233
330
22A
100
AcDbEntity
  8
AM_6
100
AcDbText
 10
7.045000009536743
 20
0.125
 30
0.0
 40
0.5
  1
1-1/2
100
AcDbAttributeDefinition
  3

  2
SS
 70
     8
280
     0
  0
ATTDEF
  5
234
330
22A
100
AcDbEntity
  8
AM_6
100
AcDbText
 10
7.045000009536743
 20
-0.375
 30
0.0
 40
0.5
  1
1.50000
100
AcDbAttributeDefinition
  3

  2
SS1
 70
     8
280
     0
  0
ATTDEF
  5
235
330
22A
100
AcDbEntity
  8
AM_6
100
AcDbText
 10
7.045000009536743
 20
-0.875
 30
0.0
 40
0.5
  1
072339
100
AcDbAttributeDefinition
  3

  2
PN1
 70
     8
280
     0
  0
ATTDEF
  5
236
330
22A
100
AcDbEntity
  8
AM_6
100
AcDbText
 10
7.045000009536743
 20
-1.375
 30
0.0
 40
0.5
  1
072363
100
AcDbAttributeDefinition
  3

  2
PN2
 70
     8
280
     0
  0
ATTDEF
  5
237
330
22A
100
AcDbEntity
  8
AM_6
100
AcDbText
 10
7.045000009536743
 20
-1.875
 30
0.0
 40
0.5
  1
Expansion
100
AcDbAttributeDefinition
  3

  2
TYPE
 70
     8
280
     0
  0
ATTDEF
  5
238
330
22A
100
AcDbEntity
  8
AM_6
100
AcDbText
 10
7.045000009536743
 20
-2.375
 30
0.0
 40
0.5
  1
Contact Seal
100
AcDbAttributeDefinition
  3

  2
ST
 70
     8
280
     0
  0
ATTDEF
  5
239
330
22A
100
AcDbEntity
  8
AM_6
100
AcDbText
 10
7.045000009536743
 20
-2.875
 30
0.0
 40
0.5
  1
SFCN-IP-108R
100
AcDbAttributeDefinition
  3

  2
DESCRIPTIONS
 70
     8
280
     0
  0
ATTDEF
  5
23A
330
22A
100
AcDbEntity
  8
AM_6
100
AcDbText
 10
7.045000009536743
 20
-3.375
 30
0.0
 40
0.5
  1
2.630
100
AcDbAttributeDefinition
  3

  2
A
 70
     8
280
     0
  0
ATTDEF
  5
23B
330
22A
100
AcDbEntity
  8
AM_6
100
AcDbText
 10
7.045000009536743
 20
-3.875
 30
0.0
 40
0.5
  1
2.630
100
AcDbAttributeDefinition
  3

  2
A1
 70
     8
280
     0
  0
ATTDEF
  5
23C
330
22A
100
AcDbEntity
  8
AM_6
100
AcDbText
 10
7.045000009536743
 20
-4.375
 30
0.0
 40
0.5
  1
5.2500
100
AcDbAttributeDefinition
  3

  2
B
 70
     8
280
     0
  0
ATTDEF
  5
23D
330
22A
100
AcDbEntity
  8
AM_6
100
AcDbText
 10
7.045000009536743
 20
-4.875
 30
0.0
 40
0.5
  1
5.2500
100
AcDbAttributeDefinition
  3

  2
B1
 70
     8
280
     0
  0
ATTDEF
  5
23E
330
22A
100
AcDbEntity
  8
AM_6
100
AcDbText
 10
7.045000009536743
 20
-5.375
 30
0.0
 40
0.5
  1
1.9300
100
AcDbAttributeDefinition
  3

  2
C
 70
     8
280
     0
  0
ATTDEF
  5
23F
330
22A
100
AcDbEntity
  8
AM_6
100
AcDbText
 10
7.045000009536743
 20
-5.875
 30
0.0
 40
0.5
  1
1.9300
100
AcDbAttributeDefinition
  3

  2
C1
 70
     8
280
     0
  0
ATTDEF
  5
240
330
22A
100
AcDbEntity
  8
AM_6
100
AcDbText
 10
7.045000009536743
 20
-6.375
 30
0.0
 40
0.5
  1
3.0900
100
AcDbAttributeDefinition
  3

  2
D
 70
     8
280
     0
  0
ATTDEF
  5
241
330
22A
100
AcDbEntity
  8
AM_6
100
AcDbText
 10
7.045000009536743
 20
-6.875
 30
0.0
 40
0.5
  1
3.0900
100
AcDbAttributeDefinition
  3

  2
D1
 70
     8
280
     0
  0
ATTDEF
  5
242
330
22A
100
AcDbEntity
  8
AM_6
100
AcDbText
 10
7.045000009536743
 20
-7.375
 30
0.0
 40
0.5
  1
4.3800
100
AcDbAttributeDefinition
  3

  2
DD
 70
     8
280
     0
  0
ATTDEF
  5
243
330
22A
100
AcDbEntity
  8
AM_6
100
AcDbText
 10
7.045000009536743
 20
-7.875
 30
0.0
 40
0.5
  1
4.3800
100
AcDbAttributeDefinition
  3

  2
DD1
 70
     8
280
     0
  0
ATTDEF
  5
244
330
22A
100
AcDbEntity
  8
AM_6
100
AcDbText
 10
7.045000009536743
 20
-8.375
 30
0.0
 40
0.5
  1
0.0000
100
AcDbAttributeDefinition
  3

  2
E
 70
     8
280
     0
  0
ATTDEF
  5
245
330
22A
100
AcDbEntity
  8
AM_6
100
AcDbText
 10
7.045000009536743
 20
-8.875
 30
0.0
 40
0.5
  1
0.0000
100
AcDbAttributeDefinition
  3

  2
E1
 70
     8
280
     0
  0
ATTDEF
  5
246
330
22A
100
AcDbEntity
  8
AM_6
100
AcDbText
 10
7.045000009536743
 20
-9.375
 30
0.0
 40
0.5
  1
0.4375
100
AcDbAttributeDefinition
  3

  2
F
 70
     8
280
     0
  0
ATTDEF
  5
247
330
22A
100
AcDbEntity
  8
AM_6
100
AcDbText
 10
7.045000009536743
 20
-9.875
 30
0.0
 40
0.5
  1
0.43750
100
AcDbAttributeDefinition
  3

  2
F1
 70
     8
280
     0
  0
ATTDEF
  5
248
330
22A
100
AcDbEntity
  8
AM_6
100
AcDbText
 10
7.045000009536743
 20
-10.375
 30
0.0
 40
0.5
  1
1.84
100
AcDbAttributeDefinition
  3

  2
G
 70
     8
280
     0
  0
ATTDEF
  5
249
330
22A
100
AcDbEntity
  8
AM_6
100
AcDbText
 10
7.045000009536743
 20
-10.875
 30
0.0
 40
0.5
  1
1.84
100
AcDbAttributeDefinition
  3

  2
G1
 70
     8
280
     0
  0
ATTDEF
  5
24A
330
22A
100
AcDbEntity
  8
AM_6
100
AcDbText
 10
7.045000009536743
 20
-11.375
 30
0.0
 40
0.5
  1
0.50
100
AcDbAttributeDefinition
  3

  2
H
 70
     8
280
     0
  0
ATTDEF
  5
24B
330
22A
100
AcDbEntity
  8
AM_6
100
AcDbText
 10
7.045000009536743
 20
-11.875
 30
0.0
 40
0.5
  1
0.50
100
AcDbAttributeDefinition
  3

  2
H1
 70
     8
280
     0
  0
ATTDEF
  5
24C
330
22A
100
AcDbEntity
  8
AM_6
100
AcDbText
 10
7.045000009536743
 20
-12.375
 30
0.0
 40
0.5
  1
3.625
100
AcDbAttributeDefinition
  3

  2
K
 70
     8
280
     0
  0
ATTDEF
  5
24D
330
22A
100
AcDbEntity
  8
AM_6
100
AcDbText
 10
7.045000009536743
 20
-12.875
 30
0.0
 40
0.5
  1
3.625
100
AcDbAttributeDefinition
  3

  2
K1
 70
     8
280
     0
  0
ATTDEF
  5
24E
330
22A
100
AcDbEntity
  8
AM_6
100
AcDbText
 10
7.045000009536743
 20
-13.375
 30
0.0
 40
0.5
  1
2.72
100
AcDbAttributeDefinition
  3

  2
L
 70
     8
280
     0
  0
ATTDEF
  5
24F
330
22A
100
AcDbEntity
  8
AM_6
100
AcDbText
 10
7.045000009536743
 20
-13.875
 30
0.0
 40
0.5
  1
2.72
100
AcDbAttributeDefinition
  3

  2
L1
 70
     8
280
     0
  0
ATTDEF
  5
250
330
22A
100
AcDbEntity
  8
AM_6
100
AcDbText
 10
7.045000009536743
 20
-14.375
 30
0.0
 40
0.5
  1
0.4375
100
AcDbAttributeDefinition
  3

  2
M
 70
     8
280
     0
  0
ATTDEF
  5
251
330
22A
100
AcDbEntity
  8
AM_6
100
AcDbText
 10
7.045000009536743
 20
-14.875
 30
0.0
 40
0.5
  1
0.4375
100
AcDbAttributeDefinition
  3

  2
M1
 70
     8
280
     0
  0
ATTDEF
  5
252
330
22A
100
AcDbEntity
  8
AM_6
100
AcDbText
 10
7.045000009536743
 20
-15.375
 30
0.0
 40
0.5
  1
2.78
100
AcDbAttributeDefinition
  3

  2
N
 70
     8
280
     0
  0
ATTDEF
  5
253
330
22A
100
AcDbEntity
  8
AM_6
100
AcDbText
 10
7.045000009536743
 20
-15.875
 30
0.0
 40
0.5
  1
2.78
100
AcDbAttributeDefinition
  3

  2
N1
 70
     8
280
     0
  0
ATTDEF
  5
254
330
22A
100
AcDbEntity
  8
AM_6
100
AcDbText
 10
7.045000009536743
 20
-16.375
 30
0.0
 40
0.5
  1
1.69
100
AcDbAttributeDefinition
  3

  2
P
 70
     8
280
     0
  0
ATTDEF
  5
255
330
22A
100
AcDbEntity
  8
AM_6
100
AcDbText
 10
7.045000009536743
 20
-16.875
 30
0.0
 40
0.5
  1
1.69
100
AcDbAttributeDefinition
  3

  2
P1
 70
     8
280
     0
  0
ATTDEF
  5
256
330
22A
100
AcDbEntity
  8
AM_6
100
AcDbText
 10
7.045000009536743
 20
-17.375
 30
0.0
 40
0.5
  1
0.94
100
AcDbAttributeDefinition
  3

  2
Q
 70
     8
280
     0
  0
ATTDEF
  5
257
330
22A
100
AcDbEntity
  8
AM_6
100
AcDbText
 10
7.045000009536743
 20
-17.875
 30
0.0
 40
0.5
  1
0.94
100
AcDbAttributeDefinition
  3

  2
Q1
 70
     8
280
     0
  0
ATTDEF
  5
258
330
22A
100
AcDbEntity
  8
AM_6
100
AcDbText
 10
7.045000009536743
 20
-18.375
 30
0.0
 40
0.5
  1
0.19
100
AcDbAttributeDefinition
  3

  2
X
 70
     8
280
     0
  0
ATTDEF
  5
259
330
22A
100
AcDbEntity
  8
AM_6
100
AcDbText
 10
7.045000009536743
 20
-18.875
 30
0.0
 40
0.5
  1
0.19
100
AcDbAttributeDefinition
  3

  2
X1
 70
     8
280
     0
  0
ATTDEF
  5
25A
330
22A
100
AcDbEntity
  8
AM_6
100
AcDbText
 10
7.045000009536743
 20
-19.375
 30
0.0
 40
0.5
  1
0.020
100
AcDbAttributeDefinition
  3

  2
Y
 70
     8
280
     0
  0
ATTDEF
  5
25B
330
22A
100
AcDbEntity
  8
AM_6
100
AcDbText
 10
7.045000009536743
 20
-19.875
 30
0.0
 40
0.5
  1
0.020
100
AcDbAttributeDefinition
  3

  2
Y1
 70
     8
280
     0
  0
ATTDEF
  5
25C
330
22A
100
AcDbEntity
  8
AM_6
100
AcDbText
 10
7.045000009536743
 20
-20.375
 30
0.0
 40
0.5
  1
1.80
100
AcDbAttributeDefinition
  3

  2
Z
 70
     8
280
     0
  0
ATTDEF
  5
25D
330
22A
100
AcDbEntity
  8
AM_6
100
AcDbText
 10
7.045000009536743
 20
-20.875
 30
0.0
 40
0.5
  1
1.80
100
AcDbAttributeDefinition
  3

  2
Z1
 70
     8
280
     0
  0
ATTDEF
  5
25E
330
22A
100
AcDbEntity
  8
AM_6
100
AcDbText
 10
7.045000009536743
 20
-21.375
 30
0.0
 40
0.5
  1
3.1496
100
AcDbAttributeDefinition
  3

  2
BORE
 70
     8
280
     0
  0
ATTDEF
  5
25F
330
22A
100
AcDbEntity
  8
AM_6
100
AcDbText
 10
7.045000009536743
 20
-21.875
 30
0.0
 40
0.5
  1
0.0606667
100
AcDbAttributeDefinition
  3

  2
O
 70
     8
280
     0
  0
ATTDEF
  5
260
330
22A
100
AcDbEntity
  8
AM_6
100
AcDbText
 10
7.045000009536743
 20
-22.375
 30
0.0
 40
0.5
  1
baldor
100
AcDbAttributeDefinition
  3

  2
COMPANY
 70
     8
280
     0
  0
LINE
  5
261
330
22A
100
AcDbEntity
  8
AM_9
100
AcDbLine
 10
-0.99
 20
-1.5748
 30
0.0
 11
0.9399999999999998
 21
-1.5748
 31
0.0
  0
LINE
  5
262
330
22A
100
AcDbEntity
  8
AM_9
100
AcDbLine
 10
0.9399999999999998
 20
1.5748
 30
0.0
 11
-0.99
 21
1.5748
 31
0.0
  0
LINE
  5
263
330
22A
100
AcDbEntity
  8
AM_9
100
AcDbLine
 10
-0.4999999999999999
 20
1.329813850798539
 30
0.0
 11
0.0000000000000001
 21
1.329813850798539
 31
0.0
  0
LINE
  5
264
330
22A
100
AcDbEntity
  8
AM_9
100
AcDbLine
 10
0.0000000000000001
 20
1.767313850798539
 30
0.0
 11
-0.4999999999999999
 21
1.767313850798539
 31
0.0
  0
LINE
  5
265
330
22A
100
AcDbEntity
  8
AM_9
100
AcDbLine
 10
-0.4999999999999999
 20
-1.767313850798539
 30
0.0
 11
0.0000000000000001
 21
-1.767313850798539
 31
0.0
  0
LINE
  5
266
330
22A
100
AcDbEntity
  8
AM_9
100
AcDbLine
 10
0.0000000000000001
 20
-1.329813850798539
 30
0.0
 11
-0.4999999999999999
 21
-1.329813850798539
 31
0.0
  0
LINE
  5
267
330
22A
100
AcDbEntity
  8
AM_9
100
AcDbLine
 10
0.0000000000000001
 20
0.1801000000000001
 30
0.0
 11
-0.4613499999999997
 21
0.1801000000000001
 31
0.0
  0
LINE
  5
268
330
22A
100
AcDbEntity
  8
AM_9
100
AcDbLine
 10
-0.4613499999999997
 20
-0.1801000000000001
 30
0.0
 11
0.0000000000000001
 21
-0.1801000000000001
 31
0.0
  0
LINE
  5
269
330
22A
100
AcDbEntity
  8
AM_9
100
AcDbLine
 10
-0.4613499999999997
 20
-0.1801000000000001
 30
0.0
 11
-0.4613499999999997
 21
0.1801000000000001
 31
0.0
  0
LINE
  5
26A
330
22A
100
AcDbEntity
  8
AM_9
100
AcDbLine
 10
-0.4613499999999997
 20
0.1801000000000001
 30
0.0
 11
-0.4999999999999998
 21
0.2187499999999999
 31
0.0
  0
LINE
  5
26B
330
22A
100
AcDbEntity
  8
AM_9
100
AcDbLine
 10
-0.4999999999999998
 20
-0.2187499999999999
 30
0.0
 11
-0.4613499999999997
 21
-0.1801000000000001
 31
0.0
  0
LINE
  5
26C
330
22A
100
AcDbEntity
  8
AM_5
100
AcDbLine
 10
-0.0000000000000001
 20
-0.2187499999999999
 30
0.0
 11
-0.5000000000000001
 21
-0.2187499999999999
 31
0.0
  0
LINE
  5
26D
330
22A
100
AcDbEntity
  8
AM_5
100
AcDbLine
 10
-0.0000000000000001
 20
0.2187499999999999
 30
0.0
 11
-0.5000000000000001
 21
0.2187499999999999
 31
0.0
  0
LINE
  5
26E
330
22A
100
AcDbEntity
  8
AM_7
100
AcDbLine
 10
0.0249999999999999
 20
-1.548563850798539
 30
0.0
 11
-0.5250000000000001
 21
-1.548563850798539
 31
0.0
  0
LINE
  5
26F
330
22A
100
AcDbEntity
  8
AM_7
100
AcDbLine
 10
0.0249999999999999
 20
1.548563850798539
 30
0.0
 11
-0.5250000000000001
 21
1.548563850798539
 31
0.0
  0
LINE
  5
270
330
22A
100
AcDbEntity
  8
AM_7
100
AcDbLine
 10
2.045000009536743
 20
0.0
 30
0.0
 11
-2.123
 21
0.0
 31
0.0
  0
LINE
  5
271
330
22A
100
AcDbEntity
  8
AM_4
100
AcDbLine
 10
-0.9899999999999993
 20
-1.812500000000001
 30
0.0
 11
-0.5
 21
-2.174999999999999
 31
0.0
  0
LINE
  5
272
330
22A
100
AcDbEntity
  8
AM_4
100
AcDbLine
 10
-0.5
 20
2.174999999999999
 30
0.0
 11
-0.9899999999999993
 21
1.812500000000001
 31
0.0
  0
LINE
  5
273
330
22A
100
AcDbEntity
  8
AM_4
100
AcDbLine
 10
-0.99
 20
-1.742169983095794
 30
0.0
 11
-0.5
 21
-1.742169983095794
 31
0.0
  0
LINE
  5
274
330
22A
100
AcDbEntity
  8
AM_4
100
AcDbLine
 10
-0.5
 20
1.742169983095794
 30
0.0
 11
-0.99
 21
1.742169983095794
 31
0.0
  0
LINE
  5
275
330
22A
100
AcDbEntity
  8
AM_4
100
AcDbLine
 10
-0.9900000000000001
 20
-1.512675547840557
 30
0.0
 11
-0.4999999999999999
 21
-1.512675547840557
 31
0.0
  0
LINE
  5
276
330
22A
100
AcDbEntity
  8
AM_4
100
AcDbLine
 10
-0.9899999999999993
 20
1.812500000000001
 30
0.0
 11
-0.9899999999999993
 21
-1.812500000000001
 31
0.0
  0
LINE
  5
277
330
22A
100
AcDbEntity
  8
AM_4
100
AcDbLine
 10
-0.9900000000000001
 20
1.512675547840556
 30
0.0
 11
-0.4999999999999999
 21
1.512675547840555
 31
0.0
  0
LINE
  5
278
330
22A
100
AcDbEntity
  8
AM_4
100
AcDbLine
 10
-0.99
 20
0.9984833183209774
 30
0.0
 11
-0.4999999999999999
 21
0.9984833183209774
 31
0.0
  0
LINE
  5
279
330
22A
100
AcDbEntity
  8
AM_4
100
AcDbLine
 10
-0.99
 20
-0.9984833183209789
 30
0.0
 11
-0.4999999999999999
 21
-0.9984833183209788
 31
0.0
  0
LINE
  5
27A
330
22A
100
AcDbEntity
  8
AM_4
100
AcDbLine
 10
0.0
 20
-1.8125
 30
0.0
 11
0.94
 21
-1.8125
 31
0.0
  0
LINE
  5
27B
330
22A
100
AcDbEntity
  8
AM_4
100
AcDbLine
 10
0.94
 20
1.8125
 30
0.0
 11
0.0
 21
1.8125
 31
0.0
  0
LINE
  5
27C
330
22A
100
AcDbEntity
  8
AM_4
100
AcDbLine
 10
0.94
 20
1.8125
 30
0.0
 11
0.94
 21
-1.8125
 31
0.0
  0
LINE
  5
27D
330
22A
100
AcDbEntity
  8
AM_4
100
AcDbLine
 10
-0.5
 20
-2.625
 30
0.0
 11
0.0
 21
-2.625
 31
0.0
  0
LINE
  5
27E
330
22A
100
AcDbEntity
  8
AM_4
100
AcDbLine
 10
0.0
 20
2.625
 30
0.0
 11
-0.5
 21
2.625
 31
0.0
  0
LINE
  5
27F
330
22A
100
AcDbEntity
  8
AM_4
100
AcDbLine
 10
0.0
 20
2.625
 30
0.0
 11
0.0
 21
-2.625
 31
0.0
  0
LINE
  5
280
330
22A
100
AcDbEntity
  8
AM_4
100
AcDbLine
 10
-0.5
 20
2.625
 30
0.0
 11
-0.5
 21
-2.625
 31
0.0
  0
ENDBLK
  5
22D
330
22A
100
AcDbEntity
  8
0
100
AcDbBlockEnd
  0
ENDSEC
  0
SECTION
  2
ENTITIES
  0
INSERT
  5
6F
330
1F
100
AcDbEntity
  8
0
100
AcDbBlockReference
  2
1_072363_2
 10
0.0
 20
0.0
 30
0.0
  0
POINT
  5
282
330
1F
100
AcDbEntity
  8
ConnectionPoints
100
AcDbPoint
 10
-0.7449999999999996
 20
1.993750000000001
 30
0.0
  0
POINT
  5
283
330
1F
100
AcDbEntity
  8
ConnectionPoints
100
AcDbPoint
 10
-1.549000033333333
 20
-1.096354166666667
 30
0.0000000000000001
  0
POINT
  5
284
330
1F
100
AcDbEntity
  8
ConnectionPoints
100
AcDbPoint
 10
-1.549000033333333
 20
1.096354166666667
 30
0.0000000000000001
  0
POINT
  5
285
330
1F
100
AcDbEntity
  8
ConnectionPoints
100
AcDbPoint
 10
-1.418333333333333
 20
0.0
 30
0.0000000000000001
  0
POINT
  5
286
330
1F
100
AcDbEntity
  8
ConnectionPoints
100
AcDbPoint
 10
-1.65
 20
0.0
 30
0.0000000000000001
  0
POINT
  5
287
330
1F
100
AcDbEntity
  8
ConnectionPoints
100
AcDbPoint
 10
-1.617333333333333
 20
0.0
 30
0.0000000000000001
  0
POINT
  5
288
330
1F
100
AcDbEntity
  8
ConnectionPoints
100
AcDbPoint
 10
-1.418333333333333
 20
1.096354166666667
 30
0.0000000000000001
  0
POINT
  5
289
330
1F
100
AcDbEntity
  8
ConnectionPoints
100
AcDbPoint
 10
-1.549
 20
1.096354166666667
 30
0.0000000000000001
  0
POINT
  5
28A
330
1F
100
AcDbEntity
  8
ConnectionPoints
100
AcDbPoint
 10
-1.418333333333333
 20
-1.096354166666667
 30
0.0000000000000001
  0
POINT
  5
28B
330
1F
100
AcDbEntity
  8
ConnectionPoints
100
AcDbPoint
 10
-1.549
 20
-1.096354166666667
 30
0.0000000000000001
  0
POINT
  5
28C
330
1F
100
AcDbEntity
  8
ConnectionPoints
100
AcDbPoint
 10
-1.418333333333333
 20
0.0
 30
0.0000000000000001
  0
POINT
  5
28D
330
1F
100
AcDbEntity
  8
ConnectionPoints
100
AcDbPoint
 10
-0.7449999999999996
 20
1.993750000000001
 30
0.0
  0
POINT
  5
28E
330
1F
100
AcDbEntity
  8
ConnectionPoints
100
AcDbPoint
 10
-0.7449999999999997
 20
-1.993749999999999
 30
0.0
  0
POINT
  5
28F
330
1F
100
AcDbEntity
  8
ConnectionPoints
100
AcDbPoint
 10
-1.65
 20
0.0
 30
0.0000000000000001
  0
POINT
  5
290
330
1F
100
AcDbEntity
  8
ConnectionPoints
100
AcDbPoint
 10
-1.84
 20
0.0
 30
0.0000000000000001
  0
ENDSEC
  0
SECTION
  2
OBJECTS
  0
DICTIONARY
  5
C
330
0
100
AcDbDictionary
281
     1
  3
ACAD_DETAILVIEWSTYLE
350
298
  3
ACAD_GROUP
350
D
  3
ACAD_LAYOUT
350
1A
  3
ACAD_MATERIAL
350
43
  3
ACAD_MLEADERSTYLE
350
6B
  3
ACAD_MLINESTYLE
350
17
  3
ACAD_PLOTSETTINGS
350
19
  3
ACAD_PLOTSTYLENAME
350
E
  3
ACAD_SCALELIST
350
47
  3
ACAD_SECTIONVIEWSTYLE
350
299
  3
ACAD_TABLESTYLE
350
69
  3
ACAD_VISUALSTYLE
350
2A
  3
ACDB_RECOMPOSE_DATA
350
295
  3
AcDbVariableDictionary
350
291
  0
SUN
  5
6D
330
29
100
AcDbSun
 90
        1
290
     0
 63
     7
421
 16777215
 40
1.0
291
     1
 91
  2455826
 92
 54000000
292
     0
 70
     2
 71
   256
280
     1
  0
DICTIONARY
  5
298
102
{ACAD_REACTORS
330
C
102
}
330
C
100
AcDbDictionary
281
     1
  0
DICTIONARY
  5
D
102
{ACAD_REACTORS
330
C
102
}
330
C
100
AcDbDictionary
281
     1
  0
DICTIONARY
  5
1A
102
{ACAD_REACTORS
330
C
102
}
330
C
100
AcDbDictionary
281
     1
  3
Layout1
350
1E
  3
Layout2
350
26
  3
Model
350
22
  0
DICTIONARY
  5
43
102
{ACAD_REACTORS
330
C
102
}
330
C
100
AcDbDictionary
281
     1
  3
ByBlock
350
45
  3
ByLayer
350
44
  3
Global
350
46
  0
DICTIONARY
  5
6B
102
{ACAD_REACTORS
330
C
102
}
330
C
100
AcDbDictionary
281
     1
  3
Standard
350
6C
  0
DICTIONARY
  5
17
102
{ACAD_REACTORS
330
C
102
}
330
C
100
AcDbDictionary
281
     1
  3
Standard
350
18
  0
DICTIONARY
  5
19
102
{ACAD_REACTORS
330
C
102
}
330
C
100
AcDbDictionary
281
     1
  0
ACDBDICTIONARYWDFLT
  5
E
102
{ACAD_REACTORS
330
C
102
}
330
C
100
AcDbDictionary
281
     1
  3
Normal
350
F
100
AcDbDictionaryWithDefault
340
F
  0
DICTIONARY
  5
47
102
{ACAD_REACTORS
330
C
102
}
330
C
100
AcDbDictionary
281
     1
  3
A0
350
48
  3
A1
350
49
  3
A2
350
4A
  3
A3
350
4B
  3
A4
350
4C
  3
A5
350
4D
  3
A6
350
4E
  3
A7
350
4F
  3
A8
350
50
  3
A9
350
51
  3
B0
350
52
  3
B1
350
53
  3
B2
350
54
  3
B3
350
55
  3
B4
350
56
  3
B5
350
57
  3
B6
350
58
  3
B7
350
59
  3
B8
350
5A
  3
B9
350
5B
  3
C0
350
5C
  3
C1
350
5D
  3
C2
350
5E
  3
C3
350
5F
  3
C4
350
60
  3
C5
350
61
  3
C6
350
62
  3
C7
350
63
  3
C8
350
64
  3
C9
350
65
  3
D0
350
66
  3
D1
350
67
  3
D2
350
68
  0
DICTIONARY
  5
299
102
{ACAD_REACTORS
330
C
102
}
330
C
100
AcDbDictionary
281
     1
  0
DICTIONARY
  5
69
102
{ACAD_REACTORS
330
C
102
}
330
C
100
AcDbDictionary
281
     1
  3
Standard
350
6A
  0
DICTIONARY
  5
2A
102
{ACAD_REACTORS
330
C
102
}
330
C
100
AcDbDictionary
281
     1
  3
2dWireframe
350
2F
  3
Basic
350
32
  3
Brighten
350
36
  3
ColorChange
350
3A
  3
Conceptual
350
34
  3
Dim
350
35
  3
EdgeColorOff
350
3D
  3
Facepattern
350
39
  3
Flat
350
2B
  3
FlatWithEdges
350
2C
  3
Gouraud
350
2D
  3
GouraudWithEdges
350
2E
  3
Hidden
350
31
  3
JitterOff
350
3B
  3
Linepattern
350
38
  3
OverhangOff
350
3C
  3
Realistic
350
33
  3
Shaded
350
42
  3
Shaded with edges
350
41
  3
Shades of Gray
350
3E
  3
Sketchy
350
3F
  3
Thicken
350
37
  3
Wireframe
350
30
  3
X-Ray
350
40
  0
XRECORD
  5
295
102
{ACAD_REACTORS
330
C
102
}
330
C
100
AcDbXrecord
280
     1
 90
        1
330
6A
  0
DICTIONARY
  5
291
102
{ACAD_REACTORS
330
C
102
}
330
C
100
AcDbDictionary
281
     1
  3
CANNOSCALE
350
292
  3
CMLEADERSTYLE
350
297
  3
CTABLESTYLE
350
296
  0
LAYOUT
  5
1E
102
{ACAD_REACTORS
330
1A
102
}
330
1A
100
AcDbPlotSettings
  1

  2
none_device
  4

  6

 40
0.0
 41
0.0
 42
0.0
 43
0.0
 44
0.0
 45
0.0
 46
0.0
 47
0.0
 48
0.0
 49
0.0
140
0.0
141
0.0
142
1.0
143
1.0
 70
   688
 72
     0
 73
     0
 74
     5
  7

 75
    16
 76
     0
 77
     2
 78
   300
147
1.0
148
0.0
149
0.0
100
AcDbLayout
  1
Layout1
 70
     1
 71
     1
 10
0.0
 20
0.0
 11
12.0
 21
9.0
 12
0.0
 22
0.0
 32
0.0
 14
1.000000000000000E+20
 24
1.000000000000000E+20
 34
1.000000000000000E+20
 15
-1.000000000000000E+20
 25
-1.000000000000000E+20
 35
-1.000000000000000E+20
146
0.0
 13
0.0
 23
0.0
 33
0.0
 16
1.0
 26
0.0
 36
0.0
 17
0.0
 27
1.0
 37
0.0
 76
     0
330
1B
  0
LAYOUT
  5
26
102
{ACAD_REACTORS
330
1A
102
}
330
1A
100
AcDbPlotSettings
  1

  2
none_device
  4

  6

 40
0.0
 41
0.0
 42
0.0
 43
0.0
 44
0.0
 45
0.0
 46
0.0
 47
0.0
 48
0.0
 49
0.0
140
0.0
141
0.0
142
1.0
143
1.0
 70
   688
 72
     0
 73
     0
 74
     5
  7

 75
    16
 76
     0
 77
     2
 78
   300
147
1.0
148
0.0
149
0.0
100
AcDbLayout
  1
Layout2
 70
     1
 71
     2
 10
0.0
 20
0.0
 11
0.0
 21
0.0
 12
0.0
 22
0.0
 32
0.0
 14
0.0
 24
0.0
 34
0.0
 15
0.0
 25
0.0
 35
0.0
146
0.0
 13
0.0
 23
0.0
 33
0.0
 16
1.0
 26
0.0
 36
0.0
 17
0.0
 27
1.0
 37
0.0
 76
     0
330
23
  0
LAYOUT
  5
22
102
{ACAD_REACTORS
330
1A
102
}
330
1A
100
AcDbPlotSettings
  1

  2
none_device
  4
Letter_(8.50_x_11.00_Inches)
  6

 40
6.35
 41
6.35
 42
6.35000508
 43
6.35000508
 44
215.9
 45
279.4
 46
0.0
 47
0.0
 48
0.0
 49
0.0
140
0.0
141
0.0
142
1.0
143
1.0
 70
  1712
 72
     0
 73
     0
 74
     0
  7

 75
     0
 76
     0
 77
     2
 78
   300
147
1.0
148
0.0
149
0.0
100
AcDbLayout
  1
Model
 70
     1
 71
     0
 10
0.0
 20
0.0
 11
12.0
 21
9.0
 12
0.0
 22
0.0
 32
0.0
 14
1.000000000000000E+20
 24
1.000000000000000E+20
 34
1.000000000000000E+20
 15
-1.000000000000000E+20
 25
-1.000000000000000E+20
 35
-1.000000000000000E+20
146
0.0
 13
0.0
 23
0.0
 33
0.0
 16
1.0
 26
0.0
 36
0.0
 17
0.0
 27
1.0
 37
0.0
 76
     0
330
1F
331
29
  0
MATERIAL
  5
45
102
{ACAD_REACTORS
330
43
102
}
330
43
100
AcDbMaterial
  1
ByBlock
 72
     1
 94
      127
  0
MATERIAL
  5
44
102
{ACAD_REACTORS
330
43
102
}
330
43
100
AcDbMaterial
  1
ByLayer
 72
     1
 94
      127
  0
MATERIAL
  5
46
102
{ACAD_REACTORS
330
43
102
}
330
43
100
AcDbMaterial
  1
Global
 72
     1
 94
      127
  0
MLEADERSTYLE
  5
6C
102
{ACAD_REACTORS
330
6B
102
}
330
6B
100
AcDbMLeaderStyle
179
     2
170
     2
171
     1
172
     0
 90
        2
 40
0.0
 41
0.0
173
     1
 91
-1056964608
340
14
 92
       -2
290
     1
 42
0.09
291
     1
 43
0.36
  3
Standard
341
0
 44
0.18
300

342
11
174
     1
178
     6
175
     1
176
     0
 93
-1056964608
 45
0.18
292
     0
297
     0
 46
0.18
343
0
 94
-1056964608
 47
1.0
 49
1.0
140
1.0
293
     1
141
0.0
294
     1
177
     0
142
1.0
295
     0
296
     0
143
0.125
271
     0
272
     9
273
     9
298
     0
  0
MLINESTYLE
  5
18
102
{ACAD_REACTORS
330
17
102
}
330
17
100
AcDbMlineStyle
  2
Standard
 70
     0
  3

 62
   256
 51
90.0
 52
90.0
 71
     2
 49
0.5
 62
   256
  6
BYLAYER
 49
-0.5
 62
   256
  6
BYLAYER
  0
ACDBPLACEHOLDER
  5
F
102
{ACAD_REACTORS
330
E
102
}
330
E
  0
SCALE
  5
48
102
{ACAD_REACTORS
330
47
102
}
330
47
100
AcDbScale
 70
     0
300
1:1
140
1.0
141
1.0
290
     1
  0
SCALE
  5
49
102
{ACAD_REACTORS
330
47
102
}
330
47
100
AcDbScale
 70
     0
300
1:2
140
1.0
141
2.0
290
     0
  0
SCALE
  5
4A
102
{ACAD_REACTORS
330
47
102
}
330
47
100
AcDbScale
 70
     0
300
1:4
140
1.0
141
4.0
290
     0
  0
SCALE
  5
4B
102
{ACAD_REACTORS
330
47
102
}
330
47
100
AcDbScale
 70
     0
300
1:5
140
1.0
141
5.0
290
     0
  0
SCALE
  5
4C
102
{ACAD_REACTORS
330
47
102
}
330
47
100
AcDbScale
 70
     0
300
1:8
140
1.0
141
8.0
290
     0
  0
SCALE
  5
4D
102
{ACAD_REACTORS
330
47
102
}
330
47
100
AcDbScale
 70
     0
300
1:10
140
1.0
141
10.0
290
     0
  0
SCALE
  5
4E
102
{ACAD_REACTORS
330
47
102
}
330
47
100
AcDbScale
 70
     0
300
1:16
140
1.0
141
16.0
290
     0
  0
SCALE
  5
4F
102
{ACAD_REACTORS
330
47
102
}
330
47
100
AcDbScale
 70
     0
300
1:20
140
1.0
141
20.0
290
     0
  0
SCALE
  5
50
102
{ACAD_REACTORS
330
47
102
}
330
47
100
AcDbScale
 70
     0
300
1:30
140
1.0
141
30.0
290
     0
  0
SCALE
  5
51
102
{ACAD_REACTORS
330
47
102
}
330
47
100
AcDbScale
 70
     0
300
1:40
140
1.0
141
40.0
290
     0
  0
SCALE
  5
52
102
{ACAD_REACTORS
330
47
102
}
330
47
100
AcDbScale
 70
     0
300
1:50
140
1.0
141
50.0
290
     0
  0
SCALE
  5
53
102
{ACAD_REACTORS
330
47
102
}
330
47
100
AcDbScale
 70
     0
300
1:100
140
1.0
141
100.0
290
     0
  0
SCALE
  5
54
102
{ACAD_REACTORS
330
47
102
}
330
47
100
AcDbScale
 70
     0
300
2:1
140
2.0
141
1.0
290
     0
  0
SCALE
  5
55
102
{ACAD_REACTORS
330
47
102
}
330
47
100
AcDbScale
 70
     0
300
4:1
140
4.0
141
1.0
290
     0
  0
SCALE
  5
56
102
{ACAD_REACTORS
330
47
102
}
330
47
100
AcDbScale
 70
     0
300
8:1
140
8.0
141
1.0
290
     0
  0
SCALE
  5
57
102
{ACAD_REACTORS
330
47
102
}
330
47
100
AcDbScale
 70
     0
300
10:1
140
10.0
141
1.0
290
     0
  0
SCALE
  5
58
102
{ACAD_REACTORS
330
47
102
}
330
47
100
AcDbScale
 70
     0
300
100:1
140
100.0
141
1.0
290
     0
  0
SCALE
  5
59
102
{ACAD_REACTORS
330
47
102
}
330
47
100
AcDbScale
 70
     0
300
1/128" = 1'-0"
140
0.0078125
141
12.0
290
     0
  0
SCALE
  5
5A
102
{ACAD_REACTORS
330
47
102
}
330
47
100
AcDbScale
 70
     0
300
1/64" = 1'-0"
140
0.015625
141
12.0
290
     0
  0
SCALE
  5
5B
102
{ACAD_REACTORS
330
47
102
}
330
47
100
AcDbScale
 70
     0
300
1/32" = 1'-0"
140
0.03125
141
12.0
290
     0
  0
SCALE
  5
5C
102
{ACAD_REACTORS
330
47
102
}
330
47
100
AcDbScale
 70
     0
300
1/16" = 1'-0"
140
0.0625
141
12.0
290
     0
  0
SCALE
  5
5D
102
{ACAD_REACTORS
330
47
102
}
330
47
100
AcDbScale
 70
     0
300
3/32" = 1'-0"
140
0.09375
141
12.0
290
     0
  0
SCALE
  5
5E
102
{ACAD_REACTORS
330
47
102
}
330
47
100
AcDbScale
 70
     0
300
1/8" = 1'-0"
140
0.125
141
12.0
290
     0
  0
SCALE
  5
5F
102
{ACAD_REACTORS
330
47
102
}
330
47
100
AcDbScale
 70
     0
300
3/16" = 1'-0"
140
0.1875
141
12.0
290
     0
  0
SCALE
  5
60
102
{ACAD_REACTORS
330
47
102
}
330
47
100
AcDbScale
 70
     0
300
1/4" = 1'-0"
140
0.25
141
12.0
290
     0
  0
SCALE
  5
61
102
{ACAD_REACTORS
330
47
102
}
330
47
100
AcDbScale
 70
     0
300
3/8" = 1'-0"
140
0.375
141
12.0
290
     0
  0
SCALE
  5
62
102
{ACAD_REACTORS
330
47
102
}
330
47
100
AcDbScale
 70
     0
300
1/2" = 1'-0"
140
0.5
141
12.0
290
     0
  0
SCALE
  5
63
102
{ACAD_REACTORS
330
47
102
}
330
47
100
AcDbScale
 70
     0
300
3/4" = 1'-0"
140
0.75
141
12.0
290
     0
  0
SCALE
  5
64
102
{ACAD_REACTORS
330
47
102
}
330
47
100
AcDbScale
 70
     0
300
1" = 1'-0"
140
1.0
141
12.0
290
     0
  0
SCALE
  5
65
102
{ACAD_REACTORS
330
47
102
}
330
47
100
AcDbScale
 70
     0
300
1-1/2" = 1'-0"
140
1.5
141
12.0
290
     0
  0
SCALE
  5
66
102
{ACAD_REACTORS
330
47
102
}
330
47
100
AcDbScale
 70
     0
300
3" = 1'-0"
140
3.0
141
12.0
290
     0
  0
SCALE
  5
67
102
{ACAD_REACTORS
330
47
102
}
330
47
100
AcDbScale
 70
     0
300
6" = 1'-0"
140
6.0
141
12.0
290
     0
  0
SCALE
  5
68
102
{ACAD_REACTORS
330
47
102
}
330
47
100
AcDbScale
 70
     0
300
1'-0" = 1'-0"
140
12.0
141
12.0
290
     0
  0
TABLESTYLE
  5
6A
102
{ACAD_REACTORS
330
69
102
}
102
{ACAD_XDICTIONARY
360
293
102
}
330
69
100
AcDbTableStyle
  3
Standard
 70
     0
 71
     0
 40
0.06
 41
0.06
280
     0
281
     0
  7
Standard
140
0.18
170
     2
 62
     0
 63
   257
283
     0
 90
        4
 91
        0
  1

274
    -2
284
     1
 64
     0
275
    -2
285
     1
 65
     0
276
    -2
286
     1
 66
     0
277
    -2
287
     1
 67
     0
278
    -2
288
     1
 68
     0
279
    -2
289
     1
 69
     0
  7
Standard
140
0.25
170
     5
 62
     0
 63
   257
283
     0
 90
        4
 91
        0
  1

274
    -2
284
     1
 64
     0
275
    -2
285
     1
 65
     0
276
    -2
286
     1
 66
     0
277
    -2
287
     1
 67
     0
278
    -2
288
     1
 68
     0
279
    -2
289
     1
 69
     0
  7
Standard
140
0.18
170
     5
 62
     0
 63
   257
283
     0
 90
        4
 91
        0
  1

274
    -2
284
     1
 64
     0
275
    -2
285
     1
 65
     0
276
    -2
286
     1
 66
     0
277
    -2
287
     1
 67
     0
278
    -2
288
     1
 68
     0
279
    -2
289
     1
 69
     0
  0
VISUALSTYLE
  5
2F
102
{ACAD_REACTORS
330
2A
102
}
330
2A
100
AcDbVisualStyle
  2
2dWireframe
 70
     4
177
     3
291
     0
 70
    58
 90
        0
176
     1
 90
        2
176
     1
 90
        0
176
     1
 90
        0
176
     1
 40
0.6
176
     1
 40
30.0
176
     1
 62
     7
420
 16777215
176
     1
 90
        1
176
     1
 90
        4
176
     1
 62
     7
176
     1
 62
   257
176
     1
 90
        1
176
     1
 90
        1
176
     1
 40
1.0
176
     1
 90
        0
176
     1
 62
   257
176
     1
 40
1.0
176
     1
 90
        1
176
     1
 90
        6
176
     1
 90
        2
176
     1
 62
     7
176
     1
 90
        5
176
     1
 90
        0
176
     1
 90
        0
176
     1
290
     0
176
     1
 90
        1
176
     1
 40
0.0
176
     1
 90
        0
176
     1
290
     1
176
     1
290
     1
176
     1
290
     0
176
     1
290
     0
176
     1
290
     0
176
     1
290
     0
176
     1
290
     0
176
     1
290
     0
176
     1
290
     0
176
     1
 90
       50
176
     1
 40
0.0
176
     1
 40
1.0
176
     1
 90
        0
176
     1
 62
    18
420
        0
176
     1
 90
       50
176
     1
 90
        3
176
     1
 62
     5
420
      255
176
     1
290
     0
176
     1
 90
       50
176
     1
 90
       50
176
     1
 90
       50
176
     1
290
     0
176
     1
 90
       50
176
     1
 62
   256
176
     0
 40
1.0
176
     0
 90
        2
176
     1
  1
strokes_ogs.tif
176
     1
290
     0
176
     1
 40
1.0
176
     1
 40
1.0
176
     1
  0
VISUALSTYLE
  5
32
102
{ACAD_REACTORS
330
2A
102
}
330
2A
100
AcDbVisualStyle
  2
Basic
 70
     7
177
     3
291
     1
 70
    58
 90
        1
176
     1
 90
        0
176
     1
 90
        1
176
     1
 90
        0
176
     1
 40
0.6
176
     1
 40
30.0
176
     1
 62
     7
420
 16777215
176
     1
 90
        0
176
     1
 90
        4
176
     1
 62
     7
176
     1
 62
   257
176
     1
 90
        1
176
     1
 90
        1
176
     1
 40
1.0
176
     1
 90
        8
176
     1
 62
     7
176
     1
 40
1.0
176
     1
 90
        1
176
     1
 90
        6
176
     1
 90
        2
176
     1
 62
     7
176
     1
 90
        5
176
     1
 90
        0
176
     1
 90
        0
176
     1
290
     0
176
     1
 90
        1
176
     1
 40
0.0
176
     1
 90
        0
176
     1
290
     0
176
     1
290
     1
176
     1
290
     1
176
     1
290
     0
176
     1
290
     0
176
     1
290
     0
176
     1
290
     0
176
     1
290
     0
176
     1
290
     0
176
     1
 90
       50
176
     1
 40
0.0
176
     1
 40
1.0
176
     1
 90
        0
176
     1
 62
    18
420
        0
176
     1
 90
       50
176
     1
 90
        3
176
     1
 62
     5
420
      255
176
     1
290
     0
176
     1
 90
       50
176
     1
 90
       50
176
     1
 90
       50
176
     1
290
     0
176
     1
 90
       50
176
     1
 62
   256
176
     0
 40
1.0
176
     0
 90
        2
176
     1
  1
strokes_ogs.tif
176
     1
290
     0
176
     1
 40
1.0
176
     1
 40
1.0
176
     1
  0
VISUALSTYLE
  5
36
102
{ACAD_REACTORS
330
2A
102
}
330
2A
100
AcDbVisualStyle
  2
Brighten
 70
    12
177
     3
291
     1
 70
    58
 90
        2
176
     1
 90
        2
176
     1
 90
        0
176
     1
 90
        0
176
     1
 40
0.6
176
     1
 40
30.0
176
     1
 62
     7
420
 16777215
176
     1
 90
        1
176
     1
 90
        4
176
     1
 62
     7
176
     1
 62
   257
176
     1
 90
        1
176
     1
 90
        1
176
     1
 40
1.0
176
     1
 90
        8
176
     1
 62
     7
176
     1
 40
1.0
176
     1
 90
        1
176
     1
 90
        6
176
     1
 90
        2
176
     1
 62
     7
176
     1
 90
        5
176
     1
 90
        0
176
     1
 90
        0
176
     1
290
     0
176
     1
 90
        1
176
     1
 40
50.0
176
     1
 90
        0
176
     1
290
     0
176
     1
290
     1
176
     1
290
     1
176
     1
290
     0
176
     1
290
     0
176
     1
290
     0
176
     1
290
     0
176
     1
290
     0
176
     1
290
     0
176
     1
 90
       50
176
     1
 40
0.0
176
     1
 40
1.0
176
     1
 90
        0
176
     1
 62
    18
420
        0
176
     1
 90
       50
176
     1
 90
        3
176
     1
 62
     5
420
      255
176
     1
290
     0
176
     1
 90
       50
176
     1
 90
       50
176
     1
 90
       50
176
     1
290
     0
176
     1
 90
       50
176
     1
 62
   256
176
     0
 40
1.0
176
     0
 90
        2
176
     1
  1
strokes_ogs.tif
176
     1
290
     0
176
     1
 40
1.0
176
     1
 40
1.0
176
     1
  0
VISUALSTYLE
  5
3A
102
{ACAD_REACTORS
330
2A
102
}
330
2A
100
AcDbVisualStyle
  2
ColorChange
 70
    16
177
     3
291
     1
 70
    58
 90
        2
176
     1
 90
        2
176
     1
 90
        3
176
     1
 90
        0
176
     1
 40
0.6
176
     1
 40
30.0
176
     1
 62
     8
420
  8421504
176
     1
 90
        1
176
     1
 90
        4
176
     1
 62
     7
176
     1
 62
   257
176
     1
 90
        1
176
     1
 90
        1
176
     1
 40
1.0
176
     1
 90
        8
176
     1
 62
     8
420
  8421504
176
     1
 40
1.0
176
     1
 90
        1
176
     1
 90
        6
176
     1
 90
        2
176
     1
 62
     7
176
     1
 90
        5
176
     1
 90
        0
176
     1
 90
        0
176
     1
290
     0
176
     1
 90
        1
176
     1
 40
0.0
176
     1
 90
        0
176
     1
290
     0
176
     1
290
     1
176
     1
290
     1
176
     1
290
     0
176
     1
290
     0
176
     1
290
     0
176
     1
290
     0
176
     1
290
     0
176
     1
290
     0
176
     1
 90
       50
176
     1
 40
0.0
176
     1
 40
1.0
176
     1
 90
        0
176
     1
 62
    18
420
        0
176
     1
 90
       50
176
     1
 90
        3
176
     1
 62
     5
420
      255
176
     1
290
     0
176
     1
 90
       50
176
     1
 90
       50
176
     1
 90
       50
176
     1
290
     0
176
     1
 90
       50
176
     1
 62
   256
176
     0
 40
1.0
176
     0
 90
        2
176
     1
  1
strokes_ogs.tif
176
     1
290
     0
176
     1
 40
1.0
176
     1
 40
1.0
176
     1
  0
VISUALSTYLE
  5
34
102
{ACAD_REACTORS
330
2A
102
}
330
2A
100
AcDbVisualStyle
  2
Conceptual
 70
     9
177
     3
291
     0
 70
    58
 90
        3
176
     1
 90
        2
176
     1
 90
        0
176
     1
 90
        0
176
     1
 40
0.6
176
     1
 40
30.0
176
     1
 62
     7
420
 16777215
176
     1
 90
        2
176
     1
 90
        2
176
     1
 62
     7
176
     1
 62
   257
176
     1
 90
        1
176
     1
 90
        1
176
     1
 40
179.0
176
     1
 90
        8
176
     1
 62
     7
176
     1
 40
1.0
176
     1
 90
        1
176
     1
 90
        6
176
     1
 90
        2
176
     1
 62
     7
176
     1
 90
        3
176
     1
 90
        0
176
     1
 90
        0
176
     1
290
     0
176
     1
 90
        1
176
     1
 40
0.0
176
     1
 90
        0
176
     1
290
     0
176
     1
290
     1
176
     1
290
     1
176
     1
290
     0
176
     1
290
     0
176
     1
290
     0
176
     1
290
     0
176
     1
290
     0
176
     1
290
     0
176
     1
 90
       50
176
     1
 40
0.0
176
     1
 40
1.0
176
     1
 90
        0
176
     1
 62
    18
420
        0
176
     1
 90
       50
176
     1
 90
        3
176
     1
 62
     5
420
      255
176
     1
290
     0
176
     1
 90
       50
176
     1
 90
       50
176
     1
 90
       50
176
     1
290
     0
176
     1
 90
       50
176
     1
 62
   256
176
     0
 40
1.0
176
     0
 90
        2
176
     1
  1
strokes_ogs.tif
176
     1
290
     0
176
     1
 40
1.0
176
     1
 40
1.0
176
     1
  0
VISUALSTYLE
  5
35
102
{ACAD_REACTORS
330
2A
102
}
330
2A
100
AcDbVisualStyle
  2
Dim
 70
    11
177
     3
291
     1
 70
    58
 90
        2
176
     1
 90
        2
176
     1
 90
        0
176
     1
 90
        0
176
     1
 40
0.6
176
     1
 40
30.0
176
     1
 62
     7
420
 16777215
176
     1
 90
        1
176
     1
 90
        4
176
     1
 62
     7
176
     1
 62
   257
176
     1
 90
        1
176
     1
 90
        1
176
     1
 40
1.0
176
     1
 90
        8
176
     1
 62
     7
176
     1
 40
1.0
176
     1
 90
        1
176
     1
 90
        6
176
     1
 90
        2
176
     1
 62
     7
176
     1
 90
        5
176
     1
 90
        0
176
     1
 90
        0
176
     1
290
     0
176
     1
 90
        1
176
     1
 40
-50.0
176
     1
 90
        0
176
     1
290
     0
176
     1
290
     1
176
     1
290
     1
176
     1
290
     0
176
     1
290
     0
176
     1
290
     0
176
     1
290
     0
176
     1
290
     0
176
     1
290
     0
176
     1
 90
       50
176
     1
 40
0.0
176
     1
 40
1.0
176
     1
 90
        0
176
     1
 62
    18
420
        0
176
     1
 90
       50
176
     1
 90
        3
176
     1
 62
     5
420
      255
176
     1
290
     0
176
     1
 90
       50
176
     1
 90
       50
176
     1
 90
       50
176
     1
290
     0
176
     1
 90
       50
176
     1
 62
   256
176
     0
 40
1.0
176
     0
 90
        2
176
     1
  1
strokes_ogs.tif
176
     1
290
     0
176
     1
 40
1.0
176
     1
 40
1.0
176
     1
  0
VISUALSTYLE
  5
3D
102
{ACAD_REACTORS
330
2A
102
}
330
2A
100
AcDbVisualStyle
  2
EdgeColorOff
 70
    22
177
     3
291
     1
 70
    58
 90
        2
176
     0
 90
        2
176
     0
 90
        0
176
     0
 90
        0
176
     0
 40
0.6
176
     0
 40
30.0
176
     0
 62
     7
420
 16777215
176
     0
 90
        1
176
     0
 90
        4
176
     0
 62
     7
176
     0
 62
   257
176
     0
 90
        1
176
     0
 90
        1
176
     0
 40
1.0
176
     0
 90
        8
176
     2
 62
     7
176
     0
 40
1.0
176
     0
 90
        1
176
     0
 90
        6
176
     0
 90
        2
176
     0
 62
     7
176
     0
 90
        5
176
     0
 90
        0
176
     0
 90
        0
176
     0
290
     0
176
     0
 90
        1
176
     0
 40
0.0
176
     0
 90
        0
176
     0
290
     0
176
     0
290
     1
176
     0
290
     1
176
     0
290
     0
176
     0
290
     0
176
     0
290
     0
176
     0
290
     0
176
     0
290
     0
176
     0
290
     0
176
     0
 90
       50
176
     0
 40
0.0
176
     0
 40
1.0
176
     0
 90
        0
176
     0
 62
    18
420
        0
176
     0
 90
       50
176
     0
 90
        3
176
     0
 62
     5
420
      255
176
     0
290
     0
176
     0
 90
       50
176
     0
 90
       50
176
     0
 90
       50
176
     0
290
     0
176
     0
 90
       50
176
     0
 62
   256
176
     0
 40
1.0
176
     0
 90
        2
176
     0
  1
strokes_ogs.tif
176
     0
290
     0
176
     0
 40
1.0
176
     0
 40
1.0
176
     0
  0
VISUALSTYLE
  5
39
102
{ACAD_REACTORS
330
2A
102
}
330
2A
100
AcDbVisualStyle
  2
Facepattern
 70
    15
177
     3
291
     1
 70
    58
 90
        2
176
     1
 90
        2
176
     1
 90
        0
176
     1
 90
        0
176
     1
 40
0.6
176
     1
 40
30.0
176
     1
 62
     7
420
 16777215
176
     1
 90
        1
176
     1
 90
        4
176
     1
 62
     7
176
     1
 62
   257
176
     1
 90
        1
176
     1
 90
        1
176
     1
 40
1.0
176
     1
 90
        8
176
     1
 62
     7
176
     1
 40
1.0
176
     1
 90
        1
176
     1
 90
        6
176
     1
 90
        2
176
     1
 62
     7
176
     1
 90
        5
176
     1
 90
        0
176
     1
 90
        0
176
     1
290
     0
176
     1
 90
        1
176
     1
 40
0.0
176
     1
 90
        0
176
     1
290
     0
176
     1
290
     1
176
     1
290
     1
176
     1
290
     0
176
     1
290
     0
176
     1
290
     0
176
     1
290
     0
176
     1
290
     0
176
     1
290
     0
176
     1
 90
       50
176
     1
 40
0.0
176
     1
 40
1.0
176
     1
 90
        0
176
     1
 62
    18
420
        0
176
     1
 90
       50
176
     1
 90
        3
176
     1
 62
     5
420
      255
176
     1
290
     0
176
     1
 90
       50
176
     1
 90
       50
176
     1
 90
       50
176
     1
290
     0
176
     1
 90
       50
176
     1
 62
   256
176
     0
 40
1.0
176
     0
 90
        2
176
     1
  1
strokes_ogs.tif
176
     1
290
     0
176
     1
 40
1.0
176
     1
 40
1.0
176
     1
  0
VISUALSTYLE
  5
2B
102
{ACAD_REACTORS
330
2A
102
}
330
2A
100
AcDbVisualStyle
  2
Flat
 70
     0
177
     3
291
     1
 70
    58
 90
        2
176
     1
 90
        1
176
     1
 90
        1
176
     1
 90
        2
176
     1
 40
0.6
176
     1
 40
30.0
176
     1
 62
     7
420
 16777215
176
     1
 90
        0
176
     1
 90
        0
176
     1
 62
     7
176
     1
 62
   257
176
     1
 90
        1
176
     1
 90
        1
176
     1
 40
1.0
176
     1
 90
        8
176
     1
 62
     7
176
     1
 40
1.0
176
     1
 90
        1
176
     1
 90
        6
176
     1
 90
        2
176
     1
 62
     7
176
     1
 90
        5
176
     1
 90
        0
176
     1
 90
        0
176
     1
290
     0
176
     1
 90
       13
176
     1
 40
0.0
176
     1
 90
        0
176
     1
290
     0
176
     1
290
     1
176
     1
290
     1
176
     1
290
     0
176
     1
290
     0
176
     1
290
     0
176
     1
290
     0
176
     1
290
     0
176
     1
290
     0
176
     1
 90
       50
176
     1
 40
0.0
176
     1
 40
1.0
176
     1
 90
        0
176
     1
 62
    18
420
        0
176
     1
 90
       50
176
     1
 90
        3
176
     1
 62
     5
420
      255
176
     1
290
     0
176
     1
 90
       50
176
     1
 90
       50
176
     1
 90
       50
176
     1
290
     0
176
     1
 90
       50
176
     1
 62
   256
176
     0
 40
1.0
176
     0
 90
        2
176
     1
  1
strokes_ogs.tif
176
     1
290
     0
176
     1
 40
1.0
176
     1
 40
1.0
176
     1
  0
VISUALSTYLE
  5
2C
102
{ACAD_REACTORS
330
2A
102
}
330
2A
100
AcDbVisualStyle
  2
FlatWithEdges
 70
     1
177
     3
291
     1
 70
    58
 90
        2
176
     1
 90
        1
176
     1
 90
        1
176
     1
 90
        2
176
     1
 40
0.6
176
     1
 40
30.0
176
     1
 62
     7
420
 16777215
176
     1
 90
        1
176
     1
 90
        0
176
     1
 62
     7
176
     1
 62
   257
176
     1
 90
        1
176
     1
 90
        1
176
     1
 40
1.0
176
     1
 90
        0
176
     1
 62
   257
176
     1
 40
1.0
176
     1
 90
        1
176
     1
 90
        6
176
     1
 90
        2
176
     1
 62
     7
176
     1
 90
        5
176
     1
 90
        0
176
     1
 90
        0
176
     1
290
     0
176
     1
 90
       13
176
     1
 40
0.0
176
     1
 90
        0
176
     1
290
     0
176
     1
290
     1
176
     1
290
     1
176
     1
290
     0
176
     1
290
     0
176
     1
290
     0
176
     1
290
     0
176
     1
290
     0
176
     1
290
     0
176
     1
 90
       50
176
     1
 40
0.0
176
     1
 40
1.0
176
     1
 90
        0
176
     1
 62
    18
420
        0
176
     1
 90
       50
176
     1
 90
        3
176
     1
 62
     5
420
      255
176
     1
290
     0
176
     1
 90
       50
176
     1
 90
       50
176
     1
 90
       50
176
     1
290
     0
176
     1
 90
       50
176
     1
 62
   256
176
     0
 40
1.0
176
     0
 90
        2
176
     1
  1
strokes_ogs.tif
176
     1
290
     0
176
     1
 40
1.0
176
     1
 40
1.0
176
     1
  0
VISUALSTYLE
  5
2D
102
{ACAD_REACTORS
330
2A
102
}
330
2A
100
AcDbVisualStyle
  2
Gouraud
 70
     2
177
     3
291
     1
 70
    58
 90
        2
176
     1
 90
        2
176
     1
 90
        1
176
     1
 90
        2
176
     1
 40
0.6
176
     1
 40
30.0
176
     1
 62
     7
420
 16777215
176
     1
 90
        0
176
     1
 90
        0
176
     1
 62
     7
176
     1
 62
   257
176
     1
 90
        1
176
     1
 90
        1
176
     1
 40
1.0
176
     1
 90
        0
176
     1
 62
     7
176
     1
 40
1.0
176
     1
 90
        1
176
     1
 90
        6
176
     1
 90
        2
176
     1
 62
     7
176
     1
 90
        5
176
     1
 90
        0
176
     1
 90
        0
176
     1
290
     0
176
     1
 90
       13
176
     1
 40
0.0
176
     1
 90
        0
176
     1
290
     0
176
     1
290
     1
176
     1
290
     1
176
     1
290
     0
176
     1
290
     0
176
     1
290
     0
176
     1
290
     0
176
     1
290
     0
176
     1
290
     0
176
     1
 90
       50
176
     1
 40
0.0
176
     1
 40
1.0
176
     1
 90
        0
176
     1
 62
    18
420
        0
176
     1
 90
       50
176
     1
 90
        3
176
     1
 62
     5
420
      255
176
     1
290
     0
176
     1
 90
       50
176
     1
 90
       50
176
     1
 90
       50
176
     1
290
     0
176
     1
 90
       50
176
     1
 62
   256
176
     0
 40
1.0
176
     0
 90
        2
176
     1
  1
strokes_ogs.tif
176
     1
290
     0
176
     1
 40
1.0
176
     1
 40
1.0
176
     1
  0
VISUALSTYLE
  5
2E
102
{ACAD_REACTORS
330
2A
102
}
330
2A
100
AcDbVisualStyle
  2
GouraudWithEdges
 70
     3
177
     3
291
     1
 70
    58
 90
        2
176
     1
 90
        2
176
     1
 90
        1
176
     1
 90
        2
176
     1
 40
0.6
176
     1
 40
30.0
176
     1
 62
     7
420
 16777215
176
     1
 90
        1
176
     1
 90
        0
176
     1
 62
     7
176
     1
 62
   257
176
     1
 90
        1
176
     1
 90
        1
176
     1
 40
1.0
176
     1
 90
        0
176
     1
 62
   257
176
     1
 40
1.0
176
     1
 90
        1
176
     1
 90
        6
176
     1
 90
        2
176
     1
 62
     7
176
     1
 90
        5
176
     1
 90
        0
176
     1
 90
        0
176
     1
290
     0
176
     1
 90
       13
176
     1
 40
0.0
176
     1
 90
        0
176
     1
290
     0
176
     1
290
     1
176
     1
290
     1
176
     1
290
     0
176
     1
290
     0
176
     1
290
     0
176
     1
290
     0
176
     1
290
     0
176
     1
290
     0
176
     1
 90
       50
176
     1
 40
0.0
176
     1
 40
1.0
176
     1
 90
        0
176
     1
 62
    18
420
        0
176
     1
 90
       50
176
     1
 90
        3
176
     1
 62
     5
420
      255
176
     1
290
     0
176
     1
 90
       50
176
     1
 90
       50
176
     1
 90
       50
176
     1
290
     0
176
     1
 90
       50
176
     1
 62
   256
176
     0
 40
1.0
176
     0
 90
        2
176
     1
  1
strokes_ogs.tif
176
     1
290
     0
176
     1
 40
1.0
176
     1
 40
1.0
176
     1
  0
VISUALSTYLE
  5
31
102
{ACAD_REACTORS
330
2A
102
}
330
2A
100
AcDbVisualStyle
  2
Hidden
 70
     6
177
     3
291
     0
 70
    58
 90
        1
176
     1
 90
        2
176
     1
 90
        2
176
     1
 90
        0
176
     1
 40
0.6
176
     1
 40
30.0
176
     1
 62
     7
420
 16777215
176
     1
 90
        2
176
     1
 90
        2
176
     1
 62
     7
176
     1
 62
   257
176
     1
 90
        2
176
     1
 90
        1
176
     1
 40
40.0
176
     1
 90
        0
176
     1
 62
   257
176
     1
 40
1.0
176
     1
 90
        1
176
     1
 90
        6
176
     1
 90
        2
176
     1
 62
     7
176
     1
 90
        3
176
     1
 90
        0
176
     1
 90
        0
176
     1
290
     0
176
     1
 90
        1
176
     1
 40
0.0
176
     1
 90
        0
176
     1
290
     0
176
     1
290
     1
176
     1
290
     1
176
     1
290
     0
176
     1
290
     0
176
     1
290
     0
176
     1
290
     0
176
     1
290
     0
176
     1
290
     0
176
     1
 90
       50
176
     1
 40
0.0
176
     1
 40
1.0
176
     1
 90
        0
176
     1
 62
    18
420
        0
176
     1
 90
       50
176
     1
 90
        3
176
     1
 62
     5
420
      255
176
     1
290
     0
176
     1
 90
       50
176
     1
 90
       50
176
     1
 90
       50
176
     1
290
     0
176
     1
 90
       50
176
     1
 62
   256
176
     0
 40
1.0
176
     0
 90
        2
176
     1
  1
strokes_ogs.tif
176
     1
290
     0
176
     1
 40
1.0
176
     1
 40
1.0
176
     1
  0
VISUALSTYLE
  5
3B
102
{ACAD_REACTORS
330
2A
102
}
330
2A
100
AcDbVisualStyle
  2
JitterOff
 70
    20
177
     3
291
     1
 70
    58
 90
        2
176
     0
 90
        2
176
     0
 90
        0
176
     0
 90
        0
176
     0
 40
0.6
176
     0
 40
30.0
176
     0
 62
     7
420
 16777215
176
     0
 90
        1
176
     0
 90
        4
176
     0
 62
     7
176
     0
 62
   257
176
     0
 90
        1
176
     0
 90
        1
176
     0
 40
1.0
176
     0
 90
       10
176
     2
 62
     7
176
     0
 40
1.0
176
     0
 90
        1
176
     0
 90
        6
176
     0
 90
        2
176
     0
 62
     7
176
     0
 90
        5
176
     0
 90
        0
176
     0
 90
        0
176
     0
290
     0
176
     0
 90
        1
176
     0
 40
0.0
176
     0
 90
        0
176
     0
290
     0
176
     0
290
     1
176
     0
290
     1
176
     0
290
     0
176
     0
290
     0
176
     0
290
     0
176
     0
290
     0
176
     0
290
     0
176
     0
290
     0
176
     0
 90
       50
176
     0
 40
0.0
176
     0
 40
1.0
176
     0
 90
        0
176
     0
 62
    18
420
        0
176
     0
 90
       50
176
     0
 90
        3
176
     0
 62
     5
420
      255
176
     0
290
     0
176
     0
 90
       50
176
     0
 90
       50
176
     0
 90
       50
176
     0
290
     0
176
     0
 90
       50
176
     0
 62
   256
176
     0
 40
1.0
176
     0
 90
        2
176
     0
  1
strokes_ogs.tif
176
     0
290
     0
176
     0
 40
1.0
176
     0
 40
1.0
176
     0
  0
VISUALSTYLE
  5
38
102
{ACAD_REACTORS
330
2A
102
}
330
2A
100
AcDbVisualStyle
  2
Linepattern
 70
    14
177
     3
291
     1
 70
    58
 90
        2
176
     1
 90
        2
176
     1
 90
        0
176
     1
 90
        0
176
     1
 40
0.6
176
     1
 40
30.0
176
     1
 62
     7
420
 16777215
176
     1
 90
        1
176
     1
 90
        4
176
     1
 62
     7
176
     1
 62
   257
176
     1
 90
        7
176
     1
 90
        7
176
     1
 40
1.0
176
     1
 90
        8
176
     1
 62
     7
176
     1
 40
1.0
176
     1
 90
        1
176
     1
 90
        6
176
     1
 90
        2
176
     1
 62
     7
176
     1
 90
        5
176
     1
 90
        0
176
     1
 90
        0
176
     1
290
     0
176
     1
 90
        1
176
     1
 40
0.0
176
     1
 90
        0
176
     1
290
     0
176
     1
290
     1
176
     1
290
     1
176
     1
290
     0
176
     1
290
     0
176
     1
290
     0
176
     1
290
     0
176
     1
290
     0
176
     1
290
     0
176
     1
 90
       50
176
     1
 40
0.0
176
     1
 40
1.0
176
     1
 90
        0
176
     1
 62
    18
420
        0
176
     1
 90
       50
176
     1
 90
        3
176
     1
 62
     5
420
      255
176
     1
290
     0
176
     1
 90
       50
176
     1
 90
       50
176
     1
 90
       50
176
     1
290
     0
176
     1
 90
       50
176
     1
 62
   256
176
     0
 40
1.0
176
     0
 90
        2
176
     1
  1
strokes_ogs.tif
176
     1
290
     0
176
     1
 40
1.0
176
     1
 40
1.0
176
     1
  0
VISUALSTYLE
  5
3C
102
{ACAD_REACTORS
330
2A
102
}
330
2A
100
AcDbVisualStyle
  2
OverhangOff
 70
    21
177
     3
291
     1
 70
    58
 90
        2
176
     0
 90
        2
176
     0
 90
        0
176
     0
 90
        0
176
     0
 40
0.6
176
     0
 40
30.0
176
     0
 62
     7
420
 16777215
176
     0
 90
        1
176
     0
 90
        4
176
     0
 62
     7
176
     0
 62
   257
176
     0
 90
        1
176
     0
 90
        1
176
     0
 40
1.0
176
     0
 90
        9
176
     2
 62
     7
176
     0
 40
1.0
176
     0
 90
        1
176
     0
 90
        6
176
     0
 90
        2
176
     0
 62
     7
176
     0
 90
        5
176
     0
 90
        0
176
     0
 90
        0
176
     0
290
     0
176
     0
 90
        1
176
     0
 40
0.0
176
     0
 90
        0
176
     0
290
     0
176
     0
290
     1
176
     0
290
     1
176
     0
290
     0
176
     0
290
     0
176
     0
290
     0
176
     0
290
     0
176
     0
290
     0
176
     0
290
     0
176
     0
 90
       50
176
     0
 40
0.0
176
     0
 40
1.0
176
     0
 90
        0
176
     0
 62
    18
420
        0
176
     0
 90
       50
176
     0
 90
        3
176
     0
 62
     5
420
      255
176
     0
290
     0
176
     0
 90
       50
176
     0
 90
       50
176
     0
 90
       50
176
     0
290
     0
176
     0
 90
       50
176
     0
 62
   256
176
     0
 40
1.0
176
     0
 90
        2
176
     0
  1
strokes_ogs.tif
176
     0
290
     0
176
     0
 40
1.0
176
     0
 40
1.0
176
     0
  0
VISUALSTYLE
  5
33
102
{ACAD_REACTORS
330
2A
102
}
330
2A
100
AcDbVisualStyle
  2
Realistic
 70
     8
177
     3
291
     0
 70
    58
 90
        2
176
     1
 90
        3
176
     1
 90
        0
176
     1
 90
        2
176
     1
 40
0.6
176
     1
 40
30.0
176
     1
 62
     7
420
 16777215
176
     1
 90
        0
176
     1
 90
        0
176
     1
 62
     7
176
     1
 62
   257
176
     1
 90
        1
176
     1
 90
        1
176
     1
 40
1.0
176
     1
 90
        8
176
     1
 62
   257
176
     1
 40
1.0
176
     1
 90
        1
176
     1
 90
        6
176
     1
 90
        2
176
     1
 62
     7
176
     1
 90
        3
176
     1
 90
        0
176
     1
 90
        0
176
     1
290
     0
176
     1
 90
       13
176
     1
 40
0.0
176
     1
 90
        0
176
     1
290
     0
176
     1
290
     1
176
     1
290
     1
176
     1
290
     0
176
     1
290
     0
176
     1
290
     0
176
     1
290
     0
176
     1
290
     0
176
     1
290
     0
176
     1
 90
       50
176
     1
 40
0.0
176
     1
 40
1.0
176
     1
 90
        0
176
     1
 62
    18
420
        0
176
     1
 90
       50
176
     1
 90
        3
176
     1
 62
     5
420
      255
176
     1
290
     0
176
     1
 90
       50
176
     1
 90
       50
176
     1
 90
       50
176
     1
290
     0
176
     1
 90
       50
176
     1
 62
   256
176
     0
 40
1.0
176
     0
 90
        2
176
     1
  1
strokes_ogs.tif
176
     1
290
     0
176
     1
 40
1.0
176
     1
 40
1.0
176
     1
  0
VISUALSTYLE
  5
42
102
{ACAD_REACTORS
330
2A
102
}
330
2A
100
AcDbVisualStyle
  2
Shaded
 70
    27
177
     3
291
     0
 70
    58
 90
        2
176
     1
 90
        2
176
     1
 90
        1
176
     1
 90
        2
176
     1
 40
0.6
176
     1
 40
30.0
176
     1
 62
     7
420
 16777215
176
     1
 90
        0
176
     1
 90
        4
176
     1
 62
     7
176
     1
 62
   257
176
     1
 90
        1
176
     1
 90
        1
176
     1
 40
1.0
176
     1
 90
        8
176
     1
 62
   257
176
     1
 40
1.0
176
     1
 90
        1
176
     1
 90
        6
176
     1
 90
        2
176
     1
 62
     8
420
  7895160
176
     1
 90
        3
176
     1
 90
        0
176
     1
 90
        0
176
     1
290
     0
176
     1
 90
        5
176
     1
 40
0.0
176
     1
 90
        0
176
     1
290
     0
176
     1
290
     1
176
     1
290
     1
176
     1
290
     0
176
     1
290
     0
176
     1
290
     0
176
     1
290
     0
176
     1
290
     0
176
     1
290
     0
176
     1
 90
       50
176
     1
 40
0.0
176
     1
 40
1.0
176
     1
 90
        0
176
     1
 62
    18
420
        0
176
     1
 90
       50
176
     1
 90
        3
176
     1
 62
     5
420
      255
176
     1
290
     0
176
     1
 90
       50
176
     1
 90
       50
176
     1
 90
       50
176
     1
290
     0
176
     1
 90
       50
176
     1
 62
   256
176
     0
 40
1.0
176
     0
 90
        2
176
     1
  1
strokes_ogs.tif
176
     1
290
     0
176
     1
 40
1.0
176
     1
 40
1.0
176
     1
  0
VISUALSTYLE
  5
41
102
{ACAD_REACTORS
330
2A
102
}
330
2A
100
AcDbVisualStyle
  2
Shaded with edges
 70
    26
177
     3
291
     0
 70
    58
 90
        2
176
     1
 90
        2
176
     1
 90
        1
176
     1
 90
        2
176
     1
 40
0.6
176
     1
 40
30.0
176
     1
 62
     7
420
 16777215
176
     1
 90
        1
176
     1
 90
       10
176
     1
 62
     7
176
     1
 62
   257
176
     1
 90
        2
176
     1
 90
        1
176
     1
 40
1.0
176
     1
 90
        8
176
     1
 62
   257
176
     1
 40
1.0
176
     1
 90
        1
176
     1
 90
        6
176
     1
 90
        2
176
     1
 62
     7
176
     1
 90
        3
176
     1
 90
        0
176
     1
 90
        0
176
     1
290
     0
176
     1
 90
        5
176
     1
 40
0.0
176
     1
 90
        0
176
     1
290
     0
176
     1
290
     1
176
     1
290
     1
176
     1
290
     0
176
     1
290
     0
176
     1
290
     0
176
     1
290
     0
176
     1
290
     0
176
     1
290
     0
176
     1
 90
       50
176
     1
 40
0.0
176
     1
 40
1.0
176
     1
 90
        0
176
     1
 62
    18
420
        0
176
     1
 90
       50
176
     1
 90
        3
176
     1
 62
     5
420
      255
176
     1
290
     0
176
     1
 90
       50
176
     1
 90
       50
176
     1
 90
       50
176
     1
290
     0
176
     1
 90
       50
176
     1
 62
   256
176
     0
 40
1.0
176
     0
 90
        2
176
     1
  1
strokes_ogs.tif
176
     1
290
     0
176
     1
 40
1.0
176
     1
 40
1.0
176
     1
  0
VISUALSTYLE
  5
3E
102
{ACAD_REACTORS
330
2A
102
}
330
2A
100
AcDbVisualStyle
  2
Shades of Gray
 70
    23
177
     3
291
     0
 70
    58
 90
        2
176
     1
 90
        2
176
     1
 90
        3
176
     1
 90
        0
176
     1
 40
0.6
176
     1
 40
30.0
176
     1
 62
     7
420
 16777215
176
     1
 90
        2
176
     1
 90
        2
176
     1
 62
     7
176
     1
 62
     7
176
     1
 90
        1
176
     1
 90
        1
176
     1
 40
40.0
176
     1
 90
        8
176
     1
 62
     7
176
     1
 40
1.0
176
     1
 90
        1
176
     1
 90
        6
176
     1
 90
        2
176
     1
 62
     7
176
     1
 90
        3
176
     1
 90
        0
176
     1
 90
        0
176
     1
290
     0
176
     1
 90
        1
176
     1
 40
0.0
176
     1
 90
        0
176
     1
290
     0
176
     1
290
     1
176
     1
290
     1
176
     1
290
     0
176
     1
290
     0
176
     1
290
     0
176
     1
290
     0
176
     1
290
     0
176
     1
290
     0
176
     1
 90
       50
176
     1
 40
0.0
176
     1
 40
1.0
176
     1
 90
        0
176
     1
 62
    18
420
        0
176
     1
 90
       50
176
     1
 90
        3
176
     1
 62
     5
420
      255
176
     1
290
     0
176
     1
 90
       50
176
     1
 90
       50
176
     1
 90
       50
176
     1
290
     0
176
     1
 90
       50
176
     1
 62
   256
176
     0
 40
1.0
176
     0
 90
        2
176
     1
  1
strokes_ogs.tif
176
     1
290
     0
176
     1
 40
1.0
176
     1
 40
1.0
176
     1
  0
VISUALSTYLE
  5
3F
102
{ACAD_REACTORS
330
2A
102
}
330
2A
100
AcDbVisualStyle
  2
Sketchy
 70
    24
177
     3
291
     0
 70
    58
 90
        1
176
     1
 90
        2
176
     1
 90
        2
176
     1
 90
        0
176
     1
 40
0.6
176
     1
 40
30.0
176
     1
 62
     7
420
 16777215
176
     1
 90
        2
176
     1
 90
        2
176
     1
 62
     7
176
     1
 62
     7
176
     1
 90
        1
176
     1
 90
        1
176
     1
 40
40.0
176
     1
 90
       11
176
     1
 62
     7
176
     1
 40
1.0
176
     1
 90
        1
176
     1
 90
        6
176
     1
 90
        2
176
     1
 62
     7
176
     1
 90
        6
176
     1
 90
        0
176
     1
 90
        0
176
     1
290
     0
176
     1
 90
        1
176
     1
 40
0.0
176
     1
 90
        0
176
     1
290
     0
176
     1
290
     1
176
     1
290
     1
176
     1
290
     0
176
     1
290
     0
176
     1
290
     0
176
     1
290
     0
176
     1
290
     0
176
     1
290
     0
176
     1
 90
       50
176
     1
 40
0.0
176
     1
 40
1.0
176
     1
 90
        0
176
     1
 62
    18
420
        0
176
     1
 90
       50
176
     1
 90
        3
176
     1
 62
     5
420
      255
176
     1
290
     0
176
     1
 90
       50
176
     1
 90
       50
176
     1
 90
       50
176
     1
290
     0
176
     1
 90
       50
176
     1
 62
   256
176
     0
 40
1.0
176
     0
 90
        2
176
     1
  1
strokes_ogs.tif
176
     1
290
     0
176
     1
 40
1.0
176
     1
 40
1.0
176
     1
  0
VISUALSTYLE
  5
37
102
{ACAD_REACTORS
330
2A
102
}
330
2A
100
AcDbVisualStyle
  2
Thicken
 70
    13
177
     3
291
     1
 70
    58
 90
        2
176
     1
 90
        2
176
     1
 90
        0
176
     1
 90
        0
176
     1
 40
0.6
176
     1
 40
30.0
176
     1
 62
     7
420
 16777215
176
     1
 90
        1
176
     1
 90
        4
176
     1
 62
     7
176
     1
 62
   257
176
     1
 90
        1
176
     1
 90
        1
176
     1
 40
1.0
176
     1
 90
       12
176
     1
 62
     7
176
     1
 40
1.0
176
     1
 90
        1
176
     1
 90
        6
176
     1
 90
        2
176
     1
 62
     7
176
     1
 90
        5
176
     1
 90
        0
176
     1
 90
        0
176
     1
290
     0
176
     1
 90
        1
176
     1
 40
0.0
176
     1
 90
        0
176
     1
290
     0
176
     1
290
     1
176
     1
290
     1
176
     1
290
     0
176
     1
290
     0
176
     1
290
     0
176
     1
290
     0
176
     1
290
     0
176
     1
290
     0
176
     1
 90
       50
176
     1
 40
0.0
176
     1
 40
1.0
176
     1
 90
        0
176
     1
 62
    18
420
        0
176
     1
 90
       50
176
     1
 90
        3
176
     1
 62
     5
420
      255
176
     1
290
     0
176
     1
 90
       50
176
     1
 90
       50
176
     1
 90
       50
176
     1
290
     0
176
     1
 90
       50
176
     1
 62
   256
176
     0
 40
1.0
176
     0
 90
        2
176
     1
  1
strokes_ogs.tif
176
     1
290
     0
176
     1
 40
1.0
176
     1
 40
1.0
176
     1
  0
VISUALSTYLE
  5
30
102
{ACAD_REACTORS
330
2A
102
}
330
2A
100
AcDbVisualStyle
  2
Wireframe
 70
     5
177
     3
291
     0
 70
    58
 90
        0
176
     1
 90
        2
176
     1
 90
        0
176
     1
 90
        0
176
     1
 40
0.6
176
     1
 40
30.0
176
     1
 62
     7
420
 16777215
176
     1
 90
        1
176
     1
 90
        4
176
     1
 62
     7
176
     1
 62
   257
176
     1
 90
        1
176
     1
 90
        1
176
     1
 40
1.0
176
     1
 90
        0
176
     1
 62
   257
176
     1
 40
1.0
176
     1
 90
        1
176
     1
 90
        6
176
     1
 90
        2
176
     1
 62
     7
176
     1
 90
        3
176
     1
 90
        0
176
     1
 90
        0
176
     1
290
     0
176
     1
 90
        1
176
     1
 40
0.0
176
     1
 90
        0
176
     1
290
     0
176
     1
290
     1
176
     1
290
     1
176
     1
290
     0
176
     1
290
     0
176
     1
290
     0
176
     1
290
     0
176
     1
290
     0
176
     1
290
     0
176
     1
 90
       50
176
     1
 40
0.0
176
     1
 40
1.0
176
     1
 90
        0
176
     1
 62
    18
420
        0
176
     1
 90
       50
176
     1
 90
        3
176
     1
 62
     5
420
      255
176
     1
290
     0
176
     1
 90
       50
176
     1
 90
       50
176
     1
 90
       50
176
     1
290
     0
176
     1
 90
       50
176
     1
 62
   256
176
     0
 40
1.0
176
     0
 90
        2
176
     1
  1
strokes_ogs.tif
176
     1
290
     0
176
     1
 40
1.0
176
     1
 40
1.0
176
     1
  0
VISUALSTYLE
  5
40
102
{ACAD_REACTORS
330
2A
102
}
330
2A
100
AcDbVisualStyle
  2
X-Ray
 70
    25
177
     3
291
     0
 70
    58
 90
        2
176
     1
 90
        2
176
     1
 90
        1
176
     1
 90
        1
176
     1
 40
0.5
176
     1
 40
30.0
176
     1
 62
     7
420
 16777215
176
     1
 90
        1
176
     1
 90
        0
176
     1
 62
     7
176
     1
 62
   257
176
     1
 90
        1
176
     1
 90
        1
176
     1
 40
1.0
176
     1
 90
        8
176
     1
 62
     7
176
     1
 40
1.0
176
     1
 90
        1
176
     1
 90
        6
176
     1
 90
        2
176
     1
 62
     7
176
     1
 90
        3
176
     1
 90
        0
176
     1
 90
        0
176
     1
290
     0
176
     1
 90
       13
176
     1
 40
0.0
176
     1
 90
        0
176
     1
290
     0
176
     1
290
     1
176
     1
290
     1
176
     1
290
     0
176
     1
290
     0
176
     1
290
     0
176
     1
290
     0
176
     1
290
     0
176
     1
290
     0
176
     1
 90
       50
176
     1
 40
0.0
176
     1
 40
1.0
176
     1
 90
        0
176
     1
 62
    18
420
        0
176
     1
 90
       50
176
     1
 90
        3
176
     1
 62
     5
420
      255
176
     1
290
     0
176
     1
 90
       50
176
     1
 90
       50
176
     1
 90
       50
176
     1
290
     0
176
     1
 90
       50
176
     1
 62
   256
176
     0
 40
1.0
176
     0
 90
        2
176
     1
  1
strokes_ogs.tif
176
     1
290
     0
176
     1
 40
1.0
176
     1
 40
1.0
176
     1
  0
DICTIONARYVAR
  5
292
102
{ACAD_REACTORS
330
291
102
}
330
291
100
DictionaryVariables
280
     0
  1
1:1
  0
DICTIONARYVAR
  5
297
102
{ACAD_REACTORS
330
291
102
}
330
291
100
DictionaryVariables
280
     0
  1
Standard
  0
DICTIONARYVAR
  5
296
102
{ACAD_REACTORS
330
291
102
}
330
291
100
DictionaryVariables
280
     0
  1
Standard
  0
DICTIONARY
  5
293
330
6A
100
AcDbDictionary
280
     1
281
     1
  3
ACAD_ROUNDTRIP_2008_TABLESTYLE_CELLSTYLEMAP
360
294
  0
CELLSTYLEMAP
  5
294
102
{ACAD_REACTORS
330
293
102
}
330
293
100
AcDbCellStyleMap
 90
        3
300
CELLSTYLE
  1
TABLEFORMAT_BEGIN
 90
        5
170
     1
 91
        0
 92
    32768
 62
   257
 93
        1
300
CONTENTFORMAT
  1
CONTENTFORMAT_BEGIN
 90
        0
 91
        0
 92
        4
 93
        0
300

 40
0.0
140
1.0
 94
        5
 62
     0
340
11
144
0.25
309
CONTENTFORMAT_END
171
     1
301
MARGIN
  1
CELLMARGIN_BEGIN
 40
0.06
 40
0.06
 40
0.06
 40
0.06
 40
0.06
 40
0.06
309
CELLMARGIN_END
 94
        6
 95
        1
302
GRIDFORMAT
  1
GRIDFORMAT_BEGIN
 90
        0
 91
        1
 62
     0
 92
       -2
340
14
 93
        0
 40
0.045
309
GRIDFORMAT_END
 95
        2
302
GRIDFORMAT
  1
GRIDFORMAT_BEGIN
 90
        0
 91
        1
 62
     0
 92
       -2
340
14
 93
        0
 40
0.045
309
GRIDFORMAT_END
 95
        4
302
GRIDFORMAT
  1
GRIDFORMAT_BEGIN
 90
        0
 91
        1
 62
     0
 92
       -2
340
14
 93
        0
 40
0.045
309
GRIDFORMAT_END
 95
        8
302
GRIDFORMAT
  1
GRIDFORMAT_BEGIN
 90
        0
 91
        1
 62
     0
 92
       -2
340
14
 93
        0
 40
0.045
309
GRIDFORMAT_END
 95
       16
302
GRIDFORMAT
  1
GRIDFORMAT_BEGIN
 90
        0
 91
        1
 62
     0
 92
       -2
340
14
 93
        0
 40
0.045
309
GRIDFORMAT_END
 95
       32
302
GRIDFORMAT
  1
GRIDFORMAT_BEGIN
 90
        0
 91
        1
 62
     0
 92
       -2
340
14
 93
        0
 40
0.045
309
GRIDFORMAT_END
309
TABLEFORMAT_END
  1
CELLSTYLE_BEGIN
 90
        1
 91
        1
300
_TITLE
309
CELLSTYLE_END
300
CELLSTYLE
  1
TABLEFORMAT_BEGIN
 90
        5
170
     1
 91
        0
 92
        0
 62
   257
 93
        1
300
CONTENTFORMAT
  1
CONTENTFORMAT_BEGIN
 90
        0
 91
        0
 92
        4
 93
        0
300

 40
0.0
140
1.0
 94
        5
 62
     0
340
11
144
0.18
309
CONTENTFORMAT_END
171
     1
301
MARGIN
  1
CELLMARGIN_BEGIN
 40
0.06
 40
0.06
 40
0.06
 40
0.06
 40
0.06
 40
0.06
309
CELLMARGIN_END
 94
        6
 95
        1
302
GRIDFORMAT
  1
GRIDFORMAT_BEGIN
 90
        0
 91
        1
 62
     0
 92
       -2
340
14
 93
        0
 40
0.045
309
GRIDFORMAT_END
 95
        2
302
GRIDFORMAT
  1
GRIDFORMAT_BEGIN
 90
        0
 91
        1
 62
     0
 92
       -2
340
14
 93
        0
 40
0.045
309
GRIDFORMAT_END
 95
        4
302
GRIDFORMAT
  1
GRIDFORMAT_BEGIN
 90
        0
 91
        1
 62
     0
 92
       -2
340
14
 93
        0
 40
0.045
309
GRIDFORMAT_END
 95
        8
302
GRIDFORMAT
  1
GRIDFORMAT_BEGIN
 90
        0
 91
        1
 62
     0
 92
       -2
340
14
 93
        0
 40
0.045
309
GRIDFORMAT_END
 95
       16
302
GRIDFORMAT
  1
GRIDFORMAT_BEGIN
 90
        0
 91
        1
 62
     0
 92
       -2
340
14
 93
        0
 40
0.045
309
GRIDFORMAT_END
 95
       32
302
GRIDFORMAT
  1
GRIDFORMAT_BEGIN
 90
        0
 91
        1
 62
     0
 92
       -2
340
14
 93
        0
 40
0.045
309
GRIDFORMAT_END
309
TABLEFORMAT_END
  1
CELLSTYLE_BEGIN
 90
        2
 91
        1
300
_HEADER
309
CELLSTYLE_END
300
CELLSTYLE
  1
TABLEFORMAT_BEGIN
 90
        5
170
     1
 91
        0
 92
        0
 62
   257
 93
        1
300
CONTENTFORMAT
  1
CONTENTFORMAT_BEGIN
 90
        0
 91
        0
 92
        4
 93
        0
300

 40
0.0
140
1.0
 94
        2
 62
     0
340
11
144
0.18
309
CONTENTFORMAT_END
171
     1
301
MARGIN
  1
CELLMARGIN_BEGIN
 40
0.06
 40
0.06
 40
0.06
 40
0.06
 40
0.06
 40
0.06
309
CELLMARGIN_END
 94
        6
 95
        1
302
GRIDFORMAT
  1
GRIDFORMAT_BEGIN
 90
        0
 91
        1
 62
     0
 92
       -2
340
14
 93
        0
 40
0.045
309
GRIDFORMAT_END
 95
        2
302
GRIDFORMAT
  1
GRIDFORMAT_BEGIN
 90
        0
 91
        1
 62
     0
 92
       -2
340
14
 93
        0
 40
0.045
309
GRIDFORMAT_END
 95
        4
302
GRIDFORMAT
  1
GRIDFORMAT_BEGIN
 90
        0
 91
        1
 62
     0
 92
       -2
340
14
 93
        0
 40
0.045
309
GRIDFORMAT_END
 95
        8
302
GRIDFORMAT
  1
GRIDFORMAT_BEGIN
 90
        0
 91
        1
 62
     0
 92
       -2
340
14
 93
        0
 40
0.045
309
GRIDFORMAT_END
 95
       16
302
GRIDFORMAT
  1
GRIDFORMAT_BEGIN
 90
        0
 91
        1
 62
     0
 92
       -2
340
14
 93
        0
 40
0.045
309
GRIDFORMAT_END
 95
       32
302
GRIDFORMAT
  1
GRIDFORMAT_BEGIN
 90
        0
 91
        1
 62
     0
 92
       -2
340
14
 93
        0
 40
0.045
309
GRIDFORMAT_END
309
TABLEFORMAT_END
  1
CELLSTYLE_BEGIN
 90
        3
 91
        2
300
_DATA
309
CELLSTYLE_END
  0
ENDSEC
  0
EOF