0
SECTION
  2
HEADER
  9
$ACADVER
  1
AC1027
  9
$ACADMAINTVER
 70
     8
  9
$DWGCODEPAGE
  3
ANSI_1252
  9
$REQUIREDVERSIONS
160
                 0
  9
$COMMENTS
  1
File was created by Cadenas
  9
$CUSTOMPROPERTYTAG
  1
NN
  9
$CUSTOMPROPERTY
  1
Steel IMPERIAL-HD Narrow Piloted Flange 2-7/16 thru 4-1/2 Inch Bore
  9
$CUSTOMPROPERTYTAG
  1
NT
  9
$CUSTOMPROPERTY
  1
Steal Heavy Duty Imperial Piloted Flange Bearing-Inch-207-408
  9
$CUSTOMPROPERTYTAG
  1
NB
  9
$CUSTOMPROPERTY
  1
072352
  9
$CUSTOMPROPERTYTAG
  1
NBSYN
  9
$CUSTOMPROPERTY
  1
$PN.
  9
$CUSTOMPROPERTYTAG
  1
LINA
  9
$CUSTOMPROPERTY
  1
072352
  9
$CUSTOMPROPERTYTAG
  1
SS
  9
$CUSTOMPROPERTY
  1
3-3/16
  9
$CUSTOMPROPERTYTAG
  1
PN
  9
$CUSTOMPROPERTY
  1
072352
  9
$CUSTOMPROPERTYTAG
  1
TYPE
  9
$CUSTOMPROPERTY
  1
Non-Expansion
  9
$CUSTOMPROPERTYTAG
  1
EF
  9
$CUSTOMPROPERTY
  1
Non-Expansion
  9
$CUSTOMPROPERTYTAG
  1
DESCRIPTION
  9
$CUSTOMPROPERTY
  1
SFCN-IP-303R
  9
$CUSTOMPROPERTYTAG
  1
ST
  9
$CUSTOMPROPERTY
  1
Contact Seal
  9
$CUSTOMPROPERTYTAG
  1
A
  9
$CUSTOMPROPERTY
  1
4.17
  9
$CUSTOMPROPERTYTAG
  1
B
  9
$CUSTOMPROPERTY
  1
10.34
  9
$CUSTOMPROPERTYTAG
  1
C
  9
$CUSTOMPROPERTY
  1
2.79
  9
$CUSTOMPROPERTYTAG
  1
D
  9
$CUSTOMPROPERTY
  1
6.10
  9
$CUSTOMPROPERTYTAG
  1
DD
  9
$CUSTOMPROPERTY
  1
8.63
  9
$CUSTOMPROPERTYTAG
  1
F
  9
$CUSTOMPROPERTY
  1
0.750
  9
$CUSTOMPROPERTYTAG
  1
G
  9
$CUSTOMPROPERTY
  1
2.88
  9
$CUSTOMPROPERTYTAG
  1
H
  9
$CUSTOMPROPERTY
  1
1.00
  9
$CUSTOMPROPERTYTAG
  1
K
  9
$CUSTOMPROPERTY
  1
7.375
  9
$CUSTOMPROPERTYTAG
  1
L
  9
$CUSTOMPROPERTY
  1
5.00
  9
$CUSTOMPROPERTYTAG
  1
M
  9
$CUSTOMPROPERTY
  1
0.750
  9
$CUSTOMPROPERTYTAG
  1
N
  9
$CUSTOMPROPERTY
  1
4.19
  9
$CUSTOMPROPERTYTAG
  1
P
  9
$CUSTOMPROPERTY
  1
2.53
  9
$CUSTOMPROPERTYTAG
  1
Q
  9
$CUSTOMPROPERTY
  1
1.31
  9
$CUSTOMPROPERTYTAG
  1
X
  9
$CUSTOMPROPERTY
  1
0.25
  9
$CUSTOMPROPERTYTAG
  1
Y
  9
$CUSTOMPROPERTY
  1
0.025
  9
$CUSTOMPROPERTYTAG
  1
Z
  9
$CUSTOMPROPERTY
  1
4.05
  9
$CUSTOMPROPERTYTAG
  1
COMPANY
  9
$CUSTOMPROPERTY
  1
baldor
  9
$INSBASE
 10
0.0
 20
0.0
 30
0.0
  9
$EXTMIN
 10
1.000000000000000E+20
 20
1.000000000000000E+20
 30
1.000000000000000E+20
  9
$EXTMAX
 10
-1.000000000000000E+20
 20
-1.000000000000000E+20
 30
-1.000000000000000E+20
  9
$LIMMIN
 10
0.0
 20
0.0
  9
$LIMMAX
 10
12.0
 20
9.0
  9
$ORTHOMODE
 70
     0
  9
$REGENMODE
 70
     1
  9
$FILLMODE
 70
     1
  9
$QTEXTMODE
 70
     0
  9
$MIRRTEXT
 70
     1
  9
$LTSCALE
 40
1.0
  9
$ATTMODE
 70
     1
  9
$TEXTSIZE
 40
0.2
  9
$TRACEWID
 40
0.05
  9
$TEXTSTYLE
  7
Standard
  9
$CLAYER
  8
0
  9
$CELTYPE
  6
ByLayer
  9
$CECOLOR
 62
   256
  9
$CELTSCALE
 40
1.0
  9
$DISPSILH
 70
     0
  9
$DIMSCALE
 40
1.0
  9
$DIMASZ
 40
0.18
  9
$DIMEXO
 40
0.0625
  9
$DIMDLI
 40
0.38
  9
$DIMRND
 40
0.0
  9
$DIMDLE
 40
0.0
  9
$DIMEXE
 40
0.18
  9
$DIMTP
 40
0.0
  9
$DIMTM
 40
0.0
  9
$DIMTXT
 40
0.18
  9
$DIMCEN
 40
0.09
  9
$DIMTSZ
 40
0.0
  9
$DIMTOL
 70
     0
  9
$DIMLIM
 70
     0
  9
$DIMTIH
 70
     1
  9
$DIMTOH
 70
     1
  9
$DIMSE1
 70
     0
  9
$DIMSE2
 70
     0
  9
$DIMTAD
 70
     0
  9
$DIMZIN
 70
     0
  9
$DIMBLK
  1

  9
$DIMASO
 70
     1
  9
$DIMSHO
 70
     1
  9
$DIMPOST
  1

  9
$DIMAPOST
  1

  9
$DIMALT
 70
     0
  9
$DIMALTD
 70
     2
  9
$DIMALTF
 40
25.4
  9
$DIMLFAC
 40
1.0
  9
$DIMTOFL
 70
     0
  9
$DIMTVP
 40
0.0
  9
$DIMTIX
 70
     0
  9
$DIMSOXD
 70
     0
  9
$DIMSAH
 70
     0
  9
$DIMBLK1
  1

  9
$DIMBLK2
  1

  9
$DIMSTYLE
  2
Standard
  9
$DIMCLRD
 70
     0
  9
$DIMCLRE
 70
     0
  9
$DIMCLRT
 70
     0
  9
$DIMTFAC
 40
1.0
  9
$DIMGAP
 40
0.09
  9
$DIMJUST
 70
     0
  9
$DIMSD1
 70
     0
  9
$DIMSD2
 70
     0
  9
$DIMTOLJ
 70
     1
  9
$DIMTZIN
 70
     0
  9
$DIMALTZ
 70
     0
  9
$DIMALTTZ
 70
     0
  9
$DIMUPT
 70
     0
  9
$DIMDEC
 70
     4
  9
$DIMTDEC
 70
     4
  9
$DIMALTU
 70
     2
  9
$DIMALTTD
 70
     2
  9
$DIMTXSTY
  7
Standard
  9
$DIMAUNIT
 70
     0
  9
$DIMADEC
 70
     0
  9
$DIMALTRND
 40
0.0
  9
$DIMAZIN
 70
     0
  9
$DIMDSEP
 70
    46
  9
$DIMATFIT
 70
     3
  9
$DIMFRAC
 70
     0
  9
$DIMLDRBLK
  1

  9
$DIMLUNIT
 70
     2
  9
$DIMLWD
 70
    -2
  9
$DIMLWE
 70
    -2
  9
$DIMTMOVE
 70
     0
  9
$DIMFXL
 40
1.0
  9
$DIMFXLON
 70
     0
  9
$DIMJOGANG
 40
0.7853981633974483
  9
$DIMTFILL
 70
     0
  9
$DIMTFILLCLR
 70
     0
  9
$DIMARCSYM
 70
     0
  9
$DIMLTYPE
  6

  9
$DIMLTEX1
  6

  9
$DIMLTEX2
  6

  9
$DIMTXTDIRECTION
 70
     0
  9
$LUNITS
 70
     2
  9
$LUPREC
 70
     4
  9
$SKETCHINC
 40
0.1
  9
$FILLETRAD
 40
0.5
  9
$AUNITS
 70
     0
  9
$AUPREC
 70
     0
  9
$MENU
  1
.
  9
$ELEVATION
 40
0.0
  9
$PELEVATION
 40
0.0
  9
$THICKNESS
 40
0.0
  9
$LIMCHECK
 70
     0
  9
$CHAMFERA
 40
0.0
  9
$CHAMFERB
 40
0.0
  9
$CHAMFERC
 40
0.0
  9
$CHAMFERD
 40
0.0
  9
$SKPOLY
 70
     0
  9
$TDCREATE
 40
2458168.897077326
  9
$TDUCREATE
 40
2458168.85541066
  9
$TDUPDATE
 40
2458168.8970775
  9
$TDUUPDATE
 40
2458168.855410833
  9
$TDINDWG
 40
0.0000000116
  9
$TDUSRTIMER
 40
0.0000000116
  9
$USRTIMER
 70
     1
  9
$ANGBASE
 50
0.0
  9
$ANGDIR
 70
     0
  9
$PDMODE
 70
     0
  9
$PDSIZE
 40
0.0
  9
$PLINEWID
 40
0.0
  9
$SPLFRAME
 70
     0
  9
$SPLINETYPE
 70
     6
  9
$SPLINESEGS
 70
     8
  9
$HANDSEED
  5
291
  9
$SURFTAB1
 70
     6
  9
$SURFTAB2
 70
     6
  9
$SURFTYPE
 70
     6
  9
$SURFU
 70
     6
  9
$SURFV
 70
     6
  9
$UCSBASE
  2

  9
$UCSNAME
  2

  9
$UCSORG
 10
0.0
 20
0.0
 30
0.0
  9
$UCSXDIR
 10
1.0
 20
0.0
 30
0.0
  9
$UCSYDIR
 10
0.0
 20
1.0
 30
0.0
  9
$UCSORTHOREF
  2

  9
$UCSORTHOVIEW
 70
     0
  9
$UCSORGTOP
 10
0.0
 20
0.0
 30
0.0
  9
$UCSORGBOTTOM
 10
0.0
 20
0.0
 30
0.0
  9
$UCSORGLEFT
 10
0.0
 20
0.0
 30
0.0
  9
$UCSORGRIGHT
 10
0.0
 20
0.0
 30
0.0
  9
$UCSORGFRONT
 10
0.0
 20
0.0
 30
0.0
  9
$UCSORGBACK
 10
0.0
 20
0.0
 30
0.0
  9
$PUCSBASE
  2

  9
$PUCSNAME
  2

  9
$PUCSORG
 10
0.0
 20
0.0
 30
0.0
  9
$PUCSXDIR
 10
1.0
 20
0.0
 30
0.0
  9
$PUCSYDIR
 10
0.0
 20
1.0
 30
0.0
  9
$PUCSORTHOREF
  2

  9
$PUCSORTHOVIEW
 70
     0
  9
$PUCSORGTOP
 10
0.0
 20
0.0
 30
0.0
  9
$PUCSORGBOTTOM
 10
0.0
 20
0.0
 30
0.0
  9
$PUCSORGLEFT
 10
0.0
 20
0.0
 30
0.0
  9
$PUCSORGRIGHT
 10
0.0
 20
0.0
 30
0.0
  9
$PUCSORGFRONT
 10
0.0
 20
0.0
 30
0.0
  9
$PUCSORGBACK
 10
0.0
 20
0.0
 30
0.0
  9
$USERI1
 70
     0
  9
$USERI2
 70
     0
  9
$USERI3
 70
     0
  9
$USERI4
 70
     0
  9
$USERI5
 70
     0
  9
$USERR1
 40
0.0
  9
$USERR2
 40
0.0
  9
$USERR3
 40
0.0
  9
$USERR4
 40
0.0
  9
$USERR5
 40
0.0
  9
$WORLDVIEW
 70
     1
  9
$SHADEDGE
 70
     3
  9
$SHADEDIF
 70
    70
  9
$TILEMODE
 70
     1
  9
$MAXACTVP
 70
    64
  9
$PINSBASE
 10
0.0
 20
0.0
 30
0.0
  9
$PLIMCHECK
 70
     0
  9
$PEXTMIN
 10
1.000000000000000E+20
 20
1.000000000000000E+20
 30
1.000000000000000E+20
  9
$PEXTMAX
 10
-1.000000000000000E+20
 20
-1.000000000000000E+20
 30
-1.000000000000000E+20
  9
$PLIMMIN
 10
0.0
 20
0.0
  9
$PLIMMAX
 10
12.0
 20
9.0
  9
$UNITMODE
 70
     0
  9
$VISRETAIN
 70
     1
  9
$PLINEGEN
 70
     0
  9
$PSLTSCALE
 70
     1
  9
$TREEDEPTH
 70
  3020
  9
$CMLSTYLE
  2
Standard
  9
$CMLJUST
 70
     0
  9
$CMLSCALE
 40
1.0
  9
$PROXYGRAPHICS
 70
     1
  9
$MEASUREMENT
 70
     0
  9
$CELWEIGHT
370
    -1
  9
$ENDCAPS
280
     0
  9
$JOINSTYLE
280
     0
  9
$LWDISPLAY
290
     0
  9
$INSUNITS
 70
     1
  9
$HYPERLINKBASE
  1

  9
$STYLESHEET
  1

  9
$XEDIT
290
     1
  9
$CEPSNTYPE
380
     0
  9
$PSTYLEMODE
290
     1
  9
$FINGERPRINTGUID
  2
{958895A9-48CA-4433-BA63-4E23885F85FB}
  9
$VERSIONGUID
  2
{FAEB1C32-E019-11D5-929B-00C0DF256EC4}
  9
$EXTNAMES
290
     1
  9
$PSVPSCALE
 40
0.0
  9
$OLESTARTUP
290
     0
  9
$SORTENTS
280
   127
  9
$INDEXCTL
280
     0
  9
$HIDETEXT
280
     1
  9
$XCLIPFRAME
280
     2
  9
$HALOGAP
280
     0
  9
$OBSCOLOR
 70
   257
  9
$OBSLTYPE
280
     0
  9
$INTERSECTIONDISPLAY
280
     0
  9
$INTERSECTIONCOLOR
 70
   257
  9
$DIMASSOC
280
     2
  9
$PROJECTNAME
  1

  9
$CAMERADISPLAY
290
     0
  9
$LENSLENGTH
 40
50.0
  9
$CAMERAHEIGHT
 40
0.0
  9
$STEPSPERSEC
 40
2.0
  9
$STEPSIZE
 40
6.0
  9
$3DDWFPREC
 40
2.0
  9
$PSOLWIDTH
 40
0.25
  9
$PSOLHEIGHT
 40
4.0
  9
$LOFTANG1
 40
1.570796326794897
  9
$LOFTANG2
 40
1.570796326794897
  9
$LOFTMAG1
 40
0.0
  9
$LOFTMAG2
 40
0.0
  9
$LOFTPARAM
 70
     7
  9
$LOFTNORMALS
280
     1
  9
$LATITUDE
 40
37.795
  9
$LONGITUDE
 40
-122.394
  9
$NORTHDIRECTION
 40
0.0
  9
$TIMEZONE
 70
 -8000
  9
$LIGHTGLYPHDISPLAY
280
     1
  9
$TILEMODELIGHTSYNCH
280
     1
  9
$CMATERIAL
347
44
  9
$SOLIDHIST
280
     0
  9
$SHOWHIST
280
     1
  9
$DWFFRAME
280
     2
  9
$DGNFRAME
280
     2
  9
$REALWORLDSCALE
290
     1
  9
$INTERFERECOLOR
 62
   256
  9
$CSHADOW
280
     0
  9
$SHADOWPLANELOCATION
 40
0.0
  0
ENDSEC
  0
SECTION
  2
CLASSES
  0
CLASS
  1
ACDBDICTIONARYWDFLT
  2
AcDbDictionaryWithDefault
  3
ObjectDBX Classes
 90
        0
 91
        4
280
     0
281
     0
  0
CLASS
  1
VISUALSTYLE
  2
AcDbVisualStyle
  3
ObjectDBX Classes
 90
     4095
 91
        4
280
     0
281
     0
  0
CLASS
  1
MATERIAL
  2
AcDbMaterial
  3
ObjectDBX Classes
 90
     1153
 91
        4
280
     0
281
     0
  0
CLASS
  1
SCALE
  2
AcDbScale
  3
ObjectDBX Classes
 90
     1153
 91
        4
280
     0
281
     0
  0
CLASS
  1
TABLESTYLE
  2
AcDbTableStyle
  3
ObjectDBX Classes
 90
     4095
 91
        4
280
     0
281
     0
  0
CLASS
  1
MLEADERSTYLE
  2
AcDbMLeaderStyle
  3
ACDB_MLEADERSTYLE_CLASS
 90
     4095
 91
        4
280
     0
281
     0
  0
CLASS
  1
SUN
  2
AcDbSun
  3
SCENEOE
 90
     1153
 91
        4
280
     0
281
     0
  0
CLASS
  1
DICTIONARYVAR
  2
AcDbDictionaryVar
  3
ObjectDBX Classes
 90
        0
 91
        4
280
     0
281
     0
  0
CLASS
  1
CELLSTYLEMAP
  2
AcDbCellStyleMap
  3
ObjectDBX Classes
 90
     1152
 91
        4
280
     0
281
     0
  0
ENDSEC
  0
SECTION
  2
TABLES
  0
TABLE
  2
VPORT
  5
8
330
0
100
AcDbSymbolTable
 70
     1
  0
VPORT
  5
29
330
8
100
AcDbSymbolTableRecord
100
AcDbViewportTableRecord
  2
*Active
 70
     0
 10
0.0
 20
0.0
 11
1.0
 21
1.0
 12
0.0
 22
0.0
 13
0.0
 23
0.0
 14
0.5
 24
0.5
 15
0.5
 25
0.5
 16
0.0
 26
0.0
 36
1.0
 17
-0.0000000000000071
 27
-0.0000000000000009
 37
0.0
 40
10.54679999999999
 41
1.0
 42
50.0
 43
0.0
 44
0.0
 50
0.0
 51
0.0
 71
     0
 72
   100
 73
     1
 74
     3
 75
     0
 76
     0
 77
     0
 78
     0
281
     0
 65
     1
110
0.0
120
0.0
130
0.0
111
1.0
121
0.0
131
0.0
112
0.0
122
1.0
132
0.0
 79
     0
146
0.0
348
2F
 60
     3
 61
     5
292
     1
282
     1
141
0.0
142
0.0
 63
   250
361
6D
  0
ENDTAB
  0
TABLE
  2
LTYPE
  5
5
330
0
100
AcDbSymbolTable
 70
     3
  0
LTYPE
  5
14
330
5
100
AcDbSymbolTableRecord
100
AcDbLinetypeTableRecord
  2
ByBlock
 70
     0
  3

 72
    65
 73
     0
 40
0.0
  0
LTYPE
  5
15
330
5
100
AcDbSymbolTableRecord
100
AcDbLinetypeTableRecord
  2
ByLayer
 70
     0
  3

 72
    65
 73
     0
 40
0.0
  0
LTYPE
  5
16
330
5
100
AcDbSymbolTableRecord
100
AcDbLinetypeTableRecord
  2
Continuous
 70
     0
  3
Solid line
 72
    65
 73
     0
 40
0.0
  0
LTYPE
  5
9C
330
5
100
AcDbSymbolTableRecord
100
AcDbLinetypeTableRecord
  2
Dashed
 70
     0
  3

 72
    65
 73
     2
 40
2.0
 49
1.0
 74
     0
 49
-1.0
 74
     0
  0
LTYPE
  5
135
330
5
100
AcDbSymbolTableRecord
100
AcDbLinetypeTableRecord
  2
Center
 70
     0
  3

 72
    65
 73
     4
 40
1.5
 49
0.45
 74
     0
 49
-0.5
 74
     0
 49
0.05
 74
     0
 49
-0.5
 74
     0
  0
ENDTAB
  0
TABLE
  2
LAYER
  5
2
330
0
100
AcDbSymbolTable
 70
     7
  0
LAYER
  5
10
330
2
100
AcDbSymbolTableRecord
100
AcDbLayerTableRecord
  2
0
 70
     0
 62
     7
  6
Continuous
370
    -3
390
F
347
46
348
0
  0
LAYER
  5
72
330
2
100
AcDbSymbolTableRecord
100
AcDbLayerTableRecord
  2
AM_6
 70
     0
 62
    -2
  6
Continuous
370
    35
390
F
347
46
348
0
  0
LAYER
  5
9D
330
2
100
AcDbSymbolTableRecord
100
AcDbLayerTableRecord
  2
AM_9
 70
     0
 62
     6
  6
Dashed
370
    25
390
F
347
46
348
0
  0
LAYER
  5
B8
330
2
100
AcDbSymbolTableRecord
100
AcDbLayerTableRecord
  2
AM_4
 70
     0
 62
     7
  6
Continuous
370
    50
390
F
347
46
348
0
  0
LAYER
  5
133
330
2
100
AcDbSymbolTableRecord
100
AcDbLayerTableRecord
  2
AM_5
 70
     0
 62
     3
  6
Continuous
370
    25
390
F
347
46
348
0
  0
LAYER
  5
136
330
2
100
AcDbSymbolTableRecord
100
AcDbLayerTableRecord
  2
AM_7
 70
     0
 62
     7
  6
Center
370
    25
390
F
347
46
348
0
  0
LAYER
  5
278
330
2
100
AcDbSymbolTableRecord
100
AcDbLayerTableRecord
  2
ConnectionPoints
 70
     0
 62
     7
  6
Continuous
370
    50
390
F
347
46
348
0
  0
ENDTAB
  0
TABLE
  2
STYLE
  5
3
330
0
100
AcDbSymbolTable
 70
     1
  0
STYLE
  5
11
330
3
100
AcDbSymbolTableRecord
100
AcDbTextStyleTableRecord
  2
Standard
 70
     0
 40
0.0
 41
1.0
 50
0.0
 71
     0
 42
0.2
  3
txt
  4

  0
ENDTAB
  0
TABLE
  2
VIEW
  5
6
330
0
100
AcDbSymbolTable
 70
     0
  0
ENDTAB
  0
TABLE
  2
UCS
  5
7
330
0
100
AcDbSymbolTable
 70
     0
  0
ENDTAB
  0
TABLE
  2
APPID
  5
9
330
0
100
AcDbSymbolTable
 70
     1
  0
APPID
  5
12
330
9
100
AcDbSymbolTableRecord
100
AcDbRegAppTableRecord
  2
ACAD
 70
     0
  0
ENDTAB
  0
TABLE
  2
DIMSTYLE
  5
A
330
0
100
AcDbSymbolTable
 70
     1
100
AcDbDimStyleTable
  0
DIMSTYLE
105
27
330
A
100
AcDbSymbolTableRecord
100
AcDbDimStyleTableRecord
  2
Standard
 70
     0
178
     0
340
11
  0
ENDTAB
  0
TABLE
  2
BLOCK_RECORD
  5
1
330
0
100
AcDbSymbolTable
 70
     9
  0
BLOCK_RECORD
  5
1F
330
1
100
AcDbSymbolTableRecord
100
AcDbBlockTableRecord
  2
*Model_Space
340
22
 70
     0
280
     1
281
     0
  0
BLOCK_RECORD
  5
1B
330
1
100
AcDbSymbolTableRecord
100
AcDbBlockTableRecord
  2
*Paper_Space
340
1E
 70
     0
280
     1
281
     0
  0
BLOCK_RECORD
  5
23
330
1
100
AcDbSymbolTableRecord
100
AcDbBlockTableRecord
  2
*Paper_Space0
340
26
 70
     0
280
     1
281
     0
  0
BLOCK_RECORD
  5
6E
330
1
100
AcDbSymbolTableRecord
100
AcDbBlockTableRecord
  2
1_072352_0
340
0
102
{BLKREFS
331
6F
102
}
 70
     0
280
     1
281
     0
  0
BLOCK_RECORD
  5
90
330
1
100
AcDbSymbolTableRecord
100
AcDbBlockTableRecord
  2
2_405015E_Inch_1_0_in_072352_0
340
0
102
{BLKREFS
331
91
102
}
 70
     0
280
     1
281
     0
  0
BLOCK_RECORD
  5
D2
330
1
100
AcDbSymbolTableRecord
100
AcDbBlockTableRecord
  2
3_405015E_Inch_2_0_in_072352_0
340
0
102
{BLKREFS
331
D3
102
}
 70
     0
280
     1
281
     0
  0
BLOCK_RECORD
  5
123
330
1
100
AcDbSymbolTableRecord
100
AcDbBlockTableRecord
  2
4_ASME_B18_3_1_4_1_0_in_072352_0
340
0
102
{BLKREFS
331
124
102
}
 70
     0
280
     1
281
     0
  0
BLOCK_RECORD
  5
141
330
1
100
AcDbSymbolTableRecord
100
AcDbBlockTableRecord
  2
5_ASME_B18_3_1_4_2_0_in_072352_0
340
0
102
{BLKREFS
331
142
102
}
 70
     0
280
     1
281
     0
  0
BLOCK_RECORD
  5
15C
330
1
100
AcDbSymbolTableRecord
100
AcDbBlockTableRecord
  2
6_070901LWE_0_in_072352_0
340
0
102
{BLKREFS
331
15D
102
}
 70
     0
280
     1
281
     0
  0
BLOCK_RECORD
  5
1AA
330
1
100
AcDbSymbolTableRecord
100
AcDbBlockTableRecord
  2
7_070901I_0_in_072352_0
340
0
102
{BLKREFS
331
1AB
102
}
 70
     0
280
     1
281
     0
  0
BLOCK_RECORD
  5
208
330
1
100
AcDbSymbolTableRecord
100
AcDbBlockTableRecord
  2
8_B072352_0_in_072352_0
340
0
102
{BLKREFS
331
209
102
}
 70
     0
280
     1
281
     0
  0
ENDTAB
  0
ENDSEC
  0
SECTION
  2
BLOCKS
  0
BLOCK
  5
20
330
1F
100
AcDbEntity
  8
0
100
AcDbBlockBegin
  2
*Model_Space
 70
     0
 10
0.0
 20
0.0
 30
0.0
  3
*Model_Space
  1

  0
ENDBLK
  5
21
330
1F
100
AcDbEntity
  8
0
100
AcDbBlockEnd
  0
BLOCK
  5
1C
330
1B
100
AcDbEntity
 67
     1
  8
0
100
AcDbBlockBegin
  2
*Paper_Space
 70
     0
 10
0.0
 20
0.0
 30
0.0
  3
*Paper_Space
  1

  0
ENDBLK
  5
1D
330
1B
100
AcDbEntity
 67
     1
  8
0
100
AcDbBlockEnd
  0
BLOCK
  5
24
330
23
100
AcDbEntity
  8
0
100
AcDbBlockBegin
  2
*Paper_Space0
 70
     0
 10
0.0
 20
0.0
 30
0.0
  3
*Paper_Space0
  1

  0
ENDBLK
  5
25
330
23
100
AcDbEntity
  8
0
100
AcDbBlockEnd
  0
BLOCK
  5
70
330
6E
100
AcDbEntity
  8
0
100
AcDbBlockBegin
  2
1_072352_0
 70
     2
 10
0.0
 20
0.0
 30
0.0
  3
1_072352_0
  1

  0
ATTDEF
  5
73
330
6E
100
AcDbEntity
  8
AM_6
100
AcDbText
 10
10.16999999999999
 20
5.169999999999993
 30
0.0
 40
0.5
  1
Steel IMPERIAL-HD Narrow Piloted Flange 2-7/16 thru 4-1/2 Inch Bore
100
AcDbAttributeDefinition
  3

  2
NN
 70
     8
280
     0
  0
ATTDEF
  5
74
330
6E
100
AcDbEntity
  8
AM_6
100
AcDbText
 10
10.16999999999999
 20
4.669999999999993
 30
0.0
 40
0.5
  1
Steal Heavy Duty Imperial Piloted Flange Bearing-Inch-207-408
100
AcDbAttributeDefinition
  3

  2
NT
 70
     8
280
     0
  0
ATTDEF
  5
75
330
6E
100
AcDbEntity
  8
AM_6
100
AcDbText
 10
10.16999999999999
 20
4.169999999999993
 30
0.0
 40
0.5
  1
072352
100
AcDbAttributeDefinition
  3

  2
NB
 70
     8
280
     0
  0
ATTDEF
  5
76
330
6E
100
AcDbEntity
  8
AM_6
100
AcDbText
 10
10.16999999999999
 20
3.669999999999993
 30
0.0
 40
0.5
  1
$PN.
100
AcDbAttributeDefinition
  3

  2
NBSYN
 70
     8
280
     0
  0
ATTDEF
  5
77
330
6E
100
AcDbEntity
  8
AM_6
100
AcDbText
 10
10.16999999999999
 20
3.169999999999993
 30
0.0
 40
0.5
  1
072352
100
AcDbAttributeDefinition
  3

  2
LINA
 70
     8
280
     0
  0
ATTDEF
  5
78
330
6E
100
AcDbEntity
  8
AM_6
100
AcDbText
 10
10.16999999999999
 20
2.669999999999993
 30
0.0
 40
0.5
  1
3-3/16
100
AcDbAttributeDefinition
  3

  2
SS
 70
     8
280
     0
  0
ATTDEF
  5
79
330
6E
100
AcDbEntity
  8
AM_6
100
AcDbText
 10
10.16999999999999
 20
2.169999999999993
 30
0.0
 40
0.5
  1
072352
100
AcDbAttributeDefinition
  3

  2
PN
 70
     8
280
     0
  0
ATTDEF
  5
7A
330
6E
100
AcDbEntity
  8
AM_6
100
AcDbText
 10
10.16999999999999
 20
1.669999999999993
 30
0.0
 40
0.5
  1
Non-Expansion
100
AcDbAttributeDefinition
  3

  2
TYPE
 70
     8
280
     0
  0
ATTDEF
  5
7B
330
6E
100
AcDbEntity
  8
AM_6
100
AcDbText
 10
10.16999999999999
 20
1.169999999999993
 30
0.0
 40
0.5
  1
Non-Expansion
100
AcDbAttributeDefinition
  3

  2
EF
 70
     8
280
     0
  0
ATTDEF
  5
7C
330
6E
100
AcDbEntity
  8
AM_6
100
AcDbText
 10
10.16999999999999
 20
0.6699999999999928
 30
0.0
 40
0.5
  1
SFCN-IP-303R
100
AcDbAttributeDefinition
  3

  2
DESCRIPTION
 70
     8
280
     0
  0
ATTDEF
  5
7D
330
6E
100
AcDbEntity
  8
AM_6
100
AcDbText
 10
10.16999999999999
 20
0.1699999999999928
 30
0.0
 40
0.5
  1
Contact Seal
100
AcDbAttributeDefinition
  3

  2
ST
 70
     8
280
     0
  0
ATTDEF
  5
7E
330
6E
100
AcDbEntity
  8
AM_6
100
AcDbText
 10
10.16999999999999
 20
-0.3300000000000072
 30
0.0
 40
0.5
  1
4.17
100
AcDbAttributeDefinition
  3

  2
A
 70
     8
280
     0
  0
ATTDEF
  5
7F
330
6E
100
AcDbEntity
  8
AM_6
100
AcDbText
 10
10.16999999999999
 20
-0.8300000000000072
 30
0.0
 40
0.5
  1
10.34
100
AcDbAttributeDefinition
  3

  2
B
 70
     8
280
     0
  0
ATTDEF
  5
80
330
6E
100
AcDbEntity
  8
AM_6
100
AcDbText
 10
10.16999999999999
 20
-1.330000000000007
 30
0.0
 40
0.5
  1
2.79
100
AcDbAttributeDefinition
  3

  2
C
 70
     8
280
     0
  0
ATTDEF
  5
81
330
6E
100
AcDbEntity
  8
AM_6
100
AcDbText
 10
10.16999999999999
 20
-1.830000000000007
 30
0.0
 40
0.5
  1
6.10
100
AcDbAttributeDefinition
  3

  2
D
 70
     8
280
     0
  0
ATTDEF
  5
82
330
6E
100
AcDbEntity
  8
AM_6
100
AcDbText
 10
10.16999999999999
 20
-2.330000000000007
 30
0.0
 40
0.5
  1
8.63
100
AcDbAttributeDefinition
  3

  2
DD
 70
     8
280
     0
  0
ATTDEF
  5
83
330
6E
100
AcDbEntity
  8
AM_6
100
AcDbText
 10
10.16999999999999
 20
-2.830000000000007
 30
0.0
 40
0.5
  1
0.750
100
AcDbAttributeDefinition
  3

  2
F
 70
     8
280
     0
  0
ATTDEF
  5
84
330
6E
100
AcDbEntity
  8
AM_6
100
AcDbText
 10
10.16999999999999
 20
-3.330000000000007
 30
0.0
 40
0.5
  1
2.88
100
AcDbAttributeDefinition
  3

  2
G
 70
     8
280
     0
  0
ATTDEF
  5
85
330
6E
100
AcDbEntity
  8
AM_6
100
AcDbText
 10
10.16999999999999
 20
-3.830000000000007
 30
0.0
 40
0.5
  1
1.00
100
AcDbAttributeDefinition
  3

  2
H
 70
     8
280
     0
  0
ATTDEF
  5
86
330
6E
100
AcDbEntity
  8
AM_6
100
AcDbText
 10
10.16999999999999
 20
-4.330000000000007
 30
0.0
 40
0.5
  1
7.375
100
AcDbAttributeDefinition
  3

  2
K
 70
     8
280
     0
  0
ATTDEF
  5
87
330
6E
100
AcDbEntity
  8
AM_6
100
AcDbText
 10
10.16999999999999
 20
-4.830000000000007
 30
0.0
 40
0.5
  1
5.00
100
AcDbAttributeDefinition
  3

  2
L
 70
     8
280
     0
  0
ATTDEF
  5
88
330
6E
100
AcDbEntity
  8
AM_6
100
AcDbText
 10
10.16999999999999
 20
-5.330000000000007
 30
0.0
 40
0.5
  1
0.750
100
AcDbAttributeDefinition
  3

  2
M
 70
     8
280
     0
  0
ATTDEF
  5
89
330
6E
100
AcDbEntity
  8
AM_6
100
AcDbText
 10
10.16999999999999
 20
-5.830000000000007
 30
0.0
 40
0.5
  1
4.19
100
AcDbAttributeDefinition
  3

  2
N
 70
     8
280
     0
  0
ATTDEF
  5
8A
330
6E
100
AcDbEntity
  8
AM_6
100
AcDbText
 10
10.16999999999999
 20
-6.330000000000007
 30
0.0
 40
0.5
  1
2.53
100
AcDbAttributeDefinition
  3

  2
P
 70
     8
280
     0
  0
ATTDEF
  5
8B
330
6E
100
AcDbEntity
  8
AM_6
100
AcDbText
 10
10.16999999999999
 20
-6.830000000000007
 30
0.0
 40
0.5
  1
1.31
100
AcDbAttributeDefinition
  3

  2
Q
 70
     8
280
     0
  0
ATTDEF
  5
8C
330
6E
100
AcDbEntity
  8
AM_6
100
AcDbText
 10
10.16999999999999
 20
-7.330000000000007
 30
0.0
 40
0.5
  1
0.25
100
AcDbAttributeDefinition
  3

  2
X
 70
     8
280
     0
  0
ATTDEF
  5
8D
330
6E
100
AcDbEntity
  8
AM_6
100
AcDbText
 10
10.16999999999999
 20
-7.830000000000007
 30
0.0
 40
0.5
  1
0.025
100
AcDbAttributeDefinition
  3

  2
Y
 70
     8
280
     0
  0
ATTDEF
  5
8E
330
6E
100
AcDbEntity
  8
AM_6
100
AcDbText
 10
10.16999999999999
 20
-8.330000000000007
 30
0.0
 40
0.5
  1
4.05
100
AcDbAttributeDefinition
  3

  2
Z
 70
     8
280
     0
  0
ATTDEF
  5
8F
330
6E
100
AcDbEntity
  8
AM_6
100
AcDbText
 10
10.16999999999999
 20
-8.830000000000007
 30
0.0
 40
0.5
  1
baldor
100
AcDbAttributeDefinition
  3

  2
COMPANY
 70
     8
280
     0
  0
INSERT
  5
91
330
6E
100
AcDbEntity
  8
0
100
AcDbBlockReference
  2
2_405015E_Inch_1_0_in_072352_0
 10
0.0
 20
0.0
 30
0.0
  0
INSERT
  5
D3
330
6E
100
AcDbEntity
  8
0
100
AcDbBlockReference
  2
3_405015E_Inch_2_0_in_072352_0
 10
0.0
 20
0.0
 30
0.0
  0
INSERT
  5
124
330
6E
100
AcDbEntity
  8
0
100
AcDbBlockReference
  2
4_ASME_B18_3_1_4_1_0_in_072352_0
 10
0.0
 20
0.0
 30
0.0
  0
INSERT
  5
142
330
6E
100
AcDbEntity
  8
0
100
AcDbBlockReference
  2
5_ASME_B18_3_1_4_2_0_in_072352_0
 10
0.0
 20
0.0
 30
0.0
  0
INSERT
  5
15D
330
6E
100
AcDbEntity
  8
0
100
AcDbBlockReference
  2
6_070901LWE_0_in_072352_0
 10
0.0
 20
0.0
 30
0.0
  0
INSERT
  5
1AB
330
6E
100
AcDbEntity
  8
0
100
AcDbBlockReference
  2
7_070901I_0_in_072352_0
 10
0.0
 20
0.0
 30
0.0
  0
INSERT
  5
209
330
6E
100
AcDbEntity
  8
0
100
AcDbBlockReference
  2
8_B072352_0_in_072352_0
 10
0.0
 20
0.0
 30
0.0
  0
ENDBLK
  5
71
330
6E
100
AcDbEntity
  8
0
100
AcDbBlockEnd
  0
BLOCK
  5
92
330
90
100
AcDbEntity
  8
0
100
AcDbBlockBegin
  2
2_405015E_Inch_1_0_in_072352_0
 70
     2
 10
0.0
 20
0.0
 30
0.0
  3
2_405015E_Inch_1_0_in_072352_0
  1

  0
ATTDEF
  5
94
330
90
100
AcDbEntity
  8
AM_6
100
AcDbText
 10
5.21875
 20
-3.765258047234572
 30
0.0
 40
0.5
  1
405015E -Inch
100
AcDbAttributeDefinition
  3

  2
NN
 70
     8
280
     0
  0
ATTDEF
  5
95
330
90
100
AcDbEntity
  8
AM_6
100
AcDbText
 10
5.21875
 20
-4.265258047234572
 30
0.0
 40
0.5
  1
Grease Fitting
100
AcDbAttributeDefinition
  3

  2
NT
 70
     8
280
     0
  0
ATTDEF
  5
96
330
90
100
AcDbEntity
  8
AM_6
100
AcDbText
 10
5.21875
 20
-4.765258047234572
 30
0.0
 40
0.5
  1
405015E-Inch
100
AcDbAttributeDefinition
  3

  2
NB
 70
     8
280
     0
  0
ATTDEF
  5
97
330
90
100
AcDbEntity
  8
AM_6
100
AcDbText
 10
5.21875
 20
-5.265258047234572
 30
0.0
 40
0.5
  1
$MN.-Inch
100
AcDbAttributeDefinition
  3

  2
NBSYN
 70
     8
280
     0
  0
ATTDEF
  5
98
330
90
100
AcDbEntity
  8
AM_6
100
AcDbText
 10
5.21875
 20
-5.765258047234572
 30
0.0
 40
0.5
  1
405015E
100
AcDbAttributeDefinition
  3

  2
LINA
 70
     8
280
     0
  0
ATTDEF
  5
99
330
90
100
AcDbEntity
  8
AM_6
100
AcDbText
 10
5.21875
 20
-6.265258047234572
 30
0.0
 40
0.5
  1
405015E
100
AcDbAttributeDefinition
  3

  2
MN
 70
     8
280
     0
  0
ATTDEF
  5
9A
330
90
100
AcDbEntity
  8
AM_6
100
AcDbText
 10
5.21875
 20
-6.765258047234572
 30
0.0
 40
0.5
  1
1/8 x 27PTF
100
AcDbAttributeDefinition
  3

  2
T
 70
     8
280
     0
  0
ATTDEF
  5
9B
330
90
100
AcDbEntity
  8
AM_6
100
AcDbText
 10
5.21875
 20
-7.265258047234572
 30
0.0
 40
0.5
  1
baldor
100
AcDbAttributeDefinition
  3

  2
COMPANY
 70
     8
280
     0
  0
ELLIPSE
  5
9E
330
90
100
AcDbEntity
  8
AM_9
100
AcDbEllipse
 10
0.0
 20
-3.911695795217668
 30
0.0
 11
0.161902872472269
 21
0.0
 31
0.0
210
0.0
220
0.0
230
1.0
 40
0.8381189153063757
 41
0.0
 42
6.283185307179586
  0
LWPOLYLINE
  5
9F
330
90
100
AcDbEntity
  8
AM_9
100
AcDbPolyline
 90
        4
 70
     0
 43
0.0
 10
0.109375
 20
-4.21502580951041
 10
0.08203125
 20
-4.22858846375573
 10
0.0546875
 20
-4.242794003885875
 10
0.0
 20
-4.272897342228075
  0
LWPOLYLINE
  5
A0
330
90
100
AcDbEntity
  8
AM_9
100
AcDbPolyline
 90
        4
 70
     0
 43
0.0
 10
0.0
 20
-4.272897342228075
 10
-0.0544416102741496
 20
-4.242924520896992
 10
-0.0818700010907651
 20
-4.228670389238765
 10
-0.109375
 20
-4.21502580951041
  0
LWPOLYLINE
  5
A1
330
90
100
AcDbEntity
  8
AM_9
100
AcDbPolyline
 90
        4
 70
     0
 43
0.0
 10
0.0
 20
-4.317553572987984
 10
0.0544416102741496
 20
-4.294839090746781
 10
0.0818700010907651
 20
-4.282548674104964
 10
0.109375
 20
-4.269574566032045
  0
LWPOLYLINE
  5
A2
330
90
100
AcDbEntity
  8
AM_9
100
AcDbPolyline
 90
        4
 70
     0
 43
0.0
 10
-0.1093749999999999
 20
-4.269574566032045
 10
-0.0820312499999999
 20
-4.282474546705126
 10
-0.0546874999999999
 20
-4.294731641493382
 10
0.0
 20
-4.317553572987984
  0
LWPOLYLINE
  5
A3
330
90
100
AcDbEntity
  8
AM_9
100
AcDbPolyline
 90
        4
 70
     0
 43
0.0
 10
-0.109375
 20
-4.21502580951041
 10
-0.1367187499999999
 20
-4.202125828837328
 10
-0.1640625
 20
-4.189868734049072
 10
-0.21875
 20
-4.167046802554469
  0
LINE
  5
A4
330
90
100
AcDbEntity
  8
AM_9
100
AcDbLine
 10
0.0
 20
-4.317553572987984
 30
0.0
 11
0.0
 21
-4.272897342228075
 31
0.0
  0
LWPOLYLINE
  5
A5
330
90
100
AcDbEntity
  8
AM_9
100
AcDbPolyline
 90
        4
 70
     0
 43
0.0
 10
0.21875
 20
-4.167046802554469
 10
0.1643083897258504
 20
-4.189761284795672
 10
0.1368799989092349
 20
-4.20205170143749
 10
0.109375
 20
-4.21502580951041
  0
LINE
  5
A6
330
90
100
AcDbEntity
  8
AM_9
100
AcDbLine
 10
0.1093749999999999
 20
-4.269574566032045
 30
0.0
 11
0.1201259030773847
 21
-4.264320886631557
 31
0.0
  0
LINE
  5
A7
330
90
100
AcDbEntity
  8
AM_9
100
AcDbLine
 10
-0.1230832765431853
 20
-4.262857694944389
 30
0.0
 11
-0.1093749999999999
 21
-4.269574566032045
 31
0.0
  0
LINE
  5
A8
330
90
100
AcDbEntity
  8
AM_9
100
AcDbLine
 10
-0.1983885276926138
 20
-3.923730124337926
 30
0.0
 11
-0.2055145689813835
 21
-4.047969777579127
 31
0.0
  0
LINE
  5
A9
330
90
100
AcDbEntity
  8
AM_9
100
AcDbLine
 10
0.2055145689813835
 20
-4.047969777579127
 30
0.0
 11
0.1983885276926138
 21
-3.923730124337926
 31
0.0
  0
ELLIPSE
  5
AA
330
90
100
AcDbEntity
  8
AM_9
100
AcDbEllipse
 10
-0.0000000000001612
 20
-4.110798756521514
 30
0.0
 11
-0.2187500000003021
 21
3.259629037947825E-9
 31
0.0
210
0.0
220
0.0
230
1.0
 40
0.8381189153060199
 41
0.9678343434609404
 42
2.173758338510549
  0
ELLIPSE
  5
AB
330
90
100
AcDbEntity
  8
AM_9
100
AcDbEllipse
 10
0.0000000000000112
 20
-4.110798756521615
 30
0.0
 11
-0.21375000000002
 21
2.617682533177713E-17
 31
0.0
210
0.0
220
0.0
230
1.0
 40
0.8381189153064047
 41
0.9324282609461854
 42
2.209164392643526
  0
LINE
  5
AC
330
90
100
AcDbEntity
  8
AM_9
100
AcDbLine
 10
0.0790226168549825
 20
-4.226023016497959
 30
0.0
 11
0.089423566712553
 21
-4.216059864608599
 31
0.0
  0
LINE
  5
AD
330
90
100
AcDbEntity
  8
AM_9
100
AcDbLine
 10
-0.089423566712553
 20
-4.216059864608599
 30
0.0
 11
-0.0790226168549825
 21
-4.226023016497959
 31
0.0
  0
ELLIPSE
  5
AE
330
90
100
AcDbEntity
  8
AM_9
100
AcDbEllipse
 10
0.0
 20
-4.150484679695241
 30
0.0
 11
-0.1188200907348978
 21
1.455126437928906E-17
 31
0.0
210
0.0
220
0.0
230
1.0
 40
0.8381189153063717
 41
0.1178791062981697
 42
3.023713547291623
  0
ELLIPSE
  5
AF
330
90
100
AcDbEntity
  8
AM_9
100
AcDbEllipse
 10
0.0
 20
-4.120791106042851
 30
0.0
 11
-0.1725340532830159
 21
2.112932760969643E-17
 31
0.0
210
0.0
220
0.0
230
1.0
 40
0.8381189153063754
 41
0.6740384912548851
 42
2.467554162334908
  0
ELLIPSE
  5
B0
330
90
100
AcDbEntity
  8
AM_9
100
AcDbEllipse
 10
-0.0000000000000051
 20
-4.168074950869359
 30
0.0
 11
-0.104999999999995
 21
1.285879139104659E-17
 31
0.0
210
0.0
220
0.0
230
1.0
 40
0.8381189153063785
 41
5.971794518613213
 42
9.736168749335722
  0
LINE
  5
B1
330
90
100
AcDbEntity
  8
AM_9
100
AcDbLine
 10
-0.105
 20
-4.168074950869353
 30
0.0
 11
-0.105
 21
-4.184439577825844
 31
0.0
  0
LINE
  5
B2
330
90
100
AcDbEntity
  8
AM_9
100
AcDbLine
 10
0.105
 20
-4.184439577825844
 30
0.0
 11
0.105
 21
-4.168074950869353
 31
0.0
  0
ELLIPSE
  5
B3
330
90
100
AcDbEntity
  8
AM_9
100
AcDbEllipse
 10
0.0
 20
-4.184439577825844
 30
0.0
 11
-0.1049999999999998
 21
1.285879139104718E-17
 31
0.0
210
0.0
220
0.0
230
1.0
 40
0.8381189153063742
 41
5.407114936494242
 42
10.30084833145472
  0
ELLIPSE
  5
B4
330
90
100
AcDbEntity
  8
AM_9
100
AcDbEllipse
 10
0.0
 20
-4.217168831738825
 30
0.0
 11
-0.1349999999999988
 21
1.653273178848912E-17
 31
0.0
210
0.0
220
0.0
230
1.0
 40
0.8381189153063827
 41
0.6697237869397403
 42
2.471868866650053
  0
ELLIPSE
  5
B5
330
90
100
AcDbEntity
  8
AM_9
100
AcDbEllipse
 10
-0.0000000000000001
 20
-4.056250000000001
 30
0.0
 11
-0.2057518972230697
 21
3.065942211658278E-9
 31
0.0
210
0.0
220
0.0
230
1.0
 40
0.8381189153063769
 41
0.0
 42
6.283185307179586
  0
ELLIPSE
  5
B6
330
90
100
AcDbEntity
  8
AM_9
100
AcDbEllipse
 10
0.0000000000000007
 20
-3.931723237153172
 30
0.0
 11
-0.1986176267812163
 21
2.959633296930022E-9
 31
0.0
210
0.0
220
0.0
230
1.0
 40
0.8381189153063782
 41
0.0
 42
6.283185307179586
  0
ELLIPSE
  5
B7
330
90
100
AcDbEntity
  8
AM_9
100
AcDbEllipse
 10
0.0000000000000013
 20
-4.056250000000001
 30
0.0
 11
-0.2187499999999986
 21
3.259629037943302E-9
 31
0.0
210
0.0
220
0.0
230
1.0
 40
0.8381189153063786
 41
0.0
 42
6.283185307179586
  0
LWPOLYLINE
  5
B9
330
90
100
AcDbEntity
  8
AM_4
100
AcDbPolyline
 90
        4
 70
     0
 43
0.0
 10
0.1201259030773847
 20
-4.264320886631557
 10
0.13671875
 20
-4.256011911786724
 10
0.1640625
 20
-4.241806371656579
 10
0.21875
 20
-4.211703033314379
  0
LWPOLYLINE
  5
BA
330
90
100
AcDbEntity
  8
AM_4
100
AcDbPolyline
 90
        4
 70
     0
 43
0.0
 10
-0.21875
 20
-4.211703033314379
 10
-0.1643083897258504
 20
-4.241675854645463
 10
-0.1368799989092348
 20
-4.255929986303689
 10
-0.1230832765431853
 20
-4.262857694944389
  0
ELLIPSE
  5
BB
330
90
100
AcDbEntity
  8
AM_4
100
AcDbEllipse
 10
-0.0000000000000004
 20
-4.110798756521636
 30
0.0
 11
-0.2187499999999995
 21
2.678914873134829E-17
 31
0.0
210
0.0
220
0.0
230
1.0
 40
0.8381189153063754
 41
2.173758324320278
 42
7.251019636449106
  0
ELLIPSE
  5
BC
330
90
100
AcDbEntity
  8
AM_4
100
AcDbEllipse
 10
-0.0000000000000011
 20
-4.110798756521636
 30
0.0
 11
-0.2137499999999986
 21
2.617682533177451E-17
 31
0.0
210
0.0
220
0.0
230
1.0
 40
0.8381189153063763
 41
2.209164392643628
 42
7.215613568125761
  0
LINE
  5
BD
330
90
100
AcDbEntity
  8
AM_4
100
AcDbLine
 10
-0.21875
 20
-4.211703033314379
 30
0.0
 11
-0.21875
 21
-3.955345723207258
 31
0.0
  0
LWPOLYLINE
  5
BE
330
90
100
AcDbEntity
  8
AM_4
100
AcDbPolyline
 90
        4
 70
     0
 43
0.0
 10
-0.1093749999999999
 20
-3.952022947011228
 10
-0.1367187499999999
 20
-3.964922927684309
 10
-0.1640625
 20
-3.977180022472566
 10
-0.21875
 20
-4.000001953967169
  0
LWPOLYLINE
  5
BF
330
90
100
AcDbEntity
  8
AM_4
100
AcDbPolyline
 90
        4
 70
     0
 43
0.0
 10
0.0
 20
-3.894151414293563
 10
-0.0544416102741496
 20
-3.924124235624646
 10
-0.0818700010907651
 20
-3.938378367282873
 10
-0.1093749999999999
 20
-3.952022947011228
  0
LWPOLYLINE
  5
C0
330
90
100
AcDbEntity
  8
AM_4
100
AcDbPolyline
 90
        4
 70
     0
 43
0.0
 10
-0.109375
 20
-3.897474190489593
 10
-0.08203125
 20
-3.884574209816512
 10
-0.0546875
 20
-3.872317115028256
 10
0.0
 20
-3.849495183533653
  0
LWPOLYLINE
  5
C1
330
90
100
AcDbEntity
  8
AM_4
100
AcDbPolyline
 90
        4
 70
     0
 43
0.0
 10
-0.21875
 20
-3.955345723207258
 10
-0.1643083897258504
 20
-3.925372901876175
 10
-0.1368799989092349
 20
-3.911118770217949
 10
-0.109375
 20
-3.897474190489593
  0
LINE
  5
C2
330
90
100
AcDbEntity
  8
AM_4
100
AcDbLine
 10
0.0
 20
-3.894151414293563
 30
0.0
 11
0.0
 21
-3.849495183533653
 31
0.0
  0
LWPOLYLINE
  5
C3
330
90
100
AcDbEntity
  8
AM_4
100
AcDbPolyline
 90
        4
 70
     0
 43
0.0
 10
0.109375
 20
-3.952022947011228
 10
0.08203125
 20
-3.938460292765908
 10
0.0546875
 20
-3.924254752635763
 10
0.0
 20
-3.894151414293563
  0
LWPOLYLINE
  5
C4
330
90
100
AcDbEntity
  8
AM_4
100
AcDbPolyline
 90
        4
 70
     0
 43
0.0
 10
0.21875
 20
-4.000001953967169
 10
0.1643083897258504
 20
-3.977287471725965
 10
0.1368799989092349
 20
-3.964997055084148
 10
0.109375
 20
-3.952022947011228
  0
LINE
  5
C5
330
90
100
AcDbEntity
  8
AM_4
100
AcDbLine
 10
0.21875
 20
-4.211703033314379
 30
0.0
 11
0.21875
 21
-3.955345723207258
 31
0.0
  0
LWPOLYLINE
  5
C6
330
90
100
AcDbEntity
  8
AM_4
100
AcDbPolyline
 90
        4
 70
     0
 43
0.0
 10
0.109375
 20
-3.897474190489593
 10
0.1367187499999999
 20
-3.911036844734914
 10
0.1640625
 20
-3.925242384865059
 10
0.21875
 20
-3.955345723207258
  0
LWPOLYLINE
  5
C7
330
90
100
AcDbEntity
  8
AM_4
100
AcDbPolyline
 90
        4
 70
     0
 43
0.0
 10
0.0
 20
-3.849495183533653
 10
0.0544416102741496
 20
-3.872209665774856
 10
0.0818700010907651
 20
-3.884500082416674
 10
0.109375
 20
-3.897474190489593
  0
ELLIPSE
  5
C8
330
90
100
AcDbEntity
  8
AM_4
100
AcDbEllipse
 10
-0.0000000000000003
 20
-4.150484679695241
 30
0.0
 11
-0.1188200907348977
 21
1.455126437928906E-17
 31
0.0
210
0.0
220
0.0
230
1.0
 40
0.838118915306372
 41
3.023713547291623
 42
6.401064413477756
  0
ELLIPSE
  5
C9
330
90
100
AcDbEntity
  8
AM_4
100
AcDbEllipse
 10
-0.0000000000000008
 20
-4.120791106042851
 30
0.0
 11
-0.1725340532830158
 21
2.112932760969642E-17
 31
0.0
210
0.0
220
0.0
230
1.0
 40
0.8381189153063757
 41
2.467554162334909
 42
6.957223798434473
  0
ELLIPSE
  5
CA
330
90
100
AcDbEntity
  8
AM_4
100
AcDbEllipse
 10
-0.0000000000000003
 20
-4.168074950869354
 30
0.0
 11
-0.1049999999999996
 21
1.285879139104716E-17
 31
0.0
210
0.0
220
0.0
230
1.0
 40
0.8381189153063838
 41
3.452983442156093
 42
5.971794518613287
  0
ELLIPSE
  5
CB
330
90
100
AcDbEntity
  8
AM_4
100
AcDbEllipse
 10
0.0000000000000014
 20
-4.184439577825848
 30
0.0
 11
-0.1050000000000032
 21
1.285879139104760E-17
 31
0.0
210
0.0
220
0.0
230
1.0
 40
0.8381189153063893
 41
4.017663024275167
 42
5.407114936494232
  0
LINE
  5
CC
330
90
100
AcDbEntity
  8
AM_4
100
AcDbLine
 10
-0.067218368181592
 20
-4.116833501259138
 30
0.0
 11
-0.0864236162334755
 21
-4.130246733295918
 31
0.0
  0
LINE
  5
CD
330
90
100
AcDbEntity
  8
AM_4
100
AcDbLine
 10
0.0864236162334755
 20
-4.130246733295918
 30
0.0
 11
0.067218368181592
 21
-4.116833501259138
 31
0.0
  0
ELLIPSE
  5
CE
330
90
100
AcDbEntity
  8
AM_4
100
AcDbEllipse
 10
-0.0000000000000018
 20
-4.217168831738825
 30
0.0
 11
-0.1350000000000024
 21
1.653273178848956E-17
 31
0.0
210
0.0
220
0.0
230
1.0
 40
0.8381189153063667
 41
2.471868866650051
 42
6.952909094119344
  0
LINE
  5
CF
330
90
100
AcDbEntity
  8
AM_4
100
AcDbLine
 10
0.0804987728417108
 20
-4.314228954877884
 30
0.0
 11
0.1058390766564585
 21
-4.287406446489944
 31
0.0
  0
LINE
  5
D0
330
90
100
AcDbEntity
  8
AM_4
100
AcDbLine
 10
-0.1058390766564585
 20
-4.287406446489944
 30
0.0
 11
-0.0804987728417108
 21
-4.314228954877884
 31
0.0
  0
ELLIPSE
  5
D1
330
90
100
AcDbEntity
  8
AM_4
100
AcDbEllipse
 10
0.0000000000000006
 20
-4.260807836956134
 30
0.0
 11
-0.102677901933188
 21
1.257441639456445E-17
 31
0.0
210
0.0
220
0.0
230
1.0
 40
0.8381189153063789
 41
0.0
 42
6.283185307179586
  0
ENDBLK
  5
93
330
90
100
AcDbEntity
  8
0
100
AcDbBlockEnd
  0
BLOCK
  5
D4
330
D2
100
AcDbEntity
  8
0
100
AcDbBlockBegin
  2
3_405015E_Inch_2_0_in_072352_0
 70
     2
 10
0.0
 20
0.0
 30
0.0
  3
3_405015E_Inch_2_0_in_072352_0
  1

  0
ATTDEF
  5
D6
330
D2
100
AcDbEntity
  8
AM_6
100
AcDbText
 10
5.21875
 20
4.34686412875031
 30
0.0
 40
0.5
  1
405015E -Inch
100
AcDbAttributeDefinition
  3

  2
NN
 70
     8
280
     0
  0
ATTDEF
  5
D7
330
D2
100
AcDbEntity
  8
AM_6
100
AcDbText
 10
5.21875
 20
3.84686412875031
 30
0.0
 40
0.5
  1
Grease Fitting
100
AcDbAttributeDefinition
  3

  2
NT
 70
     8
280
     0
  0
ATTDEF
  5
D8
330
D2
100
AcDbEntity
  8
AM_6
100
AcDbText
 10
5.21875
 20
3.34686412875031
 30
0.0
 40
0.5
  1
405015E-Inch
100
AcDbAttributeDefinition
  3

  2
NB
 70
     8
280
     0
  0
ATTDEF
  5
D9
330
D2
100
AcDbEntity
  8
AM_6
100
AcDbText
 10
5.21875
 20
2.84686412875031
 30
0.0
 40
0.5
  1
$MN.-Inch
100
AcDbAttributeDefinition
  3

  2
NBSYN
 70
     8
280
     0
  0
ATTDEF
  5
DA
330
D2
100
AcDbEntity
  8
AM_6
100
AcDbText
 10
5.21875
 20
2.34686412875031
 30
0.0
 40
0.5
  1
405015E
100
AcDbAttributeDefinition
  3

  2
LINA
 70
     8
280
     0
  0
ATTDEF
  5
DB
330
D2
100
AcDbEntity
  8
AM_6
100
AcDbText
 10
5.21875
 20
1.84686412875031
 30
0.0
 40
0.5
  1
405015E
100
AcDbAttributeDefinition
  3

  2
MN
 70
     8
280
     0
  0
ATTDEF
  5
DC
330
D2
100
AcDbEntity
  8
AM_6
100
AcDbText
 10
5.21875
 20
1.34686412875031
 30
0.0
 40
0.5
  1
1/8 x 27PTF
100
AcDbAttributeDefinition
  3

  2
T
 70
     8
280
     0
  0
ATTDEF
  5
DD
330
D2
100
AcDbEntity
  8
AM_6
100
AcDbText
 10
5.21875
 20
0.84686412875031
 30
0.0
 40
0.5
  1
baldor
100
AcDbAttributeDefinition
  3

  2
COMPANY
 70
     8
280
     0
  0
ELLIPSE
  5
DE
330
D2
100
AcDbEntity
  8
AM_9
100
AcDbEllipse
 10
0.0
 20
3.911695795217666
 30
0.0
 11
-0.161902872472269
 21
1.982738345459263E-17
 31
0.0
210
0.0
220
0.0
230
1.0
 40
0.838118915306373
 41
0.0
 42
6.283185307179586
  0
LWPOLYLINE
  5
DF
330
D2
100
AcDbEntity
  8
AM_9
100
AcDbPolyline
 90
        4
 70
     0
 43
0.0
 10
0.0
 20
4.272897342228073
 10
0.0544416102741496
 20
4.242924520896989
 10
0.0818700010907651
 20
4.228670389238763
 10
0.109375
 20
4.215025809510408
  0
LWPOLYLINE
  5
E0
330
D2
100
AcDbEntity
  8
AM_9
100
AcDbPolyline
 90
        4
 70
     0
 43
0.0
 10
-0.109375
 20
4.215025809510408
 10
-0.08203125
 20
4.228588463755728
 10
-0.0546875
 20
4.242794003885873
 10
0.0
 20
4.272897342228073
  0
LWPOLYLINE
  5
E1
330
D2
100
AcDbEntity
  8
AM_9
100
AcDbPolyline
 90
        4
 70
     0
 43
0.0
 10
0.1093749999999999
 20
4.269574566032043
 10
0.0820312499999999
 20
4.282474546705124
 10
0.0546874999999999
 20
4.29473164149338
 10
0.0
 20
4.317553572987983
  0
LWPOLYLINE
  5
E2
330
D2
100
AcDbEntity
  8
AM_9
100
AcDbPolyline
 90
        4
 70
     0
 43
0.0
 10
0.0
 20
4.317553572987983
 10
-0.0544416102741496
 20
4.29483909074678
 10
-0.0818700010907651
 20
4.282548674104962
 10
-0.109375
 20
4.269574566032043
  0
LWPOLYLINE
  5
E3
330
D2
100
AcDbEntity
  8
AM_9
100
AcDbPolyline
 90
        4
 70
     0
 43
0.0
 10
-0.21875
 20
4.167046802554467
 10
-0.1643083897258504
 20
4.18976128479567
 10
-0.1368799989092349
 20
4.202051701437488
 10
-0.109375
 20
4.215025809510408
  0
LINE
  5
E4
330
D2
100
AcDbEntity
  8
AM_9
100
AcDbLine
 10
0.0
 20
4.317553572987983
 30
0.0
 11
0.0
 21
4.272897342228073
 31
0.0
  0
LWPOLYLINE
  5
E5
330
D2
100
AcDbEntity
  8
AM_9
100
AcDbPolyline
 90
        4
 70
     0
 43
0.0
 10
0.109375
 20
4.215025809510408
 10
0.1367187499999999
 20
4.202125828837326
 10
0.1640625
 20
4.18986873404907
 10
0.21875
 20
4.167046802554467
  0
ELLIPSE
  5
E6
330
D2
100
AcDbEntity
  8
AM_9
100
AcDbEllipse
 10
0.0000000000000001
 20
4.056249999999999
 30
0.0
 11
0.2187499999999997
 21
3.259629011154171E-9
 31
0.0
210
0.0
220
0.0
230
1.0
 40
0.8381189153063786
 41
0.0000017304280906
 42
1.047197537385063
  0
LINE
  5
E7
330
D2
100
AcDbEntity
  8
AM_9
100
AcDbLine
 10
-0.1093749999999999
 20
4.269574566032043
 30
0.0
 11
-0.120125903077385
 21
4.264320886631555
 31
0.0
  0
LINE
  5
E8
330
D2
100
AcDbEntity
  8
AM_9
100
AcDbLine
 10
0.1230832765431857
 20
4.262857694944388
 30
0.0
 11
0.1093749999999999
 21
4.269574566032043
 31
0.0
  0
ELLIPSE
  5
E9
330
D2
100
AcDbEntity
  8
AM_9
100
AcDbEllipse
 10
0.0000000000000002
 20
4.056249999999999
 30
0.0
 11
0.2057518972230697
 21
0.0
 31
0.0
210
0.0
220
0.0
230
1.0
 40
0.8381189153063727
 41
4.71238898038469
 42
6.235150114328761
  0
ELLIPSE
  5
EA
330
D2
100
AcDbEntity
  8
AM_9
100
AcDbEllipse
 10
0.0
 20
3.93172323715317
 30
0.0
 11
0.1986176267812154
 21
0.0
 31
0.0
210
0.0
220
0.0
230
1.0
 40
0.8381189153063751
 41
4.71238898038469
 42
9.472813153620203
  0
LINE
  5
EB
330
D2
100
AcDbEntity
  8
AM_9
100
AcDbLine
 10
0.1983885276926138
 20
3.923730124337925
 30
0.0
 11
0.2055145689813835
 21
4.047969777579125
 31
0.0
  0
LINE
  5
EC
330
D2
100
AcDbEntity
  8
AM_9
100
AcDbLine
 10
-0.2055145689813835
 20
4.047969777579125
 30
0.0
 11
-0.1983885276926138
 21
3.923730124337925
 31
0.0
  0
ELLIPSE
  5
ED
330
D2
100
AcDbEntity
  8
AM_9
100
AcDbEllipse
 10
0.0
 20
4.056249999999999
 30
0.0
 11
0.2057518972230694
 21
0.0
 31
0.0
210
0.0
220
0.0
230
1.0
 40
0.8381189153063697
 41
6.235150114328756
 42
10.99557428756428
  0
ELLIPSE
  5
EE
330
D2
100
AcDbEntity
  8
AM_9
100
AcDbEllipse
 10
0.0000000000000001
 20
3.93172323715317
 30
0.0
 11
0.1986176267812158
 21
0.0
 31
0.0
210
0.0
220
0.0
230
1.0
 40
0.838118915306376
 41
3.189627846440622
 42
4.71238898038469
  0
ELLIPSE
  5
EF
330
D2
100
AcDbEntity
  8
AM_9
100
AcDbEllipse
 10
-0.0000000000000004
 20
4.056249999999999
 30
0.0
 11
0.2187500000000003
 21
0.0
 31
0.0
210
0.0
220
0.0
230
1.0
 40
0.8381189153063763
 41
5.23598775598299
 42
6.283185307179586
  0
ELLIPSE
  5
F0
330
D2
100
AcDbEntity
  8
AM_9
100
AcDbEllipse
 10
0.0000000000000002
 20
4.056249999999999
 30
0.0
 11
0.2187500000000001
 21
0.0
 31
0.0
210
0.0
220
0.0
230
1.0
 40
0.838118915306377
 41
1.047197551196598
 42
4.18879020478639
  0
ELLIPSE
  5
F1
330
D2
100
AcDbEntity
  8
AM_9
100
AcDbEllipse
 10
0.0
 20
4.05625
 30
0.0
 11
0.2187500000000016
 21
3.259629011154199E-9
 31
0.0
210
0.0
220
0.0
230
1.0
 40
0.8381189153063713
 41
4.188790190974863
 42
5.235987742171452
  0
ELLIPSE
  5
F2
330
D2
100
AcDbEntity
  8
AM_9
100
AcDbEllipse
 10
0.0000000000001572
 20
4.110798756521478
 30
0.0
 11
0.2187500000002948
 21
3.259629011158568E-9
 31
0.0
210
0.0
220
0.0
230
1.0
 40
0.8381189153061694
 41
1.047197537386221
 42
2.173758310130161
  0
ELLIPSE
  5
F3
330
D2
100
AcDbEntity
  8
AM_9
100
AcDbEllipse
 10
-0.0000000000001549
 20
4.110798756521481
 30
0.0
 11
0.218750000000291
 21
0.0
 31
0.0
210
0.0
220
0.0
230
1.0
 40
0.8381189153061679
 41
0.967834329269393
 42
1.047197551196511
  0
ELLIPSE
  5
F4
330
D2
100
AcDbEntity
  8
AM_9
100
AcDbEllipse
 10
-0.000000000000064
 20
4.110798756521662
 30
0.0
 11
0.2137499999998777
 21
3.185123205183115E-9
 31
0.0
210
0.0
220
0.0
230
1.0
 40
0.8381189153066178
 41
1.114631355461722
 42
2.209164378275879
  0
ELLIPSE
  5
F5
330
D2
100
AcDbEntity
  8
AM_9
100
AcDbEllipse
 10
0.0000000000000205
 20
4.110798756521658
 30
0.0
 11
0.2137499999999634
 21
0.0
 31
0.0
210
0.0
220
0.0
230
1.0
 40
0.8381189153063857
 41
0.9324282609464571
 42
1.11463136897772
  0
LINE
  5
F6
330
D2
100
AcDbEntity
  8
AM_9
100
AcDbLine
 10
-0.0790226168549828
 20
4.226023016497957
 30
0.0
 11
-0.0894235667125533
 21
4.216059864608598
 31
0.0
  0
LINE
  5
F7
330
D2
100
AcDbEntity
  8
AM_9
100
AcDbLine
 10
0.0894235667125533
 20
4.216059864608598
 30
0.0
 11
0.0790226168549828
 21
4.226023016497957
 31
0.0
  0
ELLIPSE
  5
F8
330
D2
100
AcDbEntity
  8
AM_9
100
AcDbEllipse
 10
0.0
 20
4.168074950869352
 30
0.0
 11
0.1050000000000004
 21
0.0
 31
0.0
210
0.0
220
0.0
230
1.0
 40
0.8381189153063777
 41
0.7188001492181284
 42
3.141592653589793
  0
ELLIPSE
  5
F9
330
D2
100
AcDbEntity
  8
AM_9
100
AcDbEllipse
 10
0.0
 20
4.150484679695239
 30
0.0
 11
0.118820090734898
 21
0.0
 31
0.0
210
0.0
220
0.0
230
1.0
 40
0.8381189153063702
 41
0.1178791062982869
 42
3.023713547291507
  0
ELLIPSE
  5
FA
330
D2
100
AcDbEntity
  8
AM_9
100
AcDbEllipse
 10
0.0
 20
4.120791106042851
 30
0.0
 11
0.1725340532830142
 21
0.0
 31
0.0
210
0.0
220
0.0
230
1.0
 40
0.8381189153063786
 41
0.6740384912550397
 42
2.467554162334754
  0
ELLIPSE
  5
FB
330
D2
100
AcDbEntity
  8
AM_9
100
AcDbEllipse
 10
-0.0000000000000002
 20
4.168074950869342
 30
0.0
 11
0.1050000000000001
 21
0.0
 31
0.0
210
0.0
220
0.0
230
1.0
 40
0.8381189153063632
 41
5.971794518613132
 42
7.001985456397807
  0
LINE
  5
FC
330
D2
100
AcDbEntity
  8
AM_9
100
AcDbLine
 10
0.105
 20
4.168074950869352
 30
0.0
 11
0.105
 21
4.184439577825843
 31
0.0
  0
LINE
  5
FD
330
D2
100
AcDbEntity
  8
AM_9
100
AcDbLine
 10
-0.105
 20
4.184439577825843
 30
0.0
 11
-0.105
 21
4.168074950869352
 31
0.0
  0
ELLIPSE
  5
FE
330
D2
100
AcDbEntity
  8
AM_9
100
AcDbEllipse
 10
0.0
 20
4.184439577825843
 30
0.0
 11
0.1050000000000003
 21
1.564621925354008E-9
 31
0.0
210
0.0
220
0.0
230
1.0
 40
0.8381189153063785
 41
5.4071149218372
 42
10.30084831679765
  0
ELLIPSE
  5
FF
330
D2
100
AcDbEntity
  8
AM_9
100
AcDbEllipse
 10
0.0000000000000004
 20
4.168074950869343
 30
0.0
 11
0.1050000000000004
 21
0.0
 31
0.0
210
0.0
220
0.0
230
1.0
 40
0.8381189153063604
 41
3.141592653589793
 42
3.452983442156258
  0
ELLIPSE
  5
100
330
D2
100
AcDbEntity
  8
AM_9
100
AcDbEllipse
 10
0.0
 20
4.217168831738824
 30
0.0
 11
0.1350000000000005
 21
0.0
 31
0.0
210
0.0
220
0.0
230
1.0
 40
0.8381189153063723
 41
0.6697237869397501
 42
2.471868866650043
  0
LWPOLYLINE
  5
101
330
D2
100
AcDbEntity
  8
AM_4
100
AcDbPolyline
 90
        4
 70
     0
 43
0.0
 10
-0.120125903077385
 20
4.264320886631555
 10
-0.13671875
 20
4.256011911786723
 10
-0.1640625
 20
4.241806371656577
 10
-0.21875
 20
4.211703033314378
  0
LWPOLYLINE
  5
102
330
D2
100
AcDbEntity
  8
AM_4
100
AcDbPolyline
 90
        4
 70
     0
 43
0.0
 10
0.21875
 20
4.211703033314378
 10
0.1643083897258504
 20
4.241675854645461
 10
0.1368799989092348
 20
4.255929986303688
 10
0.1230832765431857
 20
4.262857694944388
  0
ELLIPSE
  5
103
330
D2
100
AcDbEntity
  8
AM_4
100
AcDbEllipse
 10
0.0000000000000011
 20
4.110798756521636
 30
0.0
 11
0.2187500000000007
 21
0.0
 31
0.0
210
0.0
220
0.0
230
1.0
 40
0.8381189153063746
 41
2.173758324320414
 42
3.141592653589793
  0
ELLIPSE
  5
104
330
D2
100
AcDbEntity
  8
AM_4
100
AcDbEllipse
 10
-0.0000000000000015
 20
4.110798756521634
 30
0.0
 11
0.2187499999999983
 21
0.0
 31
0.0
210
0.0
220
0.0
230
1.0
 40
0.8381189153063758
 41
3.141592653589793
 42
5.235987755982998
  0
ELLIPSE
  5
105
330
D2
100
AcDbEntity
  8
AM_4
100
AcDbEllipse
 10
0.0000000000000016
 20
4.110798756521634
 30
0.0
 11
0.2187499999999982
 21
3.259629011154149E-9
 31
0.0
210
0.0
220
0.0
230
1.0
 40
0.838118915306376
 41
5.235987742171453
 42
6.283187037607677
  0
ELLIPSE
  5
106
330
D2
100
AcDbEntity
  8
AM_4
100
AcDbEllipse
 10
-0.0000000000000012
 20
4.110798756521635
 30
0.0
 11
0.2187500000000012
 21
0.0
 31
0.0
210
0.0
220
0.0
230
1.0
 40
0.838118915306377
 41
0.0
 42
0.9678343292693804
  0
ELLIPSE
  5
107
330
D2
100
AcDbEntity
  8
AM_4
100
AcDbEllipse
 10
0.0000000000000002
 20
4.110798756521635
 30
0.0
 11
0.2137500000000003
 21
0.0
 31
0.0
210
0.0
220
0.0
230
1.0
 40
0.8381189153063741
 41
2.20916439264333
 42
6.287543758019292
  0
ELLIPSE
  5
108
330
D2
100
AcDbEntity
  8
AM_4
100
AcDbEllipse
 10
0.0000000000000001
 20
4.110798756521634
 30
0.0
 11
0.21375
 21
3.185123205184937E-9
 31
0.0
210
0.0
220
0.0
230
1.0
 40
0.8381189153063752
 41
0.00435843306051
 42
0.932428246579028
  0
LINE
  5
109
330
D2
100
AcDbEntity
  8
AM_4
100
AcDbLine
 10
0.21875
 20
4.211703033314378
 30
0.0
 11
0.21875
 21
3.955345723207257
 31
0.0
  0
LWPOLYLINE
  5
10A
330
D2
100
AcDbEntity
  8
AM_4
100
AcDbPolyline
 90
        4
 70
     0
 43
0.0
 10
0.1093749999999999
 20
3.952022947011227
 10
0.1367187499999999
 20
3.964922927684308
 10
0.1640625
 20
3.977180022472564
 10
0.21875
 20
4.000001953967167
  0
LWPOLYLINE
  5
10B
330
D2
100
AcDbEntity
  8
AM_4
100
AcDbPolyline
 90
        4
 70
     0
 43
0.0
 10
0.0
 20
3.894151414293562
 10
0.0544416102741496
 20
3.924124235624646
 10
0.0818700010907651
 20
3.938378367282872
 10
0.1093749999999999
 20
3.952022947011227
  0
LWPOLYLINE
  5
10C
330
D2
100
AcDbEntity
  8
AM_4
100
AcDbPolyline
 90
        4
 70
     0
 43
0.0
 10
0.109375
 20
3.897474190489592
 10
0.08203125
 20
3.884574209816511
 10
0.0546875
 20
3.872317115028255
 10
0.0
 20
3.849495183533652
  0
LWPOLYLINE
  5
10D
330
D2
100
AcDbEntity
  8
AM_4
100
AcDbPolyline
 90
        4
 70
     0
 43
0.0
 10
0.21875
 20
3.955345723207257
 10
0.1643083897258504
 20
3.925372901876173
 10
0.1368799989092349
 20
3.911118770217947
 10
0.109375
 20
3.897474190489592
  0
LINE
  5
10E
330
D2
100
AcDbEntity
  8
AM_4
100
AcDbLine
 10
0.0
 20
3.894151414293562
 30
0.0
 11
0.0
 21
3.849495183533652
 31
0.0
  0
LWPOLYLINE
  5
10F
330
D2
100
AcDbEntity
  8
AM_4
100
AcDbPolyline
 90
        4
 70
     0
 43
0.0
 10
-0.109375
 20
3.952022947011227
 10
-0.08203125
 20
3.938460292765907
 10
-0.0546875
 20
3.924254752635762
 10
0.0
 20
3.894151414293562
  0
LWPOLYLINE
  5
110
330
D2
100
AcDbEntity
  8
AM_4
100
AcDbPolyline
 90
        4
 70
     0
 43
0.0
 10
-0.21875
 20
4.000001953967167
 10
-0.1643083897258504
 20
3.977287471725964
 10
-0.1368799989092349
 20
3.964997055084147
 10
-0.109375
 20
3.952022947011227
  0
LINE
  5
111
330
D2
100
AcDbEntity
  8
AM_4
100
AcDbLine
 10
-0.21875
 20
4.211703033314378
 30
0.0
 11
-0.21875
 21
3.955345723207257
 31
0.0
  0
LWPOLYLINE
  5
112
330
D2
100
AcDbEntity
  8
AM_4
100
AcDbPolyline
 90
        4
 70
     0
 43
0.0
 10
-0.109375
 20
3.897474190489592
 10
-0.1367187499999999
 20
3.911036844734912
 10
-0.1640625
 20
3.925242384865057
 10
-0.21875
 20
3.955345723207257
  0
LWPOLYLINE
  5
113
330
D2
100
AcDbEntity
  8
AM_4
100
AcDbPolyline
 90
        4
 70
     0
 43
0.0
 10
0.0
 20
3.849495183533652
 10
-0.0544416102741496
 20
3.872209665774855
 10
-0.0818700010907651
 20
3.884500082416672
 10
-0.109375
 20
3.897474190489592
  0
ELLIPSE
  5
114
330
D2
100
AcDbEntity
  8
AM_4
100
AcDbEllipse
 10
0.0000000000000002
 20
4.150484679695239
 30
0.0
 11
0.1188200907348977
 21
0.0
 31
0.0
210
0.0
220
0.0
230
1.0
 40
0.8381189153063724
 41
3.023713547291507
 42
4.71238898038469
  0
ELLIPSE
  5
115
330
D2
100
AcDbEntity
  8
AM_4
100
AcDbEllipse
 10
-0.0000000000000002
 20
4.150484679695239
 30
0.0
 11
0.1188200907348977
 21
0.0
 31
0.0
210
0.0
220
0.0
230
1.0
 40
0.838118915306372
 41
4.71238898038469
 42
6.401064413477873
  0
ELLIPSE
  5
116
330
D2
100
AcDbEntity
  8
AM_4
100
AcDbEllipse
 10
-0.0000000000000003
 20
4.120791106042851
 30
0.0
 11
0.172534053283015
 21
0.0
 31
0.0
210
0.0
220
0.0
230
1.0
 40
0.8381189153063743
 41
2.467554162334746
 42
6.957223798434628
  0
ELLIPSE
  5
117
330
D2
100
AcDbEntity
  8
AM_4
100
AcDbEllipse
 10
-0.0000000000000009
 20
4.168074950869353
 30
0.0
 11
0.1050000000000011
 21
0.0
 31
0.0
210
0.0
220
0.0
230
1.0
 40
0.8381189153063721
 41
3.452983442156357
 42
5.971794518613023
  0
ELLIPSE
  5
118
330
D2
100
AcDbEntity
  8
AM_4
100
AcDbEllipse
 10
0.0000000000000005
 20
4.18443957782584
 30
0.0
 11
0.1049999999999994
 21
0.0
 31
0.0
210
0.0
220
0.0
230
1.0
 40
0.8381189153063521
 41
4.71238898038469
 42
5.407114936494253
  0
LINE
  5
119
330
D2
100
AcDbEntity
  8
AM_4
100
AcDbLine
 10
0.0672183681815925
 20
4.116833501259137
 30
0.0
 11
0.086423616233476
 21
4.130246733295917
 31
0.0
  0
LINE
  5
11A
330
D2
100
AcDbEntity
  8
AM_4
100
AcDbLine
 10
-0.086423616233476
 20
4.130246733295917
 30
0.0
 11
-0.0672183681815925
 21
4.116833501259137
 31
0.0
  0
ELLIPSE
  5
11B
330
D2
100
AcDbEntity
  8
AM_4
100
AcDbEllipse
 10
-0.0000000000000001
 20
4.217168831738825
 30
0.0
 11
0.1350000000000002
 21
0.0
 31
0.0
210
0.0
220
0.0
230
1.0
 40
0.838118915306374
 41
5.407114936494251
 42
6.952909094119326
  0
ELLIPSE
  5
11C
330
D2
100
AcDbEntity
  8
AM_4
100
AcDbEllipse
 10
-0.0000000000000022
 20
4.21716883173882
 30
0.0
 11
0.1349999999999956
 21
0.0
 31
0.0
210
0.0
220
0.0
230
1.0
 40
0.8381189153063697
 41
4.017663024275123
 42
4.71238898038469
  0
ELLIPSE
  5
11D
330
D2
100
AcDbEntity
  8
AM_4
100
AcDbEllipse
 10
-0.0000000000000005
 20
4.18443957782584
 30
0.0
 11
0.1049999999999994
 21
0.0
 31
0.0
210
0.0
220
0.0
230
1.0
 40
0.8381189153063521
 41
4.017663024275127
 42
4.71238898038469
  0
ELLIPSE
  5
11E
330
D2
100
AcDbEntity
  8
AM_4
100
AcDbEllipse
 10
0.0000000000000022
 20
4.21716883173882
 30
0.0
 11
0.1349999999999956
 21
0.0
 31
0.0
210
0.0
220
0.0
230
1.0
 40
0.8381189153063694
 41
4.71238898038469
 42
5.407114936494258
  0
LINE
  5
11F
330
D2
100
AcDbEntity
  8
AM_4
100
AcDbLine
 10
-0.0804987728417111
 20
4.314228954877883
 30
0.0
 11
-0.1058390766564588
 21
4.287406446489944
 31
0.0
  0
LINE
  5
120
330
D2
100
AcDbEntity
  8
AM_4
100
AcDbLine
 10
0.1058390766564588
 20
4.287406446489944
 30
0.0
 11
0.0804987728417111
 21
4.314228954877883
 31
0.0
  0
ELLIPSE
  5
121
330
D2
100
AcDbEntity
  8
AM_4
100
AcDbEllipse
 10
0.0000000000000001
 20
4.217168831738825
 30
0.0
 11
0.1350000000000002
 21
0.0
 31
0.0
210
0.0
220
0.0
230
1.0
 40
0.838118915306374
 41
2.471868866650055
 42
4.017663024275128
  0
ELLIPSE
  5
122
330
D2
100
AcDbEntity
  8
AM_4
100
AcDbEllipse
 10
0.0000000000000009
 20
4.260807836956133
 30
0.0
 11
0.102677901933187
 21
0.0
 31
0.0
210
0.0
220
0.0
230
1.0
 40
0.838118915306379
 41
0.0
 42
6.283185307179586
  0
ENDBLK
  5
D5
330
D2
100
AcDbEntity
  8
0
100
AcDbBlockEnd
  0
BLOCK
  5
125
330
123
100
AcDbEntity
  8
0
100
AcDbBlockBegin
  2
4_ASME_B18_3_1_4_1_0_in_072352_0
 70
     2
 10
0.0
 20
0.0
 30
0.0
  3
4_ASME_B18_3_1_4_1_0_in_072352_0
  1

  0
ATTDEF
  5
127
330
123
100
AcDbEntity
  8
AM_6
100
AcDbText
 10
5.229425
 20
-1.916916666666666
 30
0.0
 40
0.5
  1
ANSI/ASME-B18.3-1998
100
AcDbAttributeDefinition
  3

  2
NN
 70
     8
280
     0
  0
ATTDEF
  5
128
330
123
100
AcDbEntity
  8
AM_6
100
AcDbText
 10
5.229425
 20
-2.416916666666666
 30
0.0
 40
0.5
  1
Socket Button Head Cap Screws
100
AcDbAttributeDefinition
  3

  2
NT
 70
     8
280
     0
  0
ATTDEF
  5
129
330
123
100
AcDbEntity
  8
AM_6
100
AcDbText
 10
5.229425
 20
-2.916916666666666
 30
0.0
 40
0.5
  1
ASME-B18.3-1/4
100
AcDbAttributeDefinition
  3

  2
NB
 70
     8
280
     0
  0
ATTDEF
  5
12A
330
123
100
AcDbEntity
  8
AM_6
100
AcDbText
 10
5.229425
 20
-3.416916666666666
 30
0.0
 40
0.5
  1
ASME-B18.3-$NS.
100
AcDbAttributeDefinition
  3

  2
NBSYN
 70
     8
280
     0
  0
ATTDEF
  5
12B
330
123
100
AcDbEntity
  8
AM_6
100
AcDbText
 10
5.229425
 20
-3.916916666666666
 30
0.0
 40
0.5
  1
ASME-B18.3-1/4
100
AcDbAttributeDefinition
  3

  2
LINA
 70
     8
280
     0
  0
ATTDEF
  5
12C
330
123
100
AcDbEntity
  8
AM_6
100
AcDbText
 10
5.229425
 20
-4.416916666666666
 30
0.0
 40
0.5
  1
1/4
100
AcDbAttributeDefinition
  3

  2
NS
 70
     8
280
     0
  0
ATTDEF
  5
12D
330
123
100
AcDbEntity
  8
AM_6
100
AcDbText
 10
5.229425
 20
-4.916916666666666
 30
0.0
 40
0.5
  1
0.437
100
AcDbAttributeDefinition
  3

  2
A
 70
     8
280
     0
  0
ATTDEF
  5
12E
330
123
100
AcDbEntity
  8
AM_6
100
AcDbText
 10
5.229425
 20
-5.416916666666666
 30
0.0
 40
0.5
  1
0.132
100
AcDbAttributeDefinition
  3

  2
H
 70
     8
280
     0
  0
ATTDEF
  5
12F
330
123
100
AcDbEntity
  8
AM_6
100
AcDbText
 10
5.229425
 20
-5.916916666666666
 30
0.0
 40
0.5
  1
0.800
100
AcDbAttributeDefinition
  3

  2
L
 70
     8
280
     0
  0
ATTDEF
  5
130
330
123
100
AcDbEntity
  8
AM_6
100
AcDbText
 10
5.229425
 20
-6.416916666666666
 30
0.0
 40
0.5
  1
0.031
100
AcDbAttributeDefinition
  3

  2
S
 70
     8
280
     0
  0
ATTDEF
  5
131
330
123
100
AcDbEntity
  8
AM_6
100
AcDbText
 10
5.229425
 20
-6.916916666666666
 30
0.0
 40
0.5
  1
0.156250
100
AcDbAttributeDefinition
  3

  2
J
 70
     8
280
     0
  0
ATTDEF
  5
132
330
123
100
AcDbEntity
  8
AM_6
100
AcDbText
 10
5.229425
 20
-7.416916666666666
 30
0.0
 40
0.5
  1
baldor
100
AcDbAttributeDefinition
  3

  2
COMPANY
 70
     8
280
     0
  0
ARC
  5
134
330
123
100
AcDbEntity
  8
AM_5
100
AcDbCircle
 10
0.0
 20
-2.135416666666667
 30
0.0
 40
0.0952500000000001
100
AcDbArc
 50
75.00000000000001
 51
15.00000000000004
  0
LINE
  5
137
330
123
100
AcDbEntity
  8
AM_7
100
AcDbLine
 10
-0.2294250000000002
 20
-2.135416666666667
 30
0.0
 11
0.2294250000000002
 21
-2.135416666666667
 31
0.0
  0
LINE
  5
138
330
123
100
AcDbEntity
  8
AM_4
100
AcDbLine
 10
0.0
 20
-2.045205687105788
 30
0.0
 11
0.078125
 21
-2.090311176886227
 31
0.0
  0
LINE
  5
139
330
123
100
AcDbEntity
  8
AM_4
100
AcDbLine
 10
0.0
 20
-2.225627646227545
 30
0.0
 11
-0.078125
 21
-2.180522156447106
 31
0.0
  0
LINE
  5
13A
330
123
100
AcDbEntity
  8
AM_4
100
AcDbLine
 10
0.078125
 20
-2.090311176886227
 30
0.0
 11
0.078125
 21
-2.180522156447106
 31
0.0
  0
LINE
  5
13B
330
123
100
AcDbEntity
  8
AM_4
100
AcDbLine
 10
0.078125
 20
-2.180522156447106
 30
0.0
 11
0.0
 21
-2.225627646227545
 31
0.0
  0
LINE
  5
13C
330
123
100
AcDbEntity
  8
AM_4
100
AcDbLine
 10
-0.078125
 20
-2.090311176886227
 30
0.0
 11
0.0
 21
-2.045205687105788
 31
0.0
  0
LINE
  5
13D
330
123
100
AcDbEntity
  8
AM_4
100
AcDbLine
 10
-0.078125
 20
-2.180522156447106
 30
0.0
 11
-0.078125
 21
-2.090311176886227
 31
0.0
  0
CIRCLE
  5
13E
330
123
100
AcDbEntity
  8
AM_4
100
AcDbCircle
 10
0.0
 20
-2.135416666666667
 30
0.0
 40
0.1175
  0
CIRCLE
  5
13F
330
123
100
AcDbEntity
  8
AM_4
100
AcDbCircle
 10
0.0
 20
-2.135416666666667
 30
0.0
 40
0.2185000000000001
  0
CIRCLE
  5
140
330
123
100
AcDbEntity
  8
AM_5
100
AcDbCircle
 10
0.0
 20
-2.135416666666667
 30
0.0
 40
0.0952500000000001
  0
ENDBLK
  5
126
330
123
100
AcDbEntity
  8
0
100
AcDbBlockEnd
  0
BLOCK
  5
143
330
141
100
AcDbEntity
  8
0
100
AcDbBlockBegin
  2
5_ASME_B18_3_1_4_2_0_in_072352_0
 70
     2
 10
0.0
 20
0.0
 30
0.0
  3
5_ASME_B18_3_1_4_2_0_in_072352_0
  1

  0
ATTDEF
  5
145
330
141
100
AcDbEntity
  8
AM_6
100
AcDbText
 10
5.229425
 20
2.353916666666667
 30
0.0
 40
0.5
  1
ANSI/ASME-B18.3-1998
100
AcDbAttributeDefinition
  3

  2
NN
 70
     8
280
     0
  0
ATTDEF
  5
146
330
141
100
AcDbEntity
  8
AM_6
100
AcDbText
 10
5.229425
 20
1.853916666666667
 30
0.0
 40
0.5
  1
Socket Button Head Cap Screws
100
AcDbAttributeDefinition
  3

  2
NT
 70
     8
280
     0
  0
ATTDEF
  5
147
330
141
100
AcDbEntity
  8
AM_6
100
AcDbText
 10
5.229425
 20
1.353916666666667
 30
0.0
 40
0.5
  1
ASME-B18.3-1/4
100
AcDbAttributeDefinition
  3

  2
NB
 70
     8
280
     0
  0
ATTDEF
  5
148
330
141
100
AcDbEntity
  8
AM_6
100
AcDbText
 10
5.229425
 20
0.8539166666666667
 30
0.0
 40
0.5
  1
ASME-B18.3-$NS.
100
AcDbAttributeDefinition
  3

  2
NBSYN
 70
     8
280
     0
  0
ATTDEF
  5
149
330
141
100
AcDbEntity
  8
AM_6
100
AcDbText
 10
5.229425
 20
0.3539166666666667
 30
0.0
 40
0.5
  1
ASME-B18.3-1/4
100
AcDbAttributeDefinition
  3

  2
LINA
 70
     8
280
     0
  0
ATTDEF
  5
14A
330
141
100
AcDbEntity
  8
AM_6
100
AcDbText
 10
5.229425
 20
-0.1460833333333333
 30
0.0
 40
0.5
  1
1/4
100
AcDbAttributeDefinition
  3

  2
NS
 70
     8
280
     0
  0
ATTDEF
  5
14B
330
141
100
AcDbEntity
  8
AM_6
100
AcDbText
 10
5.229425
 20
-0.6460833333333333
 30
0.0
 40
0.5
  1
0.437
100
AcDbAttributeDefinition
  3

  2
A
 70
     8
280
     0
  0
ATTDEF
  5
14C
330
141
100
AcDbEntity
  8
AM_6
100
AcDbText
 10
5.229425
 20
-1.146083333333333
 30
0.0
 40
0.5
  1
0.132
100
AcDbAttributeDefinition
  3

  2
H
 70
     8
280
     0
  0
ATTDEF
  5
14D
330
141
100
AcDbEntity
  8
AM_6
100
AcDbText
 10
5.229425
 20
-1.646083333333333
 30
0.0
 40
0.5
  1
0.800
100
AcDbAttributeDefinition
  3

  2
L
 70
     8
280
     0
  0
ATTDEF
  5
14E
330
141
100
AcDbEntity
  8
AM_6
100
AcDbText
 10
5.229425
 20
-2.146083333333333
 30
0.0
 40
0.5
  1
0.031
100
AcDbAttributeDefinition
  3

  2
S
 70
     8
280
     0
  0
ATTDEF
  5
14F
330
141
100
AcDbEntity
  8
AM_6
100
AcDbText
 10
5.229425
 20
-2.646083333333333
 30
0.0
 40
0.5
  1
0.156250
100
AcDbAttributeDefinition
  3

  2
J
 70
     8
280
     0
  0
ATTDEF
  5
150
330
141
100
AcDbEntity
  8
AM_6
100
AcDbText
 10
5.229425
 20
-3.146083333333333
 30
0.0
 40
0.5
  1
baldor
100
AcDbAttributeDefinition
  3

  2
COMPANY
 70
     8
280
     0
  0
ARC
  5
151
330
141
100
AcDbEntity
  8
AM_5
100
AcDbCircle
 10
-0.0000000000000001
 20
2.135416666666667
 30
0.0
 40
0.0952500000000001
100
AcDbArc
 50
75.00000000000001
 51
15.00000000000004
  0
LINE
  5
152
330
141
100
AcDbEntity
  8
AM_7
100
AcDbLine
 10
-0.2294250000000002
 20
2.135416666666667
 30
0.0
 11
0.2294250000000002
 21
2.135416666666667
 31
0.0
  0
LINE
  5
153
330
141
100
AcDbEntity
  8
AM_4
100
AcDbLine
 10
0.0
 20
2.225627646227545
 30
0.0
 11
0.078125
 21
2.180522156447106
 31
0.0
  0
LINE
  5
154
330
141
100
AcDbEntity
  8
AM_4
100
AcDbLine
 10
0.078125
 20
2.180522156447106
 30
0.0
 11
0.078125
 21
2.090311176886227
 31
0.0
  0
LINE
  5
155
330
141
100
AcDbEntity
  8
AM_4
100
AcDbLine
 10
0.078125
 20
2.090311176886227
 30
0.0
 11
0.0
 21
2.045205687105788
 31
0.0
  0
LINE
  5
156
330
141
100
AcDbEntity
  8
AM_4
100
AcDbLine
 10
0.0
 20
2.045205687105788
 30
0.0
 11
-0.078125
 21
2.090311176886227
 31
0.0
  0
LINE
  5
157
330
141
100
AcDbEntity
  8
AM_4
100
AcDbLine
 10
-0.078125
 20
2.090311176886227
 30
0.0
 11
-0.078125
 21
2.180522156447106
 31
0.0
  0
LINE
  5
158
330
141
100
AcDbEntity
  8
AM_4
100
AcDbLine
 10
-0.078125
 20
2.180522156447106
 30
0.0
 11
0.0
 21
2.225627646227545
 31
0.0
  0
CIRCLE
  5
159
330
141
100
AcDbEntity
  8
AM_4
100
AcDbCircle
 10
0.0
 20
2.135416666666667
 30
0.0
 40
0.1175
  0
CIRCLE
  5
15A
330
141
100
AcDbEntity
  8
AM_4
100
AcDbCircle
 10
0.0
 20
2.135416666666667
 30
0.0
 40
0.2185000000000001
  0
CIRCLE
  5
15B
330
141
100
AcDbEntity
  8
AM_5
100
AcDbCircle
 10
0.0
 20
2.135416666666667
 30
0.0
 40
0.0952500000000001
  0
ENDBLK
  5
144
330
141
100
AcDbEntity
  8
0
100
AcDbBlockEnd
  0
BLOCK
  5
15E
330
15C
100
AcDbEntity
  8
0
100
AcDbBlockBegin
  2
6_070901LWE_0_in_072352_0
 70
     2
 10
0.0
 20
0.0
 30
0.0
  3
6_070901LWE_0_in_072352_0
  1

  0
ATTDEF
  5
160
330
15C
100
AcDbEntity
  8
AM_6
100
AcDbText
 10
7.5
 20
2.5
 30
0.0
 40
0.5
  1
Imperial/E Insert Lockwasher -Inch
100
AcDbAttributeDefinition
  3

  2
NN
 70
     8
280
     0
  0
ATTDEF
  5
161
330
15C
100
AcDbEntity
  8
AM_6
100
AcDbText
 10
7.5
 20
2.0
 30
0.0
 40
0.5
  1
Imperial/E Bearings
100
AcDbAttributeDefinition
  3

  2
NT
 70
     8
280
     0
  0
ATTDEF
  5
162
330
15C
100
AcDbEntity
  8
AM_6
100
AcDbText
 10
7.5
 20
1.5
 30
0.0
 40
0.5
  1
070901LWE
100
AcDbAttributeDefinition
  3

  2
NB
 70
     8
280
     0
  0
ATTDEF
  5
163
330
15C
100
AcDbEntity
  8
AM_6
100
AcDbText
 10
7.5
 20
1.0
 30
0.0
 40
0.5
  1
$PN.LWE
100
AcDbAttributeDefinition
  3

  2
NBSYN
 70
     8
280
     0
  0
ATTDEF
  5
164
330
15C
100
AcDbEntity
  8
AM_6
100
AcDbText
 10
7.5
 20
0.5
 30
0.0
 40
0.5
  1
070901
100
AcDbAttributeDefinition
  3

  2
LINA
 70
     8
280
     0
  0
ATTDEF
  5
165
330
15C
100
AcDbEntity
  8
AM_6
100
AcDbText
 10
7.5
 20
0.0
 30
0.0
 40
0.5
  1
3-3/16
100
AcDbAttributeDefinition
  3

  2
SS
 70
     8
280
     0
  0
ATTDEF
  5
166
330
15C
100
AcDbEntity
  8
AM_6
100
AcDbText
 10
7.5
 20
-0.5
 30
0.0
 40
0.5
  1
5.000000
100
AcDbAttributeDefinition
  3

  2
E1
 70
     8
280
     0
  0
ATTDEF
  5
167
330
15C
100
AcDbEntity
  8
AM_6
100
AcDbText
 10
7.5
 20
-1.0
 30
0.0
 40
0.5
  1
3.187500
100
AcDbAttributeDefinition
  3

  2
SS1
 70
     8
280
     0
  0
ATTDEF
  5
168
330
15C
100
AcDbEntity
  8
AM_6
100
AcDbText
 10
7.5
 20
-1.5
 30
0.0
 40
0.5
  1
070901
100
AcDbAttributeDefinition
  3

  2
PN
 70
     8
280
     0
  0
ATTDEF
  5
169
330
15C
100
AcDbEntity
  8
AM_6
100
AcDbText
 10
7.5
 20
-2.0
 30
0.0
 40
0.5
  1
INS-IP-303R
100
AcDbAttributeDefinition
  3

  2
DESCRIPTION
 70
     8
280
     0
  0
ATTDEF
  5
16A
330
15C
100
AcDbEntity
  8
AM_6
100
AcDbText
 10
7.5
 20
-2.5
 30
0.0
 40
0.5
  1
6.2992
100
AcDbAttributeDefinition
  3

  2
A
 70
     8
280
     0
  0
ATTDEF
  5
16B
330
15C
100
AcDbEntity
  8
AM_6
100
AcDbText
 10
7.5
 20
-3.0
 30
0.0
 40
0.5
  1
1-5/8
100
AcDbAttributeDefinition
  3

  2
B
 70
     8
280
     0
  0
ATTDEF
  5
16C
330
15C
100
AcDbEntity
  8
AM_6
100
AcDbText
 10
7.5
 20
-3.5
 30
0.0
 40
0.5
  1
1.625000
100
AcDbAttributeDefinition
  3

  2
B1
 70
     8
280
     0
  0
ATTDEF
  5
16D
330
15C
100
AcDbEntity
  8
AM_6
100
AcDbText
 10
7.5
 20
-4.0
 30
0.0
 40
0.5
  1
4-11/64
100
AcDbAttributeDefinition
  3

  2
C
 70
     8
280
     0
  0
ATTDEF
  5
16E
330
15C
100
AcDbEntity
  8
AM_6
100
AcDbText
 10
7.5
 20
-4.5
 30
0.0
 40
0.5
  1
4.171875
100
AcDbAttributeDefinition
  3

  2
C1
 70
     8
280
     0
  0
ATTDEF
  5
16F
330
15C
100
AcDbEntity
  8
AM_6
100
AcDbText
 10
7.5
 20
-5.0
 30
0.0
 40
0.5
  1
1.483
100
AcDbAttributeDefinition
  3

  2
D
 70
     8
280
     0
  0
ATTDEF
  5
170
330
15C
100
AcDbEntity
  8
AM_6
100
AcDbText
 10
7.5
 20
-5.5
 30
0.0
 40
0.5
  1
5
100
AcDbAttributeDefinition
  3

  2
E
 70
     8
280
     0
  0
ATTDEF
  5
171
330
15C
100
AcDbEntity
  8
AM_6
100
AcDbText
 10
7.5
 20
-6.0
 30
0.0
 40
0.5
  1
0.2500
100
AcDbAttributeDefinition
  3

  2
NDM
 70
     8
280
     0
  0
ATTDEF
  5
172
330
15C
100
AcDbEntity
  8
AM_6
100
AcDbText
 10
7.5
 20
-6.5
 30
0.0
 40
0.5
  1
0.1960
100
AcDbAttributeDefinition
  3

  2
KDM
 70
     8
280
     0
  0
ATTDEF
  5
173
330
15C
100
AcDbEntity
  8
AM_6
100
AcDbText
 10
7.5
 20
-7.0
 30
0.0
 40
0.5
  1
4.28
100
AcDbAttributeDefinition
  3

  2
AL
 70
     8
280
     0
  0
ATTDEF
  5
174
330
15C
100
AcDbEntity
  8
AM_6
100
AcDbText
 10
7.5
 20
-7.5
 30
0.0
 40
0.5
  1
0.50
100
AcDbAttributeDefinition
  3

  2
BL
 70
     8
280
     0
  0
ATTDEF
  5
175
330
15C
100
AcDbEntity
  8
AM_6
100
AcDbText
 10
7.5
 20
-8.0
 30
0.0
 40
0.5
  1
0.07
100
AcDbAttributeDefinition
  3

  2
CL
 70
     8
280
     0
  0
ATTDEF
  5
176
330
15C
100
AcDbEntity
  8
AM_6
100
AcDbText
 10
7.5
 20
-8.5
 30
0.0
 40
0.5
  1
0.44
100
AcDbAttributeDefinition
  3

  2
DL
 70
     8
280
     0
  0
ATTDEF
  5
177
330
15C
100
AcDbEntity
  8
AM_6
100
AcDbText
 10
7.5
 20
-9.0
 30
0.0
 40
0.5
  1
baldor
100
AcDbAttributeDefinition
  3

  2
COMPANY
 70
     8
280
     0
  0
ARC
  5
178
330
15C
100
AcDbEntity
  8
AM_9
100
AcDbCircle
 10
0.0000000000000459
 20
-0.0000000000001164
 30
0.0
 40
1.677631578947494
100
AcDbArc
 50
108.2269426693964
 51
116.7730573306035
  0
LINE
  5
179
330
15C
100
AcDbEntity
  8
AM_9
100
AcDbLine
 10
-0.1249999999999988
 20
-2.135416666666667
 30
0.0
 11
-0.1249999999999991
 21
-1.956203804405052
 31
0.0
  0
LINE
  5
17A
330
15C
100
AcDbEntity
  8
AM_9
100
AcDbLine
 10
-0.1250000000000004
 20
1.956203804405053
 30
0.0
 11
-0.1250000000000003
 21
2.135416666666667
 31
0.0
  0
LINE
  5
17B
330
15C
100
AcDbEntity
  8
AM_9
100
AcDbLine
 10
0.1250000000000009
 20
-1.956203804405054
 30
0.0
 11
0.125000000000001
 21
-2.135416666666667
 31
0.0
  0
LINE
  5
17C
330
15C
100
AcDbEntity
  8
AM_9
100
AcDbLine
 10
0.1249999999999998
 20
2.135416666666667
 30
0.0
 11
0.1249999999999998
 21
1.956203804405053
 31
0.0
  0
LINE
  5
17D
330
15C
100
AcDbEntity
  8
AM_7
100
AcDbLine
 10
-1.641255524654642
 20
1.510005512584388
 30
0.0
 11
-1.378755500514135
 21
1.510005512584388
 31
0.0
  0
LINE
  5
17E
330
15C
100
AcDbEntity
  8
AM_7
100
AcDbLine
 10
-1.510005512584389
 20
1.378755500514135
 30
0.0
 11
-1.510005512584389
 21
1.641255524654642
 31
0.0
  0
LINE
  5
17F
330
15C
100
AcDbEntity
  8
AM_7
100
AcDbLine
 10
-2.135470275154979
 20
-0.1312500120702553
 30
0.0
 11
-2.135470275154979
 21
0.1312500120702527
 31
0.0
  0
LINE
  5
180
330
15C
100
AcDbEntity
  8
AM_7
100
AcDbLine
 10
1.378755500514135
 20
-1.510005512584387
 30
0.0
 11
1.641255524654642
 21
-1.510005512584387
 31
0.0
  0
LINE
  5
181
330
15C
100
AcDbEntity
  8
AM_7
100
AcDbLine
 10
1.510005512584389
 20
-1.641255524654641
 30
0.0
 11
1.510005512584389
 21
-1.378755500514134
 31
0.0
  0
LINE
  5
182
330
15C
100
AcDbEntity
  8
AM_7
100
AcDbLine
 10
-1.641255524654641
 20
-1.510005512584389
 30
0.0
 11
-1.378755500514134
 21
-1.510005512584389
 31
0.0
  0
LINE
  5
183
330
15C
100
AcDbEntity
  8
AM_7
100
AcDbLine
 10
-1.510005512584388
 20
-1.641255524654643
 30
0.0
 11
-1.510005512584388
 21
-1.378755500514136
 31
0.0
  0
LINE
  5
184
330
15C
100
AcDbEntity
  8
AM_7
100
AcDbLine
 10
2.135470275154979
 20
-0.1312500120702535
 30
0.0
 11
2.135470275154979
 21
0.1312500120702545
 31
0.0
  0
LINE
  5
185
330
15C
100
AcDbEntity
  8
AM_7
100
AcDbLine
 10
1.378755500514135
 20
1.510005512584389
 30
0.0
 11
1.641255524654642
 21
1.510005512584389
 31
0.0
  0
LINE
  5
186
330
15C
100
AcDbEntity
  8
AM_7
100
AcDbLine
 10
1.510005512584388
 20
1.378755500514135
 30
0.0
 11
1.510005512584388
 21
1.641255524654642
 31
0.0
  0
ARC
  5
187
330
15C
100
AcDbEntity
  8
AM_4
100
AcDbCircle
 10
0.0
 20
-0.0000000000000004
 30
0.0
 40
1.722972972972972
100
AcDbArc
 50
229.1604077094988
 51
265.8395922905013
  0
LINE
  5
188
330
15C
100
AcDbEntity
  8
AM_4
100
AcDbLine
 10
-0.1249999999999991
 20
-1.956203804405052
 30
0.0
 11
-0.1249999999999992
 21
-1.718432677062248
 31
0.0
  0
ARC
  5
189
330
15C
100
AcDbEntity
  8
AM_4
100
AcDbCircle
 10
0.0000000000000049
 20
0.0000000000000032
 30
0.0
 40
1.722972972972978
100
AcDbArc
 50
184.1604077094988
 51
220.8395922905013
  0
LINE
  5
18A
330
15C
100
AcDbEntity
  8
AM_4
100
AcDbLine
 10
-1.126727051314946
 20
-1.30350374661159
 30
0.0
 11
-1.421579258010454
 21
-1.598355953307092
 31
0.0
  0
LINE
  5
18B
330
15C
100
AcDbEntity
  8
AM_4
100
AcDbLine
 10
-0.1250000000000006
 20
1.718432677062248
 30
0.0
 11
-0.1250000000000004
 21
1.956203804405053
 31
0.0
  0
LINE
  5
18C
330
15C
100
AcDbEntity
  8
AM_4
100
AcDbLine
 10
0.1250000000000011
 20
-1.718432677062248
 30
0.0
 11
0.1250000000000009
 21
-1.956203804405054
 31
0.0
  0
ARC
  5
18D
330
15C
100
AcDbEntity
  8
AM_4
100
AcDbCircle
 10
0.0000000000000014
 20
-0.0000000000000056
 30
0.0
 40
1.722972972972967
100
AcDbArc
 50
274.1604077094987
 51
310.8395922905014
  0
LINE
  5
18E
330
15C
100
AcDbEntity
  8
AM_4
100
AcDbLine
 10
1.421579258010486
 20
-1.598355953307122
 30
0.0
 11
1.12672705131495
 21
-1.303503746611586
 31
0.0
  0
ARC
  5
18F
330
15C
100
AcDbEntity
  8
AM_4
100
AcDbCircle
 10
1.510005512584389
 20
-1.510005512584387
 30
0.0
 40
0.1250000114954798
100
AcDbArc
 50
224.9754276805157
 51
45.02457231950446
  0
LINE
  5
190
330
15C
100
AcDbEntity
  8
AM_4
100
AcDbLine
 10
1.303503746611587
 20
-1.126727051314949
 30
0.0
 11
1.598355953307092
 21
-1.421579258010454
 31
0.0
  0
ARC
  5
191
330
15C
100
AcDbEntity
  8
AM_4
100
AcDbCircle
 10
0.0000000000000038
 20
-0.0000000000000021
 30
0.0
 40
1.722972972972968
100
AcDbArc
 50
319.1604077094988
 51
355.8395922905013
  0
LINE
  5
192
330
15C
100
AcDbEntity
  8
AM_4
100
AcDbLine
 10
2.135416666666667
 20
-0.1249999999999996
 30
0.0
 11
1.718432677062248
 21
-0.1249999999999993
 31
0.0
  0
ARC
  5
193
330
15C
100
AcDbEntity
  8
AM_4
100
AcDbCircle
 10
2.135470275154979
 20
0.0000000000000005
 30
0.0
 40
0.1250000114954797
100
AcDbArc
 50
269.9754276804953
 51
90.02457231950477
  0
LINE
  5
194
330
15C
100
AcDbEntity
  8
AM_4
100
AcDbLine
 10
1.718432677062248
 20
0.1250000000000015
 30
0.0
 11
2.135416666666667
 21
0.1250000000000007
 31
0.0
  0
ARC
  5
195
330
15C
100
AcDbEntity
  8
AM_4
100
AcDbCircle
 10
-0.0000000000000044
 20
-0.000000000000003
 30
0.0
 40
1.722972972972978
100
AcDbArc
 50
4.160407709498943
 51
40.8395922905013
  0
LINE
  5
196
330
15C
100
AcDbEntity
  8
AM_4
100
AcDbLine
 10
1.598355953307092
 20
1.421579258010455
 30
0.0
 11
1.303503746611586
 21
1.12672705131495
 31
0.0
  0
ARC
  5
197
330
15C
100
AcDbEntity
  8
AM_4
100
AcDbCircle
 10
1.510005512584388
 20
1.510005512584389
 30
0.0
 40
0.1250000114954796
100
AcDbArc
 50
314.9754276804954
 51
135.0245723195046
  0
CIRCLE
  5
198
330
15C
100
AcDbEntity
  8
AM_4
100
AcDbCircle
 10
0.0
 20
0.0
 30
0.0
 40
2.5
  0
LINE
  5
199
330
15C
100
AcDbEntity
  8
AM_4
100
AcDbLine
 10
-0.5247322847707349
 20
1.593456539727622
 30
0.0
 11
-0.5421307735826004
 21
1.635460207382025
 31
0.0
  0
ARC
  5
19A
330
15C
100
AcDbEntity
  8
AM_4
100
AcDbCircle
 10
-0.0000000000000119
 20
0.0000000000000397
 30
0.0
 40
1.593749999999959
100
AcDbArc
 50
108.0015933311115
 51
116.9984066688889
  0
LINE
  5
19B
330
15C
100
AcDbEntity
  8
AM_4
100
AcDbLine
 10
-0.7731006567104224
 20
1.539789349290752
 30
0.0
 11
-0.7557021678985563
 21
1.497785681636349
 31
0.0
  0
LINE
  5
19C
330
15C
100
AcDbEntity
  8
AM_4
100
AcDbLine
 10
1.126727051314947
 20
1.303503746611589
 30
0.0
 11
1.421579258010454
 21
1.598355953307092
 31
0.0
  0
ARC
  5
19D
330
15C
100
AcDbEntity
  8
AM_4
100
AcDbCircle
 10
-1.510005512584388
 20
-1.510005512584389
 30
0.0
 40
0.1250000114954795
100
AcDbArc
 50
134.9754276804953
 51
315.0245723195048
  0
LINE
  5
19E
330
15C
100
AcDbEntity
  8
AM_4
100
AcDbLine
 10
-1.598355953307091
 20
-1.421579258010456
 30
0.0
 11
-1.303503746611586
 21
-1.12672705131495
 31
0.0
  0
LINE
  5
19F
330
15C
100
AcDbEntity
  8
AM_4
100
AcDbLine
 10
-1.718432677062248
 20
-0.1250000000000011
 30
0.0
 11
-2.135416666666667
 21
-0.1250000000000014
 31
0.0
  0
ARC
  5
1A0
330
15C
100
AcDbEntity
  8
AM_4
100
AcDbCircle
 10
-2.135470275154979
 20
-0.0000000000000013
 30
0.0
 40
0.1250000114954797
100
AcDbArc
 50
89.97542768049524
 51
270.0245723195048
  0
LINE
  5
1A1
330
15C
100
AcDbEntity
  8
AM_4
100
AcDbLine
 10
-2.135416666666667
 20
0.1249999999999988
 30
0.0
 11
-1.718432677062248
 21
0.1249999999999989
 31
0.0
  0
ARC
  5
1A2
330
15C
100
AcDbEntity
  8
AM_4
100
AcDbCircle
 10
0.0000000000000033
 20
-0.0000000000000012
 30
0.0
 40
1.722972972972976
100
AcDbArc
 50
139.1604077094988
 51
175.8395922905013
  0
LINE
  5
1A3
330
15C
100
AcDbEntity
  8
AM_4
100
AcDbLine
 10
-1.303503746611587
 20
1.126727051314949
 30
0.0
 11
-1.598355953307092
 21
1.421579258010455
 31
0.0
  0
ARC
  5
1A4
330
15C
100
AcDbEntity
  8
AM_4
100
AcDbCircle
 10
-1.510005512584389
 20
1.510005512584388
 30
0.0
 40
0.1250000114954796
100
AcDbArc
 50
44.97542768051576
 51
225.0245723195047
  0
LINE
  5
1A5
330
15C
100
AcDbEntity
  8
AM_4
100
AcDbLine
 10
-1.421579258010486
 20
1.598355953307123
 30
0.0
 11
-1.126727051314949
 21
1.303503746611586
 31
0.0
  0
ARC
  5
1A6
330
15C
100
AcDbEntity
  8
AM_4
100
AcDbCircle
 10
0.0000000000000191
 20
-0.0000000000000258
 30
0.0
 40
1.722972972973004
100
AcDbArc
 50
116.6604077094989
 51
130.8395922905013
  0
ARC
  5
1A7
330
15C
100
AcDbEntity
  8
AM_4
100
AcDbCircle
 10
0.0000000000000055
 20
-0.000000000000026
 30
0.0
 40
1.722972972972999
100
AcDbArc
 50
94.16040770949884
 51
108.3395922905012
  0
LINE
  5
1A8
330
15C
100
AcDbEntity
  8
AM_4
100
AcDbLine
 10
0.1249999999999998
 20
1.956203804405053
 30
0.0
 11
0.1249999999999998
 21
1.718432677062248
 31
0.0
  0
ARC
  5
1A9
330
15C
100
AcDbEntity
  8
AM_4
100
AcDbCircle
 10
-0.0000000000000032
 20
-0.0000000000000089
 30
0.0
 40
1.722972972972982
100
AcDbArc
 50
49.16040770949893
 51
85.83959229050123
  0
ENDBLK
  5
15F
330
15C
100
AcDbEntity
  8
0
100
AcDbBlockEnd
  0
BLOCK
  5
1AC
330
1AA
100
AcDbEntity
  8
0
100
AcDbBlockBegin
  2
7_070901I_0_in_072352_0
 70
     2
 10
0.0
 20
0.0
 30
0.0
  3
7_070901I_0_in_072352_0
  1

  0
ATTDEF
  5
1AE
330
1AA
100
AcDbEntity
  8
AM_6
100
AcDbText
 10
8.099599999999999
 20
3.0996
 30
0.0
 40
0.5
  1
Imperial Insert -Inch
100
AcDbAttributeDefinition
  3

  2
NN
 70
     8
280
     0
  0
ATTDEF
  5
1AF
330
1AA
100
AcDbEntity
  8
AM_6
100
AcDbText
 10
8.099599999999999
 20
2.5996
 30
0.0
 40
0.5
  1
Imperial Bearings
100
AcDbAttributeDefinition
  3

  2
NT
 70
     8
280
     0
  0
ATTDEF
  5
1B0
330
1AA
100
AcDbEntity
  8
AM_6
100
AcDbText
 10
8.099599999999999
 20
2.0996
 30
0.0
 40
0.5
  1
070901I
100
AcDbAttributeDefinition
  3

  2
NB
 70
     8
280
     0
  0
ATTDEF
  5
1B1
330
1AA
100
AcDbEntity
  8
AM_6
100
AcDbText
 10
8.099599999999999
 20
1.5996
 30
0.0
 40
0.5
  1
$PN.I
100
AcDbAttributeDefinition
  3

  2
NBSYN
 70
     8
280
     0
  0
ATTDEF
  5
1B2
330
1AA
100
AcDbEntity
  8
AM_6
100
AcDbText
 10
8.099599999999999
 20
1.0996
 30
0.0
 40
0.5
  1
070901
100
AcDbAttributeDefinition
  3

  2
LINA
 70
     8
280
     0
  0
ATTDEF
  5
1B3
330
1AA
100
AcDbEntity
  8
AM_6
100
AcDbText
 10
8.099599999999999
 20
0.5995999999999997
 30
0.0
 40
0.5
  1
3-3/16
100
AcDbAttributeDefinition
  3

  2
SS
 70
     8
280
     0
  0
ATTDEF
  5
1B4
330
1AA
100
AcDbEntity
  8
AM_6
100
AcDbText
 10
8.099599999999999
 20
0.0995999999999997
 30
0.0
 40
0.5
  1
3.187500
100
AcDbAttributeDefinition
  3

  2
SS1
 70
     8
280
     0
  0
ATTDEF
  5
1B5
330
1AA
100
AcDbEntity
  8
AM_6
100
AcDbText
 10
8.099599999999999
 20
-0.4004000000000003
 30
0.0
 40
0.5
  1
070901
100
AcDbAttributeDefinition
  3

  2
PN
 70
     8
280
     0
  0
ATTDEF
  5
1B6
330
1AA
100
AcDbEntity
  8
AM_6
100
AcDbText
 10
8.099599999999999
 20
-0.9004000000000003
 30
0.0
 40
0.5
  1
INS-IP-303R
100
AcDbAttributeDefinition
  3

  2
DESCRIPTION
 70
     8
280
     0
  0
ATTDEF
  5
1B7
330
1AA
100
AcDbEntity
  8
AM_6
100
AcDbText
 10
8.099599999999999
 20
-1.4004
 30
0.0
 40
0.5
  1
Contact Seal
100
AcDbAttributeDefinition
  3

  2
ST
 70
     8
280
     0
  0
ATTDEF
  5
1B8
330
1AA
100
AcDbEntity
  8
AM_6
100
AcDbText
 10
8.099599999999999
 20
-1.9004
 30
0.0
 40
0.5
  1
6.2992
100
AcDbAttributeDefinition
  3

  2
A
 70
     8
280
     0
  0
ATTDEF
  5
1B9
330
1AA
100
AcDbEntity
  8
AM_6
100
AcDbText
 10
8.099599999999999
 20
-2.4004
 30
0.0
 40
0.5
  1
1-5/8
100
AcDbAttributeDefinition
  3

  2
B
 70
     8
280
     0
  0
ATTDEF
  5
1BA
330
1AA
100
AcDbEntity
  8
AM_6
100
AcDbText
 10
8.099599999999999
 20
-2.9004
 30
0.0
 40
0.5
  1
4-11/64
100
AcDbAttributeDefinition
  3

  2
C
 70
     8
280
     0
  0
ATTDEF
  5
1BB
330
1AA
100
AcDbEntity
  8
AM_6
100
AcDbText
 10
8.099599999999999
 20
-3.4004
 30
0.0
 40
0.5
  1
1.483
100
AcDbAttributeDefinition
  3

  2
D
 70
     8
280
     0
  0
ATTDEF
  5
1BC
330
1AA
100
AcDbEntity
  8
AM_6
100
AcDbText
 10
8.099599999999999
 20
-3.9004
 30
0.0
 40
0.5
  1
5
100
AcDbAttributeDefinition
  3

  2
E
 70
     8
280
     0
  0
ATTDEF
  5
1BD
330
1AA
100
AcDbEntity
  8
AM_6
100
AcDbText
 10
8.099599999999999
 20
-4.4004
 30
0.0
 40
0.5
  1
0.2500
100
AcDbAttributeDefinition
  3

  2
NDM
 70
     8
280
     0
  0
ATTDEF
  5
1BE
330
1AA
100
AcDbEntity
  8
AM_6
100
AcDbText
 10
8.099599999999999
 20
-4.9004
 30
0.0
 40
0.5
  1
0.132
100
AcDbAttributeDefinition
  3

  2
H
 70
     8
280
     0
  0
ATTDEF
  5
1BF
330
1AA
100
AcDbEntity
  8
AM_6
100
AcDbText
 10
8.099599999999999
 20
-5.4004
 30
0.0
 40
0.5
  1
0.1960
100
AcDbAttributeDefinition
  3

  2
KDM
 70
     8
280
     0
  0
ATTDEF
  5
1C0
330
1AA
100
AcDbEntity
  8
AM_6
100
AcDbText
 10
8.099599999999999
 20
-5.9004
 30
0.0
 40
0.5
  1
4.28
100
AcDbAttributeDefinition
  3

  2
AL
 70
     8
280
     0
  0
ATTDEF
  5
1C1
330
1AA
100
AcDbEntity
  8
AM_6
100
AcDbText
 10
8.099599999999999
 20
-6.4004
 30
0.0
 40
0.5
  1
0.50
100
AcDbAttributeDefinition
  3

  2
BL
 70
     8
280
     0
  0
ATTDEF
  5
1C2
330
1AA
100
AcDbEntity
  8
AM_6
100
AcDbText
 10
8.099599999999999
 20
-6.9004
 30
0.0
 40
0.5
  1
0.07
100
AcDbAttributeDefinition
  3

  2
CL
 70
     8
280
     0
  0
ATTDEF
  5
1C3
330
1AA
100
AcDbEntity
  8
AM_6
100
AcDbText
 10
8.099599999999999
 20
-7.4004
 30
0.0
 40
0.5
  1
0.44
100
AcDbAttributeDefinition
  3

  2
DL
 70
     8
280
     0
  0
ATTDEF
  5
1C4
330
1AA
100
AcDbEntity
  8
AM_6
100
AcDbText
 10
8.099599999999999
 20
-7.9004
 30
0.0
 40
0.5
  1
0.8000
100
AcDbAttributeDefinition
  3

  2
LL
 70
     8
280
     0
  0
ATTDEF
  5
1C5
330
1AA
100
AcDbEntity
  8
AM_6
100
AcDbText
 10
8.099599999999999
 20
-8.400400000000001
 30
0.0
 40
0.5
  1
0.025
100
AcDbAttributeDefinition
  3

  2
Y
 70
     8
280
     0
  0
ATTDEF
  5
1C6
330
1AA
100
AcDbEntity
  8
AM_6
100
AcDbText
 10
8.099599999999999
 20
-8.900400000000001
 30
0.0
 40
0.5
  1
0.025000
100
AcDbAttributeDefinition
  3

  2
Y1
 70
     8
280
     0
  0
ATTDEF
  5
1C7
330
1AA
100
AcDbEntity
  8
AM_6
100
AcDbText
 10
8.099599999999999
 20
-9.400400000000001
 30
0.0
 40
0.5
  1
4-3/64
100
AcDbAttributeDefinition
  3

  2
Z
 70
     8
280
     0
  0
ATTDEF
  5
1C8
330
1AA
100
AcDbEntity
  8
AM_6
100
AcDbText
 10
8.099599999999999
 20
-9.900400000000001
 30
0.0
 40
0.5
  1
4.046875
100
AcDbAttributeDefinition
  3

  2
Z1
 70
     8
280
     0
  0
ATTDEF
  5
1C9
330
1AA
100
AcDbEntity
  8
AM_6
100
AcDbText
 10
8.099599999999999
 20
-10.4004
 30
0.0
 40
0.5
  1
baldor
100
AcDbAttributeDefinition
  3

  2
COMPANY
 70
     8
280
     0
  0
CIRCLE
  5
1CA
330
1AA
100
AcDbEntity
  8
AM_9
100
AcDbCircle
 10
0.0
 20
0.0
 30
0.0
 40
2.0234375
  0
CIRCLE
  5
1CB
330
1AA
100
AcDbEntity
  8
AM_9
100
AcDbCircle
 10
0.0
 20
0.0
 30
0.0
 40
2.196380876068376
  0
CIRCLE
  5
1CC
330
1AA
100
AcDbEntity
  8
AM_9
100
AcDbCircle
 10
0.0
 20
0.0
 30
0.0
 40
2.248263888888889
  0
CIRCLE
  5
1CD
330
1AA
100
AcDbEntity
  8
AM_9
100
AcDbCircle
 10
0.0
 20
0.0
 30
0.0
 40
2.704226135594408
  0
CIRCLE
  5
1CE
330
1AA
100
AcDbEntity
  8
AM_9
100
AcDbCircle
 10
0.0
 20
0.0
 30
0.0
 40
2.790828675972853
  0
CIRCLE
  5
1CF
330
1AA
100
AcDbEntity
  8
AM_9
100
AcDbCircle
 10
0.0
 20
0.0
 30
0.0
 40
2.9496
  0
CIRCLE
  5
1D0
330
1AA
100
AcDbEntity
  8
AM_9
100
AcDbCircle
 10
0.0
 20
0.0
 30
0.0
 40
3.06835
  0
CIRCLE
  5
1D1
330
1AA
100
AcDbEntity
  8
AM_9
100
AcDbCircle
 10
0.0
 20
-2.135416666666667
 30
0.0
 40
0.09795
  0
LINE
  5
1D2
330
1AA
100
AcDbEntity
  8
AM_9
100
AcDbLine
 10
1.689985207035848
 20
-1.336431816442575
 30
0.0
 11
1.936880151435481
 21
-1.583326760842207
 31
0.0
  0
LINE
  5
1D3
330
1AA
100
AcDbEntity
  8
AM_9
100
AcDbLine
 10
1.936880151435482
 20
1.583326760842206
 30
0.0
 11
1.689985207035849
 21
1.336431816442574
 31
0.0
  0
LINE
  5
1D4
330
1AA
100
AcDbEntity
  8
AM_9
100
AcDbLine
 10
1.583326760842207
 20
-1.936880151435481
 30
0.0
 11
1.336431816442575
 21
-1.689985207035849
 31
0.0
  0
LINE
  5
1D5
330
1AA
100
AcDbEntity
  8
AM_9
100
AcDbLine
 10
-1.336431816442575
 20
-1.689985207035848
 30
0.0
 11
-1.583326760842208
 21
-1.936880151435481
 31
0.0
  0
LINE
  5
1D6
330
1AA
100
AcDbEntity
  8
AM_9
100
AcDbLine
 10
-1.689985207035848
 20
1.336431816442575
 30
0.0
 11
-1.936880151435481
 21
1.583326760842207
 31
0.0
  0
LINE
  5
1D7
330
1AA
100
AcDbEntity
  8
AM_9
100
AcDbLine
 10
-1.936880151435481
 20
-1.583326760842207
 30
0.0
 11
-1.689985207035849
 21
-1.336431816442575
 31
0.0
  0
CIRCLE
  5
1D8
330
1AA
100
AcDbEntity
  8
AM_9
100
AcDbCircle
 10
0.0
 20
2.135416666666667
 30
0.0
 40
0.09795
  0
LINE
  5
1D9
330
1AA
100
AcDbEntity
  8
AM_9
100
AcDbLine
 10
1.336431816442575
 20
1.689985207035848
 30
0.0
 11
1.583326760842208
 21
1.936880151435481
 31
0.0
  0
LINE
  5
1DA
330
1AA
100
AcDbEntity
  8
AM_9
100
AcDbLine
 10
-1.583326760842207
 20
1.936880151435481
 30
0.0
 11
-1.336431816442575
 21
1.689985207035849
 31
0.0
  0
LINE
  5
1DB
330
1AA
100
AcDbEntity
  8
AM_9
100
AcDbLine
 10
-1.601538813636971
 20
1.424878209841453
 30
0.0
 11
-1.689985207035848
 21
1.336431816442575
 31
0.0
  0
LINE
  5
1DC
330
1AA
100
AcDbEntity
  8
AM_9
100
AcDbLine
 10
-1.336431816442575
 20
1.689985207035849
 30
0.0
 11
-1.424878209841453
 21
1.60153881363697
 31
0.0
  0
ARC
  5
1DD
330
1AA
100
AcDbEntity
  8
AM_9
100
AcDbCircle
 10
-0.0000000000000004
 20
0.0000000000000001
 30
0.0
 40
2.451715561259646
100
AcDbArc
 50
140.8525894283245
 51
219.1474105716755
  0
LINE
  5
1DE
330
1AA
100
AcDbEntity
  8
AM_9
100
AcDbLine
 10
-1.424878209841452
 20
-1.601538813636971
 30
0.0
 11
-1.336431816442575
 21
-1.689985207035848
 31
0.0
  0
LINE
  5
1DF
330
1AA
100
AcDbEntity
  8
AM_9
100
AcDbLine
 10
-1.689985207035849
 20
-1.336431816442575
 30
0.0
 11
-1.60153881363697
 21
-1.424878209841454
 31
0.0
  0
ARC
  5
1E0
330
1AA
100
AcDbEntity
  8
AM_9
100
AcDbCircle
 10
-0.0000000000000001
 20
-0.0000000000000004
 30
0.0
 40
2.451715561259646
100
AcDbArc
 50
230.8525894283245
 51
309.1474105716755
  0
LINE
  5
1E1
330
1AA
100
AcDbEntity
  8
AM_9
100
AcDbLine
 10
1.601538813636971
 20
-1.424878209841452
 30
0.0
 11
1.689985207035848
 21
-1.336431816442575
 31
0.0
  0
LINE
  5
1E2
330
1AA
100
AcDbEntity
  8
AM_9
100
AcDbLine
 10
1.336431816442575
 20
-1.689985207035849
 30
0.0
 11
1.424878209841454
 21
-1.60153881363697
 31
0.0
  0
ARC
  5
1E3
330
1AA
100
AcDbEntity
  8
AM_9
100
AcDbCircle
 10
0.0
 20
-0.0000000000000006
 30
0.0
 40
2.451715561259646
100
AcDbArc
 50
320.8525894283245
 51
39.14741057167548
  0
LINE
  5
1E4
330
1AA
100
AcDbEntity
  8
AM_9
100
AcDbLine
 10
1.424878209841453
 20
1.601538813636971
 30
0.0
 11
1.336431816442575
 21
1.689985207035848
 31
0.0
  0
LINE
  5
1E5
330
1AA
100
AcDbEntity
  8
AM_9
100
AcDbLine
 10
1.689985207035849
 20
1.336431816442574
 30
0.0
 11
1.60153881363697
 21
1.424878209841453
 31
0.0
  0
ARC
  5
1E6
330
1AA
100
AcDbEntity
  8
AM_9
100
AcDbCircle
 10
0.000000000000041
 20
-0.0000000000000964
 30
0.0
 40
1.682058047493508
100
AcDbArc
 50
108.2382083689943
 51
116.7617916310058
  0
ARC
  5
1E7
330
1AA
100
AcDbEntity
  8
AM_9
100
AcDbCircle
 10
0.0000000000000003
 20
0.0000000000000004
 30
0.0
 40
2.451715561259646
100
AcDbArc
 50
50.85258942832449
 51
129.1474105716756
  0
ARC
  5
1E8
330
1AA
100
AcDbEntity
  8
AM_5
100
AcDbCircle
 10
0.0000000000000003
 20
2.135416666666667
 30
0.0
 40
0.1250000000000001
100
AcDbArc
 50
75.0000000000001
 51
14.99999999999994
  0
ARC
  5
1E9
330
1AA
100
AcDbEntity
  8
AM_5
100
AcDbCircle
 10
0.0000000000000003
 20
-2.135416666666667
 30
0.0
 40
0.1250000000000001
100
AcDbArc
 50
75.0000000000001
 51
14.99999999999994
  0
CIRCLE
  5
1EA
330
1AA
100
AcDbEntity
  8
AM_4
100
AcDbCircle
 10
0.0
 20
0.0
 30
0.0
 40
3.0996
  0
LINE
  5
1EB
330
1AA
100
AcDbEntity
  8
AM_4
100
AcDbLine
 10
-1.936880151435481
 20
1.583326760842207
 30
0.0
 11
-1.946601796876636
 21
1.593048406283363
 31
0.0
  0
LINE
  5
1EC
330
1AA
100
AcDbEntity
  8
AM_4
100
AcDbLine
 10
-1.593048406283363
 20
1.946601796876637
 30
0.0
 11
-1.583326760842207
 21
1.936880151435481
 31
0.0
  0
LINE
  5
1ED
330
1AA
100
AcDbEntity
  8
AM_4
100
AcDbLine
 10
1.936880151435481
 20
-1.583326760842207
 30
0.0
 11
1.946601796876636
 21
-1.593048406283363
 31
0.0
  0
LINE
  5
1EE
330
1AA
100
AcDbEntity
  8
AM_4
100
AcDbLine
 10
1.593048406283363
 20
-1.946601796876637
 30
0.0
 11
1.583326760842207
 21
-1.936880151435481
 31
0.0
  0
LINE
  5
1EF
330
1AA
100
AcDbEntity
  8
AM_4
100
AcDbLine
 10
1.583326760842208
 20
1.936880151435481
 30
0.0
 11
1.593048406283363
 21
1.946601796876636
 31
0.0
  0
LINE
  5
1F0
330
1AA
100
AcDbEntity
  8
AM_4
100
AcDbLine
 10
1.946601796876637
 20
1.593048406283362
 30
0.0
 11
1.936880151435482
 21
1.583326760842206
 31
0.0
  0
LINE
  5
1F1
330
1AA
100
AcDbEntity
  8
AM_4
100
AcDbLine
 10
-1.946601796876637
 20
-1.593048406283362
 30
0.0
 11
-1.936880151435481
 21
-1.583326760842207
 31
0.0
  0
LINE
  5
1F2
330
1AA
100
AcDbEntity
  8
AM_4
100
AcDbLine
 10
-1.583326760842208
 20
-1.936880151435481
 30
0.0
 11
-1.593048406283363
 21
-1.946601796876636
 31
0.0
  0
CIRCLE
  5
1F3
330
1AA
100
AcDbEntity
  8
AM_4
100
AcDbCircle
 10
0.0
 20
0.0
 30
0.0
 40
2.554448754797947
  0
ARC
  5
1F4
330
1AA
100
AcDbEntity
  8
AM_4
100
AcDbCircle
 10
0.0000000000001026
 20
-0.0000000000001008
 30
0.0
 40
2.515365138576225
100
AcDbArc
 50
309.2960039559734
 51
320.7039960440265
  0
ARC
  5
1F5
330
1AA
100
AcDbEntity
  8
AM_4
100
AcDbCircle
 10
-0.0000000000000979
 20
-0.0000000000000973
 30
0.0
 40
2.515365138576231
100
AcDbArc
 50
219.2960039559734
 51
230.7039960440265
  0
ARC
  5
1F6
330
1AA
100
AcDbEntity
  8
AM_4
100
AcDbCircle
 10
-0.0000000000001126
 20
0.0000000000001119
 30
0.0
 40
2.51536513857621
100
AcDbArc
 50
129.2960039559734
 51
140.7039960440266
  0
ARC
  5
1F7
330
1AA
100
AcDbEntity
  8
AM_4
100
AcDbCircle
 10
0.0000000000000826
 20
0.0000000000000848
 30
0.0
 40
2.515365138576251
100
AcDbArc
 50
39.29600395597348
 51
50.70399604402642
  0
ARC
  5
1F8
330
1AA
100
AcDbEntity
  8
AM_4
100
AcDbCircle
 10
0.0000000000000022
 20
0.0000000000000001
 30
0.0
 40
2.501685102610598
100
AcDbArc
 50
320.7352916783375
 51
39.26470832166245
  0
ARC
  5
1F9
330
1AA
100
AcDbEntity
  8
AM_4
100
AcDbCircle
 10
0.0000000000000002
 20
-0.0000000000000013
 30
0.0
 40
2.501685102610599
100
AcDbArc
 50
230.7352916783375
 51
309.2647083216625
  0
ARC
  5
1FA
330
1AA
100
AcDbEntity
  8
AM_4
100
AcDbCircle
 10
-0.0000000000000022
 20
0.0
 30
0.0
 40
2.501685102610598
100
AcDbArc
 50
140.7352916783375
 51
219.2647083216625
  0
LINE
  5
1FB
330
1AA
100
AcDbEntity
  8
AM_4
100
AcDbLine
 10
-1.424878209841453
 20
1.60153881363697
 30
0.0
 11
-1.601538813636971
 21
1.424878209841453
 31
0.0
  0
LINE
  5
1FC
330
1AA
100
AcDbEntity
  8
AM_4
100
AcDbLine
 10
-1.60153881363697
 20
-1.424878209841454
 30
0.0
 11
-1.424878209841452
 21
-1.601538813636971
 31
0.0
  0
LINE
  5
1FD
330
1AA
100
AcDbEntity
  8
AM_4
100
AcDbLine
 10
1.424878209841454
 20
-1.60153881363697
 30
0.0
 11
1.601538813636971
 21
-1.424878209841452
 31
0.0
  0
LINE
  5
1FE
330
1AA
100
AcDbEntity
  8
AM_4
100
AcDbLine
 10
1.60153881363697
 20
1.424878209841453
 30
0.0
 11
1.424878209841453
 21
1.601538813636971
 31
0.0
  0
ARC
  5
1FF
330
1AA
100
AcDbEntity
  8
AM_4
100
AcDbCircle
 10
0.0000000000000001
 20
0.0000000000000022
 30
0.0
 40
2.501685102610598
100
AcDbArc
 50
50.73529167833751
 51
129.2647083216625
  0
LINE
  5
200
330
1AA
100
AcDbEntity
  8
AM_4
100
AcDbLine
 10
-0.4925379857930965
 20
1.515732626504714
 30
0.0
 11
-0.5247322847707345
 21
1.593456539727622
 31
0.0
  0
ARC
  5
201
330
1AA
100
AcDbEntity
  8
AM_4
100
AcDbCircle
 10
0.000000000000002
 20
0.0000000000000011
 30
0.0
 40
1.59375
100
AcDbArc
 50
116.9984066688886
 51
108.0015933311115
  0
LINE
  5
202
330
1AA
100
AcDbEntity
  8
AM_4
100
AcDbLine
 10
-0.7557021678985558
 20
1.49778568163635
 30
0.0
 11
-0.7235078689209181
 21
1.420061768413442
 31
0.0
  0
ARC
  5
203
330
1AA
100
AcDbEntity
  8
AM_4
100
AcDbCircle
 10
0.0000000000000027
 20
0.0000000000000012
 30
0.0
 40
1.677631578947369
100
AcDbArc
 50
116.7730573306039
 51
108.2269426693963
  0
ARC
  5
204
330
1AA
100
AcDbEntity
  8
AM_5
100
AcDbCircle
 10
-0.0000000000000002
 20
2.135416666666667
 30
0.0
 40
0.1249999999999998
100
AcDbArc
 50
165.0000000000001
 51
104.9999999999999
  0
ARC
  5
205
330
1AA
100
AcDbEntity
  8
AM_5
100
AcDbCircle
 10
-0.0000000000000002
 20
-2.135416666666667
 30
0.0
 40
0.1249999999999998
100
AcDbArc
 50
165.0
 51
104.9999999999999
  0
ARC
  5
206
330
1AA
100
AcDbEntity
  8
AM_5
100
AcDbCircle
 10
0.0000000000000001
 20
2.135416666666667
 30
0.0
 40
0.1250000000000002
100
AcDbArc
 50
105.0
 51
14.99999999999992
  0
ARC
  5
207
330
1AA
100
AcDbEntity
  8
AM_5
100
AcDbCircle
 10
0.0000000000000001
 20
-2.135416666666667
 30
0.0
 40
0.1250000000000002
100
AcDbArc
 50
105.0
 51
14.99999999999992
  0
ENDBLK
  5
1AD
330
1AA
100
AcDbEntity
  8
0
100
AcDbBlockEnd
  0
BLOCK
  5
20A
330
208
100
AcDbEntity
  8
0
100
AcDbBlockBegin
  2
8_B072352_0_in_072352_0
 70
     2
 10
0.0
 20
0.0
 30
0.0
  3
8_B072352_0_in_072352_0
  1

  0
ATTDEF
  5
20C
330
208
100
AcDbEntity
  8
AM_6
100
AcDbText
 10
10.16999999999999
 20
5.169999999999993
 30
0.0
 40
0.5
  1
SFCN-207-408-(Contact Seal)-Housing
100
AcDbAttributeDefinition
  3

  2
NN
 70
     8
280
     0
  0
ATTDEF
  5
20D
330
208
100
AcDbEntity
  8
AM_6
100
AcDbText
 10
10.16999999999999
 20
4.669999999999993
 30
0.0
 40
0.5
  1
Steal Heavy Duty Imperial Piloted Flange Bearing-Inch-207-408
100
AcDbAttributeDefinition
  3

  2
NT
 70
     8
280
     0
  0
ATTDEF
  5
20E
330
208
100
AcDbEntity
  8
AM_6
100
AcDbText
 10
10.16999999999999
 20
4.169999999999993
 30
0.0
 40
0.5
  1
B072352
100
AcDbAttributeDefinition
  3

  2
NB
 70
     8
280
     0
  0
ATTDEF
  5
20F
330
208
100
AcDbEntity
  8
AM_6
100
AcDbText
 10
10.16999999999999
 20
3.669999999999993
 30
0.0
 40
0.5
  1
$PN.
100
AcDbAttributeDefinition
  3

  2
NBSYN
 70
     8
280
     0
  0
ATTDEF
  5
210
330
208
100
AcDbEntity
  8
AM_6
100
AcDbText
 10
10.16999999999999
 20
3.169999999999993
 30
0.0
 40
0.5
  1
B072352
100
AcDbAttributeDefinition
  3

  2
LINA
 70
     8
280
     0
  0
ATTDEF
  5
211
330
208
100
AcDbEntity
  8
AM_6
100
AcDbText
 10
10.16999999999999
 20
2.669999999999993
 30
0.0
 40
0.5
  1
3-3/16
100
AcDbAttributeDefinition
  3

  2
SS
 70
     8
280
     0
  0
ATTDEF
  5
212
330
208
100
AcDbEntity
  8
AM_6
100
AcDbText
 10
10.16999999999999
 20
2.169999999999993
 30
0.0
 40
0.5
  1
3.18750
100
AcDbAttributeDefinition
  3

  2
SS1
 70
     8
280
     0
  0
ATTDEF
  5
213
330
208
100
AcDbEntity
  8
AM_6
100
AcDbText
 10
10.16999999999999
 20
1.669999999999993
 30
0.0
 40
0.5
  1
072352
100
AcDbAttributeDefinition
  3

  2
PN1
 70
     8
280
     0
  0
ATTDEF
  5
214
330
208
100
AcDbEntity
  8
AM_6
100
AcDbText
 10
10.16999999999999
 20
1.169999999999993
 30
0.0
 40
0.5
  1
072376
100
AcDbAttributeDefinition
  3

  2
PN2
 70
     8
280
     0
  0
ATTDEF
  5
215
330
208
100
AcDbEntity
  8
AM_6
100
AcDbText
 10
10.16999999999999
 20
0.6699999999999928
 30
0.0
 40
0.5
  1
Non-Expansion
100
AcDbAttributeDefinition
  3

  2
TYPE
 70
     8
280
     0
  0
ATTDEF
  5
216
330
208
100
AcDbEntity
  8
AM_6
100
AcDbText
 10
10.16999999999999
 20
0.1699999999999928
 30
0.0
 40
0.5
  1
Contact Seal
100
AcDbAttributeDefinition
  3

  2
ST
 70
     8
280
     0
  0
ATTDEF
  5
217
330
208
100
AcDbEntity
  8
AM_6
100
AcDbText
 10
10.16999999999999
 20
-0.3300000000000072
 30
0.0
 40
0.5
  1
SFCN-IP-303R
100
AcDbAttributeDefinition
  3

  2
DESCRIPTIONS
 70
     8
280
     0
  0
ATTDEF
  5
218
330
208
100
AcDbEntity
  8
AM_6
100
AcDbText
 10
10.16999999999999
 20
-0.8300000000000072
 30
0.0
 40
0.5
  1
4.17
100
AcDbAttributeDefinition
  3

  2
A
 70
     8
280
     0
  0
ATTDEF
  5
219
330
208
100
AcDbEntity
  8
AM_6
100
AcDbText
 10
10.16999999999999
 20
-1.330000000000007
 30
0.0
 40
0.5
  1
4.170
100
AcDbAttributeDefinition
  3

  2
A1
 70
     8
280
     0
  0
ATTDEF
  5
21A
330
208
100
AcDbEntity
  8
AM_6
100
AcDbText
 10
10.16999999999999
 20
-1.830000000000007
 30
0.0
 40
0.5
  1
10.34
100
AcDbAttributeDefinition
  3

  2
B
 70
     8
280
     0
  0
ATTDEF
  5
21B
330
208
100
AcDbEntity
  8
AM_6
100
AcDbText
 10
10.16999999999999
 20
-2.330000000000007
 30
0.0
 40
0.5
  1
10.3400
100
AcDbAttributeDefinition
  3

  2
B1
 70
     8
280
     0
  0
ATTDEF
  5
21C
330
208
100
AcDbEntity
  8
AM_6
100
AcDbText
 10
10.16999999999999
 20
-2.830000000000007
 30
0.0
 40
0.5
  1
2.79
100
AcDbAttributeDefinition
  3

  2
C
 70
     8
280
     0
  0
ATTDEF
  5
21D
330
208
100
AcDbEntity
  8
AM_6
100
AcDbText
 10
10.16999999999999
 20
-3.330000000000007
 30
0.0
 40
0.5
  1
2.7900
100
AcDbAttributeDefinition
  3

  2
C1
 70
     8
280
     0
  0
ATTDEF
  5
21E
330
208
100
AcDbEntity
  8
AM_6
100
AcDbText
 10
10.16999999999999
 20
-3.830000000000007
 30
0.0
 40
0.5
  1
6.10
100
AcDbAttributeDefinition
  3

  2
D
 70
     8
280
     0
  0
ATTDEF
  5
21F
330
208
100
AcDbEntity
  8
AM_6
100
AcDbText
 10
10.16999999999999
 20
-4.330000000000007
 30
0.0
 40
0.5
  1
6.1000
100
AcDbAttributeDefinition
  3

  2
D1
 70
     8
280
     0
  0
ATTDEF
  5
220
330
208
100
AcDbEntity
  8
AM_6
100
AcDbText
 10
10.16999999999999
 20
-4.830000000000007
 30
0.0
 40
0.5
  1
8.630
100
AcDbAttributeDefinition
  3

  2
DD
 70
     8
280
     0
  0
ATTDEF
  5
221
330
208
100
AcDbEntity
  8
AM_6
100
AcDbText
 10
10.16999999999999
 20
-5.330000000000007
 30
0.0
 40
0.5
  1
8.6300
100
AcDbAttributeDefinition
  3

  2
DD1
 70
     8
280
     0
  0
ATTDEF
  5
222
330
208
100
AcDbEntity
  8
AM_6
100
AcDbText
 10
10.16999999999999
 20
-5.830000000000007
 30
0.0
 40
0.5
  1
0.0000
100
AcDbAttributeDefinition
  3

  2
E
 70
     8
280
     0
  0
ATTDEF
  5
223
330
208
100
AcDbEntity
  8
AM_6
100
AcDbText
 10
10.16999999999999
 20
-6.330000000000007
 30
0.0
 40
0.5
  1
0.0000
100
AcDbAttributeDefinition
  3

  2
E1
 70
     8
280
     0
  0
ATTDEF
  5
224
330
208
100
AcDbEntity
  8
AM_6
100
AcDbText
 10
10.16999999999999
 20
-6.830000000000007
 30
0.0
 40
0.5
  1
0.7500
100
AcDbAttributeDefinition
  3

  2
F
 70
     8
280
     0
  0
ATTDEF
  5
225
330
208
100
AcDbEntity
  8
AM_6
100
AcDbText
 10
10.16999999999999
 20
-7.330000000000007
 30
0.0
 40
0.5
  1
0.75000
100
AcDbAttributeDefinition
  3

  2
F1
 70
     8
280
     0
  0
ATTDEF
  5
226
330
208
100
AcDbEntity
  8
AM_6
100
AcDbText
 10
10.16999999999999
 20
-7.830000000000007
 30
0.0
 40
0.5
  1
2.88
100
AcDbAttributeDefinition
  3

  2
G
 70
     8
280
     0
  0
ATTDEF
  5
227
330
208
100
AcDbEntity
  8
AM_6
100
AcDbText
 10
10.16999999999999
 20
-8.330000000000007
 30
0.0
 40
0.5
  1
2.88
100
AcDbAttributeDefinition
  3

  2
G1
 70
     8
280
     0
  0
ATTDEF
  5
228
330
208
100
AcDbEntity
  8
AM_6
100
AcDbText
 10
10.16999999999999
 20
-8.830000000000007
 30
0.0
 40
0.5
  1
1.00
100
AcDbAttributeDefinition
  3

  2
H
 70
     8
280
     0
  0
ATTDEF
  5
229
330
208
100
AcDbEntity
  8
AM_6
100
AcDbText
 10
10.16999999999999
 20
-9.330000000000007
 30
0.0
 40
0.5
  1
1.00
100
AcDbAttributeDefinition
  3

  2
H1
 70
     8
280
     0
  0
ATTDEF
  5
22A
330
208
100
AcDbEntity
  8
AM_6
100
AcDbText
 10
10.16999999999999
 20
-9.830000000000007
 30
0.0
 40
0.5
  1
7.375
100
AcDbAttributeDefinition
  3

  2
K
 70
     8
280
     0
  0
ATTDEF
  5
22B
330
208
100
AcDbEntity
  8
AM_6
100
AcDbText
 10
10.16999999999999
 20
-10.33000000000001
 30
0.0
 40
0.5
  1
7.375
100
AcDbAttributeDefinition
  3

  2
K1
 70
     8
280
     0
  0
ATTDEF
  5
22C
330
208
100
AcDbEntity
  8
AM_6
100
AcDbText
 10
10.16999999999999
 20
-10.83000000000001
 30
0.0
 40
0.5
  1
5.00
100
AcDbAttributeDefinition
  3

  2
L
 70
     8
280
     0
  0
ATTDEF
  5
22D
330
208
100
AcDbEntity
  8
AM_6
100
AcDbText
 10
10.16999999999999
 20
-11.33000000000001
 30
0.0
 40
0.5
  1
5.00
100
AcDbAttributeDefinition
  3

  2
L1
 70
     8
280
     0
  0
ATTDEF
  5
22E
330
208
100
AcDbEntity
  8
AM_6
100
AcDbText
 10
10.16999999999999
 20
-11.83000000000001
 30
0.0
 40
0.5
  1
0.7500
100
AcDbAttributeDefinition
  3

  2
M
 70
     8
280
     0
  0
ATTDEF
  5
22F
330
208
100
AcDbEntity
  8
AM_6
100
AcDbText
 10
10.16999999999999
 20
-12.33000000000001
 30
0.0
 40
0.5
  1
0.7500
100
AcDbAttributeDefinition
  3

  2
M1
 70
     8
280
     0
  0
ATTDEF
  5
230
330
208
100
AcDbEntity
  8
AM_6
100
AcDbText
 10
10.16999999999999
 20
-12.83000000000001
 30
0.0
 40
0.5
  1
4.19
100
AcDbAttributeDefinition
  3

  2
N
 70
     8
280
     0
  0
ATTDEF
  5
231
330
208
100
AcDbEntity
  8
AM_6
100
AcDbText
 10
10.16999999999999
 20
-13.33000000000001
 30
0.0
 40
0.5
  1
4.19
100
AcDbAttributeDefinition
  3

  2
N1
 70
     8
280
     0
  0
ATTDEF
  5
232
330
208
100
AcDbEntity
  8
AM_6
100
AcDbText
 10
10.16999999999999
 20
-13.83000000000001
 30
0.0
 40
0.5
  1
2.53
100
AcDbAttributeDefinition
  3

  2
P
 70
     8
280
     0
  0
ATTDEF
  5
233
330
208
100
AcDbEntity
  8
AM_6
100
AcDbText
 10
10.16999999999999
 20
-14.33000000000001
 30
0.0
 40
0.5
  1
2.53
100
AcDbAttributeDefinition
  3

  2
P1
 70
     8
280
     0
  0
ATTDEF
  5
234
330
208
100
AcDbEntity
  8
AM_6
100
AcDbText
 10
10.16999999999999
 20
-14.83000000000001
 30
0.0
 40
0.5
  1
1.31
100
AcDbAttributeDefinition
  3

  2
Q
 70
     8
280
     0
  0
ATTDEF
  5
235
330
208
100
AcDbEntity
  8
AM_6
100
AcDbText
 10
10.16999999999999
 20
-15.33000000000001
 30
0.0
 40
0.5
  1
1.31
100
AcDbAttributeDefinition
  3

  2
Q1
 70
     8
280
     0
  0
ATTDEF
  5
236
330
208
100
AcDbEntity
  8
AM_6
100
AcDbText
 10
10.16999999999999
 20
-15.83000000000001
 30
0.0
 40
0.5
  1
0.25
100
AcDbAttributeDefinition
  3

  2
X
 70
     8
280
     0
  0
ATTDEF
  5
237
330
208
100
AcDbEntity
  8
AM_6
100
AcDbText
 10
10.16999999999999
 20
-16.33000000000001
 30
0.0
 40
0.5
  1
0.25
100
AcDbAttributeDefinition
  3

  2
X1
 70
     8
280
     0
  0
ATTDEF
  5
238
330
208
100
AcDbEntity
  8
AM_6
100
AcDbText
 10
10.16999999999999
 20
-16.83000000000001
 30
0.0
 40
0.5
  1
0.025
100
AcDbAttributeDefinition
  3

  2
Y
 70
     8
280
     0
  0
ATTDEF
  5
239
330
208
100
AcDbEntity
  8
AM_6
100
AcDbText
 10
10.16999999999999
 20
-17.33000000000001
 30
0.0
 40
0.5
  1
0.025
100
AcDbAttributeDefinition
  3

  2
Y1
 70
     8
280
     0
  0
ATTDEF
  5
23A
330
208
100
AcDbEntity
  8
AM_6
100
AcDbText
 10
10.16999999999999
 20
-17.83000000000001
 30
0.0
 40
0.5
  1
4.05
100
AcDbAttributeDefinition
  3

  2
Z
 70
     8
280
     0
  0
ATTDEF
  5
23B
330
208
100
AcDbEntity
  8
AM_6
100
AcDbText
 10
10.16999999999999
 20
-18.33000000000001
 30
0.0
 40
0.5
  1
4.05
100
AcDbAttributeDefinition
  3

  2
Z1
 70
     8
280
     0
  0
ATTDEF
  5
23C
330
208
100
AcDbEntity
  8
AM_6
100
AcDbText
 10
10.16999999999999
 20
-18.83000000000001
 30
0.0
 40
0.5
  1
6.2992
100
AcDbAttributeDefinition
  3

  2
BORE
 70
     8
280
     0
  0
ATTDEF
  5
23D
330
208
100
AcDbEntity
  8
AM_6
100
AcDbText
 10
10.16999999999999
 20
-19.33000000000001
 30
0.0
 40
0.5
  1
0.1151670
100
AcDbAttributeDefinition
  3

  2
O
 70
     8
280
     0
  0
ATTDEF
  5
23E
330
208
100
AcDbEntity
  8
AM_6
100
AcDbText
 10
10.16999999999999
 20
-19.83000000000001
 30
0.0
 40
0.5
  1
baldor
100
AcDbAttributeDefinition
  3

  2
COMPANY
 70
     8
280
     0
  0
ARC
  5
23F
330
208
100
AcDbEntity
  8
AM_9
100
AcDbCircle
 10
0.0
 20
-0.0000000000000115
 30
0.0
 40
3.687499999999988
100
AcDbArc
 50
254.2651208205888
 51
285.7348791794111
  0
ARC
  5
240
330
208
100
AcDbEntity
  8
AM_9
100
AcDbCircle
 10
0.0000000000000391
 20
-0.0000000000000386
 30
0.0
 40
3.687499999999945
100
AcDbArc
 50
304.8374464040681
 51
325.1625535959319
  0
ARC
  5
241
330
208
100
AcDbEntity
  8
AM_9
100
AcDbCircle
 10
0.0000000000000218
 20
0.0000000000000222
 30
0.0
 40
3.687499999999969
100
AcDbArc
 50
34.83744640406814
 51
55.16255359593179
  0
ARC
  5
242
330
208
100
AcDbEntity
  8
AM_9
100
AcDbCircle
 10
0.0000000000000001
 20
0.000000000000012
 30
0.0
 40
3.687499999999988
100
AcDbArc
 50
74.26512082058885
 51
105.7348791794112
  0
ARC
  5
243
330
208
100
AcDbEntity
  8
AM_9
100
AcDbCircle
 10
0.000000000000028
 20
-0.0000000000000002
 30
0.0
 40
3.687500000000016
100
AcDbArc
 50
124.8374464040686
 51
235.1625535959313
  0
ARC
  5
244
330
208
100
AcDbEntity
  8
AM_5
100
AcDbCircle
 10
4.315000000000002
 20
-0.0000000000000002
 30
0.0
 40
0.3750000000000006
100
AcDbArc
 50
75.00000000000023
 51
15.00000000000014
  0
ARC
  5
245
330
208
100
AcDbEntity
  8
AM_5
100
AcDbCircle
 10
-4.314999999999999
 20
-0.0000000000000002
 30
0.0
 40
0.3750000000000006
100
AcDbArc
 50
75.00000000000023
 51
15.00000000000014
  0
LINE
  5
246
330
208
100
AcDbEntity
  8
AM_7
100
AcDbLine
 10
3.978107500000001
 20
0.0
 30
0.0
 11
4.651892500000001
 21
0.0
 31
0.0
  0
LINE
  5
247
330
208
100
AcDbEntity
  8
AM_7
100
AcDbLine
 10
4.315
 20
-0.3368924999999999
 30
0.0
 11
4.315
 21
0.3368924999999999
 31
0.0
  0
LINE
  5
248
330
208
100
AcDbEntity
  8
AM_7
100
AcDbLine
 10
-4.651892500000001
 20
0.0
 30
0.0
 11
-3.978107500000001
 21
0.0
 31
0.0
  0
LINE
  5
249
330
208
100
AcDbEntity
  8
AM_7
100
AcDbLine
 10
-4.315
 20
-0.3368924999999999
 30
0.0
 11
-4.315
 21
0.3368924999999999
 31
0.0
  0
LINE
  5
24A
330
208
100
AcDbEntity
  8
AM_7
100
AcDbLine
 10
2.657415760819953
 20
-3.051165760819952
 30
0.0
 11
3.444915760819952
 21
-3.051165760819952
 31
0.0
  0
LINE
  5
24B
330
208
100
AcDbEntity
  8
AM_7
100
AcDbLine
 10
3.051165760819952
 20
-3.444915760819952
 30
0.0
 11
3.051165760819952
 21
-2.657415760819953
 31
0.0
  0
LINE
  5
24C
330
208
100
AcDbEntity
  8
AM_7
100
AcDbLine
 10
2.657415760819953
 20
3.051165760819952
 30
0.0
 11
3.444915760819952
 21
3.051165760819952
 31
0.0
  0
LINE
  5
24D
330
208
100
AcDbEntity
  8
AM_7
100
AcDbLine
 10
3.051165760819952
 20
2.657415760819953
 30
0.0
 11
3.051165760819952
 21
3.444915760819952
 31
0.0
  0
LINE
  5
24E
330
208
100
AcDbEntity
  8
AM_7
100
AcDbLine
 10
-3.444915760819952
 20
-3.051165760819952
 30
0.0
 11
-2.657415760819953
 21
-3.051165760819952
 31
0.0
  0
LINE
  5
24F
330
208
100
AcDbEntity
  8
AM_7
100
AcDbLine
 10
-3.051165760819952
 20
-3.444915760819952
 30
0.0
 11
-3.051165760819952
 21
-2.657415760819953
 31
0.0
  0
LINE
  5
250
330
208
100
AcDbEntity
  8
AM_7
100
AcDbLine
 10
-3.444915760819952
 20
3.051165760819952
 30
0.0
 11
-2.657415760819953
 21
3.051165760819952
 31
0.0
  0
LINE
  5
251
330
208
100
AcDbEntity
  8
AM_7
100
AcDbLine
 10
-3.051165760819952
 20
2.657415760819953
 30
0.0
 11
-3.051165760819952
 21
3.444915760819952
 31
0.0
  0
LINE
  5
252
330
208
100
AcDbEntity
  8
AM_7
100
AcDbLine
 10
-3.30708
 20
0.0
 30
0.0
 11
3.30708
 21
0.0
 31
0.0
  0
LINE
  5
253
330
208
100
AcDbEntity
  8
AM_7
100
AcDbLine
 10
0.0
 20
-3.30708
 30
0.0
 11
0.0
 21
3.30708
 31
0.0
  0
CIRCLE
  5
254
330
208
100
AcDbEntity
  8
AM_4
100
AcDbCircle
 10
4.315
 20
0.0
 30
0.0
 40
0.3208499999999999
  0
CIRCLE
  5
255
330
208
100
AcDbEntity
  8
AM_4
100
AcDbCircle
 10
-4.315
 20
0.0
 30
0.0
 40
0.3208499999999999
  0
CIRCLE
  5
256
330
208
100
AcDbEntity
  8
AM_4
100
AcDbCircle
 10
3.051165760819952
 20
-3.051165760819952
 30
0.0
 40
0.3749999999999999
  0
LINE
  5
257
330
208
100
AcDbEntity
  8
AM_4
100
AcDbLine
 10
4.269376638004848
 20
-2.915702852291094
 30
0.0
 11
3.278641444499732
 21
-1.687651186830001
 31
0.0
  0
LINE
  5
258
330
208
100
AcDbEntity
  8
AM_4
100
AcDbLine
 10
1.68765118683
 20
-3.278641444499732
 30
0.0
 11
2.915702852291091
 21
-4.26937663800485
 31
0.0
  0
CIRCLE
  5
259
330
208
100
AcDbEntity
  8
AM_4
100
AcDbCircle
 10
3.051165760819952
 20
3.051165760819952
 30
0.0
 40
0.3749999999999999
  0
LINE
  5
25A
330
208
100
AcDbEntity
  8
AM_4
100
AcDbLine
 10
3.278641444499732
 20
1.687651186830001
 30
0.0
 11
4.269376638004849
 21
2.915702852291091
 31
0.0
  0
LINE
  5
25B
330
208
100
AcDbEntity
  8
AM_4
100
AcDbLine
 10
2.915702852291093
 20
4.269376638004847
 30
0.0
 11
1.687651186830001
 21
3.278641444499732
 31
0.0
  0
LINE
  5
25C
330
208
100
AcDbEntity
  8
AM_4
100
AcDbLine
 10
-3.278641444499734
 20
-1.687651186829999
 30
0.0
 11
-4.269376638004849
 21
-2.915702852291091
 31
0.0
  0
CIRCLE
  5
25D
330
208
100
AcDbEntity
  8
AM_4
100
AcDbCircle
 10
-3.051165760819952
 20
-3.051165760819952
 30
0.0
 40
0.3749999999999999
  0
LINE
  5
25E
330
208
100
AcDbEntity
  8
AM_4
100
AcDbLine
 10
-2.915702852291093
 20
-4.269376638004847
 30
0.0
 11
-1.687651186830001
 21
-3.278641444499732
 31
0.0
  0
LINE
  5
25F
330
208
100
AcDbEntity
  8
AM_4
100
AcDbLine
 10
-4.269376638004848
 20
2.915702852291091
 30
0.0
 11
-3.278641444499732
 21
1.687651186830001
 31
0.0
  0
CIRCLE
  5
260
330
208
100
AcDbEntity
  8
AM_4
100
AcDbCircle
 10
-3.051165760819952
 20
3.051165760819952
 30
0.0
 40
0.3749999999999999
  0
LINE
  5
261
330
208
100
AcDbEntity
  8
AM_4
100
AcDbLine
 10
-1.687651186829999
 20
3.278641444499732
 30
0.0
 11
-2.915702852291091
 21
4.26937663800485
 31
0.0
  0
LINE
  5
262
330
208
100
AcDbEntity
  8
AM_4
100
AcDbLine
 10
-1.0
 20
4.424999999999999
 30
0.0
 11
-1.0
 21
3.549317716125171
 31
0.0
  0
LINE
  5
263
330
208
100
AcDbEntity
  8
AM_4
100
AcDbLine
 10
1.0
 20
4.424999999999999
 30
0.0
 11
1.0
 21
3.549317716125171
 31
0.0
  0
LINE
  5
264
330
208
100
AcDbEntity
  8
AM_4
100
AcDbLine
 10
1.0
 20
4.424999999999999
 30
0.0
 11
-1.0
 21
4.424999999999999
 31
0.0
  0
LINE
  5
265
330
208
100
AcDbEntity
  8
AM_4
100
AcDbLine
 10
-1.0
 20
-3.549317716125171
 30
0.0
 11
-1.0
 21
-4.424999999999999
 31
0.0
  0
LINE
  5
266
330
208
100
AcDbEntity
  8
AM_4
100
AcDbLine
 10
1.0
 20
-4.424999999999999
 30
0.0
 11
-1.0
 21
-4.424999999999999
 31
0.0
  0
LINE
  5
267
330
208
100
AcDbEntity
  8
AM_4
100
AcDbLine
 10
1.0
 20
-3.549317716125171
 30
0.0
 11
1.0
 21
-4.424999999999999
 31
0.0
  0
ARC
  5
268
330
208
100
AcDbEntity
  8
AM_4
100
AcDbCircle
 10
-3.05116576081995
 20
3.051165760819953
 30
0.0
 40
0.945
100
AcDbArc
 50
271.4888953999462
 51
358.5111046000536
  0
ARC
  5
269
330
208
100
AcDbEntity
  8
AM_4
100
AcDbCircle
 10
0.0000000000000009
 20
0.0000000000000002
 30
0.0
 40
3.6875
100
AcDbArc
 50
145.1625535959317
 51
214.8374464040681
  0
ARC
  5
26A
330
208
100
AcDbEntity
  8
AM_4
100
AcDbCircle
 10
-3.051165760819957
 20
-3.051165760819951
 30
0.0
 40
0.945000000000004
100
AcDbArc
 50
1.488895399946412
 51
88.51110460005357
  0
ARC
  5
26B
330
208
100
AcDbEntity
  8
AM_4
100
AcDbCircle
 10
0.000000000000006
 20
0.0000000000000147
 30
0.0
 40
3.687500000000016
100
AcDbArc
 50
235.1625535959318
 51
254.2651208205888
  0
LINE
  5
26C
330
208
100
AcDbEntity
  8
AM_4
100
AcDbLine
 10
1.0
 20
-3.6875
 30
0.0
 11
-1.0
 21
-3.6875
 31
0.0
  0
ARC
  5
26D
330
208
100
AcDbEntity
  8
AM_4
100
AcDbCircle
 10
0.0000000000000093
 20
-0.0000000000000195
 30
0.0
 40
3.687499999999978
100
AcDbArc
 50
285.7348791794111
 51
304.8374464040683
  0
ARC
  5
26E
330
208
100
AcDbEntity
  8
AM_4
100
AcDbCircle
 10
3.051165760819948
 20
-3.05116576081995
 30
0.0
 40
0.9449999999999967
100
AcDbArc
 50
91.48889539994613
 51
178.5111046000541
  0
ARC
  5
26F
330
208
100
AcDbEntity
  8
AM_4
100
AcDbCircle
 10
-0.0000000000000009
 20
-0.0000000000000002
 30
0.0
 40
3.6875
100
AcDbArc
 50
325.1625535959317
 51
34.83744640406825
  0
ARC
  5
270
330
208
100
AcDbEntity
  8
AM_4
100
AcDbCircle
 10
3.051165760819952
 20
3.051165760819949
 30
0.0
 40
0.9449999999999991
100
AcDbArc
 50
181.4888953999464
 51
268.5111046000537
  0
ARC
  5
271
330
208
100
AcDbEntity
  8
AM_4
100
AcDbCircle
 10
-0.0000000000000058
 20
-0.0000000000000142
 30
0.0
 40
3.687500000000015
100
AcDbArc
 50
55.16255359593178
 51
74.26512082058888
  0
LINE
  5
272
330
208
100
AcDbEntity
  8
AM_4
100
AcDbLine
 10
1.0
 20
3.6875
 30
0.0
 11
-1.0
 21
3.6875
 31
0.0
  0
ARC
  5
273
330
208
100
AcDbEntity
  8
AM_4
100
AcDbCircle
 10
-0.0000000000000044
 20
0.0000000000000115
 30
0.0
 40
3.687499999999987
100
AcDbArc
 50
105.7348791794111
 51
124.8374464040683
  0
CIRCLE
  5
274
330
208
100
AcDbEntity
  8
AM_4
100
AcDbCircle
 10
0.0
 20
0.0
 30
0.0
 40
3.1496
  0
ARC
  5
275
330
208
100
AcDbEntity
  8
AM_5
100
AcDbCircle
 10
4.315
 20
-0.0000000000000014
 30
0.0
 40
0.3749999999999996
100
AcDbArc
 50
164.9999999999997
 51
104.9999999999998
  0
ARC
  5
276
330
208
100
AcDbEntity
  8
AM_5
100
AcDbCircle
 10
-4.315000000000001
 20
-0.0000000000000014
 30
0.0
 40
0.3749999999999996
100
AcDbArc
 50
164.9999999999997
 51
104.9999999999998
  0
CIRCLE
  5
277
330
208
100
AcDbEntity
  8
AM_4
100
AcDbCircle
 10
-0.0000000000000062
 20
-0.0000000000000009
 30
0.0
 40
5.169999999999994
  0
ENDBLK
  5
20B
330
208
100
AcDbEntity
  8
0
100
AcDbBlockEnd
  0
ENDSEC
  0
SECTION
  2
ENTITIES
  0
INSERT
  5
6F
330
1F
100
AcDbEntity
  8
0
100
AcDbBlockReference
  2
1_072352_0
 10
0.0
 20
0.0
 30
0.0
  0
POINT
  5
279
330
1F
100
AcDbEntity
  8
ConnectionPoints
100
AcDbPoint
 10
0.0
 20
4.056249999999999
 30
1.24
  0
POINT
  5
27A
330
1F
100
AcDbEntity
  8
ConnectionPoints
100
AcDbPoint
 10
0.0
 20
-2.135416666666667
 30
2.748000333333334
  0
POINT
  5
27B
330
1F
100
AcDbEntity
  8
ConnectionPoints
100
AcDbPoint
 10
0.0
 20
2.135416666666667
 30
2.748000333333334
  0
POINT
  5
27C
330
1F
100
AcDbEntity
  8
ConnectionPoints
100
AcDbPoint
 10
0.0
 20
0.0
 30
2.562833333333334
  0
POINT
  5
27D
330
1F
100
AcDbEntity
  8
ConnectionPoints
100
AcDbPoint
 10
0.0
 20
0.0
 30
2.88
  0
POINT
  5
27E
330
1F
100
AcDbEntity
  8
ConnectionPoints
100
AcDbPoint
 10
0.0
 20
0.0
 30
2.761833333333334
  0
POINT
  5
27F
330
1F
100
AcDbEntity
  8
ConnectionPoints
100
AcDbPoint
 10
0.0
 20
2.135416666666667
 30
2.562833333333334
  0
POINT
  5
280
330
1F
100
AcDbEntity
  8
ConnectionPoints
100
AcDbPoint
 10
0.0
 20
2.135416666666667
 30
2.748000000000001
  0
POINT
  5
281
330
1F
100
AcDbEntity
  8
ConnectionPoints
100
AcDbPoint
 10
0.0
 20
-2.135416666666667
 30
2.562833333333334
  0
POINT
  5
282
330
1F
100
AcDbEntity
  8
ConnectionPoints
100
AcDbPoint
 10
0.0
 20
-2.135416666666667
 30
2.748000000000001
  0
POINT
  5
283
330
1F
100
AcDbEntity
  8
ConnectionPoints
100
AcDbPoint
 10
0.0
 20
0.0
 30
2.562833333333334
  0
POINT
  5
284
330
1F
100
AcDbEntity
  8
ConnectionPoints
100
AcDbPoint
 10
0.0
 20
4.056249999999999
 30
1.24
  0
POINT
  5
285
330
1F
100
AcDbEntity
  8
ConnectionPoints
100
AcDbPoint
 10
0.0
 20
-4.056250000000001
 30
1.240000000000001
  0
POINT
  5
286
330
1F
100
AcDbEntity
  8
ConnectionPoints
100
AcDbPoint
 10
0.0
 20
0.0
 30
2.63
  0
POINT
  5
287
330
1F
100
AcDbEntity
  8
ConnectionPoints
100
AcDbPoint
 10
0.0
 20
0.0
 30
2.88
  0
ENDSEC
  0
SECTION
  2
OBJECTS
  0
DICTIONARY
  5
C
330
0
100
AcDbDictionary
281
     1
  3
ACAD_DETAILVIEWSTYLE
350
28F
  3
ACAD_GROUP
350
D
  3
ACAD_LAYOUT
350
1A
  3
ACAD_MATERIAL
350
43
  3
ACAD_MLEADERSTYLE
350
6B
  3
ACAD_MLINESTYLE
350
17
  3
ACAD_PLOTSETTINGS
350
19
  3
ACAD_PLOTSTYLENAME
350
E
  3
ACAD_SCALELIST
350
47
  3
ACAD_SECTIONVIEWSTYLE
350
290
  3
ACAD_TABLESTYLE
350
69
  3
ACAD_VISUALSTYLE
350
2A
  3
ACDB_RECOMPOSE_DATA
350
28C
  3
AcDbVariableDictionary
350
288
  0
SUN
  5
6D
330
29
100
AcDbSun
 90
        1
290
     0
 63
     7
421
 16777215
 40
1.0
291
     1
 91
  2455826
 92
 54000000
292
     0
 70
     2
 71
   256
280
     1
  0
DICTIONARY
  5
28F
102
{ACAD_REACTORS
330
C
102
}
330
C
100
AcDbDictionary
281
     1
  0
DICTIONARY
  5
D
102
{ACAD_REACTORS
330
C
102
}
330
C
100
AcDbDictionary
281
     1
  0
DICTIONARY
  5
1A
102
{ACAD_REACTORS
330
C
102
}
330
C
100
AcDbDictionary
281
     1
  3
Layout1
350
1E
  3
Layout2
350
26
  3
Model
350
22
  0
DICTIONARY
  5
43
102
{ACAD_REACTORS
330
C
102
}
330
C
100
AcDbDictionary
281
     1
  3
ByBlock
350
45
  3
ByLayer
350
44
  3
Global
350
46
  0
DICTIONARY
  5
6B
102
{ACAD_REACTORS
330
C
102
}
330
C
100
AcDbDictionary
281
     1
  3
Standard
350
6C
  0
DICTIONARY
  5
17
102
{ACAD_REACTORS
330
C
102
}
330
C
100
AcDbDictionary
281
     1
  3
Standard
350
18
  0
DICTIONARY
  5
19
102
{ACAD_REACTORS
330
C
102
}
330
C
100
AcDbDictionary
281
     1
  0
ACDBDICTIONARYWDFLT
  5
E
102
{ACAD_REACTORS
330
C
102
}
330
C
100
AcDbDictionary
281
     1
  3
Normal
350
F
100
AcDbDictionaryWithDefault
340
F
  0
DICTIONARY
  5
47
102
{ACAD_REACTORS
330
C
102
}
330
C
100
AcDbDictionary
281
     1
  3
A0
350
48
  3
A1
350
49
  3
A2
350
4A
  3
A3
350
4B
  3
A4
350
4C
  3
A5
350
4D
  3
A6
350
4E
  3
A7
350
4F
  3
A8
350
50
  3
A9
350
51
  3
B0
350
52
  3
B1
350
53
  3
B2
350
54
  3
B3
350
55
  3
B4
350
56
  3
B5
350
57
  3
B6
350
58
  3
B7
350
59
  3
B8
350
5A
  3
B9
350
5B
  3
C0
350
5C
  3
C1
350
5D
  3
C2
350
5E
  3
C3
350
5F
  3
C4
350
60
  3
C5
350
61
  3
C6
350
62
  3
C7
350
63
  3
C8
350
64
  3
C9
350
65
  3
D0
350
66
  3
D1
350
67
  3
D2
350
68
  0
DICTIONARY
  5
290
102
{ACAD_REACTORS
330
C
102
}
330
C
100
AcDbDictionary
281
     1
  0
DICTIONARY
  5
69
102
{ACAD_REACTORS
330
C
102
}
330
C
100
AcDbDictionary
281
     1
  3
Standard
350
6A
  0
DICTIONARY
  5
2A
102
{ACAD_REACTORS
330
C
102
}
330
C
100
AcDbDictionary
281
     1
  3
2dWireframe
350
2F
  3
Basic
350
32
  3
Brighten
350
36
  3
ColorChange
350
3A
  3
Conceptual
350
34
  3
Dim
350
35
  3
EdgeColorOff
350
3D
  3
Facepattern
350
39
  3
Flat
350
2B
  3
FlatWithEdges
350
2C
  3
Gouraud
350
2D
  3
GouraudWithEdges
350
2E
  3
Hidden
350
31
  3
JitterOff
350
3B
  3
Linepattern
350
38
  3
OverhangOff
350
3C
  3
Realistic
350
33
  3
Shaded
350
42
  3
Shaded with edges
350
41
  3
Shades of Gray
350
3E
  3
Sketchy
350
3F
  3
Thicken
350
37
  3
Wireframe
350
30
  3
X-Ray
350
40
  0
XRECORD
  5
28C
102
{ACAD_REACTORS
330
C
102
}
330
C
100
AcDbXrecord
280
     1
 90
        1
330
6A
  0
DICTIONARY
  5
288
102
{ACAD_REACTORS
330
C
102
}
330
C
100
AcDbDictionary
281
     1
  3
CANNOSCALE
350
289
  3
CMLEADERSTYLE
350
28E
  3
CTABLESTYLE
350
28D
  0
LAYOUT
  5
1E
102
{ACAD_REACTORS
330
1A
102
}
330
1A
100
AcDbPlotSettings
  1

  2
none_device
  4

  6

 40
0.0
 41
0.0
 42
0.0
 43
0.0
 44
0.0
 45
0.0
 46
0.0
 47
0.0
 48
0.0
 49
0.0
140
0.0
141
0.0
142
1.0
143
1.0
 70
   688
 72
     0
 73
     0
 74
     5
  7

 75
    16
 76
     0
 77
     2
 78
   300
147
1.0
148
0.0
149
0.0
100
AcDbLayout
  1
Layout1
 70
     1
 71
     1
 10
0.0
 20
0.0
 11
12.0
 21
9.0
 12
0.0
 22
0.0
 32
0.0
 14
1.000000000000000E+20
 24
1.000000000000000E+20
 34
1.000000000000000E+20
 15
-1.000000000000000E+20
 25
-1.000000000000000E+20
 35
-1.000000000000000E+20
146
0.0
 13
0.0
 23
0.0
 33
0.0
 16
1.0
 26
0.0
 36
0.0
 17
0.0
 27
1.0
 37
0.0
 76
     0
330
1B
  0
LAYOUT
  5
26
102
{ACAD_REACTORS
330
1A
102
}
330
1A
100
AcDbPlotSettings
  1

  2
none_device
  4

  6

 40
0.0
 41
0.0
 42
0.0
 43
0.0
 44
0.0
 45
0.0
 46
0.0
 47
0.0
 48
0.0
 49
0.0
140
0.0
141
0.0
142
1.0
143
1.0
 70
   688
 72
     0
 73
     0
 74
     5
  7

 75
    16
 76
     0
 77
     2
 78
   300
147
1.0
148
0.0
149
0.0
100
AcDbLayout
  1
Layout2
 70
     1
 71
     2
 10
0.0
 20
0.0
 11
0.0
 21
0.0
 12
0.0
 22
0.0
 32
0.0
 14
0.0
 24
0.0
 34
0.0
 15
0.0
 25
0.0
 35
0.0
146
0.0
 13
0.0
 23
0.0
 33
0.0
 16
1.0
 26
0.0
 36
0.0
 17
0.0
 27
1.0
 37
0.0
 76
     0
330
23
  0
LAYOUT
  5
22
102
{ACAD_REACTORS
330
1A
102
}
330
1A
100
AcDbPlotSettings
  1

  2
none_device
  4
Letter_(8.50_x_11.00_Inches)
  6

 40
6.35
 41
6.35
 42
6.35000508
 43
6.35000508
 44
215.9
 45
279.4
 46
0.0
 47
0.0
 48
0.0
 49
0.0
140
0.0
141
0.0
142
1.0
143
1.0
 70
  1712
 72
     0
 73
     0
 74
     0
  7

 75
     0
 76
     0
 77
     2
 78
   300
147
1.0
148
0.0
149
0.0
100
AcDbLayout
  1
Model
 70
     1
 71
     0
 10
0.0
 20
0.0
 11
12.0
 21
9.0
 12
0.0
 22
0.0
 32
0.0
 14
1.000000000000000E+20
 24
1.000000000000000E+20
 34
1.000000000000000E+20
 15
-1.000000000000000E+20
 25
-1.000000000000000E+20
 35
-1.000000000000000E+20
146
0.0
 13
0.0
 23
0.0
 33
0.0
 16
1.0
 26
0.0
 36
0.0
 17
0.0
 27
1.0
 37
0.0
 76
     0
330
1F
331
29
  0
MATERIAL
  5
45
102
{ACAD_REACTORS
330
43
102
}
330
43
100
AcDbMaterial
  1
ByBlock
 72
     1
 94
      127
  0
MATERIAL
  5
44
102
{ACAD_REACTORS
330
43
102
}
330
43
100
AcDbMaterial
  1
ByLayer
 72
     1
 94
      127
  0
MATERIAL
  5
46
102
{ACAD_REACTORS
330
43
102
}
330
43
100
AcDbMaterial
  1
Global
 72
     1
 94
      127
  0
MLEADERSTYLE
  5
6C
102
{ACAD_REACTORS
330
6B
102
}
330
6B
100
AcDbMLeaderStyle
179
     2
170
     2
171
     1
172
     0
 90
        2
 40
0.0
 41
0.0
173
     1
 91
-1056964608
340
14
 92
       -2
290
     1
 42
0.09
291
     1
 43
0.36
  3
Standard
341
0
 44
0.18
300

342
11
174
     1
178
     6
175
     1
176
     0
 93
-1056964608
 45
0.18
292
     0
297
     0
 46
0.18
343
0
 94
-1056964608
 47
1.0
 49
1.0
140
1.0
293
     1
141
0.0
294
     1
177
     0
142
1.0
295
     0
296
     0
143
0.125
271
     0
272
     9
273
     9
298
     0
  0
MLINESTYLE
  5
18
102
{ACAD_REACTORS
330
17
102
}
330
17
100
AcDbMlineStyle
  2
Standard
 70
     0
  3

 62
   256
 51
90.0
 52
90.0
 71
     2
 49
0.5
 62
   256
  6
BYLAYER
 49
-0.5
 62
   256
  6
BYLAYER
  0
ACDBPLACEHOLDER
  5
F
102
{ACAD_REACTORS
330
E
102
}
330
E
  0
SCALE
  5
48
102
{ACAD_REACTORS
330
47
102
}
330
47
100
AcDbScale
 70
     0
300
1:1
140
1.0
141
1.0
290
     1
  0
SCALE
  5
49
102
{ACAD_REACTORS
330
47
102
}
330
47
100
AcDbScale
 70
     0
300
1:2
140
1.0
141
2.0
290
     0
  0
SCALE
  5
4A
102
{ACAD_REACTORS
330
47
102
}
330
47
100
AcDbScale
 70
     0
300
1:4
140
1.0
141
4.0
290
     0
  0
SCALE
  5
4B
102
{ACAD_REACTORS
330
47
102
}
330
47
100
AcDbScale
 70
     0
300
1:5
140
1.0
141
5.0
290
     0
  0
SCALE
  5
4C
102
{ACAD_REACTORS
330
47
102
}
330
47
100
AcDbScale
 70
     0
300
1:8
140
1.0
141
8.0
290
     0
  0
SCALE
  5
4D
102
{ACAD_REACTORS
330
47
102
}
330
47
100
AcDbScale
 70
     0
300
1:10
140
1.0
141
10.0
290
     0
  0
SCALE
  5
4E
102
{ACAD_REACTORS
330
47
102
}
330
47
100
AcDbScale
 70
     0
300
1:16
140
1.0
141
16.0
290
     0
  0
SCALE
  5
4F
102
{ACAD_REACTORS
330
47
102
}
330
47
100
AcDbScale
 70
     0
300
1:20
140
1.0
141
20.0
290
     0
  0
SCALE
  5
50
102
{ACAD_REACTORS
330
47
102
}
330
47
100
AcDbScale
 70
     0
300
1:30
140
1.0
141
30.0
290
     0
  0
SCALE
  5
51
102
{ACAD_REACTORS
330
47
102
}
330
47
100
AcDbScale
 70
     0
300
1:40
140
1.0
141
40.0
290
     0
  0
SCALE
  5
52
102
{ACAD_REACTORS
330
47
102
}
330
47
100
AcDbScale
 70
     0
300
1:50
140
1.0
141
50.0
290
     0
  0
SCALE
  5
53
102
{ACAD_REACTORS
330
47
102
}
330
47
100
AcDbScale
 70
     0
300
1:100
140
1.0
141
100.0
290
     0
  0
SCALE
  5
54
102
{ACAD_REACTORS
330
47
102
}
330
47
100
AcDbScale
 70
     0
300
2:1
140
2.0
141
1.0
290
     0
  0
SCALE
  5
55
102
{ACAD_REACTORS
330
47
102
}
330
47
100
AcDbScale
 70
     0
300
4:1
140
4.0
141
1.0
290
     0
  0
SCALE
  5
56
102
{ACAD_REACTORS
330
47
102
}
330
47
100
AcDbScale
 70
     0
300
8:1
140
8.0
141
1.0
290
     0
  0
SCALE
  5
57
102
{ACAD_REACTORS
330
47
102
}
330
47
100
AcDbScale
 70
     0
300
10:1
140
10.0
141
1.0
290
     0
  0
SCALE
  5
58
102
{ACAD_REACTORS
330
47
102
}
330
47
100
AcDbScale
 70
     0
300
100:1
140
100.0
141
1.0
290
     0
  0
SCALE
  5
59
102
{ACAD_REACTORS
330
47
102
}
330
47
100
AcDbScale
 70
     0
300
1/128" = 1'-0"
140
0.0078125
141
12.0
290
     0
  0
SCALE
  5
5A
102
{ACAD_REACTORS
330
47
102
}
330
47
100
AcDbScale
 70
     0
300
1/64" = 1'-0"
140
0.015625
141
12.0
290
     0
  0
SCALE
  5
5B
102
{ACAD_REACTORS
330
47
102
}
330
47
100
AcDbScale
 70
     0
300
1/32" = 1'-0"
140
0.03125
141
12.0
290
     0
  0
SCALE
  5
5C
102
{ACAD_REACTORS
330
47
102
}
330
47
100
AcDbScale
 70
     0
300
1/16" = 1'-0"
140
0.0625
141
12.0
290
     0
  0
SCALE
  5
5D
102
{ACAD_REACTORS
330
47
102
}
330
47
100
AcDbScale
 70
     0
300
3/32" = 1'-0"
140
0.09375
141
12.0
290
     0
  0
SCALE
  5
5E
102
{ACAD_REACTORS
330
47
102
}
330
47
100
AcDbScale
 70
     0
300
1/8" = 1'-0"
140
0.125
141
12.0
290
     0
  0
SCALE
  5
5F
102
{ACAD_REACTORS
330
47
102
}
330
47
100
AcDbScale
 70
     0
300
3/16" = 1'-0"
140
0.1875
141
12.0
290
     0
  0
SCALE
  5
60
102
{ACAD_REACTORS
330
47
102
}
330
47
100
AcDbScale
 70
     0
300
1/4" = 1'-0"
140
0.25
141
12.0
290
     0
  0
SCALE
  5
61
102
{ACAD_REACTORS
330
47
102
}
330
47
100
AcDbScale
 70
     0
300
3/8" = 1'-0"
140
0.375
141
12.0
290
     0
  0
SCALE
  5
62
102
{ACAD_REACTORS
330
47
102
}
330
47
100
AcDbScale
 70
     0
300
1/2" = 1'-0"
140
0.5
141
12.0
290
     0
  0
SCALE
  5
63
102
{ACAD_REACTORS
330
47
102
}
330
47
100
AcDbScale
 70
     0
300
3/4" = 1'-0"
140
0.75
141
12.0
290
     0
  0
SCALE
  5
64
102
{ACAD_REACTORS
330
47
102
}
330
47
100
AcDbScale
 70
     0
300
1" = 1'-0"
140
1.0
141
12.0
290
     0
  0
SCALE
  5
65
102
{ACAD_REACTORS
330
47
102
}
330
47
100
AcDbScale
 70
     0
300
1-1/2" = 1'-0"
140
1.5
141
12.0
290
     0
  0
SCALE
  5
66
102
{ACAD_REACTORS
330
47
102
}
330
47
100
AcDbScale
 70
     0
300
3" = 1'-0"
140
3.0
141
12.0
290
     0
  0
SCALE
  5
67
102
{ACAD_REACTORS
330
47
102
}
330
47
100
AcDbScale
 70
     0
300
6" = 1'-0"
140
6.0
141
12.0
290
     0
  0
SCALE
  5
68
102
{ACAD_REACTORS
330
47
102
}
330
47
100
AcDbScale
 70
     0
300
1'-0" = 1'-0"
140
12.0
141
12.0
290
     0
  0
TABLESTYLE
  5
6A
102
{ACAD_REACTORS
330
69
102
}
102
{ACAD_XDICTIONARY
360
28A
102
}
330
69
100
AcDbTableStyle
  3
Standard
 70
     0
 71
     0
 40
0.06
 41
0.06
280
     0
281
     0
  7
Standard
140
0.18
170
     2
 62
     0
 63
   257
283
     0
 90
        4
 91
        0
  1

274
    -2
284
     1
 64
     0
275
    -2
285
     1
 65
     0
276
    -2
286
     1
 66
     0
277
    -2
287
     1
 67
     0
278
    -2
288
     1
 68
     0
279
    -2
289
     1
 69
     0
  7
Standard
140
0.25
170
     5
 62
     0
 63
   257
283
     0
 90
        4
 91
        0
  1

274
    -2
284
     1
 64
     0
275
    -2
285
     1
 65
     0
276
    -2
286
     1
 66
     0
277
    -2
287
     1
 67
     0
278
    -2
288
     1
 68
     0
279
    -2
289
     1
 69
     0
  7
Standard
140
0.18
170
     5
 62
     0
 63
   257
283
     0
 90
        4
 91
        0
  1

274
    -2
284
     1
 64
     0
275
    -2
285
     1
 65
     0
276
    -2
286
     1
 66
     0
277
    -2
287
     1
 67
     0
278
    -2
288
     1
 68
     0
279
    -2
289
     1
 69
     0
  0
VISUALSTYLE
  5
2F
102
{ACAD_REACTORS
330
2A
102
}
330
2A
100
AcDbVisualStyle
  2
2dWireframe
 70
     4
177
     3
291
     0
 70
    58
 90
        0
176
     1
 90
        2
176
     1
 90
        0
176
     1
 90
        0
176
     1
 40
0.6
176
     1
 40
30.0
176
     1
 62
     7
420
 16777215
176
     1
 90
        1
176
     1
 90
        4
176
     1
 62
     7
176
     1
 62
   257
176
     1
 90
        1
176
     1
 90
        1
176
     1
 40
1.0
176
     1
 90
        0
176
     1
 62
   257
176
     1
 40
1.0
176
     1
 90
        1
176
     1
 90
        6
176
     1
 90
        2
176
     1
 62
     7
176
     1
 90
        5
176
     1
 90
        0
176
     1
 90
        0
176
     1
290
     0
176
     1
 90
        1
176
     1
 40
0.0
176
     1
 90
        0
176
     1
290
     1
176
     1
290
     1
176
     1
290
     0
176
     1
290
     0
176
     1
290
     0
176
     1
290
     0
176
     1
290
     0
176
     1
290
     0
176
     1
290
     0
176
     1
 90
       50
176
     1
 40
0.0
176
     1
 40
1.0
176
     1
 90
        0
176
     1
 62
    18
420
        0
176
     1
 90
       50
176
     1
 90
        3
176
     1
 62
     5
420
      255
176
     1
290
     0
176
     1
 90
       50
176
     1
 90
       50
176
     1
 90
       50
176
     1
290
     0
176
     1
 90
       50
176
     1
 62
   256
176
     0
 40
1.0
176
     0
 90
        2
176
     1
  1
strokes_ogs.tif
176
     1
290
     0
176
     1
 40
1.0
176
     1
 40
1.0
176
     1
  0
VISUALSTYLE
  5
32
102
{ACAD_REACTORS
330
2A
102
}
330
2A
100
AcDbVisualStyle
  2
Basic
 70
     7
177
     3
291
     1
 70
    58
 90
        1
176
     1
 90
        0
176
     1
 90
        1
176
     1
 90
        0
176
     1
 40
0.6
176
     1
 40
30.0
176
     1
 62
     7
420
 16777215
176
     1
 90
        0
176
     1
 90
        4
176
     1
 62
     7
176
     1
 62
   257
176
     1
 90
        1
176
     1
 90
        1
176
     1
 40
1.0
176
     1
 90
        8
176
     1
 62
     7
176
     1
 40
1.0
176
     1
 90
        1
176
     1
 90
        6
176
     1
 90
        2
176
     1
 62
     7
176
     1
 90
        5
176
     1
 90
        0
176
     1
 90
        0
176
     1
290
     0
176
     1
 90
        1
176
     1
 40
0.0
176
     1
 90
        0
176
     1
290
     0
176
     1
290
     1
176
     1
290
     1
176
     1
290
     0
176
     1
290
     0
176
     1
290
     0
176
     1
290
     0
176
     1
290
     0
176
     1
290
     0
176
     1
 90
       50
176
     1
 40
0.0
176
     1
 40
1.0
176
     1
 90
        0
176
     1
 62
    18
420
        0
176
     1
 90
       50
176
     1
 90
        3
176
     1
 62
     5
420
      255
176
     1
290
     0
176
     1
 90
       50
176
     1
 90
       50
176
     1
 90
       50
176
     1
290
     0
176
     1
 90
       50
176
     1
 62
   256
176
     0
 40
1.0
176
     0
 90
        2
176
     1
  1
strokes_ogs.tif
176
     1
290
     0
176
     1
 40
1.0
176
     1
 40
1.0
176
     1
  0
VISUALSTYLE
  5
36
102
{ACAD_REACTORS
330
2A
102
}
330
2A
100
AcDbVisualStyle
  2
Brighten
 70
    12
177
     3
291
     1
 70
    58
 90
        2
176
     1
 90
        2
176
     1
 90
        0
176
     1
 90
        0
176
     1
 40
0.6
176
     1
 40
30.0
176
     1
 62
     7
420
 16777215
176
     1
 90
        1
176
     1
 90
        4
176
     1
 62
     7
176
     1
 62
   257
176
     1
 90
        1
176
     1
 90
        1
176
     1
 40
1.0
176
     1
 90
        8
176
     1
 62
     7
176
     1
 40
1.0
176
     1
 90
        1
176
     1
 90
        6
176
     1
 90
        2
176
     1
 62
     7
176
     1
 90
        5
176
     1
 90
        0
176
     1
 90
        0
176
     1
290
     0
176
     1
 90
        1
176
     1
 40
50.0
176
     1
 90
        0
176
     1
290
     0
176
     1
290
     1
176
     1
290
     1
176
     1
290
     0
176
     1
290
     0
176
     1
290
     0
176
     1
290
     0
176
     1
290
     0
176
     1
290
     0
176
     1
 90
       50
176
     1
 40
0.0
176
     1
 40
1.0
176
     1
 90
        0
176
     1
 62
    18
420
        0
176
     1
 90
       50
176
     1
 90
        3
176
     1
 62
     5
420
      255
176
     1
290
     0
176
     1
 90
       50
176
     1
 90
       50
176
     1
 90
       50
176
     1
290
     0
176
     1
 90
       50
176
     1
 62
   256
176
     0
 40
1.0
176
     0
 90
        2
176
     1
  1
strokes_ogs.tif
176
     1
290
     0
176
     1
 40
1.0
176
     1
 40
1.0
176
     1
  0
VISUALSTYLE
  5
3A
102
{ACAD_REACTORS
330
2A
102
}
330
2A
100
AcDbVisualStyle
  2
ColorChange
 70
    16
177
     3
291
     1
 70
    58
 90
        2
176
     1
 90
        2
176
     1
 90
        3
176
     1
 90
        0
176
     1
 40
0.6
176
     1
 40
30.0
176
     1
 62
     8
420
  8421504
176
     1
 90
        1
176
     1
 90
        4
176
     1
 62
     7
176
     1
 62
   257
176
     1
 90
        1
176
     1
 90
        1
176
     1
 40
1.0
176
     1
 90
        8
176
     1
 62
     8
420
  8421504
176
     1
 40
1.0
176
     1
 90
        1
176
     1
 90
        6
176
     1
 90
        2
176
     1
 62
     7
176
     1
 90
        5
176
     1
 90
        0
176
     1
 90
        0
176
     1
290
     0
176
     1
 90
        1
176
     1
 40
0.0
176
     1
 90
        0
176
     1
290
     0
176
     1
290
     1
176
     1
290
     1
176
     1
290
     0
176
     1
290
     0
176
     1
290
     0
176
     1
290
     0
176
     1
290
     0
176
     1
290
     0
176
     1
 90
       50
176
     1
 40
0.0
176
     1
 40
1.0
176
     1
 90
        0
176
     1
 62
    18
420
        0
176
     1
 90
       50
176
     1
 90
        3
176
     1
 62
     5
420
      255
176
     1
290
     0
176
     1
 90
       50
176
     1
 90
       50
176
     1
 90
       50
176
     1
290
     0
176
     1
 90
       50
176
     1
 62
   256
176
     0
 40
1.0
176
     0
 90
        2
176
     1
  1
strokes_ogs.tif
176
     1
290
     0
176
     1
 40
1.0
176
     1
 40
1.0
176
     1
  0
VISUALSTYLE
  5
34
102
{ACAD_REACTORS
330
2A
102
}
330
2A
100
AcDbVisualStyle
  2
Conceptual
 70
     9
177
     3
291
     0
 70
    58
 90
        3
176
     1
 90
        2
176
     1
 90
        0
176
     1
 90
        0
176
     1
 40
0.6
176
     1
 40
30.0
176
     1
 62
     7
420
 16777215
176
     1
 90
        2
176
     1
 90
        2
176
     1
 62
     7
176
     1
 62
   257
176
     1
 90
        1
176
     1
 90
        1
176
     1
 40
179.0
176
     1
 90
        8
176
     1
 62
     7
176
     1
 40
1.0
176
     1
 90
        1
176
     1
 90
        6
176
     1
 90
        2
176
     1
 62
     7
176
     1
 90
        3
176
     1
 90
        0
176
     1
 90
        0
176
     1
290
     0
176
     1
 90
        1
176
     1
 40
0.0
176
     1
 90
        0
176
     1
290
     0
176
     1
290
     1
176
     1
290
     1
176
     1
290
     0
176
     1
290
     0
176
     1
290
     0
176
     1
290
     0
176
     1
290
     0
176
     1
290
     0
176
     1
 90
       50
176
     1
 40
0.0
176
     1
 40
1.0
176
     1
 90
        0
176
     1
 62
    18
420
        0
176
     1
 90
       50
176
     1
 90
        3
176
     1
 62
     5
420
      255
176
     1
290
     0
176
     1
 90
       50
176
     1
 90
       50
176
     1
 90
       50
176
     1
290
     0
176
     1
 90
       50
176
     1
 62
   256
176
     0
 40
1.0
176
     0
 90
        2
176
     1
  1
strokes_ogs.tif
176
     1
290
     0
176
     1
 40
1.0
176
     1
 40
1.0
176
     1
  0
VISUALSTYLE
  5
35
102
{ACAD_REACTORS
330
2A
102
}
330
2A
100
AcDbVisualStyle
  2
Dim
 70
    11
177
     3
291
     1
 70
    58
 90
        2
176
     1
 90
        2
176
     1
 90
        0
176
     1
 90
        0
176
     1
 40
0.6
176
     1
 40
30.0
176
     1
 62
     7
420
 16777215
176
     1
 90
        1
176
     1
 90
        4
176
     1
 62
     7
176
     1
 62
   257
176
     1
 90
        1
176
     1
 90
        1
176
     1
 40
1.0
176
     1
 90
        8
176
     1
 62
     7
176
     1
 40
1.0
176
     1
 90
        1
176
     1
 90
        6
176
     1
 90
        2
176
     1
 62
     7
176
     1
 90
        5
176
     1
 90
        0
176
     1
 90
        0
176
     1
290
     0
176
     1
 90
        1
176
     1
 40
-50.0
176
     1
 90
        0
176
     1
290
     0
176
     1
290
     1
176
     1
290
     1
176
     1
290
     0
176
     1
290
     0
176
     1
290
     0
176
     1
290
     0
176
     1
290
     0
176
     1
290
     0
176
     1
 90
       50
176
     1
 40
0.0
176
     1
 40
1.0
176
     1
 90
        0
176
     1
 62
    18
420
        0
176
     1
 90
       50
176
     1
 90
        3
176
     1
 62
     5
420
      255
176
     1
290
     0
176
     1
 90
       50
176
     1
 90
       50
176
     1
 90
       50
176
     1
290
     0
176
     1
 90
       50
176
     1
 62
   256
176
     0
 40
1.0
176
     0
 90
        2
176
     1
  1
strokes_ogs.tif
176
     1
290
     0
176
     1
 40
1.0
176
     1
 40
1.0
176
     1
  0
VISUALSTYLE
  5
3D
102
{ACAD_REACTORS
330
2A
102
}
330
2A
100
AcDbVisualStyle
  2
EdgeColorOff
 70
    22
177
     3
291
     1
 70
    58
 90
        2
176
     0
 90
        2
176
     0
 90
        0
176
     0
 90
        0
176
     0
 40
0.6
176
     0
 40
30.0
176
     0
 62
     7
420
 16777215
176
     0
 90
        1
176
     0
 90
        4
176
     0
 62
     7
176
     0
 62
   257
176
     0
 90
        1
176
     0
 90
        1
176
     0
 40
1.0
176
     0
 90
        8
176
     2
 62
     7
176
     0
 40
1.0
176
     0
 90
        1
176
     0
 90
        6
176
     0
 90
        2
176
     0
 62
     7
176
     0
 90
        5
176
     0
 90
        0
176
     0
 90
        0
176
     0
290
     0
176
     0
 90
        1
176
     0
 40
0.0
176
     0
 90
        0
176
     0
290
     0
176
     0
290
     1
176
     0
290
     1
176
     0
290
     0
176
     0
290
     0
176
     0
290
     0
176
     0
290
     0
176
     0
290
     0
176
     0
290
     0
176
     0
 90
       50
176
     0
 40
0.0
176
     0
 40
1.0
176
     0
 90
        0
176
     0
 62
    18
420
        0
176
     0
 90
       50
176
     0
 90
        3
176
     0
 62
     5
420
      255
176
     0
290
     0
176
     0
 90
       50
176
     0
 90
       50
176
     0
 90
       50
176
     0
290
     0
176
     0
 90
       50
176
     0
 62
   256
176
     0
 40
1.0
176
     0
 90
        2
176
     0
  1
strokes_ogs.tif
176
     0
290
     0
176
     0
 40
1.0
176
     0
 40
1.0
176
     0
  0
VISUALSTYLE
  5
39
102
{ACAD_REACTORS
330
2A
102
}
330
2A
100
AcDbVisualStyle
  2
Facepattern
 70
    15
177
     3
291
     1
 70
    58
 90
        2
176
     1
 90
        2
176
     1
 90
        0
176
     1
 90
        0
176
     1
 40
0.6
176
     1
 40
30.0
176
     1
 62
     7
420
 16777215
176
     1
 90
        1
176
     1
 90
        4
176
     1
 62
     7
176
     1
 62
   257
176
     1
 90
        1
176
     1
 90
        1
176
     1
 40
1.0
176
     1
 90
        8
176
     1
 62
     7
176
     1
 40
1.0
176
     1
 90
        1
176
     1
 90
        6
176
     1
 90
        2
176
     1
 62
     7
176
     1
 90
        5
176
     1
 90
        0
176
     1
 90
        0
176
     1
290
     0
176
     1
 90
        1
176
     1
 40
0.0
176
     1
 90
        0
176
     1
290
     0
176
     1
290
     1
176
     1
290
     1
176
     1
290
     0
176
     1
290
     0
176
     1
290
     0
176
     1
290
     0
176
     1
290
     0
176
     1
290
     0
176
     1
 90
       50
176
     1
 40
0.0
176
     1
 40
1.0
176
     1
 90
        0
176
     1
 62
    18
420
        0
176
     1
 90
       50
176
     1
 90
        3
176
     1
 62
     5
420
      255
176
     1
290
     0
176
     1
 90
       50
176
     1
 90
       50
176
     1
 90
       50
176
     1
290
     0
176
     1
 90
       50
176
     1
 62
   256
176
     0
 40
1.0
176
     0
 90
        2
176
     1
  1
strokes_ogs.tif
176
     1
290
     0
176
     1
 40
1.0
176
     1
 40
1.0
176
     1
  0
VISUALSTYLE
  5
2B
102
{ACAD_REACTORS
330
2A
102
}
330
2A
100
AcDbVisualStyle
  2
Flat
 70
     0
177
     3
291
     1
 70
    58
 90
        2
176
     1
 90
        1
176
     1
 90
        1
176
     1
 90
        2
176
     1
 40
0.6
176
     1
 40
30.0
176
     1
 62
     7
420
 16777215
176
     1
 90
        0
176
     1
 90
        0
176
     1
 62
     7
176
     1
 62
   257
176
     1
 90
        1
176
     1
 90
        1
176
     1
 40
1.0
176
     1
 90
        8
176
     1
 62
     7
176
     1
 40
1.0
176
     1
 90
        1
176
     1
 90
        6
176
     1
 90
        2
176
     1
 62
     7
176
     1
 90
        5
176
     1
 90
        0
176
     1
 90
        0
176
     1
290
     0
176
     1
 90
       13
176
     1
 40
0.0
176
     1
 90
        0
176
     1
290
     0
176
     1
290
     1
176
     1
290
     1
176
     1
290
     0
176
     1
290
     0
176
     1
290
     0
176
     1
290
     0
176
     1
290
     0
176
     1
290
     0
176
     1
 90
       50
176
     1
 40
0.0
176
     1
 40
1.0
176
     1
 90
        0
176
     1
 62
    18
420
        0
176
     1
 90
       50
176
     1
 90
        3
176
     1
 62
     5
420
      255
176
     1
290
     0
176
     1
 90
       50
176
     1
 90
       50
176
     1
 90
       50
176
     1
290
     0
176
     1
 90
       50
176
     1
 62
   256
176
     0
 40
1.0
176
     0
 90
        2
176
     1
  1
strokes_ogs.tif
176
     1
290
     0
176
     1
 40
1.0
176
     1
 40
1.0
176
     1
  0
VISUALSTYLE
  5
2C
102
{ACAD_REACTORS
330
2A
102
}
330
2A
100
AcDbVisualStyle
  2
FlatWithEdges
 70
     1
177
     3
291
     1
 70
    58
 90
        2
176
     1
 90
        1
176
     1
 90
        1
176
     1
 90
        2
176
     1
 40
0.6
176
     1
 40
30.0
176
     1
 62
     7
420
 16777215
176
     1
 90
        1
176
     1
 90
        0
176
     1
 62
     7
176
     1
 62
   257
176
     1
 90
        1
176
     1
 90
        1
176
     1
 40
1.0
176
     1
 90
        0
176
     1
 62
   257
176
     1
 40
1.0
176
     1
 90
        1
176
     1
 90
        6
176
     1
 90
        2
176
     1
 62
     7
176
     1
 90
        5
176
     1
 90
        0
176
     1
 90
        0
176
     1
290
     0
176
     1
 90
       13
176
     1
 40
0.0
176
     1
 90
        0
176
     1
290
     0
176
     1
290
     1
176
     1
290
     1
176
     1
290
     0
176
     1
290
     0
176
     1
290
     0
176
     1
290
     0
176
     1
290
     0
176
     1
290
     0
176
     1
 90
       50
176
     1
 40
0.0
176
     1
 40
1.0
176
     1
 90
        0
176
     1
 62
    18
420
        0
176
     1
 90
       50
176
     1
 90
        3
176
     1
 62
     5
420
      255
176
     1
290
     0
176
     1
 90
       50
176
     1
 90
       50
176
     1
 90
       50
176
     1
290
     0
176
     1
 90
       50
176
     1
 62
   256
176
     0
 40
1.0
176
     0
 90
        2
176
     1
  1
strokes_ogs.tif
176
     1
290
     0
176
     1
 40
1.0
176
     1
 40
1.0
176
     1
  0
VISUALSTYLE
  5
2D
102
{ACAD_REACTORS
330
2A
102
}
330
2A
100
AcDbVisualStyle
  2
Gouraud
 70
     2
177
     3
291
     1
 70
    58
 90
        2
176
     1
 90
        2
176
     1
 90
        1
176
     1
 90
        2
176
     1
 40
0.6
176
     1
 40
30.0
176
     1
 62
     7
420
 16777215
176
     1
 90
        0
176
     1
 90
        0
176
     1
 62
     7
176
     1
 62
   257
176
     1
 90
        1
176
     1
 90
        1
176
     1
 40
1.0
176
     1
 90
        0
176
     1
 62
     7
176
     1
 40
1.0
176
     1
 90
        1
176
     1
 90
        6
176
     1
 90
        2
176
     1
 62
     7
176
     1
 90
        5
176
     1
 90
        0
176
     1
 90
        0
176
     1
290
     0
176
     1
 90
       13
176
     1
 40
0.0
176
     1
 90
        0
176
     1
290
     0
176
     1
290
     1
176
     1
290
     1
176
     1
290
     0
176
     1
290
     0
176
     1
290
     0
176
     1
290
     0
176
     1
290
     0
176
     1
290
     0
176
     1
 90
       50
176
     1
 40
0.0
176
     1
 40
1.0
176
     1
 90
        0
176
     1
 62
    18
420
        0
176
     1
 90
       50
176
     1
 90
        3
176
     1
 62
     5
420
      255
176
     1
290
     0
176
     1
 90
       50
176
     1
 90
       50
176
     1
 90
       50
176
     1
290
     0
176
     1
 90
       50
176
     1
 62
   256
176
     0
 40
1.0
176
     0
 90
        2
176
     1
  1
strokes_ogs.tif
176
     1
290
     0
176
     1
 40
1.0
176
     1
 40
1.0
176
     1
  0
VISUALSTYLE
  5
2E
102
{ACAD_REACTORS
330
2A
102
}
330
2A
100
AcDbVisualStyle
  2
GouraudWithEdges
 70
     3
177
     3
291
     1
 70
    58
 90
        2
176
     1
 90
        2
176
     1
 90
        1
176
     1
 90
        2
176
     1
 40
0.6
176
     1
 40
30.0
176
     1
 62
     7
420
 16777215
176
     1
 90
        1
176
     1
 90
        0
176
     1
 62
     7
176
     1
 62
   257
176
     1
 90
        1
176
     1
 90
        1
176
     1
 40
1.0
176
     1
 90
        0
176
     1
 62
   257
176
     1
 40
1.0
176
     1
 90
        1
176
     1
 90
        6
176
     1
 90
        2
176
     1
 62
     7
176
     1
 90
        5
176
     1
 90
        0
176
     1
 90
        0
176
     1
290
     0
176
     1
 90
       13
176
     1
 40
0.0
176
     1
 90
        0
176
     1
290
     0
176
     1
290
     1
176
     1
290
     1
176
     1
290
     0
176
     1
290
     0
176
     1
290
     0
176
     1
290
     0
176
     1
290
     0
176
     1
290
     0
176
     1
 90
       50
176
     1
 40
0.0
176
     1
 40
1.0
176
     1
 90
        0
176
     1
 62
    18
420
        0
176
     1
 90
       50
176
     1
 90
        3
176
     1
 62
     5
420
      255
176
     1
290
     0
176
     1
 90
       50
176
     1
 90
       50
176
     1
 90
       50
176
     1
290
     0
176
     1
 90
       50
176
     1
 62
   256
176
     0
 40
1.0
176
     0
 90
        2
176
     1
  1
strokes_ogs.tif
176
     1
290
     0
176
     1
 40
1.0
176
     1
 40
1.0
176
     1
  0
VISUALSTYLE
  5
31
102
{ACAD_REACTORS
330
2A
102
}
330
2A
100
AcDbVisualStyle
  2
Hidden
 70
     6
177
     3
291
     0
 70
    58
 90
        1
176
     1
 90
        2
176
     1
 90
        2
176
     1
 90
        0
176
     1
 40
0.6
176
     1
 40
30.0
176
     1
 62
     7
420
 16777215
176
     1
 90
        2
176
     1
 90
        2
176
     1
 62
     7
176
     1
 62
   257
176
     1
 90
        2
176
     1
 90
        1
176
     1
 40
40.0
176
     1
 90
        0
176
     1
 62
   257
176
     1
 40
1.0
176
     1
 90
        1
176
     1
 90
        6
176
     1
 90
        2
176
     1
 62
     7
176
     1
 90
        3
176
     1
 90
        0
176
     1
 90
        0
176
     1
290
     0
176
     1
 90
        1
176
     1
 40
0.0
176
     1
 90
        0
176
     1
290
     0
176
     1
290
     1
176
     1
290
     1
176
     1
290
     0
176
     1
290
     0
176
     1
290
     0
176
     1
290
     0
176
     1
290
     0
176
     1
290
     0
176
     1
 90
       50
176
     1
 40
0.0
176
     1
 40
1.0
176
     1
 90
        0
176
     1
 62
    18
420
        0
176
     1
 90
       50
176
     1
 90
        3
176
     1
 62
     5
420
      255
176
     1
290
     0
176
     1
 90
       50
176
     1
 90
       50
176
     1
 90
       50
176
     1
290
     0
176
     1
 90
       50
176
     1
 62
   256
176
     0
 40
1.0
176
     0
 90
        2
176
     1
  1
strokes_ogs.tif
176
     1
290
     0
176
     1
 40
1.0
176
     1
 40
1.0
176
     1
  0
VISUALSTYLE
  5
3B
102
{ACAD_REACTORS
330
2A
102
}
330
2A
100
AcDbVisualStyle
  2
JitterOff
 70
    20
177
     3
291
     1
 70
    58
 90
        2
176
     0
 90
        2
176
     0
 90
        0
176
     0
 90
        0
176
     0
 40
0.6
176
     0
 40
30.0
176
     0
 62
     7
420
 16777215
176
     0
 90
        1
176
     0
 90
        4
176
     0
 62
     7
176
     0
 62
   257
176
     0
 90
        1
176
     0
 90
        1
176
     0
 40
1.0
176
     0
 90
       10
176
     2
 62
     7
176
     0
 40
1.0
176
     0
 90
        1
176
     0
 90
        6
176
     0
 90
        2
176
     0
 62
     7
176
     0
 90
        5
176
     0
 90
        0
176
     0
 90
        0
176
     0
290
     0
176
     0
 90
        1
176
     0
 40
0.0
176
     0
 90
        0
176
     0
290
     0
176
     0
290
     1
176
     0
290
     1
176
     0
290
     0
176
     0
290
     0
176
     0
290
     0
176
     0
290
     0
176
     0
290
     0
176
     0
290
     0
176
     0
 90
       50
176
     0
 40
0.0
176
     0
 40
1.0
176
     0
 90
        0
176
     0
 62
    18
420
        0
176
     0
 90
       50
176
     0
 90
        3
176
     0
 62
     5
420
      255
176
     0
290
     0
176
     0
 90
       50
176
     0
 90
       50
176
     0
 90
       50
176
     0
290
     0
176
     0
 90
       50
176
     0
 62
   256
176
     0
 40
1.0
176
     0
 90
        2
176
     0
  1
strokes_ogs.tif
176
     0
290
     0
176
     0
 40
1.0
176
     0
 40
1.0
176
     0
  0
VISUALSTYLE
  5
38
102
{ACAD_REACTORS
330
2A
102
}
330
2A
100
AcDbVisualStyle
  2
Linepattern
 70
    14
177
     3
291
     1
 70
    58
 90
        2
176
     1
 90
        2
176
     1
 90
        0
176
     1
 90
        0
176
     1
 40
0.6
176
     1
 40
30.0
176
     1
 62
     7
420
 16777215
176
     1
 90
        1
176
     1
 90
        4
176
     1
 62
     7
176
     1
 62
   257
176
     1
 90
        7
176
     1
 90
        7
176
     1
 40
1.0
176
     1
 90
        8
176
     1
 62
     7
176
     1
 40
1.0
176
     1
 90
        1
176
     1
 90
        6
176
     1
 90
        2
176
     1
 62
     7
176
     1
 90
        5
176
     1
 90
        0
176
     1
 90
        0
176
     1
290
     0
176
     1
 90
        1
176
     1
 40
0.0
176
     1
 90
        0
176
     1
290
     0
176
     1
290
     1
176
     1
290
     1
176
     1
290
     0
176
     1
290
     0
176
     1
290
     0
176
     1
290
     0
176
     1
290
     0
176
     1
290
     0
176
     1
 90
       50
176
     1
 40
0.0
176
     1
 40
1.0
176
     1
 90
        0
176
     1
 62
    18
420
        0
176
     1
 90
       50
176
     1
 90
        3
176
     1
 62
     5
420
      255
176
     1
290
     0
176
     1
 90
       50
176
     1
 90
       50
176
     1
 90
       50
176
     1
290
     0
176
     1
 90
       50
176
     1
 62
   256
176
     0
 40
1.0
176
     0
 90
        2
176
     1
  1
strokes_ogs.tif
176
     1
290
     0
176
     1
 40
1.0
176
     1
 40
1.0
176
     1
  0
VISUALSTYLE
  5
3C
102
{ACAD_REACTORS
330
2A
102
}
330
2A
100
AcDbVisualStyle
  2
OverhangOff
 70
    21
177
     3
291
     1
 70
    58
 90
        2
176
     0
 90
        2
176
     0
 90
        0
176
     0
 90
        0
176
     0
 40
0.6
176
     0
 40
30.0
176
     0
 62
     7
420
 16777215
176
     0
 90
        1
176
     0
 90
        4
176
     0
 62
     7
176
     0
 62
   257
176
     0
 90
        1
176
     0
 90
        1
176
     0
 40
1.0
176
     0
 90
        9
176
     2
 62
     7
176
     0
 40
1.0
176
     0
 90
        1
176
     0
 90
        6
176
     0
 90
        2
176
     0
 62
     7
176
     0
 90
        5
176
     0
 90
        0
176
     0
 90
        0
176
     0
290
     0
176
     0
 90
        1
176
     0
 40
0.0
176
     0
 90
        0
176
     0
290
     0
176
     0
290
     1
176
     0
290
     1
176
     0
290
     0
176
     0
290
     0
176
     0
290
     0
176
     0
290
     0
176
     0
290
     0
176
     0
290
     0
176
     0
 90
       50
176
     0
 40
0.0
176
     0
 40
1.0
176
     0
 90
        0
176
     0
 62
    18
420
        0
176
     0
 90
       50
176
     0
 90
        3
176
     0
 62
     5
420
      255
176
     0
290
     0
176
     0
 90
       50
176
     0
 90
       50
176
     0
 90
       50
176
     0
290
     0
176
     0
 90
       50
176
     0
 62
   256
176
     0
 40
1.0
176
     0
 90
        2
176
     0
  1
strokes_ogs.tif
176
     0
290
     0
176
     0
 40
1.0
176
     0
 40
1.0
176
     0
  0
VISUALSTYLE
  5
33
102
{ACAD_REACTORS
330
2A
102
}
330
2A
100
AcDbVisualStyle
  2
Realistic
 70
     8
177
     3
291
     0
 70
    58
 90
        2
176
     1
 90
        3
176
     1
 90
        0
176
     1
 90
        2
176
     1
 40
0.6
176
     1
 40
30.0
176
     1
 62
     7
420
 16777215
176
     1
 90
        0
176
     1
 90
        0
176
     1
 62
     7
176
     1
 62
   257
176
     1
 90
        1
176
     1
 90
        1
176
     1
 40
1.0
176
     1
 90
        8
176
     1
 62
   257
176
     1
 40
1.0
176
     1
 90
        1
176
     1
 90
        6
176
     1
 90
        2
176
     1
 62
     7
176
     1
 90
        3
176
     1
 90
        0
176
     1
 90
        0
176
     1
290
     0
176
     1
 90
       13
176
     1
 40
0.0
176
     1
 90
        0
176
     1
290
     0
176
     1
290
     1
176
     1
290
     1
176
     1
290
     0
176
     1
290
     0
176
     1
290
     0
176
     1
290
     0
176
     1
290
     0
176
     1
290
     0
176
     1
 90
       50
176
     1
 40
0.0
176
     1
 40
1.0
176
     1
 90
        0
176
     1
 62
    18
420
        0
176
     1
 90
       50
176
     1
 90
        3
176
     1
 62
     5
420
      255
176
     1
290
     0
176
     1
 90
       50
176
     1
 90
       50
176
     1
 90
       50
176
     1
290
     0
176
     1
 90
       50
176
     1
 62
   256
176
     0
 40
1.0
176
     0
 90
        2
176
     1
  1
strokes_ogs.tif
176
     1
290
     0
176
     1
 40
1.0
176
     1
 40
1.0
176
     1
  0
VISUALSTYLE
  5
42
102
{ACAD_REACTORS
330
2A
102
}
330
2A
100
AcDbVisualStyle
  2
Shaded
 70
    27
177
     3
291
     0
 70
    58
 90
        2
176
     1
 90
        2
176
     1
 90
        1
176
     1
 90
        2
176
     1
 40
0.6
176
     1
 40
30.0
176
     1
 62
     7
420
 16777215
176
     1
 90
        0
176
     1
 90
        4
176
     1
 62
     7
176
     1
 62
   257
176
     1
 90
        1
176
     1
 90
        1
176
     1
 40
1.0
176
     1
 90
        8
176
     1
 62
   257
176
     1
 40
1.0
176
     1
 90
        1
176
     1
 90
        6
176
     1
 90
        2
176
     1
 62
     8
420
  7895160
176
     1
 90
        3
176
     1
 90
        0
176
     1
 90
        0
176
     1
290
     0
176
     1
 90
        5
176
     1
 40
0.0
176
     1
 90
        0
176
     1
290
     0
176
     1
290
     1
176
     1
290
     1
176
     1
290
     0
176
     1
290
     0
176
     1
290
     0
176
     1
290
     0
176
     1
290
     0
176
     1
290
     0
176
     1
 90
       50
176
     1
 40
0.0
176
     1
 40
1.0
176
     1
 90
        0
176
     1
 62
    18
420
        0
176
     1
 90
       50
176
     1
 90
        3
176
     1
 62
     5
420
      255
176
     1
290
     0
176
     1
 90
       50
176
     1
 90
       50
176
     1
 90
       50
176
     1
290
     0
176
     1
 90
       50
176
     1
 62
   256
176
     0
 40
1.0
176
     0
 90
        2
176
     1
  1
strokes_ogs.tif
176
     1
290
     0
176
     1
 40
1.0
176
     1
 40
1.0
176
     1
  0
VISUALSTYLE
  5
41
102
{ACAD_REACTORS
330
2A
102
}
330
2A
100
AcDbVisualStyle
  2
Shaded with edges
 70
    26
177
     3
291
     0
 70
    58
 90
        2
176
     1
 90
        2
176
     1
 90
        1
176
     1
 90
        2
176
     1
 40
0.6
176
     1
 40
30.0
176
     1
 62
     7
420
 16777215
176
     1
 90
        1
176
     1
 90
       10
176
     1
 62
     7
176
     1
 62
   257
176
     1
 90
        2
176
     1
 90
        1
176
     1
 40
1.0
176
     1
 90
        8
176
     1
 62
   257
176
     1
 40
1.0
176
     1
 90
        1
176
     1
 90
        6
176
     1
 90
        2
176
     1
 62
     7
176
     1
 90
        3
176
     1
 90
        0
176
     1
 90
        0
176
     1
290
     0
176
     1
 90
        5
176
     1
 40
0.0
176
     1
 90
        0
176
     1
290
     0
176
     1
290
     1
176
     1
290
     1
176
     1
290
     0
176
     1
290
     0
176
     1
290
     0
176
     1
290
     0
176
     1
290
     0
176
     1
290
     0
176
     1
 90
       50
176
     1
 40
0.0
176
     1
 40
1.0
176
     1
 90
        0
176
     1
 62
    18
420
        0
176
     1
 90
       50
176
     1
 90
        3
176
     1
 62
     5
420
      255
176
     1
290
     0
176
     1
 90
       50
176
     1
 90
       50
176
     1
 90
       50
176
     1
290
     0
176
     1
 90
       50
176
     1
 62
   256
176
     0
 40
1.0
176
     0
 90
        2
176
     1
  1
strokes_ogs.tif
176
     1
290
     0
176
     1
 40
1.0
176
     1
 40
1.0
176
     1
  0
VISUALSTYLE
  5
3E
102
{ACAD_REACTORS
330
2A
102
}
330
2A
100
AcDbVisualStyle
  2
Shades of Gray
 70
    23
177
     3
291
     0
 70
    58
 90
        2
176
     1
 90
        2
176
     1
 90
        3
176
     1
 90
        0
176
     1
 40
0.6
176
     1
 40
30.0
176
     1
 62
     7
420
 16777215
176
     1
 90
        2
176
     1
 90
        2
176
     1
 62
     7
176
     1
 62
     7
176
     1
 90
        1
176
     1
 90
        1
176
     1
 40
40.0
176
     1
 90
        8
176
     1
 62
     7
176
     1
 40
1.0
176
     1
 90
        1
176
     1
 90
        6
176
     1
 90
        2
176
     1
 62
     7
176
     1
 90
        3
176
     1
 90
        0
176
     1
 90
        0
176
     1
290
     0
176
     1
 90
        1
176
     1
 40
0.0
176
     1
 90
        0
176
     1
290
     0
176
     1
290
     1
176
     1
290
     1
176
     1
290
     0
176
     1
290
     0
176
     1
290
     0
176
     1
290
     0
176
     1
290
     0
176
     1
290
     0
176
     1
 90
       50
176
     1
 40
0.0
176
     1
 40
1.0
176
     1
 90
        0
176
     1
 62
    18
420
        0
176
     1
 90
       50
176
     1
 90
        3
176
     1
 62
     5
420
      255
176
     1
290
     0
176
     1
 90
       50
176
     1
 90
       50
176
     1
 90
       50
176
     1
290
     0
176
     1
 90
       50
176
     1
 62
   256
176
     0
 40
1.0
176
     0
 90
        2
176
     1
  1
strokes_ogs.tif
176
     1
290
     0
176
     1
 40
1.0
176
     1
 40
1.0
176
     1
  0
VISUALSTYLE
  5
3F
102
{ACAD_REACTORS
330
2A
102
}
330
2A
100
AcDbVisualStyle
  2
Sketchy
 70
    24
177
     3
291
     0
 70
    58
 90
        1
176
     1
 90
        2
176
     1
 90
        2
176
     1
 90
        0
176
     1
 40
0.6
176
     1
 40
30.0
176
     1
 62
     7
420
 16777215
176
     1
 90
        2
176
     1
 90
        2
176
     1
 62
     7
176
     1
 62
     7
176
     1
 90
        1
176
     1
 90
        1
176
     1
 40
40.0
176
     1
 90
       11
176
     1
 62
     7
176
     1
 40
1.0
176
     1
 90
        1
176
     1
 90
        6
176
     1
 90
        2
176
     1
 62
     7
176
     1
 90
        6
176
     1
 90
        0
176
     1
 90
        0
176
     1
290
     0
176
     1
 90
        1
176
     1
 40
0.0
176
     1
 90
        0
176
     1
290
     0
176
     1
290
     1
176
     1
290
     1
176
     1
290
     0
176
     1
290
     0
176
     1
290
     0
176
     1
290
     0
176
     1
290
     0
176
     1
290
     0
176
     1
 90
       50
176
     1
 40
0.0
176
     1
 40
1.0
176
     1
 90
        0
176
     1
 62
    18
420
        0
176
     1
 90
       50
176
     1
 90
        3
176
     1
 62
     5
420
      255
176
     1
290
     0
176
     1
 90
       50
176
     1
 90
       50
176
     1
 90
       50
176
     1
290
     0
176
     1
 90
       50
176
     1
 62
   256
176
     0
 40
1.0
176
     0
 90
        2
176
     1
  1
strokes_ogs.tif
176
     1
290
     0
176
     1
 40
1.0
176
     1
 40
1.0
176
     1
  0
VISUALSTYLE
  5
37
102
{ACAD_REACTORS
330
2A
102
}
330
2A
100
AcDbVisualStyle
  2
Thicken
 70
    13
177
     3
291
     1
 70
    58
 90
        2
176
     1
 90
        2
176
     1
 90
        0
176
     1
 90
        0
176
     1
 40
0.6
176
     1
 40
30.0
176
     1
 62
     7
420
 16777215
176
     1
 90
        1
176
     1
 90
        4
176
     1
 62
     7
176
     1
 62
   257
176
     1
 90
        1
176
     1
 90
        1
176
     1
 40
1.0
176
     1
 90
       12
176
     1
 62
     7
176
     1
 40
1.0
176
     1
 90
        1
176
     1
 90
        6
176
     1
 90
        2
176
     1
 62
     7
176
     1
 90
        5
176
     1
 90
        0
176
     1
 90
        0
176
     1
290
     0
176
     1
 90
        1
176
     1
 40
0.0
176
     1
 90
        0
176
     1
290
     0
176
     1
290
     1
176
     1
290
     1
176
     1
290
     0
176
     1
290
     0
176
     1
290
     0
176
     1
290
     0
176
     1
290
     0
176
     1
290
     0
176
     1
 90
       50
176
     1
 40
0.0
176
     1
 40
1.0
176
     1
 90
        0
176
     1
 62
    18
420
        0
176
     1
 90
       50
176
     1
 90
        3
176
     1
 62
     5
420
      255
176
     1
290
     0
176
     1
 90
       50
176
     1
 90
       50
176
     1
 90
       50
176
     1
290
     0
176
     1
 90
       50
176
     1
 62
   256
176
     0
 40
1.0
176
     0
 90
        2
176
     1
  1
strokes_ogs.tif
176
     1
290
     0
176
     1
 40
1.0
176
     1
 40
1.0
176
     1
  0
VISUALSTYLE
  5
30
102
{ACAD_REACTORS
330
2A
102
}
330
2A
100
AcDbVisualStyle
  2
Wireframe
 70
     5
177
     3
291
     0
 70
    58
 90
        0
176
     1
 90
        2
176
     1
 90
        0
176
     1
 90
        0
176
     1
 40
0.6
176
     1
 40
30.0
176
     1
 62
     7
420
 16777215
176
     1
 90
        1
176
     1
 90
        4
176
     1
 62
     7
176
     1
 62
   257
176
     1
 90
        1
176
     1
 90
        1
176
     1
 40
1.0
176
     1
 90
        0
176
     1
 62
   257
176
     1
 40
1.0
176
     1
 90
        1
176
     1
 90
        6
176
     1
 90
        2
176
     1
 62
     7
176
     1
 90
        3
176
     1
 90
        0
176
     1
 90
        0
176
     1
290
     0
176
     1
 90
        1
176
     1
 40
0.0
176
     1
 90
        0
176
     1
290
     0
176
     1
290
     1
176
     1
290
     1
176
     1
290
     0
176
     1
290
     0
176
     1
290
     0
176
     1
290
     0
176
     1
290
     0
176
     1
290
     0
176
     1
 90
       50
176
     1
 40
0.0
176
     1
 40
1.0
176
     1
 90
        0
176
     1
 62
    18
420
        0
176
     1
 90
       50
176
     1
 90
        3
176
     1
 62
     5
420
      255
176
     1
290
     0
176
     1
 90
       50
176
     1
 90
       50
176
     1
 90
       50
176
     1
290
     0
176
     1
 90
       50
176
     1
 62
   256
176
     0
 40
1.0
176
     0
 90
        2
176
     1
  1
strokes_ogs.tif
176
     1
290
     0
176
     1
 40
1.0
176
     1
 40
1.0
176
     1
  0
VISUALSTYLE
  5
40
102
{ACAD_REACTORS
330
2A
102
}
330
2A
100
AcDbVisualStyle
  2
X-Ray
 70
    25
177
     3
291
     0
 70
    58
 90
        2
176
     1
 90
        2
176
     1
 90
        1
176
     1
 90
        1
176
     1
 40
0.5
176
     1
 40
30.0
176
     1
 62
     7
420
 16777215
176
     1
 90
        1
176
     1
 90
        0
176
     1
 62
     7
176
     1
 62
   257
176
     1
 90
        1
176
     1
 90
        1
176
     1
 40
1.0
176
     1
 90
        8
176
     1
 62
     7
176
     1
 40
1.0
176
     1
 90
        1
176
     1
 90
        6
176
     1
 90
        2
176
     1
 62
     7
176
     1
 90
        3
176
     1
 90
        0
176
     1
 90
        0
176
     1
290
     0
176
     1
 90
       13
176
     1
 40
0.0
176
     1
 90
        0
176
     1
290
     0
176
     1
290
     1
176
     1
290
     1
176
     1
290
     0
176
     1
290
     0
176
     1
290
     0
176
     1
290
     0
176
     1
290
     0
176
     1
290
     0
176
     1
 90
       50
176
     1
 40
0.0
176
     1
 40
1.0
176
     1
 90
        0
176
     1
 62
    18
420
        0
176
     1
 90
       50
176
     1
 90
        3
176
     1
 62
     5
420
      255
176
     1
290
     0
176
     1
 90
       50
176
     1
 90
       50
176
     1
 90
       50
176
     1
290
     0
176
     1
 90
       50
176
     1
 62
   256
176
     0
 40
1.0
176
     0
 90
        2
176
     1
  1
strokes_ogs.tif
176
     1
290
     0
176
     1
 40
1.0
176
     1
 40
1.0
176
     1
  0
DICTIONARYVAR
  5
289
102
{ACAD_REACTORS
330
288
102
}
330
288
100
DictionaryVariables
280
     0
  1
1:1
  0
DICTIONARYVAR
  5
28E
102
{ACAD_REACTORS
330
288
102
}
330
288
100
DictionaryVariables
280
     0
  1
Standard
  0
DICTIONARYVAR
  5
28D
102
{ACAD_REACTORS
330
288
102
}
330
288
100
DictionaryVariables
280
     0
  1
Standard
  0
DICTIONARY
  5
28A
330
6A
100
AcDbDictionary
280
     1
281
     1
  3
ACAD_ROUNDTRIP_2008_TABLESTYLE_CELLSTYLEMAP
360
28B
  0
CELLSTYLEMAP
  5
28B
102
{ACAD_REACTORS
330
28A
102
}
330
28A
100
AcDbCellStyleMap
 90
        3
300
CELLSTYLE
  1
TABLEFORMAT_BEGIN
 90
        5
170
     1
 91
        0
 92
    32768
 62
   257
 93
        1
300
CONTENTFORMAT
  1
CONTENTFORMAT_BEGIN
 90
        0
 91
        0
 92
        4
 93
        0
300

 40
0.0
140
1.0
 94
        5
 62
     0
340
11
144
0.25
309
CONTENTFORMAT_END
171
     1
301
MARGIN
  1
CELLMARGIN_BEGIN
 40
0.06
 40
0.06
 40
0.06
 40
0.06
 40
0.06
 40
0.06
309
CELLMARGIN_END
 94
        6
 95
        1
302
GRIDFORMAT
  1
GRIDFORMAT_BEGIN
 90
        0
 91
        1
 62
     0
 92
       -2
340
14
 93
        0
 40
0.045
309
GRIDFORMAT_END
 95
        2
302
GRIDFORMAT
  1
GRIDFORMAT_BEGIN
 90
        0
 91
        1
 62
     0
 92
       -2
340
14
 93
        0
 40
0.045
309
GRIDFORMAT_END
 95
        4
302
GRIDFORMAT
  1
GRIDFORMAT_BEGIN
 90
        0
 91
        1
 62
     0
 92
       -2
340
14
 93
        0
 40
0.045
309
GRIDFORMAT_END
 95
        8
302
GRIDFORMAT
  1
GRIDFORMAT_BEGIN
 90
        0
 91
        1
 62
     0
 92
       -2
340
14
 93
        0
 40
0.045
309
GRIDFORMAT_END
 95
       16
302
GRIDFORMAT
  1
GRIDFORMAT_BEGIN
 90
        0
 91
        1
 62
     0
 92
       -2
340
14
 93
        0
 40
0.045
309
GRIDFORMAT_END
 95
       32
302
GRIDFORMAT
  1
GRIDFORMAT_BEGIN
 90
        0
 91
        1
 62
     0
 92
       -2
340
14
 93
        0
 40
0.045
309
GRIDFORMAT_END
309
TABLEFORMAT_END
  1
CELLSTYLE_BEGIN
 90
        1
 91
        1
300
_TITLE
309
CELLSTYLE_END
300
CELLSTYLE
  1
TABLEFORMAT_BEGIN
 90
        5
170
     1
 91
        0
 92
        0
 62
   257
 93
        1
300
CONTENTFORMAT
  1
CONTENTFORMAT_BEGIN
 90
        0
 91
        0
 92
        4
 93
        0
300

 40
0.0
140
1.0
 94
        5
 62
     0
340
11
144
0.18
309
CONTENTFORMAT_END
171
     1
301
MARGIN
  1
CELLMARGIN_BEGIN
 40
0.06
 40
0.06
 40
0.06
 40
0.06
 40
0.06
 40
0.06
309
CELLMARGIN_END
 94
        6
 95
        1
302
GRIDFORMAT
  1
GRIDFORMAT_BEGIN
 90
        0
 91
        1
 62
     0
 92
       -2
340
14
 93
        0
 40
0.045
309
GRIDFORMAT_END
 95
        2
302
GRIDFORMAT
  1
GRIDFORMAT_BEGIN
 90
        0
 91
        1
 62
     0
 92
       -2
340
14
 93
        0
 40
0.045
309
GRIDFORMAT_END
 95
        4
302
GRIDFORMAT
  1
GRIDFORMAT_BEGIN
 90
        0
 91
        1
 62
     0
 92
       -2
340
14
 93
        0
 40
0.045
309
GRIDFORMAT_END
 95
        8
302
GRIDFORMAT
  1
GRIDFORMAT_BEGIN
 90
        0
 91
        1
 62
     0
 92
       -2
340
14
 93
        0
 40
0.045
309
GRIDFORMAT_END
 95
       16
302
GRIDFORMAT
  1
GRIDFORMAT_BEGIN
 90
        0
 91
        1
 62
     0
 92
       -2
340
14
 93
        0
 40
0.045
309
GRIDFORMAT_END
 95
       32
302
GRIDFORMAT
  1
GRIDFORMAT_BEGIN
 90
        0
 91
        1
 62
     0
 92
       -2
340
14
 93
        0
 40
0.045
309
GRIDFORMAT_END
309
TABLEFORMAT_END
  1
CELLSTYLE_BEGIN
 90
        2
 91
        1
300
_HEADER
309
CELLSTYLE_END
300
CELLSTYLE
  1
TABLEFORMAT_BEGIN
 90
        5
170
     1
 91
        0
 92
        0
 62
   257
 93
        1
300
CONTENTFORMAT
  1
CONTENTFORMAT_BEGIN
 90
        0
 91
        0
 92
        4
 93
        0
300

 40
0.0
140
1.0
 94
        2
 62
     0
340
11
144
0.18
309
CONTENTFORMAT_END
171
     1
301
MARGIN
  1
CELLMARGIN_BEGIN
 40
0.06
 40
0.06
 40
0.06
 40
0.06
 40
0.06
 40
0.06
309
CELLMARGIN_END
 94
        6
 95
        1
302
GRIDFORMAT
  1
GRIDFORMAT_BEGIN
 90
        0
 91
        1
 62
     0
 92
       -2
340
14
 93
        0
 40
0.045
309
GRIDFORMAT_END
 95
        2
302
GRIDFORMAT
  1
GRIDFORMAT_BEGIN
 90
        0
 91
        1
 62
     0
 92
       -2
340
14
 93
        0
 40
0.045
309
GRIDFORMAT_END
 95
        4
302
GRIDFORMAT
  1
GRIDFORMAT_BEGIN
 90
        0
 91
        1
 62
     0
 92
       -2
340
14
 93
        0
 40
0.045
309
GRIDFORMAT_END
 95
        8
302
GRIDFORMAT
  1
GRIDFORMAT_BEGIN
 90
        0
 91
        1
 62
     0
 92
       -2
340
14
 93
        0
 40
0.045
309
GRIDFORMAT_END
 95
       16
302
GRIDFORMAT
  1
GRIDFORMAT_BEGIN
 90
        0
 91
        1
 62
     0
 92
       -2
340
14
 93
        0
 40
0.045
309
GRIDFORMAT_END
 95
       32
302
GRIDFORMAT
  1
GRIDFORMAT_BEGIN
 90
        0
 91
        1
 62
     0
 92
       -2
340
14
 93
        0
 40
0.045
309
GRIDFORMAT_END
309
TABLEFORMAT_END
  1
CELLSTYLE_BEGIN
 90
        3
 91
        2
300
_DATA
309
CELLSTYLE_END
  0
ENDSEC
  0
EOF