0
SECTION
  2
HEADER
  9
$ACADVER
  1
AC1027
  9
$ACADMAINTVER
 70
     8
  9
$DWGCODEPAGE
  3
ANSI_1252
  9
$REQUIREDVERSIONS
160
                 0
  9
$COMMENTS
  1
File was created by Cadenas
  9
$CUSTOMPROPERTYTAG
  1
NN
  9
$CUSTOMPROPERTY
  1
Steel IMPERIAL-HD Piloted Flange 2-7/16 thru 5 Inch Bore
  9
$CUSTOMPROPERTYTAG
  1
NT
  9
$CUSTOMPROPERTY
  1
Steal Imperial Piloted Flange Bearing-Inch-207-500
  9
$CUSTOMPROPERTYTAG
  1
NB
  9
$CUSTOMPROPERTY
  1
072336
  9
$CUSTOMPROPERTYTAG
  1
NBSYN
  9
$CUSTOMPROPERTY
  1
$PN.
  9
$CUSTOMPROPERTYTAG
  1
LINA
  9
$CUSTOMPROPERTY
  1
072336
  9
$CUSTOMPROPERTYTAG
  1
SS
  9
$CUSTOMPROPERTY
  1
4-15/16
  9
$CUSTOMPROPERTYTAG
  1
PN
  9
$CUSTOMPROPERTY
  1
072336
  9
$CUSTOMPROPERTYTAG
  1
TYPE
  9
$CUSTOMPROPERTY
  1
Expansion
  9
$CUSTOMPROPERTYTAG
  1
EF
  9
$CUSTOMPROPERTY
  1
Expansion
  9
$CUSTOMPROPERTYTAG
  1
DESCRIPTION
  9
$CUSTOMPROPERTY
  1
SFC-IP-415RE
  9
$CUSTOMPROPERTYTAG
  1
ST
  9
$CUSTOMPROPERTY
  1
Contact Seal
  9
$CUSTOMPROPERTYTAG
  1
A
  9
$CUSTOMPROPERTY
  1
5.98
  9
$CUSTOMPROPERTYTAG
  1
B
  9
$CUSTOMPROPERTY
  1
14.75
  9
$CUSTOMPROPERTYTAG
  1
C
  9
$CUSTOMPROPERTY
  1
4.64
  9
$CUSTOMPROPERTYTAG
  1
D
  9
$CUSTOMPROPERTY
  1
6.38
  9
$CUSTOMPROPERTYTAG
  1
DD
  9
$CUSTOMPROPERTY
  1
12.750
  9
$CUSTOMPROPERTYTAG
  1
E
  9
$CUSTOMPROPERTY
  1
2.06
  9
$CUSTOMPROPERTYTAG
  1
F
  9
$CUSTOMPROPERTY
  1
0.875
  9
$CUSTOMPROPERTYTAG
  1
G
  9
$CUSTOMPROPERTY
  1
2.98
  9
$CUSTOMPROPERTYTAG
  1
H
  9
$CUSTOMPROPERTY
  1
1.03
  9
$CUSTOMPROPERTYTAG
  1
K
  9
$CUSTOMPROPERTY
  1
11.000
  9
$CUSTOMPROPERTYTAG
  1
L
  9
$CUSTOMPROPERTY
  1
7.54
  9
$CUSTOMPROPERTYTAG
  1
M
  9
$CUSTOMPROPERTY
  1
0.875
  9
$CUSTOMPROPERTYTAG
  1
N
  9
$CUSTOMPROPERTY
  1
6.08
  9
$CUSTOMPROPERTYTAG
  1
P
  9
$CUSTOMPROPERTY
  1
2.88
  9
$CUSTOMPROPERTYTAG
  1
Q
  9
$CUSTOMPROPERTY
  1
3.10
  9
$CUSTOMPROPERTYTAG
  1
X
  9
$CUSTOMPROPERTY
  1
0.38
  9
$CUSTOMPROPERTYTAG
  1
Y
  9
$CUSTOMPROPERTY
  1
0.036
  9
$CUSTOMPROPERTYTAG
  1
Z
  9
$CUSTOMPROPERTY
  1
5.84
  9
$CUSTOMPROPERTYTAG
  1
COMPANY
  9
$CUSTOMPROPERTY
  1
baldor
  9
$INSBASE
 10
0.0
 20
0.0
 30
0.0
  9
$EXTMIN
 10
1.000000000000000E+20
 20
1.000000000000000E+20
 30
1.000000000000000E+20
  9
$EXTMAX
 10
-1.000000000000000E+20
 20
-1.000000000000000E+20
 30
-1.000000000000000E+20
  9
$LIMMIN
 10
0.0
 20
0.0
  9
$LIMMAX
 10
12.0
 20
9.0
  9
$ORTHOMODE
 70
     0
  9
$REGENMODE
 70
     1
  9
$FILLMODE
 70
     1
  9
$QTEXTMODE
 70
     0
  9
$MIRRTEXT
 70
     1
  9
$LTSCALE
 40
1.0
  9
$ATTMODE
 70
     1
  9
$TEXTSIZE
 40
0.2
  9
$TRACEWID
 40
0.05
  9
$TEXTSTYLE
  7
Standard
  9
$CLAYER
  8
0
  9
$CELTYPE
  6
ByLayer
  9
$CECOLOR
 62
   256
  9
$CELTSCALE
 40
1.0
  9
$DISPSILH
 70
     0
  9
$DIMSCALE
 40
1.0
  9
$DIMASZ
 40
0.18
  9
$DIMEXO
 40
0.0625
  9
$DIMDLI
 40
0.38
  9
$DIMRND
 40
0.0
  9
$DIMDLE
 40
0.0
  9
$DIMEXE
 40
0.18
  9
$DIMTP
 40
0.0
  9
$DIMTM
 40
0.0
  9
$DIMTXT
 40
0.18
  9
$DIMCEN
 40
0.09
  9
$DIMTSZ
 40
0.0
  9
$DIMTOL
 70
     0
  9
$DIMLIM
 70
     0
  9
$DIMTIH
 70
     1
  9
$DIMTOH
 70
     1
  9
$DIMSE1
 70
     0
  9
$DIMSE2
 70
     0
  9
$DIMTAD
 70
     0
  9
$DIMZIN
 70
     0
  9
$DIMBLK
  1

  9
$DIMASO
 70
     1
  9
$DIMSHO
 70
     1
  9
$DIMPOST
  1

  9
$DIMAPOST
  1

  9
$DIMALT
 70
     0
  9
$DIMALTD
 70
     2
  9
$DIMALTF
 40
25.4
  9
$DIMLFAC
 40
1.0
  9
$DIMTOFL
 70
     0
  9
$DIMTVP
 40
0.0
  9
$DIMTIX
 70
     0
  9
$DIMSOXD
 70
     0
  9
$DIMSAH
 70
     0
  9
$DIMBLK1
  1

  9
$DIMBLK2
  1

  9
$DIMSTYLE
  2
Standard
  9
$DIMCLRD
 70
     0
  9
$DIMCLRE
 70
     0
  9
$DIMCLRT
 70
     0
  9
$DIMTFAC
 40
1.0
  9
$DIMGAP
 40
0.09
  9
$DIMJUST
 70
     0
  9
$DIMSD1
 70
     0
  9
$DIMSD2
 70
     0
  9
$DIMTOLJ
 70
     1
  9
$DIMTZIN
 70
     0
  9
$DIMALTZ
 70
     0
  9
$DIMALTTZ
 70
     0
  9
$DIMUPT
 70
     0
  9
$DIMDEC
 70
     4
  9
$DIMTDEC
 70
     4
  9
$DIMALTU
 70
     2
  9
$DIMALTTD
 70
     2
  9
$DIMTXSTY
  7
Standard
  9
$DIMAUNIT
 70
     0
  9
$DIMADEC
 70
     0
  9
$DIMALTRND
 40
0.0
  9
$DIMAZIN
 70
     0
  9
$DIMDSEP
 70
    46
  9
$DIMATFIT
 70
     3
  9
$DIMFRAC
 70
     0
  9
$DIMLDRBLK
  1

  9
$DIMLUNIT
 70
     2
  9
$DIMLWD
 70
    -2
  9
$DIMLWE
 70
    -2
  9
$DIMTMOVE
 70
     0
  9
$DIMFXL
 40
1.0
  9
$DIMFXLON
 70
     0
  9
$DIMJOGANG
 40
0.7853981633974483
  9
$DIMTFILL
 70
     0
  9
$DIMTFILLCLR
 70
     0
  9
$DIMARCSYM
 70
     0
  9
$DIMLTYPE
  6

  9
$DIMLTEX1
  6

  9
$DIMLTEX2
  6

  9
$DIMTXTDIRECTION
 70
     0
  9
$LUNITS
 70
     2
  9
$LUPREC
 70
     4
  9
$SKETCHINC
 40
0.1
  9
$FILLETRAD
 40
0.5
  9
$AUNITS
 70
     0
  9
$AUPREC
 70
     0
  9
$MENU
  1
.
  9
$ELEVATION
 40
0.0
  9
$PELEVATION
 40
0.0
  9
$THICKNESS
 40
0.0
  9
$LIMCHECK
 70
     0
  9
$CHAMFERA
 40
0.0
  9
$CHAMFERB
 40
0.0
  9
$CHAMFERC
 40
0.0
  9
$CHAMFERD
 40
0.0
  9
$SKPOLY
 70
     0
  9
$TDCREATE
 40
2458168.897255799
  9
$TDUCREATE
 40
2458168.855589132
  9
$TDUPDATE
 40
2458168.897255984
  9
$TDUUPDATE
 40
2458168.855589317
  9
$TDINDWG
 40
0.0000000116
  9
$TDUSRTIMER
 40
0.0000000116
  9
$USRTIMER
 70
     1
  9
$ANGBASE
 50
0.0
  9
$ANGDIR
 70
     0
  9
$PDMODE
 70
     0
  9
$PDSIZE
 40
0.0
  9
$PLINEWID
 40
0.0
  9
$SPLFRAME
 70
     0
  9
$SPLINETYPE
 70
     6
  9
$SPLINESEGS
 70
     8
  9
$HANDSEED
  5
24D
  9
$SURFTAB1
 70
     6
  9
$SURFTAB2
 70
     6
  9
$SURFTYPE
 70
     6
  9
$SURFU
 70
     6
  9
$SURFV
 70
     6
  9
$UCSBASE
  2

  9
$UCSNAME
  2

  9
$UCSORG
 10
0.0
 20
0.0
 30
0.0
  9
$UCSXDIR
 10
1.0
 20
0.0
 30
0.0
  9
$UCSYDIR
 10
0.0
 20
1.0
 30
0.0
  9
$UCSORTHOREF
  2

  9
$UCSORTHOVIEW
 70
     0
  9
$UCSORGTOP
 10
0.0
 20
0.0
 30
0.0
  9
$UCSORGBOTTOM
 10
0.0
 20
0.0
 30
0.0
  9
$UCSORGLEFT
 10
0.0
 20
0.0
 30
0.0
  9
$UCSORGRIGHT
 10
0.0
 20
0.0
 30
0.0
  9
$UCSORGFRONT
 10
0.0
 20
0.0
 30
0.0
  9
$UCSORGBACK
 10
0.0
 20
0.0
 30
0.0
  9
$PUCSBASE
  2

  9
$PUCSNAME
  2

  9
$PUCSORG
 10
0.0
 20
0.0
 30
0.0
  9
$PUCSXDIR
 10
1.0
 20
0.0
 30
0.0
  9
$PUCSYDIR
 10
0.0
 20
1.0
 30
0.0
  9
$PUCSORTHOREF
  2

  9
$PUCSORTHOVIEW
 70
     0
  9
$PUCSORGTOP
 10
0.0
 20
0.0
 30
0.0
  9
$PUCSORGBOTTOM
 10
0.0
 20
0.0
 30
0.0
  9
$PUCSORGLEFT
 10
0.0
 20
0.0
 30
0.0
  9
$PUCSORGRIGHT
 10
0.0
 20
0.0
 30
0.0
  9
$PUCSORGFRONT
 10
0.0
 20
0.0
 30
0.0
  9
$PUCSORGBACK
 10
0.0
 20
0.0
 30
0.0
  9
$USERI1
 70
     0
  9
$USERI2
 70
     0
  9
$USERI3
 70
     0
  9
$USERI4
 70
     0
  9
$USERI5
 70
     0
  9
$USERR1
 40
0.0
  9
$USERR2
 40
0.0
  9
$USERR3
 40
0.0
  9
$USERR4
 40
0.0
  9
$USERR5
 40
0.0
  9
$WORLDVIEW
 70
     1
  9
$SHADEDGE
 70
     3
  9
$SHADEDIF
 70
    70
  9
$TILEMODE
 70
     1
  9
$MAXACTVP
 70
    64
  9
$PINSBASE
 10
0.0
 20
0.0
 30
0.0
  9
$PLIMCHECK
 70
     0
  9
$PEXTMIN
 10
1.000000000000000E+20
 20
1.000000000000000E+20
 30
1.000000000000000E+20
  9
$PEXTMAX
 10
-1.000000000000000E+20
 20
-1.000000000000000E+20
 30
-1.000000000000000E+20
  9
$PLIMMIN
 10
0.0
 20
0.0
  9
$PLIMMAX
 10
12.0
 20
9.0
  9
$UNITMODE
 70
     0
  9
$VISRETAIN
 70
     1
  9
$PLINEGEN
 70
     0
  9
$PSLTSCALE
 70
     1
  9
$TREEDEPTH
 70
  3020
  9
$CMLSTYLE
  2
Standard
  9
$CMLJUST
 70
     0
  9
$CMLSCALE
 40
1.0
  9
$PROXYGRAPHICS
 70
     1
  9
$MEASUREMENT
 70
     0
  9
$CELWEIGHT
370
    -1
  9
$ENDCAPS
280
     0
  9
$JOINSTYLE
280
     0
  9
$LWDISPLAY
290
     0
  9
$INSUNITS
 70
     1
  9
$HYPERLINKBASE
  1

  9
$STYLESHEET
  1

  9
$XEDIT
290
     1
  9
$CEPSNTYPE
380
     0
  9
$PSTYLEMODE
290
     1
  9
$FINGERPRINTGUID
  2
{CF7DE151-03FC-4B3B-B706-7690F0240771}
  9
$VERSIONGUID
  2
{FAEB1C32-E019-11D5-929B-00C0DF256EC4}
  9
$EXTNAMES
290
     1
  9
$PSVPSCALE
 40
0.0
  9
$OLESTARTUP
290
     0
  9
$SORTENTS
280
   127
  9
$INDEXCTL
280
     0
  9
$HIDETEXT
280
     1
  9
$XCLIPFRAME
280
     2
  9
$HALOGAP
280
     0
  9
$OBSCOLOR
 70
   257
  9
$OBSLTYPE
280
     0
  9
$INTERSECTIONDISPLAY
280
     0
  9
$INTERSECTIONCOLOR
 70
   257
  9
$DIMASSOC
280
     2
  9
$PROJECTNAME
  1

  9
$CAMERADISPLAY
290
     0
  9
$LENSLENGTH
 40
50.0
  9
$CAMERAHEIGHT
 40
0.0
  9
$STEPSPERSEC
 40
2.0
  9
$STEPSIZE
 40
6.0
  9
$3DDWFPREC
 40
2.0
  9
$PSOLWIDTH
 40
0.25
  9
$PSOLHEIGHT
 40
4.0
  9
$LOFTANG1
 40
1.570796326794897
  9
$LOFTANG2
 40
1.570796326794897
  9
$LOFTMAG1
 40
0.0
  9
$LOFTMAG2
 40
0.0
  9
$LOFTPARAM
 70
     7
  9
$LOFTNORMALS
280
     1
  9
$LATITUDE
 40
37.795
  9
$LONGITUDE
 40
-122.394
  9
$NORTHDIRECTION
 40
0.0
  9
$TIMEZONE
 70
 -8000
  9
$LIGHTGLYPHDISPLAY
280
     1
  9
$TILEMODELIGHTSYNCH
280
     1
  9
$CMATERIAL
347
44
  9
$SOLIDHIST
280
     0
  9
$SHOWHIST
280
     1
  9
$DWFFRAME
280
     2
  9
$DGNFRAME
280
     2
  9
$REALWORLDSCALE
290
     1
  9
$INTERFERECOLOR
 62
   256
  9
$CSHADOW
280
     0
  9
$SHADOWPLANELOCATION
 40
0.0
  0
ENDSEC
  0
SECTION
  2
CLASSES
  0
CLASS
  1
ACDBDICTIONARYWDFLT
  2
AcDbDictionaryWithDefault
  3
ObjectDBX Classes
 90
        0
 91
        4
280
     0
281
     0
  0
CLASS
  1
VISUALSTYLE
  2
AcDbVisualStyle
  3
ObjectDBX Classes
 90
     4095
 91
        4
280
     0
281
     0
  0
CLASS
  1
MATERIAL
  2
AcDbMaterial
  3
ObjectDBX Classes
 90
     1153
 91
        4
280
     0
281
     0
  0
CLASS
  1
SCALE
  2
AcDbScale
  3
ObjectDBX Classes
 90
     1153
 91
        4
280
     0
281
     0
  0
CLASS
  1
TABLESTYLE
  2
AcDbTableStyle
  3
ObjectDBX Classes
 90
     4095
 91
        4
280
     0
281
     0
  0
CLASS
  1
MLEADERSTYLE
  2
AcDbMLeaderStyle
  3
ACDB_MLEADERSTYLE_CLASS
 90
     4095
 91
        4
280
     0
281
     0
  0
CLASS
  1
SUN
  2
AcDbSun
  3
SCENEOE
 90
     1153
 91
        4
280
     0
281
     0
  0
CLASS
  1
DICTIONARYVAR
  2
AcDbDictionaryVar
  3
ObjectDBX Classes
 90
        0
 91
        4
280
     0
281
     0
  0
CLASS
  1
CELLSTYLEMAP
  2
AcDbCellStyleMap
  3
ObjectDBX Classes
 90
     1152
 91
        4
280
     0
281
     0
  0
ENDSEC
  0
SECTION
  2
TABLES
  0
TABLE
  2
VPORT
  5
8
330
0
100
AcDbSymbolTable
 70
     1
  0
VPORT
  5
29
330
8
100
AcDbSymbolTableRecord
100
AcDbViewportTableRecord
  2
*Active
 70
     0
 10
0.0
 20
0.0
 11
1.0
 21
1.0
 12
0.0
 22
0.0
 13
0.0
 23
0.0
 14
0.5
 24
0.5
 15
0.5
 25
0.5
 16
0.0
 26
0.0
 36
1.0
 17
0.0
 27
0.0000000000000018
 37
0.0
 40
10.41215999999999
 41
1.444945141065831
 42
50.0
 43
0.0
 44
0.0
 50
0.0
 51
0.0
 71
     0
 72
   100
 73
     1
 74
     3
 75
     0
 76
     0
 77
     0
 78
     0
281
     0
 65
     1
110
0.0
120
0.0
130
0.0
111
1.0
121
0.0
131
0.0
112
0.0
122
1.0
132
0.0
 79
     0
146
0.0
348
2F
 60
     3
 61
     5
292
     1
282
     1
141
0.0
142
0.0
 63
   250
361
6D
  0
ENDTAB
  0
TABLE
  2
LTYPE
  5
5
330
0
100
AcDbSymbolTable
 70
     3
  0
LTYPE
  5
14
330
5
100
AcDbSymbolTableRecord
100
AcDbLinetypeTableRecord
  2
ByBlock
 70
     0
  3

 72
    65
 73
     0
 40
0.0
  0
LTYPE
  5
15
330
5
100
AcDbSymbolTableRecord
100
AcDbLinetypeTableRecord
  2
ByLayer
 70
     0
  3

 72
    65
 73
     0
 40
0.0
  0
LTYPE
  5
16
330
5
100
AcDbSymbolTableRecord
100
AcDbLinetypeTableRecord
  2
Continuous
 70
     0
  3
Solid line
 72
    65
 73
     0
 40
0.0
  0
LTYPE
  5
9D
330
5
100
AcDbSymbolTableRecord
100
AcDbLinetypeTableRecord
  2
Dashed
 70
     0
  3

 72
    65
 73
     2
 40
2.0
 49
1.0
 74
     0
 49
-1.0
 74
     0
  0
LTYPE
  5
21E
330
5
100
AcDbSymbolTableRecord
100
AcDbLinetypeTableRecord
  2
Center
 70
     0
  3

 72
    65
 73
     4
 40
1.5
 49
0.45
 74
     0
 49
-0.5
 74
     0
 49
0.05
 74
     0
 49
-0.5
 74
     0
  0
ENDTAB
  0
TABLE
  2
LAYER
  5
2
330
0
100
AcDbSymbolTable
 70
     7
  0
LAYER
  5
10
330
2
100
AcDbSymbolTableRecord
100
AcDbLayerTableRecord
  2
0
 70
     0
 62
     7
  6
Continuous
370
    -3
390
F
347
46
348
0
  0
LAYER
  5
72
330
2
100
AcDbSymbolTableRecord
100
AcDbLayerTableRecord
  2
AM_6
 70
     0
 62
    -2
  6
Continuous
370
    35
390
F
347
46
348
0
  0
LAYER
  5
9E
330
2
100
AcDbSymbolTableRecord
100
AcDbLayerTableRecord
  2
AM_9
 70
     0
 62
     6
  6
Dashed
370
    25
390
F
347
46
348
0
  0
LAYER
  5
BD
330
2
100
AcDbSymbolTableRecord
100
AcDbLayerTableRecord
  2
AM_4
 70
     0
 62
     7
  6
Continuous
370
    50
390
F
347
46
348
0
  0
LAYER
  5
ED
330
2
100
AcDbSymbolTableRecord
100
AcDbLayerTableRecord
  2
AM_5
 70
     0
 62
     3
  6
Continuous
370
    25
390
F
347
46
348
0
  0
LAYER
  5
21F
330
2
100
AcDbSymbolTableRecord
100
AcDbLayerTableRecord
  2
AM_7
 70
     0
 62
     7
  6
Center
370
    25
390
F
347
46
348
0
  0
LAYER
  5
235
330
2
100
AcDbSymbolTableRecord
100
AcDbLayerTableRecord
  2
ConnectionPoints
 70
     0
 62
     7
  6
Continuous
370
    50
390
F
347
46
348
0
  0
ENDTAB
  0
TABLE
  2
STYLE
  5
3
330
0
100
AcDbSymbolTable
 70
     1
  0
STYLE
  5
11
330
3
100
AcDbSymbolTableRecord
100
AcDbTextStyleTableRecord
  2
Standard
 70
     0
 40
0.0
 41
1.0
 50
0.0
 71
     0
 42
0.2
  3
txt
  4

  0
ENDTAB
  0
TABLE
  2
VIEW
  5
6
330
0
100
AcDbSymbolTable
 70
     0
  0
ENDTAB
  0
TABLE
  2
UCS
  5
7
330
0
100
AcDbSymbolTable
 70
     0
  0
ENDTAB
  0
TABLE
  2
APPID
  5
9
330
0
100
AcDbSymbolTable
 70
     1
  0
APPID
  5
12
330
9
100
AcDbSymbolTableRecord
100
AcDbRegAppTableRecord
  2
ACAD
 70
     0
  0
ENDTAB
  0
TABLE
  2
DIMSTYLE
  5
A
330
0
100
AcDbSymbolTable
 70
     1
100
AcDbDimStyleTable
  0
DIMSTYLE
105
27
330
A
100
AcDbSymbolTableRecord
100
AcDbDimStyleTableRecord
  2
Standard
 70
     0
178
     0
340
11
  0
ENDTAB
  0
TABLE
  2
BLOCK_RECORD
  5
1
330
0
100
AcDbSymbolTable
 70
     8
  0
BLOCK_RECORD
  5
1F
330
1
100
AcDbSymbolTableRecord
100
AcDbBlockTableRecord
  2
*Model_Space
340
22
 70
     0
280
     1
281
     0
  0
BLOCK_RECORD
  5
1B
330
1
100
AcDbSymbolTableRecord
100
AcDbBlockTableRecord
  2
*Paper_Space
340
1E
 70
     0
280
     1
281
     0
  0
BLOCK_RECORD
  5
23
330
1
100
AcDbSymbolTableRecord
100
AcDbBlockTableRecord
  2
*Paper_Space0
340
26
 70
     0
280
     1
281
     0
  0
BLOCK_RECORD
  5
6E
330
1
100
AcDbSymbolTableRecord
100
AcDbBlockTableRecord
  2
1_072336_4
340
0
102
{BLKREFS
331
6F
102
}
 70
     0
280
     1
281
     0
  0
BLOCK_RECORD
  5
91
330
1
100
AcDbSymbolTableRecord
100
AcDbBlockTableRecord
  2
2_405015E_Inch_0_in_072336_4
340
0
102
{BLKREFS
331
92
102
}
 70
     0
280
     1
281
     0
  0
BLOCK_RECORD
  5
DD
330
1
100
AcDbSymbolTableRecord
100
AcDbBlockTableRecord
  2
3_ASME_B18_3_5_16_1_0_in_072336_4
340
0
102
{BLKREFS
331
DE
102
}
 70
     0
280
     1
281
     0
  0
BLOCK_RECORD
  5
F1
330
1
100
AcDbSymbolTableRecord
100
AcDbBlockTableRecord
  2
4_ASME_B18_3_5_16_2_0_in_072336_4
340
0
102
{BLKREFS
331
F2
102
}
 70
     0
280
     1
281
     0
  0
BLOCK_RECORD
  5
11D
330
1
100
AcDbSymbolTableRecord
100
AcDbBlockTableRecord
  2
5_070910LW_0_in_072336_4
340
0
102
{BLKREFS
331
11E
102
}
 70
     0
280
     1
281
     0
  0
BLOCK_RECORD
  5
153
330
1
100
AcDbSymbolTableRecord
100
AcDbBlockTableRecord
  2
6_070910I_0_in_072336_4
340
0
102
{BLKREFS
331
154
102
}
 70
     0
280
     1
281
     0
  0
BLOCK_RECORD
  5
1D2
330
1
100
AcDbSymbolTableRecord
100
AcDbBlockTableRecord
  2
7_B072336_0_in_072336_4
340
0
102
{BLKREFS
331
1D3
102
}
 70
     0
280
     1
281
     0
  0
ENDTAB
  0
ENDSEC
  0
SECTION
  2
BLOCKS
  0
BLOCK
  5
20
330
1F
100
AcDbEntity
  8
0
100
AcDbBlockBegin
  2
*Model_Space
 70
     0
 10
0.0
 20
0.0
 30
0.0
  3
*Model_Space
  1

  0
ENDBLK
  5
21
330
1F
100
AcDbEntity
  8
0
100
AcDbBlockEnd
  0
BLOCK
  5
1C
330
1B
100
AcDbEntity
 67
     1
  8
0
100
AcDbBlockBegin
  2
*Paper_Space
 70
     0
 10
0.0
 20
0.0
 30
0.0
  3
*Paper_Space
  1

  0
ENDBLK
  5
1D
330
1B
100
AcDbEntity
 67
     1
  8
0
100
AcDbBlockEnd
  0
BLOCK
  5
24
330
23
100
AcDbEntity
  8
0
100
AcDbBlockBegin
  2
*Paper_Space0
 70
     0
 10
0.0
 20
0.0
 30
0.0
  3
*Paper_Space0
  1

  0
ENDBLK
  5
25
330
23
100
AcDbEntity
  8
0
100
AcDbBlockEnd
  0
BLOCK
  5
70
330
6E
100
AcDbEntity
  8
0
100
AcDbBlockBegin
  2
1_072336_4
 70
     2
 10
0.0
 20
0.0
 30
0.0
  3
1_072336_4
  1

  0
ATTDEF
  5
73
330
6E
100
AcDbEntity
  8
AM_6
100
AcDbText
 10
12.375
 20
5.103999999999999
 30
0.0
 40
0.5
  1
Steel IMPERIAL-HD Piloted Flange 2-7/16 thru 5 Inch Bore
100
AcDbAttributeDefinition
  3

  2
NN
 70
     8
280
     0
  0
ATTDEF
  5
74
330
6E
100
AcDbEntity
  8
AM_6
100
AcDbText
 10
12.375
 20
4.603999999999999
 30
0.0
 40
0.5
  1
Steal Imperial Piloted Flange Bearing-Inch-207-500
100
AcDbAttributeDefinition
  3

  2
NT
 70
     8
280
     0
  0
ATTDEF
  5
75
330
6E
100
AcDbEntity
  8
AM_6
100
AcDbText
 10
12.375
 20
4.103999999999999
 30
0.0
 40
0.5
  1
072336
100
AcDbAttributeDefinition
  3

  2
NB
 70
     8
280
     0
  0
ATTDEF
  5
76
330
6E
100
AcDbEntity
  8
AM_6
100
AcDbText
 10
12.375
 20
3.603999999999999
 30
0.0
 40
0.5
  1
$PN.
100
AcDbAttributeDefinition
  3

  2
NBSYN
 70
     8
280
     0
  0
ATTDEF
  5
77
330
6E
100
AcDbEntity
  8
AM_6
100
AcDbText
 10
12.375
 20
3.103999999999999
 30
0.0
 40
0.5
  1
072336
100
AcDbAttributeDefinition
  3

  2
LINA
 70
     8
280
     0
  0
ATTDEF
  5
78
330
6E
100
AcDbEntity
  8
AM_6
100
AcDbText
 10
12.375
 20
2.603999999999999
 30
0.0
 40
0.5
  1
4-15/16
100
AcDbAttributeDefinition
  3

  2
SS
 70
     8
280
     0
  0
ATTDEF
  5
79
330
6E
100
AcDbEntity
  8
AM_6
100
AcDbText
 10
12.375
 20
2.103999999999999
 30
0.0
 40
0.5
  1
072336
100
AcDbAttributeDefinition
  3

  2
PN
 70
     8
280
     0
  0
ATTDEF
  5
7A
330
6E
100
AcDbEntity
  8
AM_6
100
AcDbText
 10
12.375
 20
1.603999999999999
 30
0.0
 40
0.5
  1
Expansion
100
AcDbAttributeDefinition
  3

  2
TYPE
 70
     8
280
     0
  0
ATTDEF
  5
7B
330
6E
100
AcDbEntity
  8
AM_6
100
AcDbText
 10
12.375
 20
1.103999999999999
 30
0.0
 40
0.5
  1
Expansion
100
AcDbAttributeDefinition
  3

  2
EF
 70
     8
280
     0
  0
ATTDEF
  5
7C
330
6E
100
AcDbEntity
  8
AM_6
100
AcDbText
 10
12.375
 20
0.6039999999999992
 30
0.0
 40
0.5
  1
SFC-IP-415RE
100
AcDbAttributeDefinition
  3

  2
DESCRIPTION
 70
     8
280
     0
  0
ATTDEF
  5
7D
330
6E
100
AcDbEntity
  8
AM_6
100
AcDbText
 10
12.375
 20
0.1039999999999992
 30
0.0
 40
0.5
  1
Contact Seal
100
AcDbAttributeDefinition
  3

  2
ST
 70
     8
280
     0
  0
ATTDEF
  5
7E
330
6E
100
AcDbEntity
  8
AM_6
100
AcDbText
 10
12.375
 20
-0.3960000000000008
 30
0.0
 40
0.5
  1
5.98
100
AcDbAttributeDefinition
  3

  2
A
 70
     8
280
     0
  0
ATTDEF
  5
7F
330
6E
100
AcDbEntity
  8
AM_6
100
AcDbText
 10
12.375
 20
-0.8960000000000008
 30
0.0
 40
0.5
  1
14.75
100
AcDbAttributeDefinition
  3

  2
B
 70
     8
280
     0
  0
ATTDEF
  5
80
330
6E
100
AcDbEntity
  8
AM_6
100
AcDbText
 10
12.375
 20
-1.396000000000001
 30
0.0
 40
0.5
  1
4.64
100
AcDbAttributeDefinition
  3

  2
C
 70
     8
280
     0
  0
ATTDEF
  5
81
330
6E
100
AcDbEntity
  8
AM_6
100
AcDbText
 10
12.375
 20
-1.896000000000001
 30
0.0
 40
0.5
  1
6.38
100
AcDbAttributeDefinition
  3

  2
D
 70
     8
280
     0
  0
ATTDEF
  5
82
330
6E
100
AcDbEntity
  8
AM_6
100
AcDbText
 10
12.375
 20
-2.396000000000001
 30
0.0
 40
0.5
  1
12.750
100
AcDbAttributeDefinition
  3

  2
DD
 70
     8
280
     0
  0
ATTDEF
  5
83
330
6E
100
AcDbEntity
  8
AM_6
100
AcDbText
 10
12.375
 20
-2.896000000000001
 30
0.0
 40
0.5
  1
2.06
100
AcDbAttributeDefinition
  3

  2
E
 70
     8
280
     0
  0
ATTDEF
  5
84
330
6E
100
AcDbEntity
  8
AM_6
100
AcDbText
 10
12.375
 20
-3.396000000000001
 30
0.0
 40
0.5
  1
0.875
100
AcDbAttributeDefinition
  3

  2
F
 70
     8
280
     0
  0
ATTDEF
  5
85
330
6E
100
AcDbEntity
  8
AM_6
100
AcDbText
 10
12.375
 20
-3.896000000000001
 30
0.0
 40
0.5
  1
2.98
100
AcDbAttributeDefinition
  3

  2
G
 70
     8
280
     0
  0
ATTDEF
  5
86
330
6E
100
AcDbEntity
  8
AM_6
100
AcDbText
 10
12.375
 20
-4.396000000000001
 30
0.0
 40
0.5
  1
1.03
100
AcDbAttributeDefinition
  3

  2
H
 70
     8
280
     0
  0
ATTDEF
  5
87
330
6E
100
AcDbEntity
  8
AM_6
100
AcDbText
 10
12.375
 20
-4.896000000000001
 30
0.0
 40
0.5
  1
11.000
100
AcDbAttributeDefinition
  3

  2
K
 70
     8
280
     0
  0
ATTDEF
  5
88
330
6E
100
AcDbEntity
  8
AM_6
100
AcDbText
 10
12.375
 20
-5.396000000000001
 30
0.0
 40
0.5
  1
7.54
100
AcDbAttributeDefinition
  3

  2
L
 70
     8
280
     0
  0
ATTDEF
  5
89
330
6E
100
AcDbEntity
  8
AM_6
100
AcDbText
 10
12.375
 20
-5.896000000000001
 30
0.0
 40
0.5
  1
0.875
100
AcDbAttributeDefinition
  3

  2
M
 70
     8
280
     0
  0
ATTDEF
  5
8A
330
6E
100
AcDbEntity
  8
AM_6
100
AcDbText
 10
12.375
 20
-6.396000000000001
 30
0.0
 40
0.5
  1
6.08
100
AcDbAttributeDefinition
  3

  2
N
 70
     8
280
     0
  0
ATTDEF
  5
8B
330
6E
100
AcDbEntity
  8
AM_6
100
AcDbText
 10
12.375
 20
-6.896000000000001
 30
0.0
 40
0.5
  1
2.88
100
AcDbAttributeDefinition
  3

  2
P
 70
     8
280
     0
  0
ATTDEF
  5
8C
330
6E
100
AcDbEntity
  8
AM_6
100
AcDbText
 10
12.375
 20
-7.396000000000001
 30
0.0
 40
0.5
  1
3.10
100
AcDbAttributeDefinition
  3

  2
Q
 70
     8
280
     0
  0
ATTDEF
  5
8D
330
6E
100
AcDbEntity
  8
AM_6
100
AcDbText
 10
12.375
 20
-7.896000000000001
 30
0.0
 40
0.5
  1
0.38
100
AcDbAttributeDefinition
  3

  2
X
 70
     8
280
     0
  0
ATTDEF
  5
8E
330
6E
100
AcDbEntity
  8
AM_6
100
AcDbText
 10
12.375
 20
-8.396
 30
0.0
 40
0.5
  1
0.036
100
AcDbAttributeDefinition
  3

  2
Y
 70
     8
280
     0
  0
ATTDEF
  5
8F
330
6E
100
AcDbEntity
  8
AM_6
100
AcDbText
 10
12.375
 20
-8.896
 30
0.0
 40
0.5
  1
5.84
100
AcDbAttributeDefinition
  3

  2
Z
 70
     8
280
     0
  0
ATTDEF
  5
90
330
6E
100
AcDbEntity
  8
AM_6
100
AcDbText
 10
12.375
 20
-9.396
 30
0.0
 40
0.5
  1
baldor
100
AcDbAttributeDefinition
  3

  2
COMPANY
 70
     8
280
     0
  0
INSERT
  5
92
330
6E
100
AcDbEntity
  8
0
100
AcDbBlockReference
  2
2_405015E_Inch_0_in_072336_4
 10
0.0
 20
0.0
 30
0.0
  0
INSERT
  5
DE
330
6E
100
AcDbEntity
  8
0
100
AcDbBlockReference
  2
3_ASME_B18_3_5_16_1_0_in_072336_4
 10
0.0
 20
0.0
 30
0.0
  0
INSERT
  5
F2
330
6E
100
AcDbEntity
  8
0
100
AcDbBlockReference
  2
4_ASME_B18_3_5_16_2_0_in_072336_4
 10
0.0
 20
0.0
 30
0.0
  0
INSERT
  5
11E
330
6E
100
AcDbEntity
  8
0
100
AcDbBlockReference
  2
5_070910LW_0_in_072336_4
 10
0.0
 20
0.0
 30
0.0
  0
INSERT
  5
154
330
6E
100
AcDbEntity
  8
0
100
AcDbBlockReference
  2
6_070910I_0_in_072336_4
 10
0.0
 20
0.0
 30
0.0
  0
INSERT
  5
1D3
330
6E
100
AcDbEntity
  8
0
100
AcDbBlockReference
  2
7_B072336_0_in_072336_4
 10
0.0
 20
0.0
 30
0.0
  0
ENDBLK
  5
71
330
6E
100
AcDbEntity
  8
0
100
AcDbBlockEnd
  0
BLOCK
  5
93
330
91
100
AcDbEntity
  8
0
100
AcDbBlockBegin
  2
2_405015E_Inch_0_in_072336_4
 70
     2
 10
0.0
 20
0.0
 30
0.0
  3
2_405015E_Inch_0_in_072336_4
  1

  0
ATTDEF
  5
95
330
91
100
AcDbEntity
  8
AM_6
100
AcDbText
 10
5.218750000000004
 20
-0.9764823741311393
 30
0.0
 40
0.5
  1
405015E -Inch
100
AcDbAttributeDefinition
  3

  2
NN
 70
     8
280
     0
  0
ATTDEF
  5
96
330
91
100
AcDbEntity
  8
AM_6
100
AcDbText
 10
5.218750000000004
 20
-1.476482374131139
 30
0.0
 40
0.5
  1
Grease Fitting
100
AcDbAttributeDefinition
  3

  2
NT
 70
     8
280
     0
  0
ATTDEF
  5
97
330
91
100
AcDbEntity
  8
AM_6
100
AcDbText
 10
5.218750000000004
 20
-1.976482374131139
 30
0.0
 40
0.5
  1
405015E-Inch
100
AcDbAttributeDefinition
  3

  2
NB
 70
     8
280
     0
  0
ATTDEF
  5
98
330
91
100
AcDbEntity
  8
AM_6
100
AcDbText
 10
5.218750000000004
 20
-2.476482374131139
 30
0.0
 40
0.5
  1
$MN.-Inch
100
AcDbAttributeDefinition
  3

  2
NBSYN
 70
     8
280
     0
  0
ATTDEF
  5
99
330
91
100
AcDbEntity
  8
AM_6
100
AcDbText
 10
5.218750000000004
 20
-2.976482374131139
 30
0.0
 40
0.5
  1
405015E
100
AcDbAttributeDefinition
  3

  2
LINA
 70
     8
280
     0
  0
ATTDEF
  5
9A
330
91
100
AcDbEntity
  8
AM_6
100
AcDbText
 10
5.218750000000004
 20
-3.476482374131139
 30
0.0
 40
0.5
  1
405015E
100
AcDbAttributeDefinition
  3

  2
MN
 70
     8
280
     0
  0
ATTDEF
  5
9B
330
91
100
AcDbEntity
  8
AM_6
100
AcDbText
 10
5.218750000000004
 20
-3.976482374131139
 30
0.0
 40
0.5
  1
1/8 x 27PTF
100
AcDbAttributeDefinition
  3

  2
T
 70
     8
280
     0
  0
ATTDEF
  5
9C
330
91
100
AcDbEntity
  8
AM_6
100
AcDbText
 10
5.218750000000004
 20
-4.476482374131139
 30
0.0
 40
0.5
  1
baldor
100
AcDbAttributeDefinition
  3

  2
COMPANY
 70
     8
280
     0
  0
LWPOLYLINE
  5
9F
330
91
100
AcDbEntity
  8
AM_9
100
AcDbPolyline
 90
        4
 70
     0
 43
0.0
 10
0.109375
 20
-1.364684789679097
 10
0.08203125
 20
-1.371876255364996
 10
0.0546875
 20
-1.380136944025361
 10
0.0
 20
-1.399472819630494
  0
LWPOLYLINE
  5
A0
330
91
100
AcDbEntity
  8
AM_9
100
AcDbPolyline
 90
        4
 70
     0
 43
0.0
 10
0.0
 20
-1.399472819630494
 10
-0.0544416102741496
 20
-1.380215840772445
 10
-0.0818700010907651
 20
-1.371921899217861
 10
-0.109375
 20
-1.364684789679097
  0
LWPOLYLINE
  5
A1
330
91
100
AcDbEntity
  8
AM_9
100
AcDbPolyline
 90
        4
 70
     0
 43
0.0
 10
0.0
 20
-1.473743337942809
 10
0.0544416102741496
 20
-1.466558148331603
 10
0.0818700010907651
 20
-1.461530181750824
 10
0.1093749999999999
 20
-1.455408174774806
  0
LWPOLYLINE
  5
A2
330
91
100
AcDbEntity
  8
AM_9
100
AcDbPolyline
 90
        4
 70
     0
 43
0.0
 10
-0.109375
 20
-1.455408174774806
 10
-0.08203125
 20
-1.461497507368758
 10
-0.0546875
 20
-1.466517616988242
 10
0.0
 20
-1.473743337942809
  0
LWPOLYLINE
  5
A3
330
91
100
AcDbEntity
  8
AM_9
100
AcDbPolyline
 90
        4
 70
     0
 43
0.0
 10
-0.109375
 20
-1.364684789679097
 10
-0.1367187499999999
 20
-1.358595457085146
 10
-0.1640625
 20
-1.353575347465662
 10
-0.21875
 20
-1.346349626511096
  0
LINE
  5
A4
330
91
100
AcDbEntity
  8
AM_9
100
AcDbLine
 10
0.0
 20
-1.473743337942809
 30
0.0
 11
0.0
 21
-1.399472819630494
 31
0.0
  0
LWPOLYLINE
  5
A5
330
91
100
AcDbEntity
  8
AM_9
100
AcDbPolyline
 90
        4
 70
     0
 43
0.0
 10
0.21875
 20
-1.346349626511096
 10
0.1643083897258504
 20
-1.353534816122301
 10
0.1368799989092349
 20
-1.35856278270308
 10
0.109375
 20
-1.364684789679097
  0
LINE
  5
A6
330
91
100
AcDbEntity
  8
AM_9
100
AcDbLine
 10
0.1093750000000001
 20
-1.455408174774806
 30
0.0
 11
0.1204565218457295
 21
-1.452626140353399
 31
0.0
  0
LINE
  5
A7
330
91
100
AcDbEntity
  8
AM_9
100
AcDbLine
 10
-0.1204588922684664
 20
-1.45262552583984
 30
0.0
 11
-0.1093750000000001
 21
-1.455408174774806
 31
0.0
  0
LINE
  5
A8
330
91
100
AcDbEntity
  8
AM_9
100
AcDbLine
 10
-0.1434500859285576
 20
-1.013009089281583
 30
0.0
 11
-0.1759802972833088
 21
-1.039157927012924
 31
0.0
  0
LINE
  5
A9
330
91
100
AcDbEntity
  8
AM_9
100
AcDbLine
 10
0.1759802972833088
 20
-1.039157927012924
 30
0.0
 11
0.1434500859285576
 21
-1.013009089281583
 31
0.0
  0
LINE
  5
AA
330
91
100
AcDbEntity
  8
AM_9
100
AcDbLine
 10
-0.1985967766390722
 20
-1.076681400368329
 30
0.0
 11
-0.2057302981516636
 21
-1.283746022334015
 31
0.0
  0
LINE
  5
AB
330
91
100
AcDbEntity
  8
AM_9
100
AcDbLine
 10
0.2057302981516636
 20
-1.283746022334015
 30
0.0
 11
0.1985967766390722
 21
-1.076681400368329
 31
0.0
  0
LINE
  5
AC
330
91
100
AcDbEntity
  8
AM_9
100
AcDbLine
 10
0.1029063101937192
 20
-1.479758739949119
 30
0.0
 11
0.105
 21
-1.475415027399415
 31
0.0
  0
LINE
  5
AD
330
91
100
AcDbEntity
  8
AM_9
100
AcDbLine
 10
-0.105
 20
-1.475415027399415
 30
0.0
 11
-0.1029063101937192
 21
-1.479758739949119
 31
0.0
  0
ELLIPSE
  5
AE
330
91
100
AcDbEntity
  8
AM_9
100
AcDbEllipse
 10
-0.0000000000000006
 20
-1.470982939446203
 30
0.0
 11
-0.1049999999999991
 21
1.285879139104710E-17
 31
0.0
210
0.0
220
0.0
230
1.0
 40
0.420626603625566
 41
0.0
 42
3.141592653589793
  0
LINE
  5
AF
330
91
100
AcDbEntity
  8
AM_9
100
AcDbLine
 10
-0.105
 20
-1.493010049248726
 30
0.0
 11
-0.105
 21
-1.498199954974916
 31
0.0
  0
LINE
  5
B0
330
91
100
AcDbEntity
  8
AM_9
100
AcDbLine
 10
0.105
 20
-1.498199954974916
 30
0.0
 11
0.105
 21
-1.493010049248726
 31
0.0
  0
ELLIPSE
  5
B1
330
91
100
AcDbEntity
  8
AM_9
100
AcDbEllipse
 10
0.0000000000000001
 20
-1.498199954974917
 30
0.0
 11
-0.1050000000000003
 21
1.564621938212800E-9
 31
0.0
210
0.0
220
0.0
230
1.0
 40
0.4206266036255527
 41
6.049238975515332
 42
9.658724360151929
  0
ELLIPSE
  5
B2
330
91
100
AcDbEntity
  8
AM_9
100
AcDbEllipse
 10
0.0000000000000002
 20
-1.441727479790876
 30
0.0
 11
-0.1188200907348981
 21
1.455126437928911E-17
 31
0.0
210
0.0
220
0.0
230
1.0
 40
0.4206266036255633
 41
0.200032618204375
 42
2.941560035385417
  0
LINE
  5
B3
330
91
100
AcDbEntity
  8
AM_9
100
AcDbLine
 10
0.1056562273075187
 20
-1.464592610395479
 30
0.0
 11
0.1131821446036039
 21
-1.458439788712408
 31
0.0
  0
LINE
  5
B4
330
91
100
AcDbEntity
  8
AM_9
100
AcDbLine
 10
-0.1131821446036039
 20
-1.458439788712409
 30
0.0
 11
-0.1056562273075187
 21
-1.464592610395479
 31
0.0
  0
ELLIPSE
  5
B5
330
91
100
AcDbEntity
  8
AM_9
100
AcDbEllipse
 10
-0.0000000000000015
 20
-1.392342274900551
 30
0.0
 11
-0.1725340532830125
 21
2.112932760969602E-17
 31
0.0
210
0.0
220
0.0
230
1.0
 40
0.4206266036255652
 41
0.4751768998195711
 42
2.666415753770231
  0
ELLIPSE
  5
B6
330
91
100
AcDbEntity
  8
AM_9
100
AcDbEllipse
 10
-0.0000000000034284
 20
-1.375723385101496
 30
0.0
 11
-0.2187499999933395
 21
3.259629037844073E-9
 31
0.0
210
0.0
220
0.0
230
1.0
 40
0.4206266036122874
 41
0.9880092193705572
 42
2.153583464444476
  0
ELLIPSE
  5
B7
330
91
100
AcDbEntity
  8
AM_9
100
AcDbEllipse
 10
-0.0000000000000178
 20
-1.375723385095715
 30
0.0
 11
-0.2137500000000347
 21
2.617682533177893E-17
 31
0.0
210
0.0
220
0.0
230
1.0
 40
0.4206266036254865
 41
0.9447954126305946
 42
2.196797240959334
  0
ELLIPSE
  5
B8
330
91
100
AcDbEntity
  8
AM_9
100
AcDbEllipse
 10
0.000000000000001
 20
-1.552633986032342
 30
0.0
 11
-0.1349999999999989
 21
1.653273178848914E-17
 31
0.0
210
0.0
220
0.0
230
1.0
 40
0.4206266036255608
 41
0.1884344120555541
 42
2.953158241534235
  0
ELLIPSE
  5
B9
330
91
100
AcDbEntity
  8
AM_9
100
AcDbEllipse
 10
-0.0000000000000011
 20
-1.044583029496372
 30
0.0
 11
-0.1619028724722697
 21
1.982738345459272E-17
 31
0.0
210
0.0
220
0.0
230
1.0
 40
0.4206266036255588
 41
0.0
 42
6.283185307179586
  0
ELLIPSE
  5
BA
330
91
100
AcDbEntity
  8
AM_9
100
AcDbEllipse
 10
0.0
 20
-1.285000000000004
 30
0.0
 11
-0.2187500000000039
 21
2.678914873134883E-17
 31
0.0
210
0.0
220
0.0
230
1.0
 40
0.4206266036255659
 41
0.0
 42
6.283185307179586
  0
ELLIPSE
  5
BB
330
91
100
AcDbEntity
  8
AM_9
100
AcDbEllipse
 10
0.0000000000000002
 20
-1.285000000000001
 30
0.0
 11
-0.2057518972230694
 21
2.519734023527272E-17
 31
0.0
210
0.0
220
0.0
230
1.0
 40
0.4206266036255566
 41
0.0
 42
6.283185307179586
  0
ELLIPSE
  5
BC
330
91
100
AcDbEntity
  8
AM_9
100
AcDbEllipse
 10
-0.0000000000000002
 20
-1.07789189743502
 30
0.0
 11
-0.1986176267812156
 21
2.959633296930012E-9
 31
0.0
210
0.0
220
0.0
230
1.0
 40
0.4206266036255609
 41
0.0
 42
6.283185307179586
  0
LWPOLYLINE
  5
BE
330
91
100
AcDbEntity
  8
AM_4
100
AcDbPolyline
 90
        4
 70
     0
 43
0.0
 10
0.1204565218457295
 20
-1.452626140353399
 10
0.1367187499999999
 20
-1.448216709088908
 10
0.1640625
 20
-1.439956020428543
 10
0.21875
 20
-1.420620144823411
  0
LWPOLYLINE
  5
BF
330
91
100
AcDbEntity
  8
AM_4
100
AcDbPolyline
 90
        4
 70
     0
 43
0.0
 10
-0.21875
 20
-1.420620144823411
 10
-0.1643083897258504
 20
-1.439877123681459
 10
-0.1368799989092349
 20
-1.448171065236044
 10
-0.1204588922684664
 20
-1.45262552583984
  0
LINE
  5
C0
330
91
100
AcDbEntity
  8
AM_4
100
AcDbLine
 10
0.105
 20
-1.475415027399415
 30
0.0
 11
0.1164508296610593
 21
-1.451658350381617
 31
0.0
  0
LINE
  5
C1
330
91
100
AcDbEntity
  8
AM_4
100
AcDbLine
 10
-0.1164508296610593
 20
-1.451658350381617
 30
0.0
 11
-0.105
 21
-1.475415027399415
 31
0.0
  0
ELLIPSE
  5
C2
330
91
100
AcDbEntity
  8
AM_4
100
AcDbEllipse
 10
0.0
 20
-1.441727479790876
 30
0.0
 11
-0.118820090734898
 21
1.455126437928909E-17
 31
0.0
210
0.0
220
0.0
230
1.0
 40
0.4206266036255581
 41
2.941560035385419
 42
6.483217925383959
  0
LINE
  5
C3
330
91
100
AcDbEntity
  8
AM_4
100
AcDbLine
 10
-0.105
 20
-1.470982939446204
 30
0.0
 11
-0.105
 21
-1.493010049248726
 31
0.0
  0
LINE
  5
C4
330
91
100
AcDbEntity
  8
AM_4
100
AcDbLine
 10
0.105
 20
-1.493010049248726
 30
0.0
 11
0.105
 21
-1.470982939446204
 31
0.0
  0
ELLIPSE
  5
C5
330
91
100
AcDbEntity
  8
AM_4
100
AcDbEllipse
 10
0.0
 20
-1.470982939446204
 30
0.0
 11
-0.105
 21
1.285879139104721E-17
 31
0.0
210
0.0
220
0.0
230
1.0
 40
0.4206266036255623
 41
3.141592653589793
 42
6.283185307179586
  0
LINE
  5
C6
330
91
100
AcDbEntity
  8
AM_4
100
AcDbLine
 10
0.1131821446036039
 20
-1.458439788712408
 30
0.0
 11
0.1534193168782344
 21
-1.425543845759971
 31
0.0
  0
LINE
  5
C7
330
91
100
AcDbEntity
  8
AM_4
100
AcDbLine
 10
-0.1534193168782344
 20
-1.425543845759971
 30
0.0
 11
-0.1131821446036039
 21
-1.458439788712409
 31
0.0
  0
ELLIPSE
  5
C8
330
91
100
AcDbEntity
  8
AM_4
100
AcDbEllipse
 10
0.0
 20
-1.39234227490055
 30
0.0
 11
-0.1725340532830158
 21
2.112932760969642E-17
 31
0.0
210
0.0
220
0.0
230
1.0
 40
0.4206266036255599
 41
2.666415753770218
 42
6.758362206999158
  0
ELLIPSE
  5
C9
330
91
100
AcDbEntity
  8
AM_4
100
AcDbEllipse
 10
0.0000000000000022
 20
-1.375723385095713
 30
0.0
 11
-0.2187499999999977
 21
3.259629037943288E-9
 31
0.0
210
0.0
220
0.0
230
1.0
 40
0.4206266036255503
 41
2.153583464411278
 42
7.271194526557153
  0
ELLIPSE
  5
CA
330
91
100
AcDbEntity
  8
AM_4
100
AcDbEllipse
 10
0.0
 20
-1.37572338509571
 30
0.0
 11
-0.2137499999999995
 21
3.185123231361754E-9
 31
0.0
210
0.0
220
0.0
230
1.0
 40
0.4206266036255589
 41
2.196797257236857
 42
7.227980736087605
  0
LINE
  5
CB
330
91
100
AcDbEntity
  8
AM_4
100
AcDbLine
 10
-0.1021397089511621
 20
-1.487961521054849
 30
0.0
 11
-0.1313224829372084
 21
-1.539470285277969
 31
0.0
  0
LINE
  5
CC
330
91
100
AcDbEntity
  8
AM_4
100
AcDbLine
 10
0.1313224829372084
 20
-1.539470285277969
 30
0.0
 11
0.1021397089511621
 21
-1.487961521054849
 31
0.0
  0
ELLIPSE
  5
CD
330
91
100
AcDbEntity
  8
AM_4
100
AcDbEllipse
 10
0.0
 20
-1.552633986032342
 30
0.0
 11
-0.1350000000000002
 21
1.653273178848930E-17
 31
0.0
210
0.0
220
0.0
230
1.0
 40
0.4206266036255633
 41
2.953158241534243
 42
6.471619719235137
  0
ELLIPSE
  5
CE
330
91
100
AcDbEntity
  8
AM_4
100
AcDbEllipse
 10
0.0
 20
-1.498199954974916
 30
0.0
 11
-0.1049999999999992
 21
1.285879139104711E-17
 31
0.0
210
0.0
220
0.0
230
1.0
 40
0.4206266036255676
 41
3.375539019113162
 42
6.049238941656215
  0
LINE
  5
CF
330
91
100
AcDbEntity
  8
AM_4
100
AcDbLine
 10
-0.21875
 20
-1.420620144823411
 30
0.0
 11
-0.21875
 21
-1.240103240272299
 31
0.0
  0
LWPOLYLINE
  5
D0
330
91
100
AcDbEntity
  8
AM_4
100
AcDbPolyline
 90
        4
 70
     0
 43
0.0
 10
-0.109375
 20
-1.296038595416612
 10
-0.13671875
 20
-1.302127928010564
 10
-0.1640625
 20
-1.307148037630048
 10
-0.21875
 20
-1.314373758584614
  0
LWPOLYLINE
  5
D1
330
91
100
AcDbEntity
  8
AM_4
100
AcDbPolyline
 90
        4
 70
     0
 43
0.0
 10
-0.109375
 20
-1.205315210320903
 10
-0.08203125
 20
-1.199225877726952
 10
-0.0546875
 20
-1.194205768107468
 10
0.0
 20
-1.186980047152902
  0
LWPOLYLINE
  5
D2
330
91
100
AcDbEntity
  8
AM_4
100
AcDbPolyline
 90
        4
 70
     0
 43
0.0
 10
-0.21875
 20
-1.240103240272299
 10
-0.1643083897258504
 20
-1.220846261414251
 10
-0.1368799989092349
 20
-1.212552319859667
 10
-0.109375
 20
-1.205315210320903
  0
LINE
  5
D3
330
91
100
AcDbEntity
  8
AM_4
100
AcDbLine
 10
0.0
 20
-1.261250565465217
 30
0.0
 11
0.0
 21
-1.186980047152902
 31
0.0
  0
LWPOLYLINE
  5
D4
330
91
100
AcDbEntity
  8
AM_4
100
AcDbPolyline
 90
        4
 70
     0
 43
0.0
 10
0.21875
 20
-1.314373758584614
 10
0.1643083897258504
 20
-1.307188568973409
 10
0.1368799989092348
 20
-1.30216060239263
 10
0.1093749999999999
 20
-1.296038595416612
  0
LINE
  5
D5
330
91
100
AcDbEntity
  8
AM_4
100
AcDbLine
 10
0.21875
 20
-1.420620144823411
 30
0.0
 11
0.21875
 21
-1.240103240272299
 31
0.0
  0
LWPOLYLINE
  5
D6
330
91
100
AcDbEntity
  8
AM_4
100
AcDbPolyline
 90
        4
 70
     0
 43
0.0
 10
0.109375
 20
-1.205315210320903
 10
0.1367187499999999
 20
-1.212506676006802
 10
0.1640625
 20
-1.220767364667167
 10
0.21875
 20
-1.240103240272299
  0
LWPOLYLINE
  5
D7
330
91
100
AcDbEntity
  8
AM_4
100
AcDbPolyline
 90
        4
 70
     0
 43
0.0
 10
0.0
 20
-1.186980047152902
 10
0.0544416102741496
 20
-1.194165236764107
 10
0.0818700010907651
 20
-1.199193203344886
 10
0.109375
 20
-1.205315210320903
  0
LWPOLYLINE
  5
D8
330
91
100
AcDbEntity
  8
AM_4
100
AcDbPolyline
 90
        4
 70
     0
 43
0.0
 10
0.1093749999999999
 20
-1.296038595416612
 10
0.0820312499999999
 20
-1.288847129730714
 10
0.0546874999999999
 20
-1.280586441070349
 10
0.0
 20
-1.261250565465217
  0
LWPOLYLINE
  5
D9
330
91
100
AcDbEntity
  8
AM_4
100
AcDbPolyline
 90
        4
 70
     0
 43
0.0
 10
0.0
 20
-1.261250565465217
 10
-0.0544416102741496
 20
-1.280507544323265
 10
-0.0818700010907651
 20
-1.28880148587785
 10
-0.109375
 20
-1.296038595416612
  0
LINE
  5
DA
330
91
100
AcDbEntity
  8
AM_4
100
AcDbLine
 10
0.1008603702784631
 20
-1.633302922288891
 30
0.0
 11
0.1326103254082125
 21
-1.563270946699967
 31
0.0
  0
LINE
  5
DB
330
91
100
AcDbEntity
  8
AM_4
100
AcDbLine
 10
-0.1326103254082125
 20
-1.563270946699967
 30
0.0
 11
-0.1008603702784631
 21
-1.633302922288891
 31
0.0
  0
ELLIPSE
  5
DC
330
91
100
AcDbEntity
  8
AM_4
100
AcDbEllipse
 10
-0.0000000000000005
 20
-1.625212694108908
 30
0.0
 11
-0.1026779019331882
 21
1.257441639456448E-17
 31
0.0
210
0.0
220
0.0
230
1.0
 40
0.4206266036255578
 41
0.0
 42
6.283185307179586
  0
ENDBLK
  5
94
330
91
100
AcDbEntity
  8
0
100
AcDbBlockEnd
  0
BLOCK
  5
DF
330
DD
100
AcDbEntity
  8
0
100
AcDbBlockBegin
  2
3_ASME_B18_3_5_16_1_0_in_072336_4
 70
     2
 10
0.0
 20
0.0
 30
0.0
  3
3_ASME_B18_3_5_16_1_0_in_072336_4
  1

  0
ATTDEF
  5
E1
330
DD
100
AcDbEntity
  8
AM_6
100
AcDbText
 10
5.15625
 20
-1.434000333333334
 30
0.0
 40
0.5
  1
ANSI/ASME-B18.3-1998
100
AcDbAttributeDefinition
  3

  2
NN
 70
     8
280
     0
  0
ATTDEF
  5
E2
330
DD
100
AcDbEntity
  8
AM_6
100
AcDbText
 10
5.15625
 20
-1.934000333333334
 30
0.0
 40
0.5
  1
Socket Button Head Cap Screws
100
AcDbAttributeDefinition
  3

  2
NT
 70
     8
280
     0
  0
ATTDEF
  5
E3
330
DD
100
AcDbEntity
  8
AM_6
100
AcDbText
 10
5.15625
 20
-2.434000333333334
 30
0.0
 40
0.5
  1
ASME-B18.3-5/16
100
AcDbAttributeDefinition
  3

  2
NB
 70
     8
280
     0
  0
ATTDEF
  5
E4
330
DD
100
AcDbEntity
  8
AM_6
100
AcDbText
 10
5.15625
 20
-2.934000333333334
 30
0.0
 40
0.5
  1
ASME-B18.3-$NS.
100
AcDbAttributeDefinition
  3

  2
NBSYN
 70
     8
280
     0
  0
ATTDEF
  5
E5
330
DD
100
AcDbEntity
  8
AM_6
100
AcDbText
 10
5.15625
 20
-3.434000333333334
 30
0.0
 40
0.5
  1
ASME-B18.3-5/16
100
AcDbAttributeDefinition
  3

  2
LINA
 70
     8
280
     0
  0
ATTDEF
  5
E6
330
DD
100
AcDbEntity
  8
AM_6
100
AcDbText
 10
5.15625
 20
-3.934000333333334
 30
0.0
 40
0.5
  1
5/16
100
AcDbAttributeDefinition
  3

  2
NS
 70
     8
280
     0
  0
ATTDEF
  5
E7
330
DD
100
AcDbEntity
  8
AM_6
100
AcDbText
 10
5.15625
 20
-4.434000333333334
 30
0.0
 40
0.5
  1
0.547
100
AcDbAttributeDefinition
  3

  2
A
 70
     8
280
     0
  0
ATTDEF
  5
E8
330
DD
100
AcDbEntity
  8
AM_6
100
AcDbText
 10
5.15625
 20
-4.934000333333334
 30
0.0
 40
0.5
  1
0.166
100
AcDbAttributeDefinition
  3

  2
H
 70
     8
280
     0
  0
ATTDEF
  5
E9
330
DD
100
AcDbEntity
  8
AM_6
100
AcDbText
 10
5.15625
 20
-5.434000333333334
 30
0.0
 40
0.5
  1
1.000
100
AcDbAttributeDefinition
  3

  2
L
 70
     8
280
     0
  0
ATTDEF
  5
EA
330
DD
100
AcDbEntity
  8
AM_6
100
AcDbText
 10
5.15625
 20
-5.934000333333334
 30
0.0
 40
0.5
  1
0.031
100
AcDbAttributeDefinition
  3

  2
S
 70
     8
280
     0
  0
ATTDEF
  5
EB
330
DD
100
AcDbEntity
  8
AM_6
100
AcDbText
 10
5.15625
 20
-6.434000333333334
 30
0.0
 40
0.5
  1
0.187500
100
AcDbAttributeDefinition
  3

  2
J
 70
     8
280
     0
  0
ATTDEF
  5
EC
330
DD
100
AcDbEntity
  8
AM_6
100
AcDbText
 10
5.15625
 20
-6.934000333333334
 30
0.0
 40
0.5
  1
baldor
100
AcDbAttributeDefinition
  3

  2
COMPANY
 70
     8
280
     0
  0
LINE
  5
EE
330
DD
100
AcDbEntity
  8
AM_5
100
AcDbLine
 10
0.1232
 20
-1.434000333333334
 30
0.0
 11
0.1232
 21
-2.534000333333334
 31
0.0
  0
LINE
  5
EF
330
DD
100
AcDbEntity
  8
AM_5
100
AcDbLine
 10
0.1562500000000001
 20
-2.534000333333334
 30
0.0
 11
-0.1562500000000001
 21
-2.534000333333334
 31
0.0
  0
LINE
  5
F0
330
DD
100
AcDbEntity
  8
AM_5
100
AcDbLine
 10
-0.1232
 20
-1.434000333333334
 30
0.0
 11
-0.1232
 21
-2.534000333333334
 31
0.0
  0
ENDBLK
  5
E0
330
DD
100
AcDbEntity
  8
0
100
AcDbBlockEnd
  0
BLOCK
  5
F3
330
F1
100
AcDbEntity
  8
0
100
AcDbBlockBegin
  2
4_ASME_B18_3_5_16_2_0_in_072336_4
 70
     2
 10
0.0
 20
0.0
 30
0.0
  3
4_ASME_B18_3_5_16_2_0_in_072336_4
  1

  0
ATTDEF
  5
F5
330
F1
100
AcDbEntity
  8
AM_6
100
AcDbText
 10
5.2735
 20
-1.434000333333333
 30
0.0
 40
0.5
  1
ANSI/ASME-B18.3-1998
100
AcDbAttributeDefinition
  3

  2
NN
 70
     8
280
     0
  0
ATTDEF
  5
F6
330
F1
100
AcDbEntity
  8
AM_6
100
AcDbText
 10
5.2735
 20
-1.934000333333333
 30
0.0
 40
0.5
  1
Socket Button Head Cap Screws
100
AcDbAttributeDefinition
  3

  2
NT
 70
     8
280
     0
  0
ATTDEF
  5
F7
330
F1
100
AcDbEntity
  8
AM_6
100
AcDbText
 10
5.2735
 20
-2.434000333333333
 30
0.0
 40
0.5
  1
ASME-B18.3-5/16
100
AcDbAttributeDefinition
  3

  2
NB
 70
     8
280
     0
  0
ATTDEF
  5
F8
330
F1
100
AcDbEntity
  8
AM_6
100
AcDbText
 10
5.2735
 20
-2.934000333333333
 30
0.0
 40
0.5
  1
ASME-B18.3-$NS.
100
AcDbAttributeDefinition
  3

  2
NBSYN
 70
     8
280
     0
  0
ATTDEF
  5
F9
330
F1
100
AcDbEntity
  8
AM_6
100
AcDbText
 10
5.2735
 20
-3.434000333333333
 30
0.0
 40
0.5
  1
ASME-B18.3-5/16
100
AcDbAttributeDefinition
  3

  2
LINA
 70
     8
280
     0
  0
ATTDEF
  5
FA
330
F1
100
AcDbEntity
  8
AM_6
100
AcDbText
 10
5.2735
 20
-3.934000333333333
 30
0.0
 40
0.5
  1
5/16
100
AcDbAttributeDefinition
  3

  2
NS
 70
     8
280
     0
  0
ATTDEF
  5
FB
330
F1
100
AcDbEntity
  8
AM_6
100
AcDbText
 10
5.2735
 20
-4.434000333333334
 30
0.0
 40
0.5
  1
0.547
100
AcDbAttributeDefinition
  3

  2
A
 70
     8
280
     0
  0
ATTDEF
  5
FC
330
F1
100
AcDbEntity
  8
AM_6
100
AcDbText
 10
5.2735
 20
-4.934000333333334
 30
0.0
 40
0.5
  1
0.166
100
AcDbAttributeDefinition
  3

  2
H
 70
     8
280
     0
  0
ATTDEF
  5
FD
330
F1
100
AcDbEntity
  8
AM_6
100
AcDbText
 10
5.2735
 20
-5.434000333333334
 30
0.0
 40
0.5
  1
1.000
100
AcDbAttributeDefinition
  3

  2
L
 70
     8
280
     0
  0
ATTDEF
  5
FE
330
F1
100
AcDbEntity
  8
AM_6
100
AcDbText
 10
5.2735
 20
-5.934000333333334
 30
0.0
 40
0.5
  1
0.031
100
AcDbAttributeDefinition
  3

  2
S
 70
     8
280
     0
  0
ATTDEF
  5
FF
330
F1
100
AcDbEntity
  8
AM_6
100
AcDbText
 10
5.2735
 20
-6.434000333333334
 30
0.0
 40
0.5
  1
0.187500
100
AcDbAttributeDefinition
  3

  2
J
 70
     8
280
     0
  0
ATTDEF
  5
100
330
F1
100
AcDbEntity
  8
AM_6
100
AcDbText
 10
5.2735
 20
-6.934000333333334
 30
0.0
 40
0.5
  1
baldor
100
AcDbAttributeDefinition
  3

  2
COMPANY
 70
     8
280
     0
  0
LINE
  5
101
330
F1
100
AcDbEntity
  8
AM_9
100
AcDbLine
 10
0.0
 20
-2.496000333333333
 30
0.0
 11
0.0
 21
-2.600000333333333
 31
0.0
  0
LINE
  5
102
330
F1
100
AcDbEntity
  8
AM_9
100
AcDbLine
 10
-0.09375
 20
-2.496000333333333
 30
0.0
 11
-0.09375
 21
-2.600000333333333
 31
0.0
  0
LINE
  5
103
330
F1
100
AcDbEntity
  8
AM_9
100
AcDbLine
 10
0.09375
 20
-2.496000333333333
 30
0.0
 11
0.09375
 21
-2.600000333333333
 31
0.0
  0
LINE
  5
104
330
F1
100
AcDbEntity
  8
AM_9
100
AcDbLine
 10
-0.09375
 20
-2.496000333333333
 30
0.0
 11
0.09375
 21
-2.496000333333333
 31
0.0
  0
LINE
  5
105
330
F1
100
AcDbEntity
  8
AM_9
100
AcDbLine
 10
-0.1232
 20
-1.434000333333333
 30
0.0
 11
-0.15625
 21
-1.467050333333333
 31
0.0
  0
LINE
  5
106
330
F1
100
AcDbEntity
  8
AM_9
100
AcDbLine
 10
0.15625
 20
-1.467050333333333
 30
0.0
 11
0.1232
 21
-1.434000333333333
 31
0.0
  0
LINE
  5
107
330
F1
100
AcDbEntity
  8
AM_9
100
AcDbLine
 10
-0.1232
 20
-1.434000333333333
 30
0.0
 11
0.1232
 21
-1.434000333333333
 31
0.0
  0
LINE
  5
108
330
F1
100
AcDbEntity
  8
AM_9
100
AcDbLine
 10
0.15625
 20
-2.248833333333333
 30
0.0
 11
0.15625
 21
-1.467050333333333
 31
0.0
  0
LINE
  5
109
330
F1
100
AcDbEntity
  8
AM_9
100
AcDbLine
 10
-0.15625
 20
-1.467050333333333
 30
0.0
 11
-0.15625
 21
-2.248833333333333
 31
0.0
  0
LINE
  5
10A
330
F1
100
AcDbEntity
  8
AM_9
100
AcDbLine
 10
-0.15625
 20
-1.467050333333333
 30
0.0
 11
0.15625
 21
-1.467050333333333
 31
0.0
  0
LINE
  5
10B
330
F1
100
AcDbEntity
  8
AM_5
100
AcDbLine
 10
0.1232
 20
-1.434000333333333
 30
0.0
 11
0.1232
 21
-1.584027627349706
 31
0.0
  0
LINE
  5
10C
330
F1
100
AcDbEntity
  8
AM_5
100
AcDbLine
 10
0.1232
 20
-2.178833333333333
 30
0.0
 11
0.1232
 21
-2.248833333333333
 31
0.0
  0
LINE
  5
10D
330
F1
100
AcDbEntity
  8
AM_5
100
AcDbLine
 10
-0.1232
 20
-1.434000333333333
 30
0.0
 11
-0.1232
 21
-1.584027627349706
 31
0.0
  0
LINE
  5
10E
330
F1
100
AcDbEntity
  8
AM_5
100
AcDbLine
 10
-0.1232
 20
-2.178833333333333
 30
0.0
 11
-0.1232
 21
-2.248833333333333
 31
0.0
  0
LINE
  5
10F
330
F1
100
AcDbEntity
  8
AM_4
100
AcDbLine
 10
0.15625
 20
-2.434000333333334
 30
0.0
 11
0.15625
 21
-2.248833333333333
 31
0.0
  0
LINE
  5
110
330
F1
100
AcDbEntity
  8
AM_4
100
AcDbLine
 10
-0.15625
 20
-2.248833333333333
 30
0.0
 11
-0.15625
 21
-2.434000333333334
 31
0.0
  0
LINE
  5
111
330
F1
100
AcDbEntity
  8
AM_4
100
AcDbLine
 10
-0.1384999975651945
 20
-2.600000333333333
 30
0.0
 11
0.1385
 21
-2.600000333333333
 31
0.0
  0
ARC
  5
112
330
F1
100
AcDbEntity
  8
AM_4
100
AcDbCircle
 10
0.1385000000000008
 20
-2.465000333333334
 30
0.0
 40
0.1349999999999993
100
AcDbArc
 50
270.0
 51
0.0
  0
ARC
  5
113
330
F1
100
AcDbEntity
  8
AM_4
100
AcDbCircle
 10
-0.1385000000000005
 20
-2.465000333333333
 30
0.0
 40
0.1349999999999995
100
AcDbArc
 50
180.0
 51
270.0
  0
LINE
  5
114
330
F1
100
AcDbEntity
  8
AM_4
100
AcDbLine
 10
0.2735
 20
-2.465000333333333
 30
0.0
 11
0.2735
 21
-2.434000333333334
 31
0.0
  0
LINE
  5
115
330
F1
100
AcDbEntity
  8
AM_4
100
AcDbLine
 10
-0.2735
 20
-2.434000333333334
 30
0.0
 11
-0.2735
 21
-2.465000333333333
 31
0.0
  0
LINE
  5
116
330
F1
100
AcDbEntity
  8
AM_4
100
AcDbLine
 10
-0.2735
 20
-2.434000333333334
 30
0.0
 11
0.2735
 21
-2.434000333333334
 31
0.0
  0
LINE
  5
117
330
F1
100
AcDbEntity
  8
AM_4
100
AcDbLine
 10
-0.2735
 20
-2.465000333333333
 30
0.0
 11
0.2735
 21
-2.465000333333333
 31
0.0
  0
LINE
  5
118
330
F1
100
AcDbEntity
  8
AM_5
100
AcDbLine
 10
0.1232
 20
-1.584027627349706
 30
0.0
 11
0.1232
 21
-2.178833333333333
 31
0.0
  0
LINE
  5
119
330
F1
100
AcDbEntity
  8
AM_5
100
AcDbLine
 10
0.1232
 20
-2.248833333333333
 30
0.0
 11
0.1232
 21
-2.534000333333333
 31
0.0
  0
LINE
  5
11A
330
F1
100
AcDbEntity
  8
AM_5
100
AcDbLine
 10
0.15625
 20
-2.534000333333333
 30
0.0
 11
-0.15625
 21
-2.534000333333333
 31
0.0
  0
LINE
  5
11B
330
F1
100
AcDbEntity
  8
AM_5
100
AcDbLine
 10
-0.1232
 20
-1.584027627349706
 30
0.0
 11
-0.1232
 21
-2.178833333333333
 31
0.0
  0
LINE
  5
11C
330
F1
100
AcDbEntity
  8
AM_5
100
AcDbLine
 10
-0.1232
 20
-2.248833333333333
 30
0.0
 11
-0.1232
 21
-2.534000333333333
 31
0.0
  0
ENDBLK
  5
F4
330
F1
100
AcDbEntity
  8
0
100
AcDbBlockEnd
  0
BLOCK
  5
11F
330
11D
100
AcDbEntity
  8
0
100
AcDbBlockBegin
  2
5_070910LW_0_in_072336_4
 70
     2
 10
0.0
 20
0.0
 30
0.0
  3
5_070910LW_0_in_072336_4
  1

  0
ATTDEF
  5
121
330
11D
100
AcDbEntity
  8
AM_6
100
AcDbText
 10
8.8125
 20
-1.748833333333333
 30
0.0
 40
0.5
  1
Imperial Insert Lockwasher -Inch
100
AcDbAttributeDefinition
  3

  2
NN
 70
     8
280
     0
  0
ATTDEF
  5
122
330
11D
100
AcDbEntity
  8
AM_6
100
AcDbText
 10
8.8125
 20
-2.248833333333333
 30
0.0
 40
0.5
  1
Imperial Bearings
100
AcDbAttributeDefinition
  3

  2
NT
 70
     8
280
     0
  0
ATTDEF
  5
123
330
11D
100
AcDbEntity
  8
AM_6
100
AcDbText
 10
8.8125
 20
-2.748833333333333
 30
0.0
 40
0.5
  1
070910LW
100
AcDbAttributeDefinition
  3

  2
NB
 70
     8
280
     0
  0
ATTDEF
  5
124
330
11D
100
AcDbEntity
  8
AM_6
100
AcDbText
 10
8.8125
 20
-3.248833333333333
 30
0.0
 40
0.5
  1
$PN.LW
100
AcDbAttributeDefinition
  3

  2
NBSYN
 70
     8
280
     0
  0
ATTDEF
  5
125
330
11D
100
AcDbEntity
  8
AM_6
100
AcDbText
 10
8.8125
 20
-3.748833333333333
 30
0.0
 40
0.5
  1
070910
100
AcDbAttributeDefinition
  3

  2
LINA
 70
     8
280
     0
  0
ATTDEF
  5
126
330
11D
100
AcDbEntity
  8
AM_6
100
AcDbText
 10
8.8125
 20
-4.248833333333334
 30
0.0
 40
0.5
  1
4-15/16
100
AcDbAttributeDefinition
  3

  2
SS
 70
     8
280
     0
  0
ATTDEF
  5
127
330
11D
100
AcDbEntity
  8
AM_6
100
AcDbText
 10
8.8125
 20
-4.748833333333334
 30
0.0
 40
0.5
  1
4.937500
100
AcDbAttributeDefinition
  3

  2
SS1
 70
     8
280
     0
  0
ATTDEF
  5
128
330
11D
100
AcDbEntity
  8
AM_6
100
AcDbText
 10
8.8125
 20
-5.248833333333334
 30
0.0
 40
0.5
  1
070910
100
AcDbAttributeDefinition
  3

  2
PN
 70
     8
280
     0
  0
ATTDEF
  5
129
330
11D
100
AcDbEntity
  8
AM_6
100
AcDbText
 10
8.8125
 20
-5.748833333333334
 30
0.0
 40
0.5
  1
INS-IP-415R
100
AcDbAttributeDefinition
  3

  2
DESCRIPTION
 70
     8
280
     0
  0
ATTDEF
  5
12A
330
11D
100
AcDbEntity
  8
AM_6
100
AcDbText
 10
8.8125
 20
-6.248833333333334
 30
0.0
 40
0.5
  1
9.0551
100
AcDbAttributeDefinition
  3

  2
A
 70
     8
280
     0
  0
ATTDEF
  5
12B
330
11D
100
AcDbEntity
  8
AM_6
100
AcDbText
 10
8.8125
 20
-6.748833333333334
 30
0.0
 40
0.5
  1
2-19/32
100
AcDbAttributeDefinition
  3

  2
B
 70
     8
280
     0
  0
ATTDEF
  5
12C
330
11D
100
AcDbEntity
  8
AM_6
100
AcDbText
 10
8.8125
 20
-7.248833333333334
 30
0.0
 40
0.5
  1
5-63/64
100
AcDbAttributeDefinition
  3

  2
C
 70
     8
280
     0
  0
ATTDEF
  5
12D
330
11D
100
AcDbEntity
  8
AM_6
100
AcDbText
 10
8.8125
 20
-7.748833333333334
 30
0.0
 40
0.5
  1
2.107
100
AcDbAttributeDefinition
  3

  2
D
 70
     8
280
     0
  0
ATTDEF
  5
12E
330
11D
100
AcDbEntity
  8
AM_6
100
AcDbText
 10
8.8125
 20
-8.248833333333334
 30
0.0
 40
0.5
  1
7-5/8
100
AcDbAttributeDefinition
  3

  2
E
 70
     8
280
     0
  0
ATTDEF
  5
12F
330
11D
100
AcDbEntity
  8
AM_6
100
AcDbText
 10
8.8125
 20
-8.748833333333334
 30
0.0
 40
0.5
  1
0.3125
100
AcDbAttributeDefinition
  3

  2
NDM
 70
     8
280
     0
  0
ATTDEF
  5
130
330
11D
100
AcDbEntity
  8
AM_6
100
AcDbText
 10
8.8125
 20
-9.248833333333334
 30
0.0
 40
0.5
  1
0.2580
100
AcDbAttributeDefinition
  3

  2
KDM
 70
     8
280
     0
  0
ATTDEF
  5
131
330
11D
100
AcDbEntity
  8
AM_6
100
AcDbText
 10
8.8125
 20
-9.748833333333334
 30
0.0
 40
0.5
  1
6.80
100
AcDbAttributeDefinition
  3

  2
AL
 70
     8
280
     0
  0
ATTDEF
  5
132
330
11D
100
AcDbEntity
  8
AM_6
100
AcDbText
 10
8.8125
 20
-10.24883333333333
 30
0.0
 40
0.5
  1
0.50
100
AcDbAttributeDefinition
  3

  2
BL
 70
     8
280
     0
  0
ATTDEF
  5
133
330
11D
100
AcDbEntity
  8
AM_6
100
AcDbText
 10
8.8125
 20
-10.74883333333333
 30
0.0
 40
0.5
  1
0.07
100
AcDbAttributeDefinition
  3

  2
CL
 70
     8
280
     0
  0
ATTDEF
  5
134
330
11D
100
AcDbEntity
  8
AM_6
100
AcDbText
 10
8.8125
 20
-11.24883333333333
 30
0.0
 40
0.5
  1
0.50
100
AcDbAttributeDefinition
  3

  2
DL
 70
     8
280
     0
  0
ATTDEF
  5
135
330
11D
100
AcDbEntity
  8
AM_6
100
AcDbText
 10
8.8125
 20
-11.74883333333333
 30
0.0
 40
0.5
  1
baldor
100
AcDbAttributeDefinition
  3

  2
COMPANY
 70
     8
280
     0
  0
LINE
  5
136
330
11D
100
AcDbEntity
  8
AM_9
100
AcDbLine
 10
-3.277777777777778
 20
-2.178833333333333
 30
0.0
 11
-3.277777777777778
 21
-2.248833333333333
 31
0.0
  0
LINE
  5
137
330
11D
100
AcDbEntity
  8
AM_9
100
AcDbLine
 10
-3.434072204390598
 20
-2.178833333333333
 30
0.0
 11
-3.434072204390598
 21
-2.248833333333333
 31
0.0
  0
LINE
  5
138
330
11D
100
AcDbEntity
  8
AM_9
100
AcDbLine
 10
3.277777777777778
 20
-2.178833333333333
 30
0.0
 11
3.277777777777778
 21
-2.248833333333333
 31
0.0
  0
LINE
  5
139
330
11D
100
AcDbEntity
  8
AM_9
100
AcDbLine
 10
3.434072204390598
 20
-2.248833333333333
 30
0.0
 11
3.434072204390598
 21
-2.178833333333333
 31
0.0
  0
LINE
  5
13A
330
11D
100
AcDbEntity
  8
AM_9
100
AcDbLine
 10
-2.664341219375501
 20
-2.178833333333333
 30
0.0
 11
-2.664341219375501
 21
-2.248833333333333
 31
0.0
  0
LINE
  5
13B
330
11D
100
AcDbEntity
  8
AM_9
100
AcDbLine
 10
2.6643412193755
 20
-2.178833333333333
 30
0.0
 11
2.6643412193755
 21
-2.248833333333333
 31
0.0
  0
LINE
  5
13C
330
11D
100
AcDbEntity
  8
AM_9
100
AcDbLine
 10
-1.994459178175649
 20
-2.178833333333333
 30
0.0
 11
-1.994459178175649
 21
-2.248833333333333
 31
0.0
  0
LINE
  5
13D
330
11D
100
AcDbEntity
  8
AM_9
100
AcDbLine
 10
1.994459178175649
 20
-2.178833333333333
 30
0.0
 11
1.994459178175649
 21
-2.248833333333333
 31
0.0
  0
LINE
  5
13E
330
11D
100
AcDbEntity
  8
AM_9
100
AcDbLine
 10
-1.059022864525811
 20
-1.748833333333333
 30
0.0
 11
-1.059022864525811
 21
-2.248833333333333
 31
0.0
  0
LINE
  5
13F
330
11D
100
AcDbEntity
  8
AM_9
100
AcDbLine
 10
-1.135715182424772
 20
-2.178833333333333
 30
0.0
 11
-1.135715182424772
 21
-2.248833333333333
 31
0.0
  0
LINE
  5
140
330
11D
100
AcDbEntity
  8
AM_9
100
AcDbLine
 10
-1.773488309054854
 20
-2.178833333333333
 30
0.0
 11
-1.773488309054854
 21
-2.248833333333333
 31
0.0
  0
LINE
  5
141
330
11D
100
AcDbEntity
  8
AM_9
100
AcDbLine
 10
1.773488309054853
 20
-2.178833333333333
 30
0.0
 11
1.773488309054854
 21
-2.248833333333333
 31
0.0
  0
LINE
  5
142
330
11D
100
AcDbEntity
  8
AM_9
100
AcDbLine
 10
-0.9047452992969507
 20
-2.178833333333333
 30
0.0
 11
-0.9047452992969507
 21
-2.248833333333333
 31
0.0
  0
LINE
  5
143
330
11D
100
AcDbEntity
  8
AM_9
100
AcDbLine
 10
-0.8280529813979896
 20
-1.748833333333333
 30
0.0
 11
-1.10880719629487
 21
-1.748833333333333
 31
0.0
  0
LINE
  5
144
330
11D
100
AcDbEntity
  8
AM_9
100
AcDbLine
 10
-0.8280529813979896
 20
-1.748833333333333
 30
0.0
 11
-0.8280529813979896
 21
-2.248833333333333
 31
0.0
  0
LINE
  5
145
330
11D
100
AcDbEntity
  8
AM_9
100
AcDbLine
 10
-0.8778373131670477
 20
-2.178833333333333
 30
0.0
 11
-0.8778373131670477
 21
-1.748833333333333
 31
0.0
  0
LINE
  5
146
330
11D
100
AcDbEntity
  8
AM_9
100
AcDbLine
 10
-1.10880719629487
 20
-1.748833333333333
 30
0.0
 11
-1.10880719629487
 21
-2.178833333333333
 31
0.0
  0
LINE
  5
147
330
11D
100
AcDbEntity
  8
AM_9
100
AcDbLine
 10
-2.428224328449637
 20
-2.178833333333333
 30
0.0
 11
-2.428224328449637
 21
-2.248833333333333
 31
0.0
  0
LINE
  5
148
330
11D
100
AcDbEntity
  8
AM_9
100
AcDbLine
 10
-2.207253459328842
 20
-2.178833333333333
 30
0.0
 11
-2.207253459328842
 21
-2.248833333333333
 31
0.0
  0
LINE
  5
149
330
11D
100
AcDbEntity
  8
AM_9
100
AcDbLine
 10
-2.474020310097794
 20
-2.178833333333333
 30
0.0
 11
-2.474020310097794
 21
-2.248833333333333
 31
0.0
  0
LINE
  5
14A
330
11D
100
AcDbEntity
  8
AM_9
100
AcDbLine
 10
2.20725345932884
 20
-2.178833333333333
 30
0.0
 11
2.20725345932884
 21
-2.248833333333333
 31
0.0
  0
LINE
  5
14B
330
11D
100
AcDbEntity
  8
AM_9
100
AcDbLine
 10
2.428224328449637
 20
-2.178833333333333
 30
0.0
 11
2.428224328449637
 21
-2.248833333333333
 31
0.0
  0
LINE
  5
14C
330
11D
100
AcDbEntity
  8
AM_9
100
AcDbLine
 10
2.474020310097793
 20
-2.248833333333333
 30
0.0
 11
2.474020310097793
 21
-2.178833333333333
 31
0.0
  0
LINE
  5
14D
330
11D
100
AcDbEntity
  8
AM_9
100
AcDbLine
 10
-0.1562500000000006
 20
-2.178833333333333
 30
0.0
 11
-0.1562500000000006
 21
-2.248833333333333
 31
0.0
  0
LINE
  5
14E
330
11D
100
AcDbEntity
  8
AM_9
100
AcDbLine
 10
0.1562499999999992
 20
-2.178833333333333
 30
0.0
 11
0.1562499999999989
 21
-2.248833333333333
 31
0.0
  0
LINE
  5
14F
330
11D
100
AcDbEntity
  8
AM_4
100
AcDbLine
 10
-3.8125
 20
-2.178833333333333
 30
0.0
 11
-3.8125
 21
-2.248833333333333
 31
0.0
  0
LINE
  5
150
330
11D
100
AcDbEntity
  8
AM_4
100
AcDbLine
 10
3.8125
 20
-2.248833333333333
 30
0.0
 11
3.8125
 21
-2.178833333333333
 31
0.0
  0
LINE
  5
151
330
11D
100
AcDbEntity
  8
AM_4
100
AcDbLine
 10
-3.8125
 20
-2.248833333333333
 30
0.0
 11
3.8125
 21
-2.248833333333333
 31
0.0
  0
LINE
  5
152
330
11D
100
AcDbEntity
  8
AM_4
100
AcDbLine
 10
-3.8125
 20
-2.178833333333333
 30
0.0
 11
3.8125
 21
-2.178833333333333
 31
0.0
  0
ENDBLK
  5
120
330
11D
100
AcDbEntity
  8
0
100
AcDbBlockEnd
  0
BLOCK
  5
155
330
153
100
AcDbEntity
  8
0
100
AcDbBlockBegin
  2
6_070910I_0_in_072336_4
 70
     2
 10
0.0
 20
0.0
 30
0.0
  3
6_070910I_0_in_072336_4
  1

  0
ATTDEF
  5
157
330
153
100
AcDbEntity
  8
AM_6
100
AcDbText
 10
9.52755
 20
3.420375000000004
 30
0.0
 40
0.5
  1
Imperial Insert -Inch
100
AcDbAttributeDefinition
  3

  2
NN
 70
     8
280
     0
  0
ATTDEF
  5
158
330
153
100
AcDbEntity
  8
AM_6
100
AcDbText
 10
9.52755
 20
2.920375000000004
 30
0.0
 40
0.5
  1
Imperial Bearings
100
AcDbAttributeDefinition
  3

  2
NT
 70
     8
280
     0
  0
ATTDEF
  5
159
330
153
100
AcDbEntity
  8
AM_6
100
AcDbText
 10
9.52755
 20
2.420375000000004
 30
0.0
 40
0.5
  1
070910I
100
AcDbAttributeDefinition
  3

  2
NB
 70
     8
280
     0
  0
ATTDEF
  5
15A
330
153
100
AcDbEntity
  8
AM_6
100
AcDbText
 10
9.52755
 20
1.920375000000004
 30
0.0
 40
0.5
  1
$PN.I
100
AcDbAttributeDefinition
  3

  2
NBSYN
 70
     8
280
     0
  0
ATTDEF
  5
15B
330
153
100
AcDbEntity
  8
AM_6
100
AcDbText
 10
9.52755
 20
1.420375000000004
 30
0.0
 40
0.5
  1
070910
100
AcDbAttributeDefinition
  3

  2
LINA
 70
     8
280
     0
  0
ATTDEF
  5
15C
330
153
100
AcDbEntity
  8
AM_6
100
AcDbText
 10
9.52755
 20
0.9203750000000039
 30
0.0
 40
0.5
  1
4-15/16
100
AcDbAttributeDefinition
  3

  2
SS
 70
     8
280
     0
  0
ATTDEF
  5
15D
330
153
100
AcDbEntity
  8
AM_6
100
AcDbText
 10
9.52755
 20
0.4203750000000039
 30
0.0
 40
0.5
  1
4.937500
100
AcDbAttributeDefinition
  3

  2
SS1
 70
     8
280
     0
  0
ATTDEF
  5
15E
330
153
100
AcDbEntity
  8
AM_6
100
AcDbText
 10
9.52755
 20
-0.0796249999999961
 30
0.0
 40
0.5
  1
070910
100
AcDbAttributeDefinition
  3

  2
PN
 70
     8
280
     0
  0
ATTDEF
  5
15F
330
153
100
AcDbEntity
  8
AM_6
100
AcDbText
 10
9.52755
 20
-0.5796249999999961
 30
0.0
 40
0.5
  1
INS-IP-415R
100
AcDbAttributeDefinition
  3

  2
DESCRIPTION
 70
     8
280
     0
  0
ATTDEF
  5
160
330
153
100
AcDbEntity
  8
AM_6
100
AcDbText
 10
9.52755
 20
-1.079624999999996
 30
0.0
 40
0.5
  1
Contact Seal
100
AcDbAttributeDefinition
  3

  2
ST
 70
     8
280
     0
  0
ATTDEF
  5
161
330
153
100
AcDbEntity
  8
AM_6
100
AcDbText
 10
9.52755
 20
-1.579624999999996
 30
0.0
 40
0.5
  1
9.0551
100
AcDbAttributeDefinition
  3

  2
A
 70
     8
280
     0
  0
ATTDEF
  5
162
330
153
100
AcDbEntity
  8
AM_6
100
AcDbText
 10
9.52755
 20
-2.079624999999996
 30
0.0
 40
0.5
  1
2-19/32
100
AcDbAttributeDefinition
  3

  2
B
 70
     8
280
     0
  0
ATTDEF
  5
163
330
153
100
AcDbEntity
  8
AM_6
100
AcDbText
 10
9.52755
 20
-2.579624999999996
 30
0.0
 40
0.5
  1
5-63/64
100
AcDbAttributeDefinition
  3

  2
C
 70
     8
280
     0
  0
ATTDEF
  5
164
330
153
100
AcDbEntity
  8
AM_6
100
AcDbText
 10
9.52755
 20
-3.079624999999996
 30
0.0
 40
0.5
  1
2.107
100
AcDbAttributeDefinition
  3

  2
D
 70
     8
280
     0
  0
ATTDEF
  5
165
330
153
100
AcDbEntity
  8
AM_6
100
AcDbText
 10
9.52755
 20
-3.579624999999996
 30
0.0
 40
0.5
  1
7-5/8
100
AcDbAttributeDefinition
  3

  2
E
 70
     8
280
     0
  0
ATTDEF
  5
166
330
153
100
AcDbEntity
  8
AM_6
100
AcDbText
 10
9.52755
 20
-4.079624999999997
 30
0.0
 40
0.5
  1
0.3125
100
AcDbAttributeDefinition
  3

  2
NDM
 70
     8
280
     0
  0
ATTDEF
  5
167
330
153
100
AcDbEntity
  8
AM_6
100
AcDbText
 10
9.52755
 20
-4.579624999999997
 30
0.0
 40
0.5
  1
0.166
100
AcDbAttributeDefinition
  3

  2
H
 70
     8
280
     0
  0
ATTDEF
  5
168
330
153
100
AcDbEntity
  8
AM_6
100
AcDbText
 10
9.52755
 20
-5.079624999999997
 30
0.0
 40
0.5
  1
0.2580
100
AcDbAttributeDefinition
  3

  2
KDM
 70
     8
280
     0
  0
ATTDEF
  5
169
330
153
100
AcDbEntity
  8
AM_6
100
AcDbText
 10
9.52755
 20
-5.579624999999997
 30
0.0
 40
0.5
  1
6.80
100
AcDbAttributeDefinition
  3

  2
AL
 70
     8
280
     0
  0
ATTDEF
  5
16A
330
153
100
AcDbEntity
  8
AM_6
100
AcDbText
 10
9.52755
 20
-6.079624999999997
 30
0.0
 40
0.5
  1
0.50
100
AcDbAttributeDefinition
  3

  2
BL
 70
     8
280
     0
  0
ATTDEF
  5
16B
330
153
100
AcDbEntity
  8
AM_6
100
AcDbText
 10
9.52755
 20
-6.579624999999997
 30
0.0
 40
0.5
  1
0.07
100
AcDbAttributeDefinition
  3

  2
CL
 70
     8
280
     0
  0
ATTDEF
  5
16C
330
153
100
AcDbEntity
  8
AM_6
100
AcDbText
 10
9.52755
 20
-7.079624999999997
 30
0.0
 40
0.5
  1
0.50
100
AcDbAttributeDefinition
  3

  2
DL
 70
     8
280
     0
  0
ATTDEF
  5
16D
330
153
100
AcDbEntity
  8
AM_6
100
AcDbText
 10
9.52755
 20
-7.579624999999997
 30
0.0
 40
0.5
  1
1.0000
100
AcDbAttributeDefinition
  3

  2
LL
 70
     8
280
     0
  0
ATTDEF
  5
16E
330
153
100
AcDbEntity
  8
AM_6
100
AcDbText
 10
9.52755
 20
-8.079624999999997
 30
0.0
 40
0.5
  1
0.036
100
AcDbAttributeDefinition
  3

  2
Y
 70
     8
280
     0
  0
ATTDEF
  5
16F
330
153
100
AcDbEntity
  8
AM_6
100
AcDbText
 10
9.52755
 20
-8.579624999999997
 30
0.0
 40
0.5
  1
0.036000
100
AcDbAttributeDefinition
  3

  2
Y1
 70
     8
280
     0
  0
ATTDEF
  5
170
330
153
100
AcDbEntity
  8
AM_6
100
AcDbText
 10
9.52755
 20
-9.079624999999997
 30
0.0
 40
0.5
  1
5-27/32
100
AcDbAttributeDefinition
  3

  2
Z
 70
     8
280
     0
  0
ATTDEF
  5
171
330
153
100
AcDbEntity
  8
AM_6
100
AcDbText
 10
9.52755
 20
-9.579624999999997
 30
0.0
 40
0.5
  1
5.843750
100
AcDbAttributeDefinition
  3

  2
Z1
 70
     8
280
     0
  0
ATTDEF
  5
172
330
153
100
AcDbEntity
  8
AM_6
100
AcDbText
 10
9.52755
 20
-10.079625
 30
0.0
 40
0.5
  1
baldor
100
AcDbAttributeDefinition
  3

  2
COMPANY
 70
     8
280
     0
  0
LINE
  5
173
330
153
100
AcDbEntity
  8
AM_9
100
AcDbLine
 10
-1.111434169455433
 20
2.57425
 30
0.0
 11
-1.111434169455433
 21
-2.178833333333333
 31
0.0
  0
LINE
  5
174
330
153
100
AcDbEntity
  8
AM_9
100
AcDbLine
 10
-0.8804642863276108
 20
2.57425
 30
0.0
 11
-0.8804642863276108
 21
-2.178833333333333
 31
0.0
  0
LINE
  5
175
330
153
100
AcDbEntity
  8
AM_9
100
AcDbLine
 10
-0.8280529813979892
 20
2.57425
 30
0.0
 11
-0.8280529813979896
 21
-2.6
 31
0.0
  0
LINE
  5
176
330
153
100
AcDbEntity
  8
AM_9
100
AcDbLine
 10
-1.059022864525811
 20
-2.248833333333333
 30
0.0
 11
-1.059022864525811
 21
2.57425
 31
0.0
  0
LINE
  5
177
330
153
100
AcDbEntity
  8
AM_9
100
AcDbLine
 10
-2.46875
 20
2.57425
 30
0.0
 11
-2.46875
 21
-2.6
 31
0.0
  0
LINE
  5
178
330
153
100
AcDbEntity
  8
AM_9
100
AcDbLine
 10
2.46875
 20
-2.6
 30
0.0
 11
2.46875
 21
2.57425
 31
0.0
  0
LINE
  5
179
330
153
100
AcDbEntity
  8
AM_9
100
AcDbLine
 10
-2.227386360737624
 20
-1.678833333333333
 30
0.0
 11
-2.227386360737624
 21
-2.178833333333333
 31
0.0
  0
LINE
  5
17A
330
153
100
AcDbEntity
  8
AM_9
100
AcDbLine
 10
2.227386360737624
 20
-1.678833333333333
 30
0.0
 11
2.227386360737624
 21
-2.178833333333333
 31
0.0
  0
LINE
  5
17B
330
153
100
AcDbEntity
  8
AM_9
100
AcDbLine
 10
-0.8778373131670472
 20
-2.248833333333333
 30
0.0
 11
-0.8778373131670475
 21
-2.178833333333333
 31
0.0
  0
LINE
  5
17C
330
153
100
AcDbEntity
  8
AM_9
100
AcDbLine
 10
-1.108807196294869
 20
-2.178833333333333
 30
0.0
 11
-1.108807196294869
 21
-2.248833333333333
 31
0.0
  0
LINE
  5
17D
330
153
100
AcDbEntity
  8
AM_9
100
AcDbLine
 10
-2.598684210526315
 20
-2.178833333333333
 30
0.0
 11
-2.598684210526315
 21
-2.248833333333333
 31
0.0
  0
LINE
  5
17E
330
153
100
AcDbEntity
  8
AM_9
100
AcDbLine
 10
2.598684210526315
 20
-2.248833333333333
 30
0.0
 11
2.598684210526315
 21
-2.178833333333333
 31
0.0
  0
LINE
  5
17F
330
153
100
AcDbEntity
  8
AM_9
100
AcDbLine
 10
-2.598684210526315
 20
3.384375
 30
0.0
 11
-2.598684210526315
 21
2.57425
 31
0.0
  0
LINE
  5
180
330
153
100
AcDbEntity
  8
AM_9
100
AcDbLine
 10
2.598684210526315
 20
2.57425
 30
0.0
 11
2.598684210526315
 21
3.384375
 31
0.0
  0
LINE
  5
181
330
153
100
AcDbEntity
  8
AM_9
100
AcDbLine
 10
-2.525638571526982
 20
-1.678833333333333
 30
0.0
 11
-2.227386360737624
 21
-1.678833333333333
 31
0.0
  0
LINE
  5
182
330
153
100
AcDbEntity
  8
AM_9
100
AcDbLine
 10
2.227386360737624
 20
-1.678833333333333
 30
0.0
 11
2.525638571526982
 21
-1.678833333333333
 31
0.0
  0
LINE
  5
183
330
153
100
AcDbEntity
  8
AM_9
100
AcDbLine
 10
2.921874999999999
 20
3.384375
 30
0.0
 11
-2.921874999999999
 21
3.384375
 31
0.0
  0
LINE
  5
184
330
153
100
AcDbEntity
  8
AM_9
100
AcDbLine
 10
-2.921874999999999
 20
3.420375000000004
 30
0.0
 11
-2.921874999999999
 21
3.384375
 31
0.0
  0
LINE
  5
185
330
153
100
AcDbEntity
  8
AM_9
100
AcDbLine
 10
2.921874999999999
 20
3.384375
 30
0.0
 11
2.921874999999999
 21
3.420375000000004
 31
0.0
  0
LINE
  5
186
330
153
100
AcDbEntity
  8
AM_9
100
AcDbLine
 10
-3.246527777777778
 20
3.1
 30
0.0
 11
-3.246527777777778
 21
3.092999999999999
 31
0.0
  0
LINE
  5
187
330
153
100
AcDbEntity
  8
AM_9
100
AcDbLine
 10
3.246527777777778
 20
3.092999999999999
 30
0.0
 11
3.246527777777778
 21
3.1
 31
0.0
  0
LINE
  5
188
330
153
100
AcDbEntity
  8
AM_9
100
AcDbLine
 10
0.0
 20
-1.128833333333333
 30
0.0
 11
-0.1261999999999999
 21
-1.187681359792494
 31
0.0
  0
LINE
  5
189
330
153
100
AcDbEntity
  8
AM_9
100
AcDbLine
 10
0.1261999999999999
 20
-1.187681359792494
 30
0.0
 11
0.0
 21
-1.128833333333333
 31
0.0
  0
LINE
  5
18A
330
153
100
AcDbEntity
  8
AM_9
100
AcDbLine
 10
0.1261999999999999
 20
-1.187681359792494
 30
0.0
 11
-0.1261999999999999
 21
-1.187681359792494
 31
0.0
  0
LINE
  5
18B
330
153
100
AcDbEntity
  8
AM_9
100
AcDbLine
 10
-0.1261999999999999
 20
-1.187681359792494
 30
0.0
 11
-0.1261999999999999
 21
-2.148783333333333
 31
0.0
  0
LINE
  5
18C
330
153
100
AcDbEntity
  8
AM_9
100
AcDbLine
 10
0.1261999999999999
 20
-2.148783333333333
 30
0.0
 11
0.1261999999999999
 21
-1.187681359792494
 31
0.0
  0
LINE
  5
18D
330
153
100
AcDbEntity
  8
AM_9
100
AcDbLine
 10
0.1261999999999999
 20
-2.148783333333333
 30
0.0
 11
-0.1261999999999999
 21
-2.148783333333333
 31
0.0
  0
LINE
  5
18E
330
153
100
AcDbEntity
  8
AM_9
100
AcDbLine
 10
-0.1261999999999999
 20
-2.148783333333333
 30
0.0
 11
-0.1562499999999997
 21
-2.178833333333333
 31
0.0
  0
LINE
  5
18F
330
153
100
AcDbEntity
  8
AM_9
100
AcDbLine
 10
0.1562499999999997
 20
-2.178833333333333
 30
0.0
 11
0.1261999999999999
 21
-2.148783333333333
 31
0.0
  0
LINE
  5
190
330
153
100
AcDbEntity
  8
AM_9
100
AcDbLine
 10
3.834808551576976
 20
-1.539999999999999
 30
0.0
 11
3.88790558158918
 21
-0.0195000000000004
 31
0.0
  0
LINE
  5
191
330
153
100
AcDbEntity
  8
AM_9
100
AcDbLine
 10
-3.88790558158918
 20
-0.0195000000000004
 30
0.0
 11
-3.834808551576976
 21
-1.539999999999999
 31
0.0
  0
LINE
  5
192
330
153
100
AcDbEntity
  8
AM_9
100
AcDbLine
 10
3.970314520938919
 20
3.093
 30
0.0
 11
-3.970314520931
 21
3.093
 31
0.0
  0
ARC
  5
193
330
153
100
AcDbEntity
  8
AM_9
100
AcDbCircle
 10
-3.970314520938918
 20
2.992999999999999
 30
0.0
 40
0.1000000000000005
100
AcDbArc
 50
90.0
 51
149.9999999999997
  0
ARC
  5
194
330
153
100
AcDbEntity
  8
AM_9
100
AcDbCircle
 10
3.970314520938918
 20
2.992999999999999
 30
0.0
 40
0.1000000000000003
100
AcDbArc
 50
30.00000000000035
 51
90.0
  0
LINE
  5
195
330
153
100
AcDbEntity
  8
AM_9
100
AcDbLine
 10
4.056917061317362
 20
3.043
 30
0.0
 11
-4.056917061317362
 21
3.043
 31
0.0
  0
LINE
  5
196
330
153
100
AcDbEntity
  8
AM_9
100
AcDbLine
 10
-4.056917061317362
 20
3.043
 30
0.0
 11
-4.32755
 21
2.57425
 31
0.0
  0
LINE
  5
197
330
153
100
AcDbEntity
  8
AM_9
100
AcDbLine
 10
4.32755
 20
2.57425
 30
0.0
 11
4.056917061317362
 21
3.043
 31
0.0
  0
LINE
  5
198
330
153
100
AcDbEntity
  8
AM_9
100
AcDbLine
 10
-4.397862499999999
 20
1.352250113035529
 30
0.0
 11
-4.397862499999999
 21
1.20249988696447
 31
0.0
  0
LINE
  5
199
330
153
100
AcDbEntity
  8
AM_9
100
AcDbLine
 10
4.397862499999999
 20
1.20249988696447
 30
0.0
 11
4.397862499999999
 21
1.352250113035529
 31
0.0
  0
LINE
  5
19A
330
153
100
AcDbEntity
  8
AM_9
100
AcDbLine
 10
-4.52755
 20
2.524249999999999
 30
0.0
 11
-4.52755
 21
1.427125226071059
 31
0.0
  0
LINE
  5
19B
330
153
100
AcDbEntity
  8
AM_9
100
AcDbLine
 10
4.52755
 20
1.427125226071059
 30
0.0
 11
4.52755
 21
2.524249999999999
 31
0.0
  0
LINE
  5
19C
330
153
100
AcDbEntity
  8
AM_9
100
AcDbLine
 10
4.477550000000001
 20
-0.0195000000000004
 30
0.0
 11
-4.477549999992941
 21
-0.0195000000000004
 31
0.0
  0
ARC
  5
19D
330
153
100
AcDbEntity
  8
AM_9
100
AcDbCircle
 10
-4.477549999999998
 20
0.0305000000000007
 30
0.0
 40
0.0500000000000016
100
AcDbArc
 50
180.0
 51
270.0
  0
ARC
  5
19E
330
153
100
AcDbEntity
  8
AM_9
100
AcDbCircle
 10
4.477550000000001
 20
0.0304999999999986
 30
0.0
 40
0.0499999999999991
100
AcDbArc
 50
270.0
 51
0.0
  0
LINE
  5
19F
330
153
100
AcDbEntity
  8
AM_9
100
AcDbLine
 10
4.52755
 20
0.0304999999999999
 30
0.0
 11
-4.52755
 21
0.0304999999999999
 31
0.0
  0
LINE
  5
1A0
330
153
100
AcDbEntity
  8
AM_9
100
AcDbLine
 10
-4.52755
 20
1.12762477392894
 30
0.0
 11
-4.52755
 21
0.0304999999999999
 31
0.0
  0
LINE
  5
1A1
330
153
100
AcDbEntity
  8
AM_9
100
AcDbLine
 10
4.52755
 20
0.0304999999999999
 30
0.0
 11
4.52755
 21
1.12762477392894
 31
0.0
  0
LINE
  5
1A2
330
153
100
AcDbEntity
  8
AM_9
100
AcDbLine
 10
4.477549999999998
 20
2.57425
 30
0.0
 11
-4.477549999992938
 21
2.57425
 31
0.0
  0
LINE
  5
1A3
330
153
100
AcDbEntity
  8
AM_9
100
AcDbLine
 10
4.52755
 20
2.524249999999999
 30
0.0
 11
-4.52755
 21
2.524249999999999
 31
0.0
  0
ARC
  5
1A4
330
153
100
AcDbEntity
  8
AM_9
100
AcDbCircle
 10
-4.477549999999996
 20
2.524249999999998
 30
0.0
 40
0.0500000000000025
100
AcDbArc
 50
90.0
 51
180.0
  0
ARC
  5
1A5
330
153
100
AcDbEntity
  8
AM_9
100
AcDbCircle
 10
4.477549999999996
 20
2.524249999999998
 30
0.0
 40
0.0500000000000034
100
AcDbArc
 50
0.0
 51
90.0
  0
LINE
  5
1A6
330
153
100
AcDbEntity
  8
AM_9
100
AcDbLine
 10
4.52755
 20
1.427125226071059
 30
0.0
 11
-4.52755
 21
1.427125226071059
 31
0.0
  0
LINE
  5
1A7
330
153
100
AcDbEntity
  8
AM_9
100
AcDbLine
 10
4.3978625
 20
1.352250113035529
 30
0.0
 11
-4.3978625
 21
1.352250113035529
 31
0.0
  0
LINE
  5
1A8
330
153
100
AcDbEntity
  8
AM_9
100
AcDbLine
 10
4.3978625
 20
1.352250113035529
 30
0.0
 11
4.52755
 21
1.427125226071059
 31
0.0
  0
LINE
  5
1A9
330
153
100
AcDbEntity
  8
AM_9
100
AcDbLine
 10
-4.52755
 20
1.427125226071059
 30
0.0
 11
-4.3978625
 21
1.352250113035529
 31
0.0
  0
LINE
  5
1AA
330
153
100
AcDbEntity
  8
AM_9
100
AcDbLine
 10
4.397862499999999
 20
1.20249988696447
 30
0.0
 11
-4.397862499999999
 21
1.20249988696447
 31
0.0
  0
LINE
  5
1AB
330
153
100
AcDbEntity
  8
AM_9
100
AcDbLine
 10
4.52755
 20
1.12762477392894
 30
0.0
 11
-4.52755
 21
1.12762477392894
 31
0.0
  0
LINE
  5
1AC
330
153
100
AcDbEntity
  8
AM_9
100
AcDbLine
 10
-4.397862499999999
 20
1.20249988696447
 30
0.0
 11
-4.52755
 21
1.12762477392894
 31
0.0
  0
LINE
  5
1AD
330
153
100
AcDbEntity
  8
AM_9
100
AcDbLine
 10
4.52755
 20
1.12762477392894
 30
0.0
 11
4.397862499999999
 21
1.20249988696447
 31
0.0
  0
LINE
  5
1AE
330
153
100
AcDbEntity
  8
AM_5
100
AcDbLine
 10
0.1261999999999999
 20
-1.228833333333348
 30
0.0
 11
0.1562499999999997
 21
-1.228833333333348
 31
0.0
  0
LINE
  5
1AF
330
153
100
AcDbEntity
  8
AM_5
100
AcDbLine
 10
0.1562499999999997
 20
-1.228833333333348
 30
0.0
 11
0.1261999999999998
 21
-1.211483957744199
 31
0.0
  0
LINE
  5
1B0
330
153
100
AcDbEntity
  8
AM_5
100
AcDbLine
 10
-0.1261999999999999
 20
-1.228833333333348
 30
0.0
 11
-0.1562500000000003
 21
-1.228833333333348
 31
0.0
  0
LINE
  5
1B1
330
153
100
AcDbEntity
  8
AM_5
100
AcDbLine
 10
-0.1562500000000003
 20
-1.228833333333348
 30
0.0
 11
-0.1261999999999999
 21
-1.211483957744199
 31
0.0
  0
LINE
  5
1B2
330
153
100
AcDbEntity
  8
AM_4
100
AcDbLine
 10
-1.059022864525811
 20
-2.6
 30
0.0
 11
-1.059022864525811
 21
-2.248833333333333
 31
0.0
  0
ARC
  5
1B3
330
153
100
AcDbEntity
  8
AM_4
100
AcDbCircle
 10
3.764215561259646
 20
-2.128833333333334
 30
0.0
 40
0.0499999999999989
100
AcDbArc
 50
270.0
 51
358.0000000000013
  0
ARC
  5
1B4
330
153
100
AcDbEntity
  8
AM_4
100
AcDbCircle
 10
-3.764215561259646
 20
-2.128833333333334
 30
0.0
 40
0.0499999999999985
100
AcDbArc
 50
181.9999999999987
 51
270.0
  0
LWPOLYLINE
  5
1B5
330
153
100
AcDbEntity
  8
AM_4
100
AcDbPolyline
 90
        6
 70
     0
 43
0.0
 10
2.868013213792979
 20
-2.130578308168458
 10
2.865616770337196
 20
-2.146987707213995
 10
2.859513908129832
 20
-2.161357954979895
 10
2.850386240295004
 20
-2.172079503677669
 10
2.839243438086167
 20
-2.177947256626115
 10
2.83260225353924
 20
-2.178833333333333
  0
LWPOLYLINE
  5
1B6
330
153
100
AcDbEntity
  8
AM_4
100
AcDbPolyline
 90
        6
 70
     0
 43
0.0
 10
-2.83260225353924
 20
-2.178833333333333
 10
-2.83787090749849
 20
-2.178277513700662
 10
-2.849197605330447
 20
-2.173010286282916
 10
-2.85864388347123
 20
-2.162738965350482
 10
-2.865135188632365
 20
-2.148643451258619
 10
-2.868013213792979
 20
-2.130578308168458
  0
LINE
  5
1B7
330
153
100
AcDbEntity
  8
AM_4
100
AcDbLine
 10
-2.580939751330899
 20
-1.678833333333333
 30
0.0
 11
-2.580939751330899
 21
-2.178833333333333
 31
0.0
  0
LINE
  5
1B8
330
153
100
AcDbEntity
  8
AM_4
100
AcDbLine
 10
2.580939751330898
 20
-1.678833333333333
 30
0.0
 11
2.580939751330898
 21
-2.178833333333333
 31
0.0
  0
LINE
  5
1B9
330
153
100
AcDbEntity
  8
AM_4
100
AcDbLine
 10
-0.8778373131670475
 20
-2.6
 30
0.0
 11
-0.8778373131670472
 21
-2.248833333333333
 31
0.0
  0
LINE
  5
1BA
330
153
100
AcDbEntity
  8
AM_4
100
AcDbLine
 10
-1.108807196294869
 20
-2.248833333333333
 30
0.0
 11
-1.108807196294869
 21
-2.6
 31
0.0
  0
LINE
  5
1BB
330
153
100
AcDbEntity
  8
AM_4
100
AcDbLine
 10
-2.598684210526315
 20
-2.248833333333333
 30
0.0
 11
-2.598684210526315
 21
-2.6
 31
0.0
  0
LINE
  5
1BC
330
153
100
AcDbEntity
  8
AM_4
100
AcDbLine
 10
2.598684210526315
 20
-2.6
 30
0.0
 11
2.598684210526315
 21
-2.248833333333333
 31
0.0
  0
LINE
  5
1BD
330
153
100
AcDbEntity
  8
AM_4
100
AcDbLine
 10
-0.1384999975651945
 20
-2.6
 30
0.0
 11
-2.598684210526315
 21
-2.6
 31
0.0
  0
LINE
  5
1BE
330
153
100
AcDbEntity
  8
AM_4
100
AcDbLine
 10
2.598684210526315
 20
-2.6
 30
0.0
 11
0.1385
 21
-2.6
 31
0.0
  0
LINE
  5
1BF
330
153
100
AcDbEntity
  8
AM_4
100
AcDbLine
 10
3.171607905982905
 20
3.420375
 30
0.0
 11
-3.171607905966194
 21
3.420375
 31
0.0
  0
ARC
  5
1C0
330
153
100
AcDbEntity
  8
AM_4
100
AcDbCircle
 10
-3.171607905982904
 20
3.345455128205127
 30
0.0
 40
0.0749198717948736
100
AcDbArc
 50
90.0
 51
180.0
  0
ARC
  5
1C1
330
153
100
AcDbEntity
  8
AM_4
100
AcDbCircle
 10
3.171607905982904
 20
3.345455128205127
 30
0.0
 40
0.0749198717948736
100
AcDbArc
 50
0.0
 51
90.0
  0
LINE
  5
1C2
330
153
100
AcDbEntity
  8
AM_4
100
AcDbLine
 10
3.246527777777778
 20
3.345455128205129
 30
0.0
 11
-3.246527777777778
 21
3.345455128205129
 31
0.0
  0
LINE
  5
1C3
330
153
100
AcDbEntity
  8
AM_4
100
AcDbLine
 10
-3.246527777777778
 20
3.345455128205129
 30
0.0
 11
-3.246527777777778
 21
3.1
 31
0.0
  0
LINE
  5
1C4
330
153
100
AcDbEntity
  8
AM_4
100
AcDbLine
 10
3.246527777777778
 20
3.1
 30
0.0
 11
3.246527777777778
 21
3.345455128205129
 31
0.0
  0
LWPOLYLINE
  5
1C5
330
153
100
AcDbEntity
  8
AM_4
100
AcDbPolyline
 90
        6
 70
     0
 43
0.0
 10
2.479048862945966
 20
-2.178833333333333
 10
2.484317516905216
 20
-2.178277513700662
 10
2.495644214737174
 20
-2.173010286282916
 10
2.505090492877957
 20
-2.162738965350482
 10
2.511581798039091
 20
-2.148643451258618
 10
2.514459823199705
 20
-2.130578308168458
  0
LWPOLYLINE
  5
1C6
330
153
100
AcDbEntity
  8
AM_4
100
AcDbPolyline
 90
        6
 70
     0
 43
0.0
 10
-2.514459823199705
 20
-2.130578308168458
 10
-2.512063379743922
 20
-2.146987707213995
 10
-2.505960517536559
 20
-2.161357954979895
 10
-2.496832849701729
 20
-2.17207950367767
 10
-2.485690047492893
 20
-2.177947256626115
 10
-2.479048862945966
 20
-2.178833333333333
  0
LINE
  5
1C7
330
153
100
AcDbEntity
  8
AM_4
100
AcDbLine
 10
-2.868013213792979
 20
-2.130578308168458
 30
0.0
 11
-3.814185102610599
 21
-2.130578308168458
 31
0.0
  0
LINE
  5
1C8
330
153
100
AcDbEntity
  8
AM_4
100
AcDbLine
 10
-2.868013213792979
 20
-2.130578308168458
 30
0.0
 11
-2.879191962120256
 21
-1.678833333333333
 31
0.0
  0
LINE
  5
1C9
330
153
100
AcDbEntity
  8
AM_4
100
AcDbLine
 10
-2.879191962120256
 20
-1.678833333333333
 30
0.0
 11
-2.525638571526982
 21
-1.678833333333333
 31
0.0
  0
LINE
  5
1CA
330
153
100
AcDbEntity
  8
AM_4
100
AcDbLine
 10
-2.525638571526982
 20
-1.678833333333333
 30
0.0
 11
-2.514459823199705
 21
-2.130578308168458
 31
0.0
  0
LINE
  5
1CB
330
153
100
AcDbEntity
  8
AM_4
100
AcDbLine
 10
2.514459823199705
 20
-2.130578308168458
 30
0.0
 11
-2.514459823199705
 21
-2.130578308168458
 31
0.0
  0
LINE
  5
1CC
330
153
100
AcDbEntity
  8
AM_4
100
AcDbLine
 10
2.514459823199705
 20
-2.130578308168458
 30
0.0
 11
2.525638571526982
 21
-1.678833333333333
 31
0.0
  0
LINE
  5
1CD
330
153
100
AcDbEntity
  8
AM_4
100
AcDbLine
 10
2.525638571526982
 20
-1.678833333333333
 30
0.0
 11
2.879191962120257
 21
-1.678833333333333
 31
0.0
  0
LINE
  5
1CE
330
153
100
AcDbEntity
  8
AM_4
100
AcDbLine
 10
2.879191962120257
 20
-1.678833333333333
 30
0.0
 11
2.868013213792979
 21
-2.130578308168458
 31
0.0
  0
LINE
  5
1CF
330
153
100
AcDbEntity
  8
AM_4
100
AcDbLine
 10
3.814185102610599
 20
-2.130578308168458
 30
0.0
 11
3.834808551576976
 21
-1.539999999999999
 31
0.0
  0
LINE
  5
1D0
330
153
100
AcDbEntity
  8
AM_4
100
AcDbLine
 10
-3.834808551576976
 20
-1.539999999999999
 30
0.0
 11
-3.814185102610599
 21
-2.130578308168458
 31
0.0
  0
LINE
  5
1D1
330
153
100
AcDbEntity
  8
AM_4
100
AcDbLine
 10
3.814185102610599
 20
-2.130578308168458
 30
0.0
 11
2.868013213792979
 21
-2.130578308168458
 31
0.0
  0
ENDBLK
  5
156
330
153
100
AcDbEntity
  8
0
100
AcDbBlockEnd
  0
BLOCK
  5
1D4
330
1D2
100
AcDbEntity
  8
0
100
AcDbBlockBegin
  2
7_B072336_0_in_072336_4
 70
     2
 10
0.0
 20
0.0
 30
0.0
  3
7_B072336_0_in_072336_4
  1

  0
ATTDEF
  5
1D6
330
1D2
100
AcDbEntity
  8
AM_6
100
AcDbText
 10
12.375
 20
5.103999999999999
 30
0.0
 40
0.5
  1
SFC-207-500-(Contact Seal)-Housing
100
AcDbAttributeDefinition
  3

  2
NN
 70
     8
280
     0
  0
ATTDEF
  5
1D7
330
1D2
100
AcDbEntity
  8
AM_6
100
AcDbText
 10
12.375
 20
4.603999999999999
 30
0.0
 40
0.5
  1
Steal Imperial Piloted Flange Bearing-Inch-207-500
100
AcDbAttributeDefinition
  3

  2
NT
 70
     8
280
     0
  0
ATTDEF
  5
1D8
330
1D2
100
AcDbEntity
  8
AM_6
100
AcDbText
 10
12.375
 20
4.103999999999999
 30
0.0
 40
0.5
  1
B072336
100
AcDbAttributeDefinition
  3

  2
NB
 70
     8
280
     0
  0
ATTDEF
  5
1D9
330
1D2
100
AcDbEntity
  8
AM_6
100
AcDbText
 10
12.375
 20
3.603999999999999
 30
0.0
 40
0.5
  1
$PN.
100
AcDbAttributeDefinition
  3

  2
NBSYN
 70
     8
280
     0
  0
ATTDEF
  5
1DA
330
1D2
100
AcDbEntity
  8
AM_6
100
AcDbText
 10
12.375
 20
3.103999999999999
 30
0.0
 40
0.5
  1
B072336
100
AcDbAttributeDefinition
  3

  2
LINA
 70
     8
280
     0
  0
ATTDEF
  5
1DB
330
1D2
100
AcDbEntity
  8
AM_6
100
AcDbText
 10
12.375
 20
2.603999999999999
 30
0.0
 40
0.5
  1
4-15/16
100
AcDbAttributeDefinition
  3

  2
SS
 70
     8
280
     0
  0
ATTDEF
  5
1DC
330
1D2
100
AcDbEntity
  8
AM_6
100
AcDbText
 10
12.375
 20
2.103999999999999
 30
0.0
 40
0.5
  1
4.93750
100
AcDbAttributeDefinition
  3

  2
SS1
 70
     8
280
     0
  0
ATTDEF
  5
1DD
330
1D2
100
AcDbEntity
  8
AM_6
100
AcDbText
 10
12.375
 20
1.603999999999999
 30
0.0
 40
0.5
  1
072305
100
AcDbAttributeDefinition
  3

  2
PN1
 70
     8
280
     0
  0
ATTDEF
  5
1DE
330
1D2
100
AcDbEntity
  8
AM_6
100
AcDbText
 10
12.375
 20
1.103999999999999
 30
0.0
 40
0.5
  1
072336
100
AcDbAttributeDefinition
  3

  2
PN2
 70
     8
280
     0
  0
ATTDEF
  5
1DF
330
1D2
100
AcDbEntity
  8
AM_6
100
AcDbText
 10
12.375
 20
0.6039999999999992
 30
0.0
 40
0.5
  1
Expansion
100
AcDbAttributeDefinition
  3

  2
TYPE
 70
     8
280
     0
  0
ATTDEF
  5
1E0
330
1D2
100
AcDbEntity
  8
AM_6
100
AcDbText
 10
12.375
 20
0.1039999999999992
 30
0.0
 40
0.5
  1
Contact Seal
100
AcDbAttributeDefinition
  3

  2
ST
 70
     8
280
     0
  0
ATTDEF
  5
1E1
330
1D2
100
AcDbEntity
  8
AM_6
100
AcDbText
 10
12.375
 20
-0.3960000000000008
 30
0.0
 40
0.5
  1
SFC-IP-415R
100
AcDbAttributeDefinition
  3

  2
DESCRIPTIONS
 70
     8
280
     0
  0
ATTDEF
  5
1E2
330
1D2
100
AcDbEntity
  8
AM_6
100
AcDbText
 10
12.375
 20
-0.8960000000000008
 30
0.0
 40
0.5
  1
5.98
100
AcDbAttributeDefinition
  3

  2
A
 70
     8
280
     0
  0
ATTDEF
  5
1E3
330
1D2
100
AcDbEntity
  8
AM_6
100
AcDbText
 10
12.375
 20
-1.396000000000001
 30
0.0
 40
0.5
  1
5.980
100
AcDbAttributeDefinition
  3

  2
A1
 70
     8
280
     0
  0
ATTDEF
  5
1E4
330
1D2
100
AcDbEntity
  8
AM_6
100
AcDbText
 10
12.375
 20
-1.896000000000001
 30
0.0
 40
0.5
  1
14.75
100
AcDbAttributeDefinition
  3

  2
B
 70
     8
280
     0
  0
ATTDEF
  5
1E5
330
1D2
100
AcDbEntity
  8
AM_6
100
AcDbText
 10
12.375
 20
-2.396000000000001
 30
0.0
 40
0.5
  1
14.7500
100
AcDbAttributeDefinition
  3

  2
B1
 70
     8
280
     0
  0
ATTDEF
  5
1E6
330
1D2
100
AcDbEntity
  8
AM_6
100
AcDbText
 10
12.375
 20
-2.896000000000001
 30
0.0
 40
0.5
  1
4.64
100
AcDbAttributeDefinition
  3

  2
C
 70
     8
280
     0
  0
ATTDEF
  5
1E7
330
1D2
100
AcDbEntity
  8
AM_6
100
AcDbText
 10
12.375
 20
-3.396000000000001
 30
0.0
 40
0.5
  1
4.6400
100
AcDbAttributeDefinition
  3

  2
C1
 70
     8
280
     0
  0
ATTDEF
  5
1E8
330
1D2
100
AcDbEntity
  8
AM_6
100
AcDbText
 10
12.375
 20
-3.896000000000001
 30
0.0
 40
0.5
  1
6.38
100
AcDbAttributeDefinition
  3

  2
D
 70
     8
280
     0
  0
ATTDEF
  5
1E9
330
1D2
100
AcDbEntity
  8
AM_6
100
AcDbText
 10
12.375
 20
-4.396000000000001
 30
0.0
 40
0.5
  1
6.3800
100
AcDbAttributeDefinition
  3

  2
D1
 70
     8
280
     0
  0
ATTDEF
  5
1EA
330
1D2
100
AcDbEntity
  8
AM_6
100
AcDbText
 10
12.375
 20
-4.896000000000001
 30
0.0
 40
0.5
  1
12.750
100
AcDbAttributeDefinition
  3

  2
DD
 70
     8
280
     0
  0
ATTDEF
  5
1EB
330
1D2
100
AcDbEntity
  8
AM_6
100
AcDbText
 10
12.375
 20
-5.396000000000001
 30
0.0
 40
0.5
  1
12.7500
100
AcDbAttributeDefinition
  3

  2
DD1
 70
     8
280
     0
  0
ATTDEF
  5
1EC
330
1D2
100
AcDbEntity
  8
AM_6
100
AcDbText
 10
12.375
 20
-5.896000000000001
 30
0.0
 40
0.5
  1
2.0600
100
AcDbAttributeDefinition
  3

  2
E
 70
     8
280
     0
  0
ATTDEF
  5
1ED
330
1D2
100
AcDbEntity
  8
AM_6
100
AcDbText
 10
12.375
 20
-6.396000000000001
 30
0.0
 40
0.5
  1
2.0600
100
AcDbAttributeDefinition
  3

  2
E1
 70
     8
280
     0
  0
ATTDEF
  5
1EE
330
1D2
100
AcDbEntity
  8
AM_6
100
AcDbText
 10
12.375
 20
-6.896000000000001
 30
0.0
 40
0.5
  1
0.8750
100
AcDbAttributeDefinition
  3

  2
F
 70
     8
280
     0
  0
ATTDEF
  5
1EF
330
1D2
100
AcDbEntity
  8
AM_6
100
AcDbText
 10
12.375
 20
-7.396000000000001
 30
0.0
 40
0.5
  1
0.87500
100
AcDbAttributeDefinition
  3

  2
F1
 70
     8
280
     0
  0
ATTDEF
  5
1F0
330
1D2
100
AcDbEntity
  8
AM_6
100
AcDbText
 10
12.375
 20
-7.896000000000001
 30
0.0
 40
0.5
  1
2.98
100
AcDbAttributeDefinition
  3

  2
G
 70
     8
280
     0
  0
ATTDEF
  5
1F1
330
1D2
100
AcDbEntity
  8
AM_6
100
AcDbText
 10
12.375
 20
-8.396
 30
0.0
 40
0.5
  1
2.98
100
AcDbAttributeDefinition
  3

  2
G1
 70
     8
280
     0
  0
ATTDEF
  5
1F2
330
1D2
100
AcDbEntity
  8
AM_6
100
AcDbText
 10
12.375
 20
-8.896
 30
0.0
 40
0.5
  1
1.03
100
AcDbAttributeDefinition
  3

  2
H
 70
     8
280
     0
  0
ATTDEF
  5
1F3
330
1D2
100
AcDbEntity
  8
AM_6
100
AcDbText
 10
12.375
 20
-9.396
 30
0.0
 40
0.5
  1
1.03
100
AcDbAttributeDefinition
  3

  2
H1
 70
     8
280
     0
  0
ATTDEF
  5
1F4
330
1D2
100
AcDbEntity
  8
AM_6
100
AcDbText
 10
12.375
 20
-9.896
 30
0.0
 40
0.5
  1
11.000
100
AcDbAttributeDefinition
  3

  2
K
 70
     8
280
     0
  0
ATTDEF
  5
1F5
330
1D2
100
AcDbEntity
  8
AM_6
100
AcDbText
 10
12.375
 20
-10.396
 30
0.0
 40
0.5
  1
11.000
100
AcDbAttributeDefinition
  3

  2
K1
 70
     8
280
     0
  0
ATTDEF
  5
1F6
330
1D2
100
AcDbEntity
  8
AM_6
100
AcDbText
 10
12.375
 20
-10.896
 30
0.0
 40
0.5
  1
7.54
100
AcDbAttributeDefinition
  3

  2
L
 70
     8
280
     0
  0
ATTDEF
  5
1F7
330
1D2
100
AcDbEntity
  8
AM_6
100
AcDbText
 10
12.375
 20
-11.396
 30
0.0
 40
0.5
  1
7.54
100
AcDbAttributeDefinition
  3

  2
L1
 70
     8
280
     0
  0
ATTDEF
  5
1F8
330
1D2
100
AcDbEntity
  8
AM_6
100
AcDbText
 10
12.375
 20
-11.896
 30
0.0
 40
0.5
  1
0.8750
100
AcDbAttributeDefinition
  3

  2
M
 70
     8
280
     0
  0
ATTDEF
  5
1F9
330
1D2
100
AcDbEntity
  8
AM_6
100
AcDbText
 10
12.375
 20
-12.396
 30
0.0
 40
0.5
  1
0.8750
100
AcDbAttributeDefinition
  3

  2
M1
 70
     8
280
     0
  0
ATTDEF
  5
1FA
330
1D2
100
AcDbEntity
  8
AM_6
100
AcDbText
 10
12.375
 20
-12.896
 30
0.0
 40
0.5
  1
6.08
100
AcDbAttributeDefinition
  3

  2
N
 70
     8
280
     0
  0
ATTDEF
  5
1FB
330
1D2
100
AcDbEntity
  8
AM_6
100
AcDbText
 10
12.375
 20
-13.396
 30
0.0
 40
0.5
  1
6.08
100
AcDbAttributeDefinition
  3

  2
N1
 70
     8
280
     0
  0
ATTDEF
  5
1FC
330
1D2
100
AcDbEntity
  8
AM_6
100
AcDbText
 10
12.375
 20
-13.896
 30
0.0
 40
0.5
  1
2.88
100
AcDbAttributeDefinition
  3

  2
P
 70
     8
280
     0
  0
ATTDEF
  5
1FD
330
1D2
100
AcDbEntity
  8
AM_6
100
AcDbText
 10
12.375
 20
-14.396
 30
0.0
 40
0.5
  1
2.88
100
AcDbAttributeDefinition
  3

  2
P1
 70
     8
280
     0
  0
ATTDEF
  5
1FE
330
1D2
100
AcDbEntity
  8
AM_6
100
AcDbText
 10
12.375
 20
-14.896
 30
0.0
 40
0.5
  1
3.10
100
AcDbAttributeDefinition
  3

  2
Q
 70
     8
280
     0
  0
ATTDEF
  5
1FF
330
1D2
100
AcDbEntity
  8
AM_6
100
AcDbText
 10
12.375
 20
-15.396
 30
0.0
 40
0.5
  1
3.10
100
AcDbAttributeDefinition
  3

  2
Q1
 70
     8
280
     0
  0
ATTDEF
  5
200
330
1D2
100
AcDbEntity
  8
AM_6
100
AcDbText
 10
12.375
 20
-15.896
 30
0.0
 40
0.5
  1
0.38
100
AcDbAttributeDefinition
  3

  2
X
 70
     8
280
     0
  0
ATTDEF
  5
201
330
1D2
100
AcDbEntity
  8
AM_6
100
AcDbText
 10
12.375
 20
-16.396
 30
0.0
 40
0.5
  1
0.38
100
AcDbAttributeDefinition
  3

  2
X1
 70
     8
280
     0
  0
ATTDEF
  5
202
330
1D2
100
AcDbEntity
  8
AM_6
100
AcDbText
 10
12.375
 20
-16.896
 30
0.0
 40
0.5
  1
0.036
100
AcDbAttributeDefinition
  3

  2
Y
 70
     8
280
     0
  0
ATTDEF
  5
203
330
1D2
100
AcDbEntity
  8
AM_6
100
AcDbText
 10
12.375
 20
-17.396
 30
0.0
 40
0.5
  1
0.036
100
AcDbAttributeDefinition
  3

  2
Y1
 70
     8
280
     0
  0
ATTDEF
  5
204
330
1D2
100
AcDbEntity
  8
AM_6
100
AcDbText
 10
12.375
 20
-17.896
 30
0.0
 40
0.5
  1
5.84
100
AcDbAttributeDefinition
  3

  2
Z
 70
     8
280
     0
  0
ATTDEF
  5
205
330
1D2
100
AcDbEntity
  8
AM_6
100
AcDbText
 10
12.375
 20
-18.396
 30
0.0
 40
0.5
  1
5.84
100
AcDbAttributeDefinition
  3

  2
Z1
 70
     8
280
     0
  0
ATTDEF
  5
206
330
1D2
100
AcDbEntity
  8
AM_6
100
AcDbText
 10
12.375
 20
-18.896
 30
0.0
 40
0.5
  1
9.0551
100
AcDbAttributeDefinition
  3

  2
BORE
 70
     8
280
     0
  0
ATTDEF
  5
207
330
1D2
100
AcDbEntity
  8
AM_6
100
AcDbText
 10
12.375
 20
-19.396
 30
0.0
 40
0.5
  1
0.1851670
100
AcDbAttributeDefinition
  3

  2
O
 70
     8
280
     0
  0
ATTDEF
  5
208
330
1D2
100
AcDbEntity
  8
AM_6
100
AcDbText
 10
12.375
 20
-19.896
 30
0.0
 40
0.5
  1
baldor
100
AcDbAttributeDefinition
  3

  2
COMPANY
 70
     8
280
     0
  0
LINE
  5
209
330
1D2
100
AcDbEntity
  8
AM_9
100
AcDbLine
 10
-6.752349999999999
 20
0.0
 30
0.0
 11
-6.752349999999999
 21
-0.9698499999999999
 31
0.0
  0
LINE
  5
20A
330
1D2
100
AcDbEntity
  8
AM_9
100
AcDbLine
 10
-5.99765
 20
-0.9698499999999999
 30
0.0
 11
-5.99765
 21
0.0
 31
0.0
  0
LINE
  5
20B
330
1D2
100
AcDbEntity
  8
AM_9
100
AcDbLine
 10
5.997649999999999
 20
0.0
 30
0.0
 11
5.997649999999999
 21
-0.9698499999999999
 31
0.0
  0
LINE
  5
20C
330
1D2
100
AcDbEntity
  8
AM_9
100
AcDbLine
 10
6.75235
 20
-0.9698499999999999
 30
0.0
 11
6.75235
 21
0.0
 31
0.0
  0
LINE
  5
20D
330
1D2
100
AcDbEntity
  8
AM_9
100
AcDbLine
 10
6.75235
 20
-0.9698499999999999
 30
0.0
 11
5.997649999999999
 21
-0.9698499999999999
 31
0.0
  0
LINE
  5
20E
330
1D2
100
AcDbEntity
  8
AM_9
100
AcDbLine
 10
5.997649999999999
 20
-0.9698499999999999
 30
0.0
 11
5.9375
 21
-1.03
 31
0.0
  0
LINE
  5
20F
330
1D2
100
AcDbEntity
  8
AM_9
100
AcDbLine
 10
6.812499999999999
 20
-1.03
 30
0.0
 11
6.75235
 21
-0.9698499999999999
 31
0.0
  0
LINE
  5
210
330
1D2
100
AcDbEntity
  8
AM_9
100
AcDbLine
 10
-5.99765
 20
-0.9698499999999999
 30
0.0
 11
-6.752349999999999
 21
-0.9698499999999999
 31
0.0
  0
LINE
  5
211
330
1D2
100
AcDbEntity
  8
AM_9
100
AcDbLine
 10
-6.752349999999999
 20
-0.9698499999999999
 30
0.0
 11
-6.812499999999999
 21
-1.03
 31
0.0
  0
LINE
  5
212
330
1D2
100
AcDbEntity
  8
AM_9
100
AcDbLine
 10
-5.9375
 20
-1.03
 30
0.0
 11
-5.99765
 21
-0.9698499999999999
 31
0.0
  0
LINE
  5
213
330
1D2
100
AcDbEntity
  8
AM_9
100
AcDbLine
 10
4.52755
 20
-1.539999999999999
 30
0.0
 11
4.52755
 21
3.1
 31
0.0
  0
LINE
  5
214
330
1D2
100
AcDbEntity
  8
AM_9
100
AcDbLine
 10
-4.52755
 20
3.1
 30
0.0
 11
-4.52755
 21
-1.539999999999999
 31
0.0
  0
LINE
  5
215
330
1D2
100
AcDbEntity
  8
AM_9
100
AcDbLine
 10
-2.75
 20
-1.03
 30
0.0
 11
-2.75
 21
0.0000000000000003
 31
0.0
  0
LINE
  5
216
330
1D2
100
AcDbEntity
  8
AM_9
100
AcDbLine
 10
-3.624999999999999
 20
0.0000000000000003
 30
0.0
 11
-3.624999999999999
 21
-1.03
 31
0.0
  0
LINE
  5
217
330
1D2
100
AcDbEntity
  8
AM_9
100
AcDbLine
 10
3.624999999999999
 20
-1.03
 30
0.0
 11
3.624999999999999
 21
0.0000000000000003
 31
0.0
  0
LINE
  5
218
330
1D2
100
AcDbEntity
  8
AM_9
100
AcDbLine
 10
2.75
 20
0.0000000000000003
 30
0.0
 11
2.75
 21
-1.03
 31
0.0
  0
LINE
  5
219
330
1D2
100
AcDbEntity
  8
AM_9
100
AcDbLine
 10
0.131616230857149
 20
-1.539999999999999
 30
0.0
 11
-0.131616230857149
 21
-1.539999999999999
 31
0.0
  0
LINE
  5
21A
330
1D2
100
AcDbEntity
  8
AM_5
100
AcDbLine
 10
6.812499999999999
 20
0.0
 30
0.0
 11
6.812499999999999
 21
-1.03
 31
0.0
  0
LINE
  5
21B
330
1D2
100
AcDbEntity
  8
AM_5
100
AcDbLine
 10
5.9375
 20
0.0
 30
0.0
 11
5.9375
 21
-1.03
 31
0.0
  0
LINE
  5
21C
330
1D2
100
AcDbEntity
  8
AM_5
100
AcDbLine
 10
-5.9375
 20
0.0
 30
0.0
 11
-5.9375
 21
-1.03
 31
0.0
  0
LINE
  5
21D
330
1D2
100
AcDbEntity
  8
AM_5
100
AcDbLine
 10
-6.812499999999999
 20
0.0
 30
0.0
 11
-6.812499999999999
 21
-1.03
 31
0.0
  0
LINE
  5
220
330
1D2
100
AcDbEntity
  8
AM_7
100
AcDbLine
 10
-3.187499999999999
 20
0.0515000000000004
 30
0.0
 11
-3.187499999999999
 21
-1.0815
 31
0.0
  0
LINE
  5
221
330
1D2
100
AcDbEntity
  8
AM_7
100
AcDbLine
 10
3.187499999999999
 20
0.0514999999999997
 30
0.0
 11
3.187499999999999
 21
-1.0815
 31
0.0
  0
LINE
  5
222
330
1D2
100
AcDbEntity
  8
AM_7
100
AcDbLine
 10
6.375
 20
0.0515
 30
0.0
 11
6.375
 21
-1.0815
 31
0.0
  0
LINE
  5
223
330
1D2
100
AcDbEntity
  8
AM_7
100
AcDbLine
 10
-6.375
 20
0.0515
 30
0.0
 11
-6.375
 21
-1.0815
 31
0.0
  0
LINE
  5
224
330
1D2
100
AcDbEntity
  8
AM_7
100
AcDbLine
 10
0.0
 20
5.103999999999999
 30
0.0
 11
0.0
 21
-5.103999999999999
 31
0.0
  0
LINE
  5
225
330
1D2
100
AcDbEntity
  8
AM_4
100
AcDbLine
 10
-5.224999999999999
 20
3.1
 30
0.0
 11
5.224999999999999
 21
3.1
 31
0.0
  0
LINE
  5
226
330
1D2
100
AcDbEntity
  8
AM_4
100
AcDbLine
 10
-5.224999999999999
 20
3.1
 30
0.0
 11
-5.261317600271417
 21
2.06
 31
0.0
  0
LINE
  5
227
330
1D2
100
AcDbEntity
  8
AM_4
100
AcDbLine
 10
5.261317600271417
 20
2.06
 30
0.0
 11
5.224999999999999
 21
3.1
 31
0.0
  0
LINE
  5
228
330
1D2
100
AcDbEntity
  8
AM_4
100
AcDbLine
 10
-5.5
 20
-1.03
 30
0.0
 11
-5.5
 21
-1.539999999999999
 31
0.0
  0
LINE
  5
229
330
1D2
100
AcDbEntity
  8
AM_4
100
AcDbLine
 10
-5.5
 20
-1.539999999999999
 30
0.0
 11
-0.131616230857149
 21
-1.539999999999999
 31
0.0
  0
LINE
  5
22A
330
1D2
100
AcDbEntity
  8
AM_4
100
AcDbLine
 10
0.131616230857149
 20
-1.539999999999999
 30
0.0
 11
5.5
 21
-1.539999999999999
 31
0.0
  0
LINE
  5
22B
330
1D2
100
AcDbEntity
  8
AM_4
100
AcDbLine
 10
5.5
 20
-1.539999999999999
 30
0.0
 11
5.5
 21
-1.03
 31
0.0
  0
LINE
  5
22C
330
1D2
100
AcDbEntity
  8
AM_4
100
AcDbLine
 10
-5.5
 20
2.06
 30
0.0
 11
5.5
 21
2.06
 31
0.0
  0
LINE
  5
22D
330
1D2
100
AcDbEntity
  8
AM_4
100
AcDbLine
 10
5.5
 20
0.0
 30
0.0
 11
5.5
 21
2.06
 31
0.0
  0
LINE
  5
22E
330
1D2
100
AcDbEntity
  8
AM_4
100
AcDbLine
 10
-5.5
 20
2.06
 30
0.0
 11
-5.5
 21
0.0
 31
0.0
  0
LINE
  5
22F
330
1D2
100
AcDbEntity
  8
AM_4
100
AcDbLine
 10
-1.03
 20
-1.03
 30
0.0
 11
-1.03
 21
-1.539999999999999
 31
0.0
  0
LINE
  5
230
330
1D2
100
AcDbEntity
  8
AM_4
100
AcDbLine
 10
1.03
 20
-1.03
 30
0.0
 11
1.03
 21
-1.539999999999999
 31
0.0
  0
LINE
  5
231
330
1D2
100
AcDbEntity
  8
AM_4
100
AcDbLine
 10
-7.375
 20
0.0
 30
0.0
 11
7.375
 21
0.0
 31
0.0
  0
LINE
  5
232
330
1D2
100
AcDbEntity
  8
AM_4
100
AcDbLine
 10
-7.375
 20
-1.03
 30
0.0
 11
7.375
 21
-1.03
 31
0.0
  0
LINE
  5
233
330
1D2
100
AcDbEntity
  8
AM_4
100
AcDbLine
 10
7.375
 20
-1.03
 30
0.0
 11
7.375
 21
0.0
 31
0.0
  0
LINE
  5
234
330
1D2
100
AcDbEntity
  8
AM_4
100
AcDbLine
 10
-7.375
 20
0.0
 30
0.0
 11
-7.375
 21
-1.03
 31
0.0
  0
ENDBLK
  5
1D5
330
1D2
100
AcDbEntity
  8
0
100
AcDbBlockEnd
  0
ENDSEC
  0
SECTION
  2
ENTITIES
  0
INSERT
  5
6F
330
1F
100
AcDbEntity
  8
0
100
AcDbBlockReference
  2
1_072336_4
 10
0.0
 20
0.0
 30
0.0
  0
POINT
  5
236
330
1F
100
AcDbEntity
  8
ConnectionPoints
100
AcDbPoint
 10
0.0
 20
-2.434000333333334
 30
-3.277777777777778
  0
POINT
  5
237
330
1F
100
AcDbEntity
  8
ConnectionPoints
100
AcDbPoint
 10
0.0
 20
-2.434000333333334
 30
3.277777777777778
  0
POINT
  5
238
330
1F
100
AcDbEntity
  8
ConnectionPoints
100
AcDbPoint
 10
0.0
 20
-2.178833333333333
 30
0.0000000000000001
  0
POINT
  5
239
330
1F
100
AcDbEntity
  8
ConnectionPoints
100
AcDbPoint
 10
0.0
 20
-2.6
 30
0.0000000000000002
  0
POINT
  5
23A
330
1F
100
AcDbEntity
  8
ConnectionPoints
100
AcDbPoint
 10
0.0
 20
-2.377833333333333
 30
0.0000000000000001
  0
POINT
  5
23B
330
1F
100
AcDbEntity
  8
ConnectionPoints
100
AcDbPoint
 10
0.0
 20
-2.178833333333333
 30
3.277777777777778
  0
POINT
  5
23C
330
1F
100
AcDbEntity
  8
ConnectionPoints
100
AcDbPoint
 10
0.0
 20
-2.434
 30
3.277777777777778
  0
POINT
  5
23D
330
1F
100
AcDbEntity
  8
ConnectionPoints
100
AcDbPoint
 10
0.0
 20
-2.178833333333333
 30
-3.277777777777778
  0
POINT
  5
23E
330
1F
100
AcDbEntity
  8
ConnectionPoints
100
AcDbPoint
 10
0.0
 20
-2.434
 30
-3.277777777777777
  0
POINT
  5
23F
330
1F
100
AcDbEntity
  8
ConnectionPoints
100
AcDbPoint
 10
0.0
 20
-2.178833333333333
 30
0.0000000000000001
  0
POINT
  5
240
330
1F
100
AcDbEntity
  8
ConnectionPoints
100
AcDbPoint
 10
0.0
 20
-1.285000000000001
 30
6.050000000000002
  0
POINT
  5
241
330
1F
100
AcDbEntity
  8
ConnectionPoints
100
AcDbPoint
 10
0.0
 20
-1.285000000000001
 30
-6.050000000000003
  0
POINT
  5
242
330
1F
100
AcDbEntity
  8
ConnectionPoints
100
AcDbPoint
 10
0.0
 20
-2.6
 30
0.0000000000000002
  0
POINT
  5
243
330
1F
100
AcDbEntity
  8
ConnectionPoints
100
AcDbPoint
 10
0.0
 20
-2.98
 30
0.0000000000000002
  0
ENDSEC
  0
SECTION
  2
OBJECTS
  0
DICTIONARY
  5
C
330
0
100
AcDbDictionary
281
     1
  3
ACAD_DETAILVIEWSTYLE
350
24B
  3
ACAD_GROUP
350
D
  3
ACAD_LAYOUT
350
1A
  3
ACAD_MATERIAL
350
43
  3
ACAD_MLEADERSTYLE
350
6B
  3
ACAD_MLINESTYLE
350
17
  3
ACAD_PLOTSETTINGS
350
19
  3
ACAD_PLOTSTYLENAME
350
E
  3
ACAD_SCALELIST
350
47
  3
ACAD_SECTIONVIEWSTYLE
350
24C
  3
ACAD_TABLESTYLE
350
69
  3
ACAD_VISUALSTYLE
350
2A
  3
ACDB_RECOMPOSE_DATA
350
248
  3
AcDbVariableDictionary
350
244
  0
SUN
  5
6D
330
29
100
AcDbSun
 90
        1
290
     0
 63
     7
421
 16777215
 40
1.0
291
     1
 91
  2455826
 92
 54000000
292
     0
 70
     2
 71
   256
280
     1
  0
DICTIONARY
  5
24B
102
{ACAD_REACTORS
330
C
102
}
330
C
100
AcDbDictionary
281
     1
  0
DICTIONARY
  5
D
102
{ACAD_REACTORS
330
C
102
}
330
C
100
AcDbDictionary
281
     1
  0
DICTIONARY
  5
1A
102
{ACAD_REACTORS
330
C
102
}
330
C
100
AcDbDictionary
281
     1
  3
Layout1
350
1E
  3
Layout2
350
26
  3
Model
350
22
  0
DICTIONARY
  5
43
102
{ACAD_REACTORS
330
C
102
}
330
C
100
AcDbDictionary
281
     1
  3
ByBlock
350
45
  3
ByLayer
350
44
  3
Global
350
46
  0
DICTIONARY
  5
6B
102
{ACAD_REACTORS
330
C
102
}
330
C
100
AcDbDictionary
281
     1
  3
Standard
350
6C
  0
DICTIONARY
  5
17
102
{ACAD_REACTORS
330
C
102
}
330
C
100
AcDbDictionary
281
     1
  3
Standard
350
18
  0
DICTIONARY
  5
19
102
{ACAD_REACTORS
330
C
102
}
330
C
100
AcDbDictionary
281
     1
  0
ACDBDICTIONARYWDFLT
  5
E
102
{ACAD_REACTORS
330
C
102
}
330
C
100
AcDbDictionary
281
     1
  3
Normal
350
F
100
AcDbDictionaryWithDefault
340
F
  0
DICTIONARY
  5
47
102
{ACAD_REACTORS
330
C
102
}
330
C
100
AcDbDictionary
281
     1
  3
A0
350
48
  3
A1
350
49
  3
A2
350
4A
  3
A3
350
4B
  3
A4
350
4C
  3
A5
350
4D
  3
A6
350
4E
  3
A7
350
4F
  3
A8
350
50
  3
A9
350
51
  3
B0
350
52
  3
B1
350
53
  3
B2
350
54
  3
B3
350
55
  3
B4
350
56
  3
B5
350
57
  3
B6
350
58
  3
B7
350
59
  3
B8
350
5A
  3
B9
350
5B
  3
C0
350
5C
  3
C1
350
5D
  3
C2
350
5E
  3
C3
350
5F
  3
C4
350
60
  3
C5
350
61
  3
C6
350
62
  3
C7
350
63
  3
C8
350
64
  3
C9
350
65
  3
D0
350
66
  3
D1
350
67
  3
D2
350
68
  0
DICTIONARY
  5
24C
102
{ACAD_REACTORS
330
C
102
}
330
C
100
AcDbDictionary
281
     1
  0
DICTIONARY
  5
69
102
{ACAD_REACTORS
330
C
102
}
330
C
100
AcDbDictionary
281
     1
  3
Standard
350
6A
  0
DICTIONARY
  5
2A
102
{ACAD_REACTORS
330
C
102
}
330
C
100
AcDbDictionary
281
     1
  3
2dWireframe
350
2F
  3
Basic
350
32
  3
Brighten
350
36
  3
ColorChange
350
3A
  3
Conceptual
350
34
  3
Dim
350
35
  3
EdgeColorOff
350
3D
  3
Facepattern
350
39
  3
Flat
350
2B
  3
FlatWithEdges
350
2C
  3
Gouraud
350
2D
  3
GouraudWithEdges
350
2E
  3
Hidden
350
31
  3
JitterOff
350
3B
  3
Linepattern
350
38
  3
OverhangOff
350
3C
  3
Realistic
350
33
  3
Shaded
350
42
  3
Shaded with edges
350
41
  3
Shades of Gray
350
3E
  3
Sketchy
350
3F
  3
Thicken
350
37
  3
Wireframe
350
30
  3
X-Ray
350
40
  0
XRECORD
  5
248
102
{ACAD_REACTORS
330
C
102
}
330
C
100
AcDbXrecord
280
     1
 90
        1
330
6A
  0
DICTIONARY
  5
244
102
{ACAD_REACTORS
330
C
102
}
330
C
100
AcDbDictionary
281
     1
  3
CANNOSCALE
350
245
  3
CMLEADERSTYLE
350
24A
  3
CTABLESTYLE
350
249
  0
LAYOUT
  5
1E
102
{ACAD_REACTORS
330
1A
102
}
330
1A
100
AcDbPlotSettings
  1

  2
none_device
  4

  6

 40
0.0
 41
0.0
 42
0.0
 43
0.0
 44
0.0
 45
0.0
 46
0.0
 47
0.0
 48
0.0
 49
0.0
140
0.0
141
0.0
142
1.0
143
1.0
 70
   688
 72
     0
 73
     0
 74
     5
  7

 75
    16
 76
     0
 77
     2
 78
   300
147
1.0
148
0.0
149
0.0
100
AcDbLayout
  1
Layout1
 70
     1
 71
     1
 10
0.0
 20
0.0
 11
12.0
 21
9.0
 12
0.0
 22
0.0
 32
0.0
 14
1.000000000000000E+20
 24
1.000000000000000E+20
 34
1.000000000000000E+20
 15
-1.000000000000000E+20
 25
-1.000000000000000E+20
 35
-1.000000000000000E+20
146
0.0
 13
0.0
 23
0.0
 33
0.0
 16
1.0
 26
0.0
 36
0.0
 17
0.0
 27
1.0
 37
0.0
 76
     0
330
1B
  0
LAYOUT
  5
26
102
{ACAD_REACTORS
330
1A
102
}
330
1A
100
AcDbPlotSettings
  1

  2
none_device
  4

  6

 40
0.0
 41
0.0
 42
0.0
 43
0.0
 44
0.0
 45
0.0
 46
0.0
 47
0.0
 48
0.0
 49
0.0
140
0.0
141
0.0
142
1.0
143
1.0
 70
   688
 72
     0
 73
     0
 74
     5
  7

 75
    16
 76
     0
 77
     2
 78
   300
147
1.0
148
0.0
149
0.0
100
AcDbLayout
  1
Layout2
 70
     1
 71
     2
 10
0.0
 20
0.0
 11
0.0
 21
0.0
 12
0.0
 22
0.0
 32
0.0
 14
0.0
 24
0.0
 34
0.0
 15
0.0
 25
0.0
 35
0.0
146
0.0
 13
0.0
 23
0.0
 33
0.0
 16
1.0
 26
0.0
 36
0.0
 17
0.0
 27
1.0
 37
0.0
 76
     0
330
23
  0
LAYOUT
  5
22
102
{ACAD_REACTORS
330
1A
102
}
330
1A
100
AcDbPlotSettings
  1

  2
none_device
  4
Letter_(8.50_x_11.00_Inches)
  6

 40
6.35
 41
6.35
 42
6.35000508
 43
6.35000508
 44
215.9
 45
279.4
 46
0.0
 47
0.0
 48
0.0
 49
0.0
140
0.0
141
0.0
142
1.0
143
1.0
 70
  1712
 72
     0
 73
     0
 74
     0
  7

 75
     0
 76
     0
 77
     2
 78
   300
147
1.0
148
0.0
149
0.0
100
AcDbLayout
  1
Model
 70
     1
 71
     0
 10
0.0
 20
0.0
 11
12.0
 21
9.0
 12
0.0
 22
0.0
 32
0.0
 14
1.000000000000000E+20
 24
1.000000000000000E+20
 34
1.000000000000000E+20
 15
-1.000000000000000E+20
 25
-1.000000000000000E+20
 35
-1.000000000000000E+20
146
0.0
 13
0.0
 23
0.0
 33
0.0
 16
1.0
 26
0.0
 36
0.0
 17
0.0
 27
1.0
 37
0.0
 76
     0
330
1F
331
29
  0
MATERIAL
  5
45
102
{ACAD_REACTORS
330
43
102
}
330
43
100
AcDbMaterial
  1
ByBlock
 72
     1
 94
      127
  0
MATERIAL
  5
44
102
{ACAD_REACTORS
330
43
102
}
330
43
100
AcDbMaterial
  1
ByLayer
 72
     1
 94
      127
  0
MATERIAL
  5
46
102
{ACAD_REACTORS
330
43
102
}
330
43
100
AcDbMaterial
  1
Global
 72
     1
 94
      127
  0
MLEADERSTYLE
  5
6C
102
{ACAD_REACTORS
330
6B
102
}
330
6B
100
AcDbMLeaderStyle
179
     2
170
     2
171
     1
172
     0
 90
        2
 40
0.0
 41
0.0
173
     1
 91
-1056964608
340
14
 92
       -2
290
     1
 42
0.09
291
     1
 43
0.36
  3
Standard
341
0
 44
0.18
300

342
11
174
     1
178
     6
175
     1
176
     0
 93
-1056964608
 45
0.18
292
     0
297
     0
 46
0.18
343
0
 94
-1056964608
 47
1.0
 49
1.0
140
1.0
293
     1
141
0.0
294
     1
177
     0
142
1.0
295
     0
296
     0
143
0.125
271
     0
272
     9
273
     9
298
     0
  0
MLINESTYLE
  5
18
102
{ACAD_REACTORS
330
17
102
}
330
17
100
AcDbMlineStyle
  2
Standard
 70
     0
  3

 62
   256
 51
90.0
 52
90.0
 71
     2
 49
0.5
 62
   256
  6
BYLAYER
 49
-0.5
 62
   256
  6
BYLAYER
  0
ACDBPLACEHOLDER
  5
F
102
{ACAD_REACTORS
330
E
102
}
330
E
  0
SCALE
  5
48
102
{ACAD_REACTORS
330
47
102
}
330
47
100
AcDbScale
 70
     0
300
1:1
140
1.0
141
1.0
290
     1
  0
SCALE
  5
49
102
{ACAD_REACTORS
330
47
102
}
330
47
100
AcDbScale
 70
     0
300
1:2
140
1.0
141
2.0
290
     0
  0
SCALE
  5
4A
102
{ACAD_REACTORS
330
47
102
}
330
47
100
AcDbScale
 70
     0
300
1:4
140
1.0
141
4.0
290
     0
  0
SCALE
  5
4B
102
{ACAD_REACTORS
330
47
102
}
330
47
100
AcDbScale
 70
     0
300
1:5
140
1.0
141
5.0
290
     0
  0
SCALE
  5
4C
102
{ACAD_REACTORS
330
47
102
}
330
47
100
AcDbScale
 70
     0
300
1:8
140
1.0
141
8.0
290
     0
  0
SCALE
  5
4D
102
{ACAD_REACTORS
330
47
102
}
330
47
100
AcDbScale
 70
     0
300
1:10
140
1.0
141
10.0
290
     0
  0
SCALE
  5
4E
102
{ACAD_REACTORS
330
47
102
}
330
47
100
AcDbScale
 70
     0
300
1:16
140
1.0
141
16.0
290
     0
  0
SCALE
  5
4F
102
{ACAD_REACTORS
330
47
102
}
330
47
100
AcDbScale
 70
     0
300
1:20
140
1.0
141
20.0
290
     0
  0
SCALE
  5
50
102
{ACAD_REACTORS
330
47
102
}
330
47
100
AcDbScale
 70
     0
300
1:30
140
1.0
141
30.0
290
     0
  0
SCALE
  5
51
102
{ACAD_REACTORS
330
47
102
}
330
47
100
AcDbScale
 70
     0
300
1:40
140
1.0
141
40.0
290
     0
  0
SCALE
  5
52
102
{ACAD_REACTORS
330
47
102
}
330
47
100
AcDbScale
 70
     0
300
1:50
140
1.0
141
50.0
290
     0
  0
SCALE
  5
53
102
{ACAD_REACTORS
330
47
102
}
330
47
100
AcDbScale
 70
     0
300
1:100
140
1.0
141
100.0
290
     0
  0
SCALE
  5
54
102
{ACAD_REACTORS
330
47
102
}
330
47
100
AcDbScale
 70
     0
300
2:1
140
2.0
141
1.0
290
     0
  0
SCALE
  5
55
102
{ACAD_REACTORS
330
47
102
}
330
47
100
AcDbScale
 70
     0
300
4:1
140
4.0
141
1.0
290
     0
  0
SCALE
  5
56
102
{ACAD_REACTORS
330
47
102
}
330
47
100
AcDbScale
 70
     0
300
8:1
140
8.0
141
1.0
290
     0
  0
SCALE
  5
57
102
{ACAD_REACTORS
330
47
102
}
330
47
100
AcDbScale
 70
     0
300
10:1
140
10.0
141
1.0
290
     0
  0
SCALE
  5
58
102
{ACAD_REACTORS
330
47
102
}
330
47
100
AcDbScale
 70
     0
300
100:1
140
100.0
141
1.0
290
     0
  0
SCALE
  5
59
102
{ACAD_REACTORS
330
47
102
}
330
47
100
AcDbScale
 70
     0
300
1/128" = 1'-0"
140
0.0078125
141
12.0
290
     0
  0
SCALE
  5
5A
102
{ACAD_REACTORS
330
47
102
}
330
47
100
AcDbScale
 70
     0
300
1/64" = 1'-0"
140
0.015625
141
12.0
290
     0
  0
SCALE
  5
5B
102
{ACAD_REACTORS
330
47
102
}
330
47
100
AcDbScale
 70
     0
300
1/32" = 1'-0"
140
0.03125
141
12.0
290
     0
  0
SCALE
  5
5C
102
{ACAD_REACTORS
330
47
102
}
330
47
100
AcDbScale
 70
     0
300
1/16" = 1'-0"
140
0.0625
141
12.0
290
     0
  0
SCALE
  5
5D
102
{ACAD_REACTORS
330
47
102
}
330
47
100
AcDbScale
 70
     0
300
3/32" = 1'-0"
140
0.09375
141
12.0
290
     0
  0
SCALE
  5
5E
102
{ACAD_REACTORS
330
47
102
}
330
47
100
AcDbScale
 70
     0
300
1/8" = 1'-0"
140
0.125
141
12.0
290
     0
  0
SCALE
  5
5F
102
{ACAD_REACTORS
330
47
102
}
330
47
100
AcDbScale
 70
     0
300
3/16" = 1'-0"
140
0.1875
141
12.0
290
     0
  0
SCALE
  5
60
102
{ACAD_REACTORS
330
47
102
}
330
47
100
AcDbScale
 70
     0
300
1/4" = 1'-0"
140
0.25
141
12.0
290
     0
  0
SCALE
  5
61
102
{ACAD_REACTORS
330
47
102
}
330
47
100
AcDbScale
 70
     0
300
3/8" = 1'-0"
140
0.375
141
12.0
290
     0
  0
SCALE
  5
62
102
{ACAD_REACTORS
330
47
102
}
330
47
100
AcDbScale
 70
     0
300
1/2" = 1'-0"
140
0.5
141
12.0
290
     0
  0
SCALE
  5
63
102
{ACAD_REACTORS
330
47
102
}
330
47
100
AcDbScale
 70
     0
300
3/4" = 1'-0"
140
0.75
141
12.0
290
     0
  0
SCALE
  5
64
102
{ACAD_REACTORS
330
47
102
}
330
47
100
AcDbScale
 70
     0
300
1" = 1'-0"
140
1.0
141
12.0
290
     0
  0
SCALE
  5
65
102
{ACAD_REACTORS
330
47
102
}
330
47
100
AcDbScale
 70
     0
300
1-1/2" = 1'-0"
140
1.5
141
12.0
290
     0
  0
SCALE
  5
66
102
{ACAD_REACTORS
330
47
102
}
330
47
100
AcDbScale
 70
     0
300
3" = 1'-0"
140
3.0
141
12.0
290
     0
  0
SCALE
  5
67
102
{ACAD_REACTORS
330
47
102
}
330
47
100
AcDbScale
 70
     0
300
6" = 1'-0"
140
6.0
141
12.0
290
     0
  0
SCALE
  5
68
102
{ACAD_REACTORS
330
47
102
}
330
47
100
AcDbScale
 70
     0
300
1'-0" = 1'-0"
140
12.0
141
12.0
290
     0
  0
TABLESTYLE
  5
6A
102
{ACAD_REACTORS
330
69
102
}
102
{ACAD_XDICTIONARY
360
246
102
}
330
69
100
AcDbTableStyle
  3
Standard
 70
     0
 71
     0
 40
0.06
 41
0.06
280
     0
281
     0
  7
Standard
140
0.18
170
     2
 62
     0
 63
   257
283
     0
 90
        4
 91
        0
  1

274
    -2
284
     1
 64
     0
275
    -2
285
     1
 65
     0
276
    -2
286
     1
 66
     0
277
    -2
287
     1
 67
     0
278
    -2
288
     1
 68
     0
279
    -2
289
     1
 69
     0
  7
Standard
140
0.25
170
     5
 62
     0
 63
   257
283
     0
 90
        4
 91
        0
  1

274
    -2
284
     1
 64
     0
275
    -2
285
     1
 65
     0
276
    -2
286
     1
 66
     0
277
    -2
287
     1
 67
     0
278
    -2
288
     1
 68
     0
279
    -2
289
     1
 69
     0
  7
Standard
140
0.18
170
     5
 62
     0
 63
   257
283
     0
 90
        4
 91
        0
  1

274
    -2
284
     1
 64
     0
275
    -2
285
     1
 65
     0
276
    -2
286
     1
 66
     0
277
    -2
287
     1
 67
     0
278
    -2
288
     1
 68
     0
279
    -2
289
     1
 69
     0
  0
VISUALSTYLE
  5
2F
102
{ACAD_REACTORS
330
2A
102
}
330
2A
100
AcDbVisualStyle
  2
2dWireframe
 70
     4
177
     3
291
     0
 70
    58
 90
        0
176
     1
 90
        2
176
     1
 90
        0
176
     1
 90
        0
176
     1
 40
0.6
176
     1
 40
30.0
176
     1
 62
     7
420
 16777215
176
     1
 90
        1
176
     1
 90
        4
176
     1
 62
     7
176
     1
 62
   257
176
     1
 90
        1
176
     1
 90
        1
176
     1
 40
1.0
176
     1
 90
        0
176
     1
 62
   257
176
     1
 40
1.0
176
     1
 90
        1
176
     1
 90
        6
176
     1
 90
        2
176
     1
 62
     7
176
     1
 90
        5
176
     1
 90
        0
176
     1
 90
        0
176
     1
290
     0
176
     1
 90
        1
176
     1
 40
0.0
176
     1
 90
        0
176
     1
290
     1
176
     1
290
     1
176
     1
290
     0
176
     1
290
     0
176
     1
290
     0
176
     1
290
     0
176
     1
290
     0
176
     1
290
     0
176
     1
290
     0
176
     1
 90
       50
176
     1
 40
0.0
176
     1
 40
1.0
176
     1
 90
        0
176
     1
 62
    18
420
        0
176
     1
 90
       50
176
     1
 90
        3
176
     1
 62
     5
420
      255
176
     1
290
     0
176
     1
 90
       50
176
     1
 90
       50
176
     1
 90
       50
176
     1
290
     0
176
     1
 90
       50
176
     1
 62
   256
176
     0
 40
1.0
176
     0
 90
        2
176
     1
  1
strokes_ogs.tif
176
     1
290
     0
176
     1
 40
1.0
176
     1
 40
1.0
176
     1
  0
VISUALSTYLE
  5
32
102
{ACAD_REACTORS
330
2A
102
}
330
2A
100
AcDbVisualStyle
  2
Basic
 70
     7
177
     3
291
     1
 70
    58
 90
        1
176
     1
 90
        0
176
     1
 90
        1
176
     1
 90
        0
176
     1
 40
0.6
176
     1
 40
30.0
176
     1
 62
     7
420
 16777215
176
     1
 90
        0
176
     1
 90
        4
176
     1
 62
     7
176
     1
 62
   257
176
     1
 90
        1
176
     1
 90
        1
176
     1
 40
1.0
176
     1
 90
        8
176
     1
 62
     7
176
     1
 40
1.0
176
     1
 90
        1
176
     1
 90
        6
176
     1
 90
        2
176
     1
 62
     7
176
     1
 90
        5
176
     1
 90
        0
176
     1
 90
        0
176
     1
290
     0
176
     1
 90
        1
176
     1
 40
0.0
176
     1
 90
        0
176
     1
290
     0
176
     1
290
     1
176
     1
290
     1
176
     1
290
     0
176
     1
290
     0
176
     1
290
     0
176
     1
290
     0
176
     1
290
     0
176
     1
290
     0
176
     1
 90
       50
176
     1
 40
0.0
176
     1
 40
1.0
176
     1
 90
        0
176
     1
 62
    18
420
        0
176
     1
 90
       50
176
     1
 90
        3
176
     1
 62
     5
420
      255
176
     1
290
     0
176
     1
 90
       50
176
     1
 90
       50
176
     1
 90
       50
176
     1
290
     0
176
     1
 90
       50
176
     1
 62
   256
176
     0
 40
1.0
176
     0
 90
        2
176
     1
  1
strokes_ogs.tif
176
     1
290
     0
176
     1
 40
1.0
176
     1
 40
1.0
176
     1
  0
VISUALSTYLE
  5
36
102
{ACAD_REACTORS
330
2A
102
}
330
2A
100
AcDbVisualStyle
  2
Brighten
 70
    12
177
     3
291
     1
 70
    58
 90
        2
176
     1
 90
        2
176
     1
 90
        0
176
     1
 90
        0
176
     1
 40
0.6
176
     1
 40
30.0
176
     1
 62
     7
420
 16777215
176
     1
 90
        1
176
     1
 90
        4
176
     1
 62
     7
176
     1
 62
   257
176
     1
 90
        1
176
     1
 90
        1
176
     1
 40
1.0
176
     1
 90
        8
176
     1
 62
     7
176
     1
 40
1.0
176
     1
 90
        1
176
     1
 90
        6
176
     1
 90
        2
176
     1
 62
     7
176
     1
 90
        5
176
     1
 90
        0
176
     1
 90
        0
176
     1
290
     0
176
     1
 90
        1
176
     1
 40
50.0
176
     1
 90
        0
176
     1
290
     0
176
     1
290
     1
176
     1
290
     1
176
     1
290
     0
176
     1
290
     0
176
     1
290
     0
176
     1
290
     0
176
     1
290
     0
176
     1
290
     0
176
     1
 90
       50
176
     1
 40
0.0
176
     1
 40
1.0
176
     1
 90
        0
176
     1
 62
    18
420
        0
176
     1
 90
       50
176
     1
 90
        3
176
     1
 62
     5
420
      255
176
     1
290
     0
176
     1
 90
       50
176
     1
 90
       50
176
     1
 90
       50
176
     1
290
     0
176
     1
 90
       50
176
     1
 62
   256
176
     0
 40
1.0
176
     0
 90
        2
176
     1
  1
strokes_ogs.tif
176
     1
290
     0
176
     1
 40
1.0
176
     1
 40
1.0
176
     1
  0
VISUALSTYLE
  5
3A
102
{ACAD_REACTORS
330
2A
102
}
330
2A
100
AcDbVisualStyle
  2
ColorChange
 70
    16
177
     3
291
     1
 70
    58
 90
        2
176
     1
 90
        2
176
     1
 90
        3
176
     1
 90
        0
176
     1
 40
0.6
176
     1
 40
30.0
176
     1
 62
     8
420
  8421504
176
     1
 90
        1
176
     1
 90
        4
176
     1
 62
     7
176
     1
 62
   257
176
     1
 90
        1
176
     1
 90
        1
176
     1
 40
1.0
176
     1
 90
        8
176
     1
 62
     8
420
  8421504
176
     1
 40
1.0
176
     1
 90
        1
176
     1
 90
        6
176
     1
 90
        2
176
     1
 62
     7
176
     1
 90
        5
176
     1
 90
        0
176
     1
 90
        0
176
     1
290
     0
176
     1
 90
        1
176
     1
 40
0.0
176
     1
 90
        0
176
     1
290
     0
176
     1
290
     1
176
     1
290
     1
176
     1
290
     0
176
     1
290
     0
176
     1
290
     0
176
     1
290
     0
176
     1
290
     0
176
     1
290
     0
176
     1
 90
       50
176
     1
 40
0.0
176
     1
 40
1.0
176
     1
 90
        0
176
     1
 62
    18
420
        0
176
     1
 90
       50
176
     1
 90
        3
176
     1
 62
     5
420
      255
176
     1
290
     0
176
     1
 90
       50
176
     1
 90
       50
176
     1
 90
       50
176
     1
290
     0
176
     1
 90
       50
176
     1
 62
   256
176
     0
 40
1.0
176
     0
 90
        2
176
     1
  1
strokes_ogs.tif
176
     1
290
     0
176
     1
 40
1.0
176
     1
 40
1.0
176
     1
  0
VISUALSTYLE
  5
34
102
{ACAD_REACTORS
330
2A
102
}
330
2A
100
AcDbVisualStyle
  2
Conceptual
 70
     9
177
     3
291
     0
 70
    58
 90
        3
176
     1
 90
        2
176
     1
 90
        0
176
     1
 90
        0
176
     1
 40
0.6
176
     1
 40
30.0
176
     1
 62
     7
420
 16777215
176
     1
 90
        2
176
     1
 90
        2
176
     1
 62
     7
176
     1
 62
   257
176
     1
 90
        1
176
     1
 90
        1
176
     1
 40
179.0
176
     1
 90
        8
176
     1
 62
     7
176
     1
 40
1.0
176
     1
 90
        1
176
     1
 90
        6
176
     1
 90
        2
176
     1
 62
     7
176
     1
 90
        3
176
     1
 90
        0
176
     1
 90
        0
176
     1
290
     0
176
     1
 90
        1
176
     1
 40
0.0
176
     1
 90
        0
176
     1
290
     0
176
     1
290
     1
176
     1
290
     1
176
     1
290
     0
176
     1
290
     0
176
     1
290
     0
176
     1
290
     0
176
     1
290
     0
176
     1
290
     0
176
     1
 90
       50
176
     1
 40
0.0
176
     1
 40
1.0
176
     1
 90
        0
176
     1
 62
    18
420
        0
176
     1
 90
       50
176
     1
 90
        3
176
     1
 62
     5
420
      255
176
     1
290
     0
176
     1
 90
       50
176
     1
 90
       50
176
     1
 90
       50
176
     1
290
     0
176
     1
 90
       50
176
     1
 62
   256
176
     0
 40
1.0
176
     0
 90
        2
176
     1
  1
strokes_ogs.tif
176
     1
290
     0
176
     1
 40
1.0
176
     1
 40
1.0
176
     1
  0
VISUALSTYLE
  5
35
102
{ACAD_REACTORS
330
2A
102
}
330
2A
100
AcDbVisualStyle
  2
Dim
 70
    11
177
     3
291
     1
 70
    58
 90
        2
176
     1
 90
        2
176
     1
 90
        0
176
     1
 90
        0
176
     1
 40
0.6
176
     1
 40
30.0
176
     1
 62
     7
420
 16777215
176
     1
 90
        1
176
     1
 90
        4
176
     1
 62
     7
176
     1
 62
   257
176
     1
 90
        1
176
     1
 90
        1
176
     1
 40
1.0
176
     1
 90
        8
176
     1
 62
     7
176
     1
 40
1.0
176
     1
 90
        1
176
     1
 90
        6
176
     1
 90
        2
176
     1
 62
     7
176
     1
 90
        5
176
     1
 90
        0
176
     1
 90
        0
176
     1
290
     0
176
     1
 90
        1
176
     1
 40
-50.0
176
     1
 90
        0
176
     1
290
     0
176
     1
290
     1
176
     1
290
     1
176
     1
290
     0
176
     1
290
     0
176
     1
290
     0
176
     1
290
     0
176
     1
290
     0
176
     1
290
     0
176
     1
 90
       50
176
     1
 40
0.0
176
     1
 40
1.0
176
     1
 90
        0
176
     1
 62
    18
420
        0
176
     1
 90
       50
176
     1
 90
        3
176
     1
 62
     5
420
      255
176
     1
290
     0
176
     1
 90
       50
176
     1
 90
       50
176
     1
 90
       50
176
     1
290
     0
176
     1
 90
       50
176
     1
 62
   256
176
     0
 40
1.0
176
     0
 90
        2
176
     1
  1
strokes_ogs.tif
176
     1
290
     0
176
     1
 40
1.0
176
     1
 40
1.0
176
     1
  0
VISUALSTYLE
  5
3D
102
{ACAD_REACTORS
330
2A
102
}
330
2A
100
AcDbVisualStyle
  2
EdgeColorOff
 70
    22
177
     3
291
     1
 70
    58
 90
        2
176
     0
 90
        2
176
     0
 90
        0
176
     0
 90
        0
176
     0
 40
0.6
176
     0
 40
30.0
176
     0
 62
     7
420
 16777215
176
     0
 90
        1
176
     0
 90
        4
176
     0
 62
     7
176
     0
 62
   257
176
     0
 90
        1
176
     0
 90
        1
176
     0
 40
1.0
176
     0
 90
        8
176
     2
 62
     7
176
     0
 40
1.0
176
     0
 90
        1
176
     0
 90
        6
176
     0
 90
        2
176
     0
 62
     7
176
     0
 90
        5
176
     0
 90
        0
176
     0
 90
        0
176
     0
290
     0
176
     0
 90
        1
176
     0
 40
0.0
176
     0
 90
        0
176
     0
290
     0
176
     0
290
     1
176
     0
290
     1
176
     0
290
     0
176
     0
290
     0
176
     0
290
     0
176
     0
290
     0
176
     0
290
     0
176
     0
290
     0
176
     0
 90
       50
176
     0
 40
0.0
176
     0
 40
1.0
176
     0
 90
        0
176
     0
 62
    18
420
        0
176
     0
 90
       50
176
     0
 90
        3
176
     0
 62
     5
420
      255
176
     0
290
     0
176
     0
 90
       50
176
     0
 90
       50
176
     0
 90
       50
176
     0
290
     0
176
     0
 90
       50
176
     0
 62
   256
176
     0
 40
1.0
176
     0
 90
        2
176
     0
  1
strokes_ogs.tif
176
     0
290
     0
176
     0
 40
1.0
176
     0
 40
1.0
176
     0
  0
VISUALSTYLE
  5
39
102
{ACAD_REACTORS
330
2A
102
}
330
2A
100
AcDbVisualStyle
  2
Facepattern
 70
    15
177
     3
291
     1
 70
    58
 90
        2
176
     1
 90
        2
176
     1
 90
        0
176
     1
 90
        0
176
     1
 40
0.6
176
     1
 40
30.0
176
     1
 62
     7
420
 16777215
176
     1
 90
        1
176
     1
 90
        4
176
     1
 62
     7
176
     1
 62
   257
176
     1
 90
        1
176
     1
 90
        1
176
     1
 40
1.0
176
     1
 90
        8
176
     1
 62
     7
176
     1
 40
1.0
176
     1
 90
        1
176
     1
 90
        6
176
     1
 90
        2
176
     1
 62
     7
176
     1
 90
        5
176
     1
 90
        0
176
     1
 90
        0
176
     1
290
     0
176
     1
 90
        1
176
     1
 40
0.0
176
     1
 90
        0
176
     1
290
     0
176
     1
290
     1
176
     1
290
     1
176
     1
290
     0
176
     1
290
     0
176
     1
290
     0
176
     1
290
     0
176
     1
290
     0
176
     1
290
     0
176
     1
 90
       50
176
     1
 40
0.0
176
     1
 40
1.0
176
     1
 90
        0
176
     1
 62
    18
420
        0
176
     1
 90
       50
176
     1
 90
        3
176
     1
 62
     5
420
      255
176
     1
290
     0
176
     1
 90
       50
176
     1
 90
       50
176
     1
 90
       50
176
     1
290
     0
176
     1
 90
       50
176
     1
 62
   256
176
     0
 40
1.0
176
     0
 90
        2
176
     1
  1
strokes_ogs.tif
176
     1
290
     0
176
     1
 40
1.0
176
     1
 40
1.0
176
     1
  0
VISUALSTYLE
  5
2B
102
{ACAD_REACTORS
330
2A
102
}
330
2A
100
AcDbVisualStyle
  2
Flat
 70
     0
177
     3
291
     1
 70
    58
 90
        2
176
     1
 90
        1
176
     1
 90
        1
176
     1
 90
        2
176
     1
 40
0.6
176
     1
 40
30.0
176
     1
 62
     7
420
 16777215
176
     1
 90
        0
176
     1
 90
        0
176
     1
 62
     7
176
     1
 62
   257
176
     1
 90
        1
176
     1
 90
        1
176
     1
 40
1.0
176
     1
 90
        8
176
     1
 62
     7
176
     1
 40
1.0
176
     1
 90
        1
176
     1
 90
        6
176
     1
 90
        2
176
     1
 62
     7
176
     1
 90
        5
176
     1
 90
        0
176
     1
 90
        0
176
     1
290
     0
176
     1
 90
       13
176
     1
 40
0.0
176
     1
 90
        0
176
     1
290
     0
176
     1
290
     1
176
     1
290
     1
176
     1
290
     0
176
     1
290
     0
176
     1
290
     0
176
     1
290
     0
176
     1
290
     0
176
     1
290
     0
176
     1
 90
       50
176
     1
 40
0.0
176
     1
 40
1.0
176
     1
 90
        0
176
     1
 62
    18
420
        0
176
     1
 90
       50
176
     1
 90
        3
176
     1
 62
     5
420
      255
176
     1
290
     0
176
     1
 90
       50
176
     1
 90
       50
176
     1
 90
       50
176
     1
290
     0
176
     1
 90
       50
176
     1
 62
   256
176
     0
 40
1.0
176
     0
 90
        2
176
     1
  1
strokes_ogs.tif
176
     1
290
     0
176
     1
 40
1.0
176
     1
 40
1.0
176
     1
  0
VISUALSTYLE
  5
2C
102
{ACAD_REACTORS
330
2A
102
}
330
2A
100
AcDbVisualStyle
  2
FlatWithEdges
 70
     1
177
     3
291
     1
 70
    58
 90
        2
176
     1
 90
        1
176
     1
 90
        1
176
     1
 90
        2
176
     1
 40
0.6
176
     1
 40
30.0
176
     1
 62
     7
420
 16777215
176
     1
 90
        1
176
     1
 90
        0
176
     1
 62
     7
176
     1
 62
   257
176
     1
 90
        1
176
     1
 90
        1
176
     1
 40
1.0
176
     1
 90
        0
176
     1
 62
   257
176
     1
 40
1.0
176
     1
 90
        1
176
     1
 90
        6
176
     1
 90
        2
176
     1
 62
     7
176
     1
 90
        5
176
     1
 90
        0
176
     1
 90
        0
176
     1
290
     0
176
     1
 90
       13
176
     1
 40
0.0
176
     1
 90
        0
176
     1
290
     0
176
     1
290
     1
176
     1
290
     1
176
     1
290
     0
176
     1
290
     0
176
     1
290
     0
176
     1
290
     0
176
     1
290
     0
176
     1
290
     0
176
     1
 90
       50
176
     1
 40
0.0
176
     1
 40
1.0
176
     1
 90
        0
176
     1
 62
    18
420
        0
176
     1
 90
       50
176
     1
 90
        3
176
     1
 62
     5
420
      255
176
     1
290
     0
176
     1
 90
       50
176
     1
 90
       50
176
     1
 90
       50
176
     1
290
     0
176
     1
 90
       50
176
     1
 62
   256
176
     0
 40
1.0
176
     0
 90
        2
176
     1
  1
strokes_ogs.tif
176
     1
290
     0
176
     1
 40
1.0
176
     1
 40
1.0
176
     1
  0
VISUALSTYLE
  5
2D
102
{ACAD_REACTORS
330
2A
102
}
330
2A
100
AcDbVisualStyle
  2
Gouraud
 70
     2
177
     3
291
     1
 70
    58
 90
        2
176
     1
 90
        2
176
     1
 90
        1
176
     1
 90
        2
176
     1
 40
0.6
176
     1
 40
30.0
176
     1
 62
     7
420
 16777215
176
     1
 90
        0
176
     1
 90
        0
176
     1
 62
     7
176
     1
 62
   257
176
     1
 90
        1
176
     1
 90
        1
176
     1
 40
1.0
176
     1
 90
        0
176
     1
 62
     7
176
     1
 40
1.0
176
     1
 90
        1
176
     1
 90
        6
176
     1
 90
        2
176
     1
 62
     7
176
     1
 90
        5
176
     1
 90
        0
176
     1
 90
        0
176
     1
290
     0
176
     1
 90
       13
176
     1
 40
0.0
176
     1
 90
        0
176
     1
290
     0
176
     1
290
     1
176
     1
290
     1
176
     1
290
     0
176
     1
290
     0
176
     1
290
     0
176
     1
290
     0
176
     1
290
     0
176
     1
290
     0
176
     1
 90
       50
176
     1
 40
0.0
176
     1
 40
1.0
176
     1
 90
        0
176
     1
 62
    18
420
        0
176
     1
 90
       50
176
     1
 90
        3
176
     1
 62
     5
420
      255
176
     1
290
     0
176
     1
 90
       50
176
     1
 90
       50
176
     1
 90
       50
176
     1
290
     0
176
     1
 90
       50
176
     1
 62
   256
176
     0
 40
1.0
176
     0
 90
        2
176
     1
  1
strokes_ogs.tif
176
     1
290
     0
176
     1
 40
1.0
176
     1
 40
1.0
176
     1
  0
VISUALSTYLE
  5
2E
102
{ACAD_REACTORS
330
2A
102
}
330
2A
100
AcDbVisualStyle
  2
GouraudWithEdges
 70
     3
177
     3
291
     1
 70
    58
 90
        2
176
     1
 90
        2
176
     1
 90
        1
176
     1
 90
        2
176
     1
 40
0.6
176
     1
 40
30.0
176
     1
 62
     7
420
 16777215
176
     1
 90
        1
176
     1
 90
        0
176
     1
 62
     7
176
     1
 62
   257
176
     1
 90
        1
176
     1
 90
        1
176
     1
 40
1.0
176
     1
 90
        0
176
     1
 62
   257
176
     1
 40
1.0
176
     1
 90
        1
176
     1
 90
        6
176
     1
 90
        2
176
     1
 62
     7
176
     1
 90
        5
176
     1
 90
        0
176
     1
 90
        0
176
     1
290
     0
176
     1
 90
       13
176
     1
 40
0.0
176
     1
 90
        0
176
     1
290
     0
176
     1
290
     1
176
     1
290
     1
176
     1
290
     0
176
     1
290
     0
176
     1
290
     0
176
     1
290
     0
176
     1
290
     0
176
     1
290
     0
176
     1
 90
       50
176
     1
 40
0.0
176
     1
 40
1.0
176
     1
 90
        0
176
     1
 62
    18
420
        0
176
     1
 90
       50
176
     1
 90
        3
176
     1
 62
     5
420
      255
176
     1
290
     0
176
     1
 90
       50
176
     1
 90
       50
176
     1
 90
       50
176
     1
290
     0
176
     1
 90
       50
176
     1
 62
   256
176
     0
 40
1.0
176
     0
 90
        2
176
     1
  1
strokes_ogs.tif
176
     1
290
     0
176
     1
 40
1.0
176
     1
 40
1.0
176
     1
  0
VISUALSTYLE
  5
31
102
{ACAD_REACTORS
330
2A
102
}
330
2A
100
AcDbVisualStyle
  2
Hidden
 70
     6
177
     3
291
     0
 70
    58
 90
        1
176
     1
 90
        2
176
     1
 90
        2
176
     1
 90
        0
176
     1
 40
0.6
176
     1
 40
30.0
176
     1
 62
     7
420
 16777215
176
     1
 90
        2
176
     1
 90
        2
176
     1
 62
     7
176
     1
 62
   257
176
     1
 90
        2
176
     1
 90
        1
176
     1
 40
40.0
176
     1
 90
        0
176
     1
 62
   257
176
     1
 40
1.0
176
     1
 90
        1
176
     1
 90
        6
176
     1
 90
        2
176
     1
 62
     7
176
     1
 90
        3
176
     1
 90
        0
176
     1
 90
        0
176
     1
290
     0
176
     1
 90
        1
176
     1
 40
0.0
176
     1
 90
        0
176
     1
290
     0
176
     1
290
     1
176
     1
290
     1
176
     1
290
     0
176
     1
290
     0
176
     1
290
     0
176
     1
290
     0
176
     1
290
     0
176
     1
290
     0
176
     1
 90
       50
176
     1
 40
0.0
176
     1
 40
1.0
176
     1
 90
        0
176
     1
 62
    18
420
        0
176
     1
 90
       50
176
     1
 90
        3
176
     1
 62
     5
420
      255
176
     1
290
     0
176
     1
 90
       50
176
     1
 90
       50
176
     1
 90
       50
176
     1
290
     0
176
     1
 90
       50
176
     1
 62
   256
176
     0
 40
1.0
176
     0
 90
        2
176
     1
  1
strokes_ogs.tif
176
     1
290
     0
176
     1
 40
1.0
176
     1
 40
1.0
176
     1
  0
VISUALSTYLE
  5
3B
102
{ACAD_REACTORS
330
2A
102
}
330
2A
100
AcDbVisualStyle
  2
JitterOff
 70
    20
177
     3
291
     1
 70
    58
 90
        2
176
     0
 90
        2
176
     0
 90
        0
176
     0
 90
        0
176
     0
 40
0.6
176
     0
 40
30.0
176
     0
 62
     7
420
 16777215
176
     0
 90
        1
176
     0
 90
        4
176
     0
 62
     7
176
     0
 62
   257
176
     0
 90
        1
176
     0
 90
        1
176
     0
 40
1.0
176
     0
 90
       10
176
     2
 62
     7
176
     0
 40
1.0
176
     0
 90
        1
176
     0
 90
        6
176
     0
 90
        2
176
     0
 62
     7
176
     0
 90
        5
176
     0
 90
        0
176
     0
 90
        0
176
     0
290
     0
176
     0
 90
        1
176
     0
 40
0.0
176
     0
 90
        0
176
     0
290
     0
176
     0
290
     1
176
     0
290
     1
176
     0
290
     0
176
     0
290
     0
176
     0
290
     0
176
     0
290
     0
176
     0
290
     0
176
     0
290
     0
176
     0
 90
       50
176
     0
 40
0.0
176
     0
 40
1.0
176
     0
 90
        0
176
     0
 62
    18
420
        0
176
     0
 90
       50
176
     0
 90
        3
176
     0
 62
     5
420
      255
176
     0
290
     0
176
     0
 90
       50
176
     0
 90
       50
176
     0
 90
       50
176
     0
290
     0
176
     0
 90
       50
176
     0
 62
   256
176
     0
 40
1.0
176
     0
 90
        2
176
     0
  1
strokes_ogs.tif
176
     0
290
     0
176
     0
 40
1.0
176
     0
 40
1.0
176
     0
  0
VISUALSTYLE
  5
38
102
{ACAD_REACTORS
330
2A
102
}
330
2A
100
AcDbVisualStyle
  2
Linepattern
 70
    14
177
     3
291
     1
 70
    58
 90
        2
176
     1
 90
        2
176
     1
 90
        0
176
     1
 90
        0
176
     1
 40
0.6
176
     1
 40
30.0
176
     1
 62
     7
420
 16777215
176
     1
 90
        1
176
     1
 90
        4
176
     1
 62
     7
176
     1
 62
   257
176
     1
 90
        7
176
     1
 90
        7
176
     1
 40
1.0
176
     1
 90
        8
176
     1
 62
     7
176
     1
 40
1.0
176
     1
 90
        1
176
     1
 90
        6
176
     1
 90
        2
176
     1
 62
     7
176
     1
 90
        5
176
     1
 90
        0
176
     1
 90
        0
176
     1
290
     0
176
     1
 90
        1
176
     1
 40
0.0
176
     1
 90
        0
176
     1
290
     0
176
     1
290
     1
176
     1
290
     1
176
     1
290
     0
176
     1
290
     0
176
     1
290
     0
176
     1
290
     0
176
     1
290
     0
176
     1
290
     0
176
     1
 90
       50
176
     1
 40
0.0
176
     1
 40
1.0
176
     1
 90
        0
176
     1
 62
    18
420
        0
176
     1
 90
       50
176
     1
 90
        3
176
     1
 62
     5
420
      255
176
     1
290
     0
176
     1
 90
       50
176
     1
 90
       50
176
     1
 90
       50
176
     1
290
     0
176
     1
 90
       50
176
     1
 62
   256
176
     0
 40
1.0
176
     0
 90
        2
176
     1
  1
strokes_ogs.tif
176
     1
290
     0
176
     1
 40
1.0
176
     1
 40
1.0
176
     1
  0
VISUALSTYLE
  5
3C
102
{ACAD_REACTORS
330
2A
102
}
330
2A
100
AcDbVisualStyle
  2
OverhangOff
 70
    21
177
     3
291
     1
 70
    58
 90
        2
176
     0
 90
        2
176
     0
 90
        0
176
     0
 90
        0
176
     0
 40
0.6
176
     0
 40
30.0
176
     0
 62
     7
420
 16777215
176
     0
 90
        1
176
     0
 90
        4
176
     0
 62
     7
176
     0
 62
   257
176
     0
 90
        1
176
     0
 90
        1
176
     0
 40
1.0
176
     0
 90
        9
176
     2
 62
     7
176
     0
 40
1.0
176
     0
 90
        1
176
     0
 90
        6
176
     0
 90
        2
176
     0
 62
     7
176
     0
 90
        5
176
     0
 90
        0
176
     0
 90
        0
176
     0
290
     0
176
     0
 90
        1
176
     0
 40
0.0
176
     0
 90
        0
176
     0
290
     0
176
     0
290
     1
176
     0
290
     1
176
     0
290
     0
176
     0
290
     0
176
     0
290
     0
176
     0
290
     0
176
     0
290
     0
176
     0
290
     0
176
     0
 90
       50
176
     0
 40
0.0
176
     0
 40
1.0
176
     0
 90
        0
176
     0
 62
    18
420
        0
176
     0
 90
       50
176
     0
 90
        3
176
     0
 62
     5
420
      255
176
     0
290
     0
176
     0
 90
       50
176
     0
 90
       50
176
     0
 90
       50
176
     0
290
     0
176
     0
 90
       50
176
     0
 62
   256
176
     0
 40
1.0
176
     0
 90
        2
176
     0
  1
strokes_ogs.tif
176
     0
290
     0
176
     0
 40
1.0
176
     0
 40
1.0
176
     0
  0
VISUALSTYLE
  5
33
102
{ACAD_REACTORS
330
2A
102
}
330
2A
100
AcDbVisualStyle
  2
Realistic
 70
     8
177
     3
291
     0
 70
    58
 90
        2
176
     1
 90
        3
176
     1
 90
        0
176
     1
 90
        2
176
     1
 40
0.6
176
     1
 40
30.0
176
     1
 62
     7
420
 16777215
176
     1
 90
        0
176
     1
 90
        0
176
     1
 62
     7
176
     1
 62
   257
176
     1
 90
        1
176
     1
 90
        1
176
     1
 40
1.0
176
     1
 90
        8
176
     1
 62
   257
176
     1
 40
1.0
176
     1
 90
        1
176
     1
 90
        6
176
     1
 90
        2
176
     1
 62
     7
176
     1
 90
        3
176
     1
 90
        0
176
     1
 90
        0
176
     1
290
     0
176
     1
 90
       13
176
     1
 40
0.0
176
     1
 90
        0
176
     1
290
     0
176
     1
290
     1
176
     1
290
     1
176
     1
290
     0
176
     1
290
     0
176
     1
290
     0
176
     1
290
     0
176
     1
290
     0
176
     1
290
     0
176
     1
 90
       50
176
     1
 40
0.0
176
     1
 40
1.0
176
     1
 90
        0
176
     1
 62
    18
420
        0
176
     1
 90
       50
176
     1
 90
        3
176
     1
 62
     5
420
      255
176
     1
290
     0
176
     1
 90
       50
176
     1
 90
       50
176
     1
 90
       50
176
     1
290
     0
176
     1
 90
       50
176
     1
 62
   256
176
     0
 40
1.0
176
     0
 90
        2
176
     1
  1
strokes_ogs.tif
176
     1
290
     0
176
     1
 40
1.0
176
     1
 40
1.0
176
     1
  0
VISUALSTYLE
  5
42
102
{ACAD_REACTORS
330
2A
102
}
330
2A
100
AcDbVisualStyle
  2
Shaded
 70
    27
177
     3
291
     0
 70
    58
 90
        2
176
     1
 90
        2
176
     1
 90
        1
176
     1
 90
        2
176
     1
 40
0.6
176
     1
 40
30.0
176
     1
 62
     7
420
 16777215
176
     1
 90
        0
176
     1
 90
        4
176
     1
 62
     7
176
     1
 62
   257
176
     1
 90
        1
176
     1
 90
        1
176
     1
 40
1.0
176
     1
 90
        8
176
     1
 62
   257
176
     1
 40
1.0
176
     1
 90
        1
176
     1
 90
        6
176
     1
 90
        2
176
     1
 62
     8
420
  7895160
176
     1
 90
        3
176
     1
 90
        0
176
     1
 90
        0
176
     1
290
     0
176
     1
 90
        5
176
     1
 40
0.0
176
     1
 90
        0
176
     1
290
     0
176
     1
290
     1
176
     1
290
     1
176
     1
290
     0
176
     1
290
     0
176
     1
290
     0
176
     1
290
     0
176
     1
290
     0
176
     1
290
     0
176
     1
 90
       50
176
     1
 40
0.0
176
     1
 40
1.0
176
     1
 90
        0
176
     1
 62
    18
420
        0
176
     1
 90
       50
176
     1
 90
        3
176
     1
 62
     5
420
      255
176
     1
290
     0
176
     1
 90
       50
176
     1
 90
       50
176
     1
 90
       50
176
     1
290
     0
176
     1
 90
       50
176
     1
 62
   256
176
     0
 40
1.0
176
     0
 90
        2
176
     1
  1
strokes_ogs.tif
176
     1
290
     0
176
     1
 40
1.0
176
     1
 40
1.0
176
     1
  0
VISUALSTYLE
  5
41
102
{ACAD_REACTORS
330
2A
102
}
330
2A
100
AcDbVisualStyle
  2
Shaded with edges
 70
    26
177
     3
291
     0
 70
    58
 90
        2
176
     1
 90
        2
176
     1
 90
        1
176
     1
 90
        2
176
     1
 40
0.6
176
     1
 40
30.0
176
     1
 62
     7
420
 16777215
176
     1
 90
        1
176
     1
 90
       10
176
     1
 62
     7
176
     1
 62
   257
176
     1
 90
        2
176
     1
 90
        1
176
     1
 40
1.0
176
     1
 90
        8
176
     1
 62
   257
176
     1
 40
1.0
176
     1
 90
        1
176
     1
 90
        6
176
     1
 90
        2
176
     1
 62
     7
176
     1
 90
        3
176
     1
 90
        0
176
     1
 90
        0
176
     1
290
     0
176
     1
 90
        5
176
     1
 40
0.0
176
     1
 90
        0
176
     1
290
     0
176
     1
290
     1
176
     1
290
     1
176
     1
290
     0
176
     1
290
     0
176
     1
290
     0
176
     1
290
     0
176
     1
290
     0
176
     1
290
     0
176
     1
 90
       50
176
     1
 40
0.0
176
     1
 40
1.0
176
     1
 90
        0
176
     1
 62
    18
420
        0
176
     1
 90
       50
176
     1
 90
        3
176
     1
 62
     5
420
      255
176
     1
290
     0
176
     1
 90
       50
176
     1
 90
       50
176
     1
 90
       50
176
     1
290
     0
176
     1
 90
       50
176
     1
 62
   256
176
     0
 40
1.0
176
     0
 90
        2
176
     1
  1
strokes_ogs.tif
176
     1
290
     0
176
     1
 40
1.0
176
     1
 40
1.0
176
     1
  0
VISUALSTYLE
  5
3E
102
{ACAD_REACTORS
330
2A
102
}
330
2A
100
AcDbVisualStyle
  2
Shades of Gray
 70
    23
177
     3
291
     0
 70
    58
 90
        2
176
     1
 90
        2
176
     1
 90
        3
176
     1
 90
        0
176
     1
 40
0.6
176
     1
 40
30.0
176
     1
 62
     7
420
 16777215
176
     1
 90
        2
176
     1
 90
        2
176
     1
 62
     7
176
     1
 62
     7
176
     1
 90
        1
176
     1
 90
        1
176
     1
 40
40.0
176
     1
 90
        8
176
     1
 62
     7
176
     1
 40
1.0
176
     1
 90
        1
176
     1
 90
        6
176
     1
 90
        2
176
     1
 62
     7
176
     1
 90
        3
176
     1
 90
        0
176
     1
 90
        0
176
     1
290
     0
176
     1
 90
        1
176
     1
 40
0.0
176
     1
 90
        0
176
     1
290
     0
176
     1
290
     1
176
     1
290
     1
176
     1
290
     0
176
     1
290
     0
176
     1
290
     0
176
     1
290
     0
176
     1
290
     0
176
     1
290
     0
176
     1
 90
       50
176
     1
 40
0.0
176
     1
 40
1.0
176
     1
 90
        0
176
     1
 62
    18
420
        0
176
     1
 90
       50
176
     1
 90
        3
176
     1
 62
     5
420
      255
176
     1
290
     0
176
     1
 90
       50
176
     1
 90
       50
176
     1
 90
       50
176
     1
290
     0
176
     1
 90
       50
176
     1
 62
   256
176
     0
 40
1.0
176
     0
 90
        2
176
     1
  1
strokes_ogs.tif
176
     1
290
     0
176
     1
 40
1.0
176
     1
 40
1.0
176
     1
  0
VISUALSTYLE
  5
3F
102
{ACAD_REACTORS
330
2A
102
}
330
2A
100
AcDbVisualStyle
  2
Sketchy
 70
    24
177
     3
291
     0
 70
    58
 90
        1
176
     1
 90
        2
176
     1
 90
        2
176
     1
 90
        0
176
     1
 40
0.6
176
     1
 40
30.0
176
     1
 62
     7
420
 16777215
176
     1
 90
        2
176
     1
 90
        2
176
     1
 62
     7
176
     1
 62
     7
176
     1
 90
        1
176
     1
 90
        1
176
     1
 40
40.0
176
     1
 90
       11
176
     1
 62
     7
176
     1
 40
1.0
176
     1
 90
        1
176
     1
 90
        6
176
     1
 90
        2
176
     1
 62
     7
176
     1
 90
        6
176
     1
 90
        0
176
     1
 90
        0
176
     1
290
     0
176
     1
 90
        1
176
     1
 40
0.0
176
     1
 90
        0
176
     1
290
     0
176
     1
290
     1
176
     1
290
     1
176
     1
290
     0
176
     1
290
     0
176
     1
290
     0
176
     1
290
     0
176
     1
290
     0
176
     1
290
     0
176
     1
 90
       50
176
     1
 40
0.0
176
     1
 40
1.0
176
     1
 90
        0
176
     1
 62
    18
420
        0
176
     1
 90
       50
176
     1
 90
        3
176
     1
 62
     5
420
      255
176
     1
290
     0
176
     1
 90
       50
176
     1
 90
       50
176
     1
 90
       50
176
     1
290
     0
176
     1
 90
       50
176
     1
 62
   256
176
     0
 40
1.0
176
     0
 90
        2
176
     1
  1
strokes_ogs.tif
176
     1
290
     0
176
     1
 40
1.0
176
     1
 40
1.0
176
     1
  0
VISUALSTYLE
  5
37
102
{ACAD_REACTORS
330
2A
102
}
330
2A
100
AcDbVisualStyle
  2
Thicken
 70
    13
177
     3
291
     1
 70
    58
 90
        2
176
     1
 90
        2
176
     1
 90
        0
176
     1
 90
        0
176
     1
 40
0.6
176
     1
 40
30.0
176
     1
 62
     7
420
 16777215
176
     1
 90
        1
176
     1
 90
        4
176
     1
 62
     7
176
     1
 62
   257
176
     1
 90
        1
176
     1
 90
        1
176
     1
 40
1.0
176
     1
 90
       12
176
     1
 62
     7
176
     1
 40
1.0
176
     1
 90
        1
176
     1
 90
        6
176
     1
 90
        2
176
     1
 62
     7
176
     1
 90
        5
176
     1
 90
        0
176
     1
 90
        0
176
     1
290
     0
176
     1
 90
        1
176
     1
 40
0.0
176
     1
 90
        0
176
     1
290
     0
176
     1
290
     1
176
     1
290
     1
176
     1
290
     0
176
     1
290
     0
176
     1
290
     0
176
     1
290
     0
176
     1
290
     0
176
     1
290
     0
176
     1
 90
       50
176
     1
 40
0.0
176
     1
 40
1.0
176
     1
 90
        0
176
     1
 62
    18
420
        0
176
     1
 90
       50
176
     1
 90
        3
176
     1
 62
     5
420
      255
176
     1
290
     0
176
     1
 90
       50
176
     1
 90
       50
176
     1
 90
       50
176
     1
290
     0
176
     1
 90
       50
176
     1
 62
   256
176
     0
 40
1.0
176
     0
 90
        2
176
     1
  1
strokes_ogs.tif
176
     1
290
     0
176
     1
 40
1.0
176
     1
 40
1.0
176
     1
  0
VISUALSTYLE
  5
30
102
{ACAD_REACTORS
330
2A
102
}
330
2A
100
AcDbVisualStyle
  2
Wireframe
 70
     5
177
     3
291
     0
 70
    58
 90
        0
176
     1
 90
        2
176
     1
 90
        0
176
     1
 90
        0
176
     1
 40
0.6
176
     1
 40
30.0
176
     1
 62
     7
420
 16777215
176
     1
 90
        1
176
     1
 90
        4
176
     1
 62
     7
176
     1
 62
   257
176
     1
 90
        1
176
     1
 90
        1
176
     1
 40
1.0
176
     1
 90
        0
176
     1
 62
   257
176
     1
 40
1.0
176
     1
 90
        1
176
     1
 90
        6
176
     1
 90
        2
176
     1
 62
     7
176
     1
 90
        3
176
     1
 90
        0
176
     1
 90
        0
176
     1
290
     0
176
     1
 90
        1
176
     1
 40
0.0
176
     1
 90
        0
176
     1
290
     0
176
     1
290
     1
176
     1
290
     1
176
     1
290
     0
176
     1
290
     0
176
     1
290
     0
176
     1
290
     0
176
     1
290
     0
176
     1
290
     0
176
     1
 90
       50
176
     1
 40
0.0
176
     1
 40
1.0
176
     1
 90
        0
176
     1
 62
    18
420
        0
176
     1
 90
       50
176
     1
 90
        3
176
     1
 62
     5
420
      255
176
     1
290
     0
176
     1
 90
       50
176
     1
 90
       50
176
     1
 90
       50
176
     1
290
     0
176
     1
 90
       50
176
     1
 62
   256
176
     0
 40
1.0
176
     0
 90
        2
176
     1
  1
strokes_ogs.tif
176
     1
290
     0
176
     1
 40
1.0
176
     1
 40
1.0
176
     1
  0
VISUALSTYLE
  5
40
102
{ACAD_REACTORS
330
2A
102
}
330
2A
100
AcDbVisualStyle
  2
X-Ray
 70
    25
177
     3
291
     0
 70
    58
 90
        2
176
     1
 90
        2
176
     1
 90
        1
176
     1
 90
        1
176
     1
 40
0.5
176
     1
 40
30.0
176
     1
 62
     7
420
 16777215
176
     1
 90
        1
176
     1
 90
        0
176
     1
 62
     7
176
     1
 62
   257
176
     1
 90
        1
176
     1
 90
        1
176
     1
 40
1.0
176
     1
 90
        8
176
     1
 62
     7
176
     1
 40
1.0
176
     1
 90
        1
176
     1
 90
        6
176
     1
 90
        2
176
     1
 62
     7
176
     1
 90
        3
176
     1
 90
        0
176
     1
 90
        0
176
     1
290
     0
176
     1
 90
       13
176
     1
 40
0.0
176
     1
 90
        0
176
     1
290
     0
176
     1
290
     1
176
     1
290
     1
176
     1
290
     0
176
     1
290
     0
176
     1
290
     0
176
     1
290
     0
176
     1
290
     0
176
     1
290
     0
176
     1
 90
       50
176
     1
 40
0.0
176
     1
 40
1.0
176
     1
 90
        0
176
     1
 62
    18
420
        0
176
     1
 90
       50
176
     1
 90
        3
176
     1
 62
     5
420
      255
176
     1
290
     0
176
     1
 90
       50
176
     1
 90
       50
176
     1
 90
       50
176
     1
290
     0
176
     1
 90
       50
176
     1
 62
   256
176
     0
 40
1.0
176
     0
 90
        2
176
     1
  1
strokes_ogs.tif
176
     1
290
     0
176
     1
 40
1.0
176
     1
 40
1.0
176
     1
  0
DICTIONARYVAR
  5
245
102
{ACAD_REACTORS
330
244
102
}
330
244
100
DictionaryVariables
280
     0
  1
1:1
  0
DICTIONARYVAR
  5
24A
102
{ACAD_REACTORS
330
244
102
}
330
244
100
DictionaryVariables
280
     0
  1
Standard
  0
DICTIONARYVAR
  5
249
102
{ACAD_REACTORS
330
244
102
}
330
244
100
DictionaryVariables
280
     0
  1
Standard
  0
DICTIONARY
  5
246
330
6A
100
AcDbDictionary
280
     1
281
     1
  3
ACAD_ROUNDTRIP_2008_TABLESTYLE_CELLSTYLEMAP
360
247
  0
CELLSTYLEMAP
  5
247
102
{ACAD_REACTORS
330
246
102
}
330
246
100
AcDbCellStyleMap
 90
        3
300
CELLSTYLE
  1
TABLEFORMAT_BEGIN
 90
        5
170
     1
 91
        0
 92
    32768
 62
   257
 93
        1
300
CONTENTFORMAT
  1
CONTENTFORMAT_BEGIN
 90
        0
 91
        0
 92
        4
 93
        0
300

 40
0.0
140
1.0
 94
        5
 62
     0
340
11
144
0.25
309
CONTENTFORMAT_END
171
     1
301
MARGIN
  1
CELLMARGIN_BEGIN
 40
0.06
 40
0.06
 40
0.06
 40
0.06
 40
0.06
 40
0.06
309
CELLMARGIN_END
 94
        6
 95
        1
302
GRIDFORMAT
  1
GRIDFORMAT_BEGIN
 90
        0
 91
        1
 62
     0
 92
       -2
340
14
 93
        0
 40
0.045
309
GRIDFORMAT_END
 95
        2
302
GRIDFORMAT
  1
GRIDFORMAT_BEGIN
 90
        0
 91
        1
 62
     0
 92
       -2
340
14
 93
        0
 40
0.045
309
GRIDFORMAT_END
 95
        4
302
GRIDFORMAT
  1
GRIDFORMAT_BEGIN
 90
        0
 91
        1
 62
     0
 92
       -2
340
14
 93
        0
 40
0.045
309
GRIDFORMAT_END
 95
        8
302
GRIDFORMAT
  1
GRIDFORMAT_BEGIN
 90
        0
 91
        1
 62
     0
 92
       -2
340
14
 93
        0
 40
0.045
309
GRIDFORMAT_END
 95
       16
302
GRIDFORMAT
  1
GRIDFORMAT_BEGIN
 90
        0
 91
        1
 62
     0
 92
       -2
340
14
 93
        0
 40
0.045
309
GRIDFORMAT_END
 95
       32
302
GRIDFORMAT
  1
GRIDFORMAT_BEGIN
 90
        0
 91
        1
 62
     0
 92
       -2
340
14
 93
        0
 40
0.045
309
GRIDFORMAT_END
309
TABLEFORMAT_END
  1
CELLSTYLE_BEGIN
 90
        1
 91
        1
300
_TITLE
309
CELLSTYLE_END
300
CELLSTYLE
  1
TABLEFORMAT_BEGIN
 90
        5
170
     1
 91
        0
 92
        0
 62
   257
 93
        1
300
CONTENTFORMAT
  1
CONTENTFORMAT_BEGIN
 90
        0
 91
        0
 92
        4
 93
        0
300

 40
0.0
140
1.0
 94
        5
 62
     0
340
11
144
0.18
309
CONTENTFORMAT_END
171
     1
301
MARGIN
  1
CELLMARGIN_BEGIN
 40
0.06
 40
0.06
 40
0.06
 40
0.06
 40
0.06
 40
0.06
309
CELLMARGIN_END
 94
        6
 95
        1
302
GRIDFORMAT
  1
GRIDFORMAT_BEGIN
 90
        0
 91
        1
 62
     0
 92
       -2
340
14
 93
        0
 40
0.045
309
GRIDFORMAT_END
 95
        2
302
GRIDFORMAT
  1
GRIDFORMAT_BEGIN
 90
        0
 91
        1
 62
     0
 92
       -2
340
14
 93
        0
 40
0.045
309
GRIDFORMAT_END
 95
        4
302
GRIDFORMAT
  1
GRIDFORMAT_BEGIN
 90
        0
 91
        1
 62
     0
 92
       -2
340
14
 93
        0
 40
0.045
309
GRIDFORMAT_END
 95
        8
302
GRIDFORMAT
  1
GRIDFORMAT_BEGIN
 90
        0
 91
        1
 62
     0
 92
       -2
340
14
 93
        0
 40
0.045
309
GRIDFORMAT_END
 95
       16
302
GRIDFORMAT
  1
GRIDFORMAT_BEGIN
 90
        0
 91
        1
 62
     0
 92
       -2
340
14
 93
        0
 40
0.045
309
GRIDFORMAT_END
 95
       32
302
GRIDFORMAT
  1
GRIDFORMAT_BEGIN
 90
        0
 91
        1
 62
     0
 92
       -2
340
14
 93
        0
 40
0.045
309
GRIDFORMAT_END
309
TABLEFORMAT_END
  1
CELLSTYLE_BEGIN
 90
        2
 91
        1
300
_HEADER
309
CELLSTYLE_END
300
CELLSTYLE
  1
TABLEFORMAT_BEGIN
 90
        5
170
     1
 91
        0
 92
        0
 62
   257
 93
        1
300
CONTENTFORMAT
  1
CONTENTFORMAT_BEGIN
 90
        0
 91
        0
 92
        4
 93
        0
300

 40
0.0
140
1.0
 94
        2
 62
     0
340
11
144
0.18
309
CONTENTFORMAT_END
171
     1
301
MARGIN
  1
CELLMARGIN_BEGIN
 40
0.06
 40
0.06
 40
0.06
 40
0.06
 40
0.06
 40
0.06
309
CELLMARGIN_END
 94
        6
 95
        1
302
GRIDFORMAT
  1
GRIDFORMAT_BEGIN
 90
        0
 91
        1
 62
     0
 92
       -2
340
14
 93
        0
 40
0.045
309
GRIDFORMAT_END
 95
        2
302
GRIDFORMAT
  1
GRIDFORMAT_BEGIN
 90
        0
 91
        1
 62
     0
 92
       -2
340
14
 93
        0
 40
0.045
309
GRIDFORMAT_END
 95
        4
302
GRIDFORMAT
  1
GRIDFORMAT_BEGIN
 90
        0
 91
        1
 62
     0
 92
       -2
340
14
 93
        0
 40
0.045
309
GRIDFORMAT_END
 95
        8
302
GRIDFORMAT
  1
GRIDFORMAT_BEGIN
 90
        0
 91
        1
 62
     0
 92
       -2
340
14
 93
        0
 40
0.045
309
GRIDFORMAT_END
 95
       16
302
GRIDFORMAT
  1
GRIDFORMAT_BEGIN
 90
        0
 91
        1
 62
     0
 92
       -2
340
14
 93
        0
 40
0.045
309
GRIDFORMAT_END
 95
       32
302
GRIDFORMAT
  1
GRIDFORMAT_BEGIN
 90
        0
 91
        1
 62
     0
 92
       -2
340
14
 93
        0
 40
0.045
309
GRIDFORMAT_END
309
TABLEFORMAT_END
  1
CELLSTYLE_BEGIN
 90
        3
 91
        2
300
_DATA
309
CELLSTYLE_END
  0
ENDSEC
  0
EOF