0
SECTION
  2
HEADER
  9
$ACADVER
  1
AC1027
  9
$ACADMAINTVER
 70
     8
  9
$DWGCODEPAGE
  3
ANSI_1252
  9
$REQUIREDVERSIONS
160
                 0
  9
$COMMENTS
  1
File was created by Cadenas
  9
$CUSTOMPROPERTYTAG
  1
NN
  9
$CUSTOMPROPERTY
  1
Steel IMPERIAL-HD Piloted Flange 2-7/16 thru 5 Inch Bore
  9
$CUSTOMPROPERTYTAG
  1
NT
  9
$CUSTOMPROPERTY
  1
Steal Imperial Piloted Flange Bearing-Inch-207-500
  9
$CUSTOMPROPERTYTAG
  1
NB
  9
$CUSTOMPROPERTY
  1
072323
  9
$CUSTOMPROPERTYTAG
  1
NBSYN
  9
$CUSTOMPROPERTY
  1
$PN.
  9
$CUSTOMPROPERTYTAG
  1
LINA
  9
$CUSTOMPROPERTY
  1
072323
  9
$CUSTOMPROPERTYTAG
  1
SS
  9
$CUSTOMPROPERTY
  1
2-11/16
  9
$CUSTOMPROPERTYTAG
  1
PN
  9
$CUSTOMPROPERTY
  1
072323
  9
$CUSTOMPROPERTYTAG
  1
TYPE
  9
$CUSTOMPROPERTY
  1
Expansion
  9
$CUSTOMPROPERTYTAG
  1
EF
  9
$CUSTOMPROPERTY
  1
Expansion
  9
$CUSTOMPROPERTYTAG
  1
DESCRIPTION
  9
$CUSTOMPROPERTY
  1
SFC-IP-211RE
  9
$CUSTOMPROPERTYTAG
  1
ST
  9
$CUSTOMPROPERTY
  1
Contact Seal
  9
$CUSTOMPROPERTYTAG
  1
A
  9
$CUSTOMPROPERTY
  1
3.50
  9
$CUSTOMPROPERTYTAG
  1
B
  9
$CUSTOMPROPERTY
  1
8.75
  9
$CUSTOMPROPERTYTAG
  1
C
  9
$CUSTOMPROPERTY
  1
2.83
  9
$CUSTOMPROPERTYTAG
  1
D
  9
$CUSTOMPROPERTY
  1
5.30
  9
$CUSTOMPROPERTYTAG
  1
DD
  9
$CUSTOMPROPERTY
  1
7.500
  9
$CUSTOMPROPERTYTAG
  1
E
  9
$CUSTOMPROPERTY
  1
1.44
  9
$CUSTOMPROPERTYTAG
  1
F
  9
$CUSTOMPROPERTY
  1
0.625
  9
$CUSTOMPROPERTYTAG
  1
G
  9
$CUSTOMPROPERTY
  1
1.89
  9
$CUSTOMPROPERTYTAG
  1
H
  9
$CUSTOMPROPERTY
  1
0.63
  9
$CUSTOMPROPERTYTAG
  1
K
  9
$CUSTOMPROPERTY
  1
6.375
  9
$CUSTOMPROPERTYTAG
  1
L
  9
$CUSTOMPROPERTY
  1
4.20
  9
$CUSTOMPROPERTYTAG
  1
M
  9
$CUSTOMPROPERTY
  1
0.625
  9
$CUSTOMPROPERTYTAG
  1
N
  9
$CUSTOMPROPERTY
  1
3.77
  9
$CUSTOMPROPERTYTAG
  1
P
  9
$CUSTOMPROPERTY
  1
1.62
  9
$CUSTOMPROPERTYTAG
  1
Q
  9
$CUSTOMPROPERTY
  1
1.88
  9
$CUSTOMPROPERTYTAG
  1
X
  9
$CUSTOMPROPERTY
  1
0.25
  9
$CUSTOMPROPERTYTAG
  1
Y
  9
$CUSTOMPROPERTY
  1
0.025
  9
$CUSTOMPROPERTYTAG
  1
Z
  9
$CUSTOMPROPERTY
  1
3.47
  9
$CUSTOMPROPERTYTAG
  1
COMPANY
  9
$CUSTOMPROPERTY
  1
baldor
  9
$INSBASE
 10
0.0
 20
0.0
 30
0.0
  9
$EXTMIN
 10
1.000000000000000E+20
 20
1.000000000000000E+20
 30
1.000000000000000E+20
  9
$EXTMAX
 10
-1.000000000000000E+20
 20
-1.000000000000000E+20
 30
-1.000000000000000E+20
  9
$LIMMIN
 10
0.0
 20
0.0
  9
$LIMMAX
 10
12.0
 20
9.0
  9
$ORTHOMODE
 70
     0
  9
$REGENMODE
 70
     1
  9
$FILLMODE
 70
     1
  9
$QTEXTMODE
 70
     0
  9
$MIRRTEXT
 70
     1
  9
$LTSCALE
 40
1.0
  9
$ATTMODE
 70
     1
  9
$TEXTSIZE
 40
0.2
  9
$TRACEWID
 40
0.05
  9
$TEXTSTYLE
  7
Standard
  9
$CLAYER
  8
0
  9
$CELTYPE
  6
ByLayer
  9
$CECOLOR
 62
   256
  9
$CELTSCALE
 40
1.0
  9
$DISPSILH
 70
     0
  9
$DIMSCALE
 40
1.0
  9
$DIMASZ
 40
0.18
  9
$DIMEXO
 40
0.0625
  9
$DIMDLI
 40
0.38
  9
$DIMRND
 40
0.0
  9
$DIMDLE
 40
0.0
  9
$DIMEXE
 40
0.18
  9
$DIMTP
 40
0.0
  9
$DIMTM
 40
0.0
  9
$DIMTXT
 40
0.18
  9
$DIMCEN
 40
0.09
  9
$DIMTSZ
 40
0.0
  9
$DIMTOL
 70
     0
  9
$DIMLIM
 70
     0
  9
$DIMTIH
 70
     1
  9
$DIMTOH
 70
     1
  9
$DIMSE1
 70
     0
  9
$DIMSE2
 70
     0
  9
$DIMTAD
 70
     0
  9
$DIMZIN
 70
     0
  9
$DIMBLK
  1

  9
$DIMASO
 70
     1
  9
$DIMSHO
 70
     1
  9
$DIMPOST
  1

  9
$DIMAPOST
  1

  9
$DIMALT
 70
     0
  9
$DIMALTD
 70
     2
  9
$DIMALTF
 40
25.4
  9
$DIMLFAC
 40
1.0
  9
$DIMTOFL
 70
     0
  9
$DIMTVP
 40
0.0
  9
$DIMTIX
 70
     0
  9
$DIMSOXD
 70
     0
  9
$DIMSAH
 70
     0
  9
$DIMBLK1
  1

  9
$DIMBLK2
  1

  9
$DIMSTYLE
  2
Standard
  9
$DIMCLRD
 70
     0
  9
$DIMCLRE
 70
     0
  9
$DIMCLRT
 70
     0
  9
$DIMTFAC
 40
1.0
  9
$DIMGAP
 40
0.09
  9
$DIMJUST
 70
     0
  9
$DIMSD1
 70
     0
  9
$DIMSD2
 70
     0
  9
$DIMTOLJ
 70
     1
  9
$DIMTZIN
 70
     0
  9
$DIMALTZ
 70
     0
  9
$DIMALTTZ
 70
     0
  9
$DIMUPT
 70
     0
  9
$DIMDEC
 70
     4
  9
$DIMTDEC
 70
     4
  9
$DIMALTU
 70
     2
  9
$DIMALTTD
 70
     2
  9
$DIMTXSTY
  7
Standard
  9
$DIMAUNIT
 70
     0
  9
$DIMADEC
 70
     0
  9
$DIMALTRND
 40
0.0
  9
$DIMAZIN
 70
     0
  9
$DIMDSEP
 70
    46
  9
$DIMATFIT
 70
     3
  9
$DIMFRAC
 70
     0
  9
$DIMLDRBLK
  1

  9
$DIMLUNIT
 70
     2
  9
$DIMLWD
 70
    -2
  9
$DIMLWE
 70
    -2
  9
$DIMTMOVE
 70
     0
  9
$DIMFXL
 40
1.0
  9
$DIMFXLON
 70
     0
  9
$DIMJOGANG
 40
0.7853981633974483
  9
$DIMTFILL
 70
     0
  9
$DIMTFILLCLR
 70
     0
  9
$DIMARCSYM
 70
     0
  9
$DIMLTYPE
  6

  9
$DIMLTEX1
  6

  9
$DIMLTEX2
  6

  9
$DIMTXTDIRECTION
 70
     0
  9
$LUNITS
 70
     2
  9
$LUPREC
 70
     4
  9
$SKETCHINC
 40
0.1
  9
$FILLETRAD
 40
0.5
  9
$AUNITS
 70
     0
  9
$AUPREC
 70
     0
  9
$MENU
  1
.
  9
$ELEVATION
 40
0.0
  9
$PELEVATION
 40
0.0
  9
$THICKNESS
 40
0.0
  9
$LIMCHECK
 70
     0
  9
$CHAMFERA
 40
0.0
  9
$CHAMFERB
 40
0.0
  9
$CHAMFERC
 40
0.0
  9
$CHAMFERD
 40
0.0
  9
$SKPOLY
 70
     0
  9
$TDCREATE
 40
2458168.897382581
  9
$TDUCREATE
 40
2458168.855715914
  9
$TDUPDATE
 40
2458168.897382755
  9
$TDUUPDATE
 40
2458168.855716088
  9
$TDINDWG
 40
0.0000000116
  9
$TDUSRTIMER
 40
0.0000000116
  9
$USRTIMER
 70
     1
  9
$ANGBASE
 50
0.0
  9
$ANGDIR
 70
     0
  9
$PDMODE
 70
     0
  9
$PDSIZE
 40
0.0
  9
$PLINEWID
 40
0.0
  9
$SPLFRAME
 70
     0
  9
$SPLINETYPE
 70
     6
  9
$SPLINESEGS
 70
     8
  9
$HANDSEED
  5
299
  9
$SURFTAB1
 70
     6
  9
$SURFTAB2
 70
     6
  9
$SURFTYPE
 70
     6
  9
$SURFU
 70
     6
  9
$SURFV
 70
     6
  9
$UCSBASE
  2

  9
$UCSNAME
  2

  9
$UCSORG
 10
0.0
 20
0.0
 30
0.0
  9
$UCSXDIR
 10
1.0
 20
0.0
 30
0.0
  9
$UCSYDIR
 10
0.0
 20
1.0
 30
0.0
  9
$UCSORTHOREF
  2

  9
$UCSORTHOVIEW
 70
     0
  9
$UCSORGTOP
 10
0.0
 20
0.0
 30
0.0
  9
$UCSORGBOTTOM
 10
0.0
 20
0.0
 30
0.0
  9
$UCSORGLEFT
 10
0.0
 20
0.0
 30
0.0
  9
$UCSORGRIGHT
 10
0.0
 20
0.0
 30
0.0
  9
$UCSORGFRONT
 10
0.0
 20
0.0
 30
0.0
  9
$UCSORGBACK
 10
0.0
 20
0.0
 30
0.0
  9
$PUCSBASE
  2

  9
$PUCSNAME
  2

  9
$PUCSORG
 10
0.0
 20
0.0
 30
0.0
  9
$PUCSXDIR
 10
1.0
 20
0.0
 30
0.0
  9
$PUCSYDIR
 10
0.0
 20
1.0
 30
0.0
  9
$PUCSORTHOREF
  2

  9
$PUCSORTHOVIEW
 70
     0
  9
$PUCSORGTOP
 10
0.0
 20
0.0
 30
0.0
  9
$PUCSORGBOTTOM
 10
0.0
 20
0.0
 30
0.0
  9
$PUCSORGLEFT
 10
0.0
 20
0.0
 30
0.0
  9
$PUCSORGRIGHT
 10
0.0
 20
0.0
 30
0.0
  9
$PUCSORGFRONT
 10
0.0
 20
0.0
 30
0.0
  9
$PUCSORGBACK
 10
0.0
 20
0.0
 30
0.0
  9
$USERI1
 70
     0
  9
$USERI2
 70
     0
  9
$USERI3
 70
     0
  9
$USERI4
 70
     0
  9
$USERI5
 70
     0
  9
$USERR1
 40
0.0
  9
$USERR2
 40
0.0
  9
$USERR3
 40
0.0
  9
$USERR4
 40
0.0
  9
$USERR5
 40
0.0
  9
$WORLDVIEW
 70
     1
  9
$SHADEDGE
 70
     3
  9
$SHADEDIF
 70
    70
  9
$TILEMODE
 70
     1
  9
$MAXACTVP
 70
    64
  9
$PINSBASE
 10
0.0
 20
0.0
 30
0.0
  9
$PLIMCHECK
 70
     0
  9
$PEXTMIN
 10
1.000000000000000E+20
 20
1.000000000000000E+20
 30
1.000000000000000E+20
  9
$PEXTMAX
 10
-1.000000000000000E+20
 20
-1.000000000000000E+20
 30
-1.000000000000000E+20
  9
$PLIMMIN
 10
0.0
 20
0.0
  9
$PLIMMAX
 10
12.0
 20
9.0
  9
$UNITMODE
 70
     0
  9
$VISRETAIN
 70
     1
  9
$PLINEGEN
 70
     0
  9
$PSLTSCALE
 70
     1
  9
$TREEDEPTH
 70
  3020
  9
$CMLSTYLE
  2
Standard
  9
$CMLJUST
 70
     0
  9
$CMLSCALE
 40
1.0
  9
$PROXYGRAPHICS
 70
     1
  9
$MEASUREMENT
 70
     0
  9
$CELWEIGHT
370
    -1
  9
$ENDCAPS
280
     0
  9
$JOINSTYLE
280
     0
  9
$LWDISPLAY
290
     0
  9
$INSUNITS
 70
     1
  9
$HYPERLINKBASE
  1

  9
$STYLESHEET
  1

  9
$XEDIT
290
     1
  9
$CEPSNTYPE
380
     0
  9
$PSTYLEMODE
290
     1
  9
$FINGERPRINTGUID
  2
{F0AC10A1-B022-4FF0-A25C-4EF348950C2A}
  9
$VERSIONGUID
  2
{FAEB1C32-E019-11D5-929B-00C0DF256EC4}
  9
$EXTNAMES
290
     1
  9
$PSVPSCALE
 40
0.0
  9
$OLESTARTUP
290
     0
  9
$SORTENTS
280
   127
  9
$INDEXCTL
280
     0
  9
$HIDETEXT
280
     1
  9
$XCLIPFRAME
280
     2
  9
$HALOGAP
280
     0
  9
$OBSCOLOR
 70
   257
  9
$OBSLTYPE
280
     0
  9
$INTERSECTIONDISPLAY
280
     0
  9
$INTERSECTIONCOLOR
 70
   257
  9
$DIMASSOC
280
     2
  9
$PROJECTNAME
  1

  9
$CAMERADISPLAY
290
     0
  9
$LENSLENGTH
 40
50.0
  9
$CAMERAHEIGHT
 40
0.0
  9
$STEPSPERSEC
 40
2.0
  9
$STEPSIZE
 40
6.0
  9
$3DDWFPREC
 40
2.0
  9
$PSOLWIDTH
 40
0.25
  9
$PSOLHEIGHT
 40
4.0
  9
$LOFTANG1
 40
1.570796326794897
  9
$LOFTANG2
 40
1.570796326794897
  9
$LOFTMAG1
 40
0.0
  9
$LOFTMAG2
 40
0.0
  9
$LOFTPARAM
 70
     7
  9
$LOFTNORMALS
280
     1
  9
$LATITUDE
 40
37.795
  9
$LONGITUDE
 40
-122.394
  9
$NORTHDIRECTION
 40
0.0
  9
$TIMEZONE
 70
 -8000
  9
$LIGHTGLYPHDISPLAY
280
     1
  9
$TILEMODELIGHTSYNCH
280
     1
  9
$CMATERIAL
347
44
  9
$SOLIDHIST
280
     0
  9
$SHOWHIST
280
     1
  9
$DWFFRAME
280
     2
  9
$DGNFRAME
280
     2
  9
$REALWORLDSCALE
290
     1
  9
$INTERFERECOLOR
 62
   256
  9
$CSHADOW
280
     0
  9
$SHADOWPLANELOCATION
 40
0.0
  0
ENDSEC
  0
SECTION
  2
CLASSES
  0
CLASS
  1
ACDBDICTIONARYWDFLT
  2
AcDbDictionaryWithDefault
  3
ObjectDBX Classes
 90
        0
 91
        4
280
     0
281
     0
  0
CLASS
  1
VISUALSTYLE
  2
AcDbVisualStyle
  3
ObjectDBX Classes
 90
     4095
 91
        4
280
     0
281
     0
  0
CLASS
  1
MATERIAL
  2
AcDbMaterial
  3
ObjectDBX Classes
 90
     1153
 91
        4
280
     0
281
     0
  0
CLASS
  1
SCALE
  2
AcDbScale
  3
ObjectDBX Classes
 90
     1153
 91
        4
280
     0
281
     0
  0
CLASS
  1
TABLESTYLE
  2
AcDbTableStyle
  3
ObjectDBX Classes
 90
     4095
 91
        4
280
     0
281
     0
  0
CLASS
  1
MLEADERSTYLE
  2
AcDbMLeaderStyle
  3
ACDB_MLEADERSTYLE_CLASS
 90
     4095
 91
        4
280
     0
281
     0
  0
CLASS
  1
SUN
  2
AcDbSun
  3
SCENEOE
 90
     1153
 91
        4
280
     0
281
     0
  0
CLASS
  1
DICTIONARYVAR
  2
AcDbDictionaryVar
  3
ObjectDBX Classes
 90
        0
 91
        4
280
     0
281
     0
  0
CLASS
  1
CELLSTYLEMAP
  2
AcDbCellStyleMap
  3
ObjectDBX Classes
 90
     1152
 91
        4
280
     0
281
     0
  0
ENDSEC
  0
SECTION
  2
TABLES
  0
TABLE
  2
VPORT
  5
8
330
0
100
AcDbSymbolTable
 70
     1
  0
VPORT
  5
29
330
8
100
AcDbSymbolTableRecord
100
AcDbViewportTableRecord
  2
*Active
 70
     0
 10
0.0
 20
0.0
 11
1.0
 21
1.0
 12
0.0
 22
0.0
 13
0.0
 23
0.0
 14
0.5
 24
0.5
 15
0.5
 25
0.5
 16
0.0
 26
0.0
 36
1.0
 17
0.0
 27
0.0
 37
0.0
 40
8.925
 41
0.711542857142857
 42
50.0
 43
0.0
 44
0.0
 50
0.0
 51
0.0
 71
     0
 72
   100
 73
     1
 74
     3
 75
     0
 76
     0
 77
     0
 78
     0
281
     0
 65
     1
110
0.0
120
0.0
130
0.0
111
1.0
121
0.0
131
0.0
112
0.0
122
1.0
132
0.0
 79
     0
146
0.0
348
2F
 60
     3
 61
     5
292
     1
282
     1
141
0.0
142
0.0
 63
   250
361
6D
  0
ENDTAB
  0
TABLE
  2
LTYPE
  5
5
330
0
100
AcDbSymbolTable
 70
     3
  0
LTYPE
  5
14
330
5
100
AcDbSymbolTableRecord
100
AcDbLinetypeTableRecord
  2
ByBlock
 70
     0
  3

 72
    65
 73
     0
 40
0.0
  0
LTYPE
  5
15
330
5
100
AcDbSymbolTableRecord
100
AcDbLinetypeTableRecord
  2
ByLayer
 70
     0
  3

 72
    65
 73
     0
 40
0.0
  0
LTYPE
  5
16
330
5
100
AcDbSymbolTableRecord
100
AcDbLinetypeTableRecord
  2
Continuous
 70
     0
  3
Solid line
 72
    65
 73
     0
 40
0.0
  0
LTYPE
  5
9D
330
5
100
AcDbSymbolTableRecord
100
AcDbLinetypeTableRecord
  2
Dashed
 70
     0
  3

 72
    65
 73
     2
 40
2.0
 49
1.0
 74
     0
 49
-1.0
 74
     0
  0
LTYPE
  5
AB
330
5
100
AcDbSymbolTableRecord
100
AcDbLinetypeTableRecord
  2
Center
 70
     0
  3

 72
    65
 73
     4
 40
1.5
 49
0.45
 74
     0
 49
-0.5
 74
     0
 49
0.05
 74
     0
 49
-0.5
 74
     0
  0
ENDTAB
  0
TABLE
  2
LAYER
  5
2
330
0
100
AcDbSymbolTable
 70
     7
  0
LAYER
  5
10
330
2
100
AcDbSymbolTableRecord
100
AcDbLayerTableRecord
  2
0
 70
     0
 62
     7
  6
Continuous
370
    -3
390
F
347
46
348
0
  0
LAYER
  5
72
330
2
100
AcDbSymbolTableRecord
100
AcDbLayerTableRecord
  2
AM_6
 70
     0
 62
    -2
  6
Continuous
370
    35
390
F
347
46
348
0
  0
LAYER
  5
9E
330
2
100
AcDbSymbolTableRecord
100
AcDbLayerTableRecord
  2
AM_9
 70
     0
 62
     6
  6
Dashed
370
    25
390
F
347
46
348
0
  0
LAYER
  5
A5
330
2
100
AcDbSymbolTableRecord
100
AcDbLayerTableRecord
  2
AM_5
 70
     0
 62
     3
  6
Continuous
370
    25
390
F
347
46
348
0
  0
LAYER
  5
AC
330
2
100
AcDbSymbolTableRecord
100
AcDbLayerTableRecord
  2
AM_7
 70
     0
 62
     7
  6
Center
370
    25
390
F
347
46
348
0
  0
LAYER
  5
AE
330
2
100
AcDbSymbolTableRecord
100
AcDbLayerTableRecord
  2
AM_4
 70
     0
 62
     7
  6
Continuous
370
    50
390
F
347
46
348
0
  0
LAYER
  5
280
330
2
100
AcDbSymbolTableRecord
100
AcDbLayerTableRecord
  2
ConnectionPoints
 70
     0
 62
     7
  6
Continuous
370
    50
390
F
347
46
348
0
  0
ENDTAB
  0
TABLE
  2
STYLE
  5
3
330
0
100
AcDbSymbolTable
 70
     1
  0
STYLE
  5
11
330
3
100
AcDbSymbolTableRecord
100
AcDbTextStyleTableRecord
  2
Standard
 70
     0
 40
0.0
 41
1.0
 50
0.0
 71
     0
 42
0.2
  3
txt
  4

  0
ENDTAB
  0
TABLE
  2
VIEW
  5
6
330
0
100
AcDbSymbolTable
 70
     0
  0
ENDTAB
  0
TABLE
  2
UCS
  5
7
330
0
100
AcDbSymbolTable
 70
     0
  0
ENDTAB
  0
TABLE
  2
APPID
  5
9
330
0
100
AcDbSymbolTable
 70
     1
  0
APPID
  5
12
330
9
100
AcDbSymbolTableRecord
100
AcDbRegAppTableRecord
  2
ACAD
 70
     0
  0
ENDTAB
  0
TABLE
  2
DIMSTYLE
  5
A
330
0
100
AcDbSymbolTable
 70
     1
100
AcDbDimStyleTable
  0
DIMSTYLE
105
27
330
A
100
AcDbSymbolTableRecord
100
AcDbDimStyleTableRecord
  2
Standard
 70
     0
178
     0
340
11
  0
ENDTAB
  0
TABLE
  2
BLOCK_RECORD
  5
1
330
0
100
AcDbSymbolTable
 70
     9
  0
BLOCK_RECORD
  5
1F
330
1
100
AcDbSymbolTableRecord
100
AcDbBlockTableRecord
  2
*Model_Space
340
22
 70
     0
280
     1
281
     0
  0
BLOCK_RECORD
  5
1B
330
1
100
AcDbSymbolTableRecord
100
AcDbBlockTableRecord
  2
*Paper_Space
340
1E
 70
     0
280
     1
281
     0
  0
BLOCK_RECORD
  5
23
330
1
100
AcDbSymbolTableRecord
100
AcDbBlockTableRecord
  2
*Paper_Space0
340
26
 70
     0
280
     1
281
     0
  0
BLOCK_RECORD
  5
6E
330
1
100
AcDbSymbolTableRecord
100
AcDbBlockTableRecord
  2
1_072323_2
340
0
102
{BLKREFS
331
6F
102
}
 70
     0
280
     1
281
     0
  0
BLOCK_RECORD
  5
91
330
1
100
AcDbSymbolTableRecord
100
AcDbBlockTableRecord
  2
2_405015E_Inch_1_0_in_072323_2
340
0
102
{BLKREFS
331
92
102
}
 70
     0
280
     1
281
     0
  0
BLOCK_RECORD
  5
D6
330
1
100
AcDbSymbolTableRecord
100
AcDbBlockTableRecord
  2
3_405015E_Inch_2_0_in_072323_2
340
0
102
{BLKREFS
331
D7
102
}
 70
     0
280
     1
281
     0
  0
BLOCK_RECORD
  5
115
330
1
100
AcDbSymbolTableRecord
100
AcDbBlockTableRecord
  2
4_ASME_B18_3_10_1_0_in_072323_2
340
0
102
{BLKREFS
331
116
102
}
 70
     0
280
     1
281
     0
  0
BLOCK_RECORD
  5
13E
330
1
100
AcDbSymbolTableRecord
100
AcDbBlockTableRecord
  2
5_ASME_B18_3_10_2_0_in_072323_2
340
0
102
{BLKREFS
331
13F
102
}
 70
     0
280
     1
281
     0
  0
BLOCK_RECORD
  5
167
330
1
100
AcDbSymbolTableRecord
100
AcDbBlockTableRecord
  2
6_070897LW_0_in_072323_2
340
0
102
{BLKREFS
331
168
102
}
 70
     0
280
     1
281
     0
  0
BLOCK_RECORD
  5
19D
330
1
100
AcDbSymbolTableRecord
100
AcDbBlockTableRecord
  2
7_070897I_0_in_072323_2
340
0
102
{BLKREFS
331
19E
102
}
 70
     0
280
     1
281
     0
  0
BLOCK_RECORD
  5
22A
330
1
100
AcDbSymbolTableRecord
100
AcDbBlockTableRecord
  2
8_B072323_0_in_072323_2
340
0
102
{BLKREFS
331
22B
102
}
 70
     0
280
     1
281
     0
  0
ENDTAB
  0
ENDSEC
  0
SECTION
  2
BLOCKS
  0
BLOCK
  5
20
330
1F
100
AcDbEntity
  8
0
100
AcDbBlockBegin
  2
*Model_Space
 70
     0
 10
0.0
 20
0.0
 30
0.0
  3
*Model_Space
  1

  0
ENDBLK
  5
21
330
1F
100
AcDbEntity
  8
0
100
AcDbBlockEnd
  0
BLOCK
  5
1C
330
1B
100
AcDbEntity
 67
     1
  8
0
100
AcDbBlockBegin
  2
*Paper_Space
 70
     0
 10
0.0
 20
0.0
 30
0.0
  3
*Paper_Space
  1

  0
ENDBLK
  5
1D
330
1B
100
AcDbEntity
 67
     1
  8
0
100
AcDbBlockEnd
  0
BLOCK
  5
24
330
23
100
AcDbEntity
  8
0
100
AcDbBlockBegin
  2
*Paper_Space0
 70
     0
 10
0.0
 20
0.0
 30
0.0
  3
*Paper_Space0
  1

  0
ENDBLK
  5
25
330
23
100
AcDbEntity
  8
0
100
AcDbBlockEnd
  0
BLOCK
  5
70
330
6E
100
AcDbEntity
  8
0
100
AcDbBlockBegin
  2
1_072323_2
 70
     2
 10
0.0
 20
0.0
 30
0.0
  3
1_072323_2
  1

  0
ATTDEF
  5
73
330
6E
100
AcDbEntity
  8
AM_6
100
AcDbText
 10
8.113
 20
4.375
 30
0.0
 40
0.5
  1
Steel IMPERIAL-HD Piloted Flange 2-7/16 thru 5 Inch Bore
100
AcDbAttributeDefinition
  3

  2
NN
 70
     8
280
     0
  0
ATTDEF
  5
74
330
6E
100
AcDbEntity
  8
AM_6
100
AcDbText
 10
8.113
 20
3.875
 30
0.0
 40
0.5
  1
Steal Imperial Piloted Flange Bearing-Inch-207-500
100
AcDbAttributeDefinition
  3

  2
NT
 70
     8
280
     0
  0
ATTDEF
  5
75
330
6E
100
AcDbEntity
  8
AM_6
100
AcDbText
 10
8.113
 20
3.375
 30
0.0
 40
0.5
  1
072323
100
AcDbAttributeDefinition
  3

  2
NB
 70
     8
280
     0
  0
ATTDEF
  5
76
330
6E
100
AcDbEntity
  8
AM_6
100
AcDbText
 10
8.113
 20
2.875
 30
0.0
 40
0.5
  1
$PN.
100
AcDbAttributeDefinition
  3

  2
NBSYN
 70
     8
280
     0
  0
ATTDEF
  5
77
330
6E
100
AcDbEntity
  8
AM_6
100
AcDbText
 10
8.113
 20
2.375
 30
0.0
 40
0.5
  1
072323
100
AcDbAttributeDefinition
  3

  2
LINA
 70
     8
280
     0
  0
ATTDEF
  5
78
330
6E
100
AcDbEntity
  8
AM_6
100
AcDbText
 10
8.113
 20
1.875
 30
0.0
 40
0.5
  1
2-11/16
100
AcDbAttributeDefinition
  3

  2
SS
 70
     8
280
     0
  0
ATTDEF
  5
79
330
6E
100
AcDbEntity
  8
AM_6
100
AcDbText
 10
8.113
 20
1.375
 30
0.0
 40
0.5
  1
072323
100
AcDbAttributeDefinition
  3

  2
PN
 70
     8
280
     0
  0
ATTDEF
  5
7A
330
6E
100
AcDbEntity
  8
AM_6
100
AcDbText
 10
8.113
 20
0.875
 30
0.0
 40
0.5
  1
Expansion
100
AcDbAttributeDefinition
  3

  2
TYPE
 70
     8
280
     0
  0
ATTDEF
  5
7B
330
6E
100
AcDbEntity
  8
AM_6
100
AcDbText
 10
8.113
 20
0.375
 30
0.0
 40
0.5
  1
Expansion
100
AcDbAttributeDefinition
  3

  2
EF
 70
     8
280
     0
  0
ATTDEF
  5
7C
330
6E
100
AcDbEntity
  8
AM_6
100
AcDbText
 10
8.113
 20
-0.125
 30
0.0
 40
0.5
  1
SFC-IP-211RE
100
AcDbAttributeDefinition
  3

  2
DESCRIPTION
 70
     8
280
     0
  0
ATTDEF
  5
7D
330
6E
100
AcDbEntity
  8
AM_6
100
AcDbText
 10
8.113
 20
-0.625
 30
0.0
 40
0.5
  1
Contact Seal
100
AcDbAttributeDefinition
  3

  2
ST
 70
     8
280
     0
  0
ATTDEF
  5
7E
330
6E
100
AcDbEntity
  8
AM_6
100
AcDbText
 10
8.113
 20
-1.125
 30
0.0
 40
0.5
  1
3.50
100
AcDbAttributeDefinition
  3

  2
A
 70
     8
280
     0
  0
ATTDEF
  5
7F
330
6E
100
AcDbEntity
  8
AM_6
100
AcDbText
 10
8.113
 20
-1.625
 30
0.0
 40
0.5
  1
8.75
100
AcDbAttributeDefinition
  3

  2
B
 70
     8
280
     0
  0
ATTDEF
  5
80
330
6E
100
AcDbEntity
  8
AM_6
100
AcDbText
 10
8.113
 20
-2.125
 30
0.0
 40
0.5
  1
2.83
100
AcDbAttributeDefinition
  3

  2
C
 70
     8
280
     0
  0
ATTDEF
  5
81
330
6E
100
AcDbEntity
  8
AM_6
100
AcDbText
 10
8.113
 20
-2.625
 30
0.0
 40
0.5
  1
5.30
100
AcDbAttributeDefinition
  3

  2
D
 70
     8
280
     0
  0
ATTDEF
  5
82
330
6E
100
AcDbEntity
  8
AM_6
100
AcDbText
 10
8.113
 20
-3.125
 30
0.0
 40
0.5
  1
7.500
100
AcDbAttributeDefinition
  3

  2
DD
 70
     8
280
     0
  0
ATTDEF
  5
83
330
6E
100
AcDbEntity
  8
AM_6
100
AcDbText
 10
8.113
 20
-3.625
 30
0.0
 40
0.5
  1
1.44
100
AcDbAttributeDefinition
  3

  2
E
 70
     8
280
     0
  0
ATTDEF
  5
84
330
6E
100
AcDbEntity
  8
AM_6
100
AcDbText
 10
8.113
 20
-4.125
 30
0.0
 40
0.5
  1
0.625
100
AcDbAttributeDefinition
  3

  2
F
 70
     8
280
     0
  0
ATTDEF
  5
85
330
6E
100
AcDbEntity
  8
AM_6
100
AcDbText
 10
8.113
 20
-4.625
 30
0.0
 40
0.5
  1
1.89
100
AcDbAttributeDefinition
  3

  2
G
 70
     8
280
     0
  0
ATTDEF
  5
86
330
6E
100
AcDbEntity
  8
AM_6
100
AcDbText
 10
8.113
 20
-5.125
 30
0.0
 40
0.5
  1
0.63
100
AcDbAttributeDefinition
  3

  2
H
 70
     8
280
     0
  0
ATTDEF
  5
87
330
6E
100
AcDbEntity
  8
AM_6
100
AcDbText
 10
8.113
 20
-5.625
 30
0.0
 40
0.5
  1
6.375
100
AcDbAttributeDefinition
  3

  2
K
 70
     8
280
     0
  0
ATTDEF
  5
88
330
6E
100
AcDbEntity
  8
AM_6
100
AcDbText
 10
8.113
 20
-6.125
 30
0.0
 40
0.5
  1
4.20
100
AcDbAttributeDefinition
  3

  2
L
 70
     8
280
     0
  0
ATTDEF
  5
89
330
6E
100
AcDbEntity
  8
AM_6
100
AcDbText
 10
8.113
 20
-6.625
 30
0.0
 40
0.5
  1
0.625
100
AcDbAttributeDefinition
  3

  2
M
 70
     8
280
     0
  0
ATTDEF
  5
8A
330
6E
100
AcDbEntity
  8
AM_6
100
AcDbText
 10
8.113
 20
-7.125
 30
0.0
 40
0.5
  1
3.77
100
AcDbAttributeDefinition
  3

  2
N
 70
     8
280
     0
  0
ATTDEF
  5
8B
330
6E
100
AcDbEntity
  8
AM_6
100
AcDbText
 10
8.113
 20
-7.625
 30
0.0
 40
0.5
  1
1.62
100
AcDbAttributeDefinition
  3

  2
P
 70
     8
280
     0
  0
ATTDEF
  5
8C
330
6E
100
AcDbEntity
  8
AM_6
100
AcDbText
 10
8.113
 20
-8.125
 30
0.0
 40
0.5
  1
1.88
100
AcDbAttributeDefinition
  3

  2
Q
 70
     8
280
     0
  0
ATTDEF
  5
8D
330
6E
100
AcDbEntity
  8
AM_6
100
AcDbText
 10
8.113
 20
-8.625
 30
0.0
 40
0.5
  1
0.25
100
AcDbAttributeDefinition
  3

  2
X
 70
     8
280
     0
  0
ATTDEF
  5
8E
330
6E
100
AcDbEntity
  8
AM_6
100
AcDbText
 10
8.113
 20
-9.125
 30
0.0
 40
0.5
  1
0.025
100
AcDbAttributeDefinition
  3

  2
Y
 70
     8
280
     0
  0
ATTDEF
  5
8F
330
6E
100
AcDbEntity
  8
AM_6
100
AcDbText
 10
8.113
 20
-9.625
 30
0.0
 40
0.5
  1
3.47
100
AcDbAttributeDefinition
  3

  2
Z
 70
     8
280
     0
  0
ATTDEF
  5
90
330
6E
100
AcDbEntity
  8
AM_6
100
AcDbText
 10
8.113
 20
-10.125
 30
0.0
 40
0.5
  1
baldor
100
AcDbAttributeDefinition
  3

  2
COMPANY
 70
     8
280
     0
  0
INSERT
  5
92
330
6E
100
AcDbEntity
  8
0
100
AcDbBlockReference
  2
2_405015E_Inch_1_0_in_072323_2
 10
0.0
 20
0.0
 30
0.0
  0
INSERT
  5
D7
330
6E
100
AcDbEntity
  8
0
100
AcDbBlockReference
  2
3_405015E_Inch_2_0_in_072323_2
 10
0.0
 20
0.0
 30
0.0
  0
INSERT
  5
116
330
6E
100
AcDbEntity
  8
0
100
AcDbBlockReference
  2
4_ASME_B18_3_10_1_0_in_072323_2
 10
0.0
 20
0.0
 30
0.0
  0
INSERT
  5
13F
330
6E
100
AcDbEntity
  8
0
100
AcDbBlockReference
  2
5_ASME_B18_3_10_2_0_in_072323_2
 10
0.0
 20
0.0
 30
0.0
  0
INSERT
  5
168
330
6E
100
AcDbEntity
  8
0
100
AcDbBlockReference
  2
6_070897LW_0_in_072323_2
 10
0.0
 20
0.0
 30
0.0
  0
INSERT
  5
19E
330
6E
100
AcDbEntity
  8
0
100
AcDbBlockReference
  2
7_070897I_0_in_072323_2
 10
0.0
 20
0.0
 30
0.0
  0
INSERT
  5
22B
330
6E
100
AcDbEntity
  8
0
100
AcDbBlockReference
  2
8_B072323_0_in_072323_2
 10
0.0
 20
0.0
 30
0.0
  0
ENDBLK
  5
71
330
6E
100
AcDbEntity
  8
0
100
AcDbBlockEnd
  0
BLOCK
  5
93
330
91
100
AcDbEntity
  8
0
100
AcDbBlockBegin
  2
2_405015E_Inch_1_0_in_072323_2
 70
     2
 10
0.0
 20
0.0
 30
0.0
  3
2_405015E_Inch_1_0_in_072323_2
  1

  0
ATTDEF
  5
95
330
91
100
AcDbEntity
  8
AM_6
100
AcDbText
 10
4.519469211770891
 20
-3.226328257225758
 30
0.0
 40
0.5
  1
405015E -Inch
100
AcDbAttributeDefinition
  3

  2
NN
 70
     8
280
     0
  0
ATTDEF
  5
96
330
91
100
AcDbEntity
  8
AM_6
100
AcDbText
 10
4.519469211770891
 20
-3.726328257225758
 30
0.0
 40
0.5
  1
Grease Fitting
100
AcDbAttributeDefinition
  3

  2
NT
 70
     8
280
     0
  0
ATTDEF
  5
97
330
91
100
AcDbEntity
  8
AM_6
100
AcDbText
 10
4.519469211770891
 20
-4.226328257225758
 30
0.0
 40
0.5
  1
405015E-Inch
100
AcDbAttributeDefinition
  3

  2
NB
 70
     8
280
     0
  0
ATTDEF
  5
98
330
91
100
AcDbEntity
  8
AM_6
100
AcDbText
 10
4.519469211770891
 20
-4.726328257225758
 30
0.0
 40
0.5
  1
$MN.-Inch
100
AcDbAttributeDefinition
  3

  2
NBSYN
 70
     8
280
     0
  0
ATTDEF
  5
99
330
91
100
AcDbEntity
  8
AM_6
100
AcDbText
 10
4.519469211770891
 20
-5.226328257225758
 30
0.0
 40
0.5
  1
405015E
100
AcDbAttributeDefinition
  3

  2
LINA
 70
     8
280
     0
  0
ATTDEF
  5
9A
330
91
100
AcDbEntity
  8
AM_6
100
AcDbText
 10
4.519469211770891
 20
-5.726328257225758
 30
0.0
 40
0.5
  1
405015E
100
AcDbAttributeDefinition
  3

  2
MN
 70
     8
280
     0
  0
ATTDEF
  5
9B
330
91
100
AcDbEntity
  8
AM_6
100
AcDbText
 10
4.519469211770891
 20
-6.226328257225758
 30
0.0
 40
0.5
  1
1/8 x 27PTF
100
AcDbAttributeDefinition
  3

  2
T
 70
     8
280
     0
  0
ATTDEF
  5
9C
330
91
100
AcDbEntity
  8
AM_6
100
AcDbText
 10
4.519469211770891
 20
-6.726328257225758
 30
0.0
 40
0.5
  1
baldor
100
AcDbAttributeDefinition
  3

  2
COMPANY
 70
     8
280
     0
  0
LINE
  5
9F
330
91
100
AcDbEntity
  8
AM_9
100
AcDbLine
 10
-0.6257948921138262
 20
-3.242670367518918
 30
0.0
 11
-0.6750785790609163
 21
-3.226328257225758
 31
0.0
  0
LINE
  5
A0
330
91
100
AcDbEntity
  8
AM_9
100
AcDbLine
 10
-0.4968728985222695
 20
-3.581347386423842
 30
0.0
 11
-0.480530788229109
 21
-3.532063699476752
 31
0.0
  0
LINE
  5
A1
330
91
100
AcDbEntity
  8
AM_9
100
AcDbLine
 10
-0.480530788229109
 20
-3.532063699476752
 30
0.0
 11
-0.6257948921138262
 21
-3.242670367518918
 31
0.0
  0
LINE
  5
A2
330
91
100
AcDbEntity
  8
AM_9
100
AcDbLine
 10
-0.6750785790609163
 20
-3.226328257225758
 30
0.0
 11
-0.8823033807748177
 21
-3.322364358612666
 31
0.0
  0
LINE
  5
A3
330
91
100
AcDbEntity
  8
AM_9
100
AcDbLine
 10
-0.6976966192251796
 20
-3.690135641387335
 30
0.0
 11
-0.4968728985222695
 21
-3.581347386423842
 31
0.0
  0
LINE
  5
A4
330
91
100
AcDbEntity
  8
AM_9
100
AcDbLine
 10
-0.4968728985222695
 20
-3.581347386423842
 30
0.0
 11
-0.6750785790609163
 21
-3.226328257225758
 31
0.0
  0
LINE
  5
A6
330
91
100
AcDbEntity
  8
AM_5
100
AcDbLine
 10
-0.656357546359525
 20
-3.627310845212056
 30
0.0
 11
-0.4805307882291092
 21
-3.532063699476752
 31
0.0
  0
LINE
  5
A7
330
91
100
AcDbEntity
  8
AM_5
100
AcDbLine
 10
-0.69769661922518
 20
-3.690135641387335
 30
0.0
 11
-0.656357546359525
 21
-3.627310845212056
 31
0.0
  0
LINE
  5
A8
330
91
100
AcDbEntity
  8
AM_5
100
AcDbLine
 10
-0.8231820253358688
 20
-3.294965203501372
 30
0.0
 11
-0.6404014958902758
 21
-3.659098289506263
 31
0.0
  0
LINE
  5
A9
330
91
100
AcDbEntity
  8
AM_5
100
AcDbLine
 10
-0.8072259748666195
 20
-3.326752647795579
 30
0.0
 11
-0.6257948921138269
 21
-3.242670367518918
 31
0.0
  0
LINE
  5
AA
330
91
100
AcDbEntity
  8
AM_5
100
AcDbLine
 10
-0.882303380774816
 20
-3.322364358612665
 30
0.0
 11
-0.8072259748666195
 21
-3.326752647795579
 31
0.0
  0
LINE
  5
AD
330
91
100
AcDbEntity
  8
AM_7
100
AcDbLine
 10
-1.153746128491365
 20
-3.688836291948608
 30
0.0
 11
-0.5245636359657582
 21
-3.373011354523989
 31
0.0
  0
LINE
  5
AF
330
91
100
AcDbEntity
  8
AM_4
100
AcDbLine
 10
-1.020318223575758
 20
-3.504374929626219
 30
0.0
 11
-1.04712997751861
 21
-3.5178333786642
 31
0.0
  0
LINE
  5
B0
330
91
100
AcDbEntity
  8
AM_4
100
AcDbLine
 10
-0.952920834252744
 20
-3.705515656264168
 30
0.0
 11
-0.9261090803098914
 21
-3.692057207226187
 31
0.0
  0
LINE
  5
B1
330
91
100
AcDbEntity
  8
AM_4
100
AcDbLine
 10
-0.7812379889075629
 20
-3.746613869293237
 30
0.0
 11
-0.9775070373781182
 21
-3.355609124293303
 31
0.0
  0
LINE
  5
B2
330
91
100
AcDbEntity
  8
AM_4
100
AcDbLine
 10
-0.9845845593803102
 20
-3.321296941066015
 30
0.0
 11
-0.9775070373781182
 21
-3.355609124293303
 31
0.0
  0
LINE
  5
B3
330
91
100
AcDbEntity
  8
AM_4
100
AcDbLine
 10
-0.8881345242352763
 20
-3.310747627500033
 30
0.0
 11
-0.9114199296986624
 21
-3.284571166166991
 31
0.0
  0
LINE
  5
B4
330
91
100
AcDbEntity
  8
AM_4
100
AcDbLine
 10
-0.7812379889075629
 20
-3.746613869293237
 30
0.0
 11
-0.7579525834441768
 21
-3.772790330626279
 31
0.0
  0
LINE
  5
B5
330
91
100
AcDbEntity
  8
AM_4
100
AcDbLine
 10
-0.684787953762529
 20
-3.736064555727256
 30
0.0
 11
-0.691865475764721
 21
-3.701752372499967
 31
0.0
  0
LINE
  5
B6
330
91
100
AcDbEntity
  8
AM_4
100
AcDbLine
 10
-0.9261090803098914
 20
-3.692057207226187
 30
0.0
 11
-0.8910893351284307
 21
-3.689942137323573
 31
0.0
  0
LINE
  5
B7
330
91
100
AcDbEntity
  8
AM_4
100
AcDbLine
 10
-0.9976982775180232
 20
-3.477557134906807
 30
0.0
 11
-1.020318223575758
 21
-3.504374929626219
 31
0.0
  0
LINE
  5
B8
330
91
100
AcDbEntity
  8
AM_4
100
AcDbLine
 10
-0.9261090803098914
 20
-3.692057207226187
 30
0.0
 11
-1.020318223575758
 21
-3.504374929626219
 31
0.0
  0
LINE
  5
B9
330
91
100
AcDbEntity
  8
AM_4
100
AcDbLine
 10
-1.04712997751861
 20
-3.5178333786642
 30
0.0
 11
-1.114211934442296
 21
-3.517938522797309
 31
0.0
  0
LINE
  5
BA
330
91
100
AcDbEntity
  8
AM_4
100
AcDbLine
 10
-0.9930858931004681
 20
-3.759244308282983
 30
0.0
 11
-0.952920834252744
 21
-3.705515656264168
 31
0.0
  0
LINE
  5
BB
330
91
100
AcDbEntity
  8
AM_4
100
AcDbLine
 10
-0.952920834252744
 20
-3.705515656264168
 30
0.0
 11
-1.04712997751861
 21
-3.5178333786642
 31
0.0
  0
LINE
  5
BC
330
91
100
AcDbEntity
  8
AM_4
100
AcDbLine
 10
-1.079084080602502
 20
-3.766246434374794
 30
0.0
 11
-0.9930858931004681
 21
-3.759244308282983
 31
0.0
  0
LINE
  5
BD
330
91
100
AcDbEntity
  8
AM_4
100
AcDbLine
 10
-1.114211934442296
 20
-3.517938522797309
 30
0.0
 11
-1.171209767968809
 21
-3.582714791574729
 31
0.0
  0
LINE
  5
BE
330
91
100
AcDbEntity
  8
AM_4
100
AcDbLine
 10
-1.079084080602502
 20
-3.766246434374794
 30
0.0
 11
-1.171209767968809
 21
-3.582714791574729
 31
0.0
  0
LINE
  5
BF
330
91
100
AcDbEntity
  8
AM_4
100
AcDbLine
 10
-0.9930858931004681
 20
-3.759244308282983
 30
0.0
 11
-1.114211934442296
 21
-3.517938522797309
 31
0.0
  0
LINE
  5
C0
330
91
100
AcDbEntity
  8
AM_4
100
AcDbLine
 10
-0.8910893351284307
 20
-3.689942137323573
 30
0.0
 11
-0.8183425887604638
 21
-3.713527334290514
 31
0.0
  0
LINE
  5
C1
330
91
100
AcDbEntity
  8
AM_4
100
AcDbLine
 10
-0.9731453063221805
 20
-3.405131295398032
 30
0.0
 11
-0.9976982775180232
 21
-3.477557134906807
 31
0.0
  0
LINE
  5
C2
330
91
100
AcDbEntity
  8
AM_4
100
AcDbLine
 10
-0.8910893351284307
 20
-3.689942137323573
 30
0.0
 11
-0.9976982775180232
 21
-3.477557134906807
 31
0.0
  0
LINE
  5
C3
330
91
100
AcDbEntity
  8
AM_4
100
AcDbLine
 10
-0.8183425887604638
 20
-3.713527334290514
 30
0.0
 11
-0.7834810637472264
 21
-3.742145243636095
 31
0.0
  0
LINE
  5
C4
330
91
100
AcDbEntity
  8
AM_4
100
AcDbLine
 10
-0.9752639625384547
 20
-3.360077749950446
 30
0.0
 11
-0.9731453063221805
 21
-3.405131295398032
 31
0.0
  0
LINE
  5
C5
330
91
100
AcDbEntity
  8
AM_4
100
AcDbLine
 10
-0.8183425887604638
 20
-3.713527334290514
 30
0.0
 11
-0.9731453063221805
 21
-3.405131295398032
 31
0.0
  0
LWPOLYLINE
  5
C6
330
91
100
AcDbEntity
  8
AM_4
100
AcDbPolyline
 90
        4
 70
     0
 43
0.0
 10
-0.8793725131428406
 20
-3.55111149679327
 10
-0.8929941504782932
 20
-3.522620664931828
 10
-0.9055624855781939
 20
-3.493601116654108
 10
-0.9279265653962768
 20
-3.434170288456081
  0
LWPOLYLINE
  5
C7
330
91
100
AcDbEntity
  8
AM_4
100
AcDbPolyline
 90
        4
 70
     0
 43
0.0
 10
-0.8146105774282101
 20
-3.659916983236213
 10
-0.8310469794390547
 20
-3.635164268408723
 10
-0.8563213488851706
 20
-3.593855448585733
 10
-0.8793725131428406
 20
-3.55111149679327
  0
LWPOLYLINE
  5
C8
330
91
100
AcDbEntity
  8
AM_4
100
AcDbPolyline
 90
        4
 70
     0
 43
0.0
 10
-0.7899999999999987
 20
-3.506250000000001
 10
-0.7695540277103645
 20
-3.550142070921331
 10
-0.7514740059923222
 20
-3.595221756247226
 10
-0.7414459477465623
 20
-3.62319120833719
  0
LWPOLYLINE
  5
C9
330
91
100
AcDbEntity
  8
AM_4
100
AcDbPolyline
 90
        4
 70
     0
 43
0.0
 10
-0.8547619357146291
 20
-3.397444513557057
 10
-0.8206142934186531
 20
-3.450642763856026
 10
-0.8047972773402953
 20
-3.478140958343138
 10
-0.7899999999999987
 20
-3.506250000000001
  0
LINE
  5
CA
330
91
100
AcDbEntity
  8
AM_4
100
AcDbLine
 10
-0.9845845593803102
 20
-3.321296941066015
 30
0.0
 11
-0.9114199296986624
 21
-3.284571166166991
 31
0.0
  0
LWPOLYLINE
  5
CB
330
91
100
AcDbEntity
  8
AM_4
100
AcDbPolyline
 90
        4
 70
     0
 43
0.0
 10
-0.9643595041188907
 20
-3.38180147570817
 10
-0.9708988922063393
 20
-3.367419812270486
 10
-0.9763849780582357
 20
-3.352509432416525
 10
-0.9845845593803102
 20
-3.321296941066015
  0
LWPOLYLINE
  5
CC
330
91
100
AcDbEntity
  8
AM_4
100
AcDbPolyline
 90
        4
 70
     0
 43
0.0
 10
-0.9279265653962768
 20
-3.434170288456081
 10
-0.9479733965955952
 20
-3.409063497763735
 10
-0.9566862407796467
 20
-3.395718145722311
 10
-0.9643595041188907
 20
-3.38180147570817
  0
LINE
  5
CD
330
91
100
AcDbEntity
  8
AM_4
100
AcDbLine
 10
-0.9279265653962768
 20
-3.434170288456081
 30
0.0
 11
-0.8547619357146291
 21
-3.397444513557057
 31
0.0
  0
LWPOLYLINE
  5
CE
330
91
100
AcDbEntity
  8
AM_4
100
AcDbPolyline
 90
        4
 70
     0
 43
0.0
 10
-0.8749869909760488
 20
-3.336939978914901
 10
-0.8684476028886002
 20
-3.351321642352585
 10
-0.8629615170367038
 20
-3.366232022206547
 10
-0.8547619357146291
 20
-3.397444513557057
  0
LWPOLYLINE
  5
CF
330
91
100
AcDbEntity
  8
AM_4
100
AcDbPolyline
 90
        4
 70
     0
 43
0.0
 10
-0.9114199296986624
 20
-3.284571166166991
 10
-0.8913730984993441
 20
-3.309677956859337
 10
-0.8826602543152927
 20
-3.323023308900761
 10
-0.8749869909760488
 20
-3.336939978914901
  0
LINE
  5
D0
330
91
100
AcDbEntity
  8
AM_4
100
AcDbLine
 10
-0.8146105774282101
 20
-3.659916983236213
 30
0.0
 11
-0.7414459477465623
 21
-3.62319120833719
 31
0.0
  0
LWPOLYLINE
  5
D1
330
91
100
AcDbEntity
  8
AM_4
100
AcDbPolyline
 90
        4
 70
     0
 43
0.0
 10
-0.7943855221667905
 20
-3.720421517878369
 10
-0.8009249102542391
 20
-3.706039854440685
 10
-0.8064109961061355
 20
-3.691129474586724
 10
-0.8146105774282101
 20
-3.659916983236213
  0
LWPOLYLINE
  5
D2
330
91
100
AcDbEntity
  8
AM_4
100
AcDbPolyline
 90
        4
 70
     0
 43
0.0
 10
-0.7579525834441768
 20
-3.772790330626279
 10
-0.7779994146434951
 20
-3.747683539933933
 10
-0.7867122588275465
 20
-3.734338187892509
 10
-0.7943855221667905
 20
-3.720421517878369
  0
LINE
  5
D3
330
91
100
AcDbEntity
  8
AM_4
100
AcDbLine
 10
-0.7579525834441768
 20
-3.772790330626279
 30
0.0
 11
-0.684787953762529
 21
-3.736064555727256
 31
0.0
  0
LWPOLYLINE
  5
D4
330
91
100
AcDbEntity
  8
AM_4
100
AcDbPolyline
 90
        4
 70
     0
 43
0.0
 10
-0.7050130090239486
 20
-3.6755600210851
 10
-0.6984736209365
 20
-3.689941684522784
 10
-0.6929875350846036
 20
-3.704852064376745
 10
-0.684787953762529
 20
-3.736064555727256
  0
LWPOLYLINE
  5
D5
330
91
100
AcDbEntity
  8
AM_4
100
AcDbPolyline
 90
        4
 70
     0
 43
0.0
 10
-0.7414459477465623
 20
-3.62319120833719
 10
-0.7213991165472439
 20
-3.648297999029535
 10
-0.7126862723631925
 20
-3.66164335107096
 10
-0.7050130090239486
 20
-3.6755600210851
  0
ENDBLK
  5
94
330
91
100
AcDbEntity
  8
0
100
AcDbBlockEnd
  0
BLOCK
  5
D8
330
D6
100
AcDbEntity
  8
0
100
AcDbBlockBegin
  2
3_405015E_Inch_2_0_in_072323_2
 70
     2
 10
0.0
 20
0.0
 30
0.0
  3
3_405015E_Inch_2_0_in_072323_2
  1

  0
ATTDEF
  5
DA
330
D6
100
AcDbEntity
  8
AM_6
100
AcDbText
 10
4.51946921177089
 20
3.772790330626279
 30
0.0
 40
0.5
  1
405015E -Inch
100
AcDbAttributeDefinition
  3

  2
NN
 70
     8
280
     0
  0
ATTDEF
  5
DB
330
D6
100
AcDbEntity
  8
AM_6
100
AcDbText
 10
4.51946921177089
 20
3.272790330626279
 30
0.0
 40
0.5
  1
Grease Fitting
100
AcDbAttributeDefinition
  3

  2
NT
 70
     8
280
     0
  0
ATTDEF
  5
DC
330
D6
100
AcDbEntity
  8
AM_6
100
AcDbText
 10
4.51946921177089
 20
2.772790330626279
 30
0.0
 40
0.5
  1
405015E-Inch
100
AcDbAttributeDefinition
  3

  2
NB
 70
     8
280
     0
  0
ATTDEF
  5
DD
330
D6
100
AcDbEntity
  8
AM_6
100
AcDbText
 10
4.51946921177089
 20
2.272790330626279
 30
0.0
 40
0.5
  1
$MN.-Inch
100
AcDbAttributeDefinition
  3

  2
NBSYN
 70
     8
280
     0
  0
ATTDEF
  5
DE
330
D6
100
AcDbEntity
  8
AM_6
100
AcDbText
 10
4.51946921177089
 20
1.772790330626279
 30
0.0
 40
0.5
  1
405015E
100
AcDbAttributeDefinition
  3

  2
LINA
 70
     8
280
     0
  0
ATTDEF
  5
DF
330
D6
100
AcDbEntity
  8
AM_6
100
AcDbText
 10
4.51946921177089
 20
1.272790330626279
 30
0.0
 40
0.5
  1
405015E
100
AcDbAttributeDefinition
  3

  2
MN
 70
     8
280
     0
  0
ATTDEF
  5
E0
330
D6
100
AcDbEntity
  8
AM_6
100
AcDbText
 10
4.51946921177089
 20
0.7727903306262793
 30
0.0
 40
0.5
  1
1/8 x 27PTF
100
AcDbAttributeDefinition
  3

  2
T
 70
     8
280
     0
  0
ATTDEF
  5
E1
330
D6
100
AcDbEntity
  8
AM_6
100
AcDbText
 10
4.51946921177089
 20
0.2727903306262793
 30
0.0
 40
0.5
  1
baldor
100
AcDbAttributeDefinition
  3

  2
COMPANY
 70
     8
280
     0
  0
LINE
  5
E2
330
D6
100
AcDbEntity
  8
AM_9
100
AcDbLine
 10
-0.6257948921138269
 20
3.242670367518919
 30
0.0
 11
-0.4805307882291101
 21
3.532063699476753
 31
0.0
  0
LINE
  5
E3
330
D6
100
AcDbEntity
  8
AM_9
100
AcDbLine
 10
-0.4805307882291101
 20
3.532063699476753
 30
0.0
 11
-0.4968728985222706
 21
3.581347386423843
 31
0.0
  0
LINE
  5
E4
330
D6
100
AcDbEntity
  8
AM_9
100
AcDbLine
 10
-0.6750785790609171
 20
3.226328257225758
 30
0.0
 11
-0.6257948921138269
 21
3.242670367518919
 31
0.0
  0
LINE
  5
E5
330
D6
100
AcDbEntity
  8
AM_9
100
AcDbLine
 10
-0.6750785790609171
 20
3.226328257225758
 30
0.0
 11
-0.4968728985222706
 21
3.581347386423843
 31
0.0
  0
LINE
  5
E6
330
D6
100
AcDbEntity
  8
AM_9
100
AcDbLine
 10
-0.4968728985222706
 20
3.581347386423843
 30
0.0
 11
-0.6976966192251809
 21
3.690135641387335
 31
0.0
  0
LINE
  5
E7
330
D6
100
AcDbEntity
  8
AM_9
100
AcDbLine
 10
-0.8823033807748186
 20
3.322364358612666
 30
0.0
 11
-0.6750785790609171
 21
3.226328257225758
 31
0.0
  0
LINE
  5
E8
330
D6
100
AcDbEntity
  8
AM_5
100
AcDbLine
 10
-0.8072259748666205
 20
3.326752647795579
 30
0.0
 11
-0.625794892113827
 21
3.242670367518919
 31
0.0
  0
LINE
  5
E9
330
D6
100
AcDbEntity
  8
AM_5
100
AcDbLine
 10
-0.8823033807748175
 20
3.322364358612665
 30
0.0
 11
-0.8072259748666205
 21
3.326752647795579
 31
0.0
  0
LINE
  5
EA
330
D6
100
AcDbEntity
  8
AM_5
100
AcDbLine
 10
-0.6404014958902772
 20
3.659098289506263
 30
0.0
 11
-0.8231820253358696
 21
3.294965203501372
 31
0.0
  0
LINE
  5
EB
330
D6
100
AcDbEntity
  8
AM_5
100
AcDbLine
 10
-0.6563575463595264
 20
3.627310845212056
 30
0.0
 11
-0.4805307882291102
 21
3.532063699476753
 31
0.0
  0
LINE
  5
EC
330
D6
100
AcDbEntity
  8
AM_5
100
AcDbLine
 10
-0.697696619225182
 20
3.690135641387335
 30
0.0
 11
-0.6563575463595264
 21
3.627310845212056
 31
0.0
  0
LINE
  5
ED
330
D6
100
AcDbEntity
  8
AM_7
100
AcDbLine
 10
-1.153746128491367
 20
3.688836291948608
 30
0.0
 11
-0.5245636359657592
 21
3.37301135452399
 31
0.0
  0
LINE
  5
EE
330
D6
100
AcDbEntity
  8
AM_4
100
AcDbLine
 10
-0.9261090803098927
 20
3.692057207226187
 30
0.0
 11
-0.9529208342527453
 21
3.705515656264168
 31
0.0
  0
LINE
  5
EF
330
D6
100
AcDbEntity
  8
AM_4
100
AcDbLine
 10
-1.047129977518611
 20
3.5178333786642
 30
0.0
 11
-1.020318223575759
 21
3.504374929626219
 31
0.0
  0
LINE
  5
F0
330
D6
100
AcDbEntity
  8
AM_4
100
AcDbLine
 10
-0.9775070373781191
 20
3.355609124293303
 30
0.0
 11
-0.7812379889075645
 21
3.746613869293237
 31
0.0
  0
LINE
  5
F1
330
D6
100
AcDbEntity
  8
AM_4
100
AcDbLine
 10
-0.7579525834441783
 20
3.772790330626279
 30
0.0
 11
-0.7812379889075645
 21
3.746613869293237
 31
0.0
  0
LINE
  5
F2
330
D6
100
AcDbEntity
  8
AM_4
100
AcDbLine
 10
-0.9775070373781191
 20
3.355609124293303
 30
0.0
 11
-0.9845845593803111
 21
3.321296941066014
 31
0.0
  0
LINE
  5
F3
330
D6
100
AcDbEntity
  8
AM_4
100
AcDbLine
 10
-0.6918654757647223
 20
3.701752372499967
 30
0.0
 11
-0.6847879537625304
 21
3.736064555727256
 31
0.0
  0
LINE
  5
F4
330
D6
100
AcDbEntity
  8
AM_4
100
AcDbLine
 10
-0.9114199296986633
 20
3.284571166166991
 30
0.0
 11
-0.8881345242352772
 21
3.310747627500033
 31
0.0
  0
LINE
  5
F5
330
D6
100
AcDbEntity
  8
AM_4
100
AcDbLine
 10
-1.020318223575759
 20
3.504374929626219
 30
0.0
 11
-0.9261090803098927
 21
3.692057207226187
 31
0.0
  0
LINE
  5
F6
330
D6
100
AcDbEntity
  8
AM_4
100
AcDbLine
 10
-1.020318223575759
 20
3.504374929626219
 30
0.0
 11
-0.9976982775180243
 21
3.477557134906807
 31
0.0
  0
LINE
  5
F7
330
D6
100
AcDbEntity
  8
AM_4
100
AcDbLine
 10
-0.891089335128432
 20
3.689942137323572
 30
0.0
 11
-0.9261090803098927
 21
3.692057207226187
 31
0.0
  0
LINE
  5
F8
330
D6
100
AcDbEntity
  8
AM_4
100
AcDbLine
 10
-1.17120976796881
 20
3.582714791574729
 30
0.0
 11
-1.079084080602504
 21
3.766246434374794
 31
0.0
  0
LINE
  5
F9
330
D6
100
AcDbEntity
  8
AM_4
100
AcDbLine
 10
-1.17120976796881
 20
3.582714791574729
 30
0.0
 11
-1.114211934442298
 21
3.517938522797309
 31
0.0
  0
LINE
  5
FA
330
D6
100
AcDbEntity
  8
AM_4
100
AcDbLine
 10
-0.9930858931004696
 20
3.759244308282982
 30
0.0
 11
-1.079084080602504
 21
3.766246434374794
 31
0.0
  0
LINE
  5
FB
330
D6
100
AcDbEntity
  8
AM_4
100
AcDbLine
 10
-1.114211934442298
 20
3.517938522797309
 30
0.0
 11
-0.9930858931004696
 21
3.759244308282982
 31
0.0
  0
LINE
  5
FC
330
D6
100
AcDbEntity
  8
AM_4
100
AcDbLine
 10
-1.047129977518611
 20
3.5178333786642
 30
0.0
 11
-0.9529208342527453
 21
3.705515656264168
 31
0.0
  0
LINE
  5
FD
330
D6
100
AcDbEntity
  8
AM_4
100
AcDbLine
 10
-0.9529208342527453
 20
3.705515656264168
 30
0.0
 11
-0.9930858931004696
 21
3.759244308282982
 31
0.0
  0
LINE
  5
FE
330
D6
100
AcDbEntity
  8
AM_4
100
AcDbLine
 10
-1.114211934442298
 20
3.517938522797309
 30
0.0
 11
-1.047129977518611
 21
3.5178333786642
 31
0.0
  0
LINE
  5
FF
330
D6
100
AcDbEntity
  8
AM_4
100
AcDbLine
 10
-0.9976982775180243
 20
3.477557134906807
 30
0.0
 11
-0.891089335128432
 21
3.689942137323572
 31
0.0
  0
LINE
  5
100
330
D6
100
AcDbEntity
  8
AM_4
100
AcDbLine
 10
-0.9976982775180243
 20
3.477557134906807
 30
0.0
 11
-0.9731453063221815
 21
3.405131295398032
 31
0.0
  0
LINE
  5
101
330
D6
100
AcDbEntity
  8
AM_4
100
AcDbLine
 10
-0.8183425887604654
 20
3.713527334290514
 30
0.0
 11
-0.891089335128432
 21
3.689942137323572
 31
0.0
  0
LINE
  5
102
330
D6
100
AcDbEntity
  8
AM_4
100
AcDbLine
 10
-0.9731453063221815
 20
3.405131295398032
 30
0.0
 11
-0.8183425887604654
 21
3.713527334290514
 31
0.0
  0
LINE
  5
103
330
D6
100
AcDbEntity
  8
AM_4
100
AcDbLine
 10
-0.9731453063221815
 20
3.405131295398032
 30
0.0
 11
-0.9752639625384556
 21
3.360077749950445
 31
0.0
  0
LINE
  5
104
330
D6
100
AcDbEntity
  8
AM_4
100
AcDbLine
 10
-0.7834810637472279
 20
3.742145243636095
 30
0.0
 11
-0.8183425887604654
 21
3.713527334290514
 31
0.0
  0
LINE
  5
105
330
D6
100
AcDbEntity
  8
AM_4
100
AcDbLine
 10
-0.7579525834441783
 20
3.772790330626279
 30
0.0
 11
-0.6847879537625304
 21
3.736064555727256
 31
0.0
  0
LWPOLYLINE
  5
106
330
D6
100
AcDbEntity
  8
AM_4
100
AcDbPolyline
 90
        4
 70
     0
 43
0.0
 10
-0.7943855221667918
 20
3.720421517878369
 10
-0.7867604117582322
 20
3.734258191288202
 10
-0.7780819991141203
 20
3.747566148281757
 10
-0.7579525834441783
 20
3.772790330626279
  0
LWPOLYLINE
  5
107
330
D6
100
AcDbEntity
  8
AM_4
100
AcDbPolyline
 90
        4
 70
     0
 43
0.0
 10
-0.6847879537625304
 20
3.736064555727256
 10
-0.6929427447565273
 20
3.704988427206357
 10
-0.6984382443610886
 20
3.690028094356404
 10
-0.7050130090239499
 20
3.6755600210851
  0
LINE
  5
108
330
D6
100
AcDbEntity
  8
AM_4
100
AcDbLine
 10
-0.8146105774282113
 20
3.659916983236213
 30
0.0
 11
-0.7414459477465635
 21
3.62319120833719
 31
0.0
  0
LWPOLYLINE
  5
109
330
D6
100
AcDbEntity
  8
AM_4
100
AcDbPolyline
 90
        4
 70
     0
 43
0.0
 10
-0.9279265653962779
 20
3.434170288456081
 10
-0.9056709633056235
 20
3.493337876583603
 10
-0.8930712918067558
 20
3.522451051879243
 10
-0.8793725131428417
 20
3.55111149679327
  0
LWPOLYLINE
  5
10A
330
D6
100
AcDbEntity
  8
AM_4
100
AcDbPolyline
 90
        4
 70
     0
 43
0.0
 10
-0.8793725131428417
 20
3.55111149679327
 10
-0.8563927215767448
 20
3.593731689803278
 10
-0.8310469794390559
 20
3.635164268408723
 10
-0.8146105774282113
 20
3.659916983236213
  0
LWPOLYLINE
  5
10B
330
D6
100
AcDbEntity
  8
AM_4
100
AcDbPolyline
 90
        4
 70
     0
 43
0.0
 10
-0.8146105774282113
 20
3.659916983236213
 10
-0.8064557864342147
 20
3.690993111757112
 10
-0.8009602868296534
 20
3.705953444607065
 10
-0.7943855221667918
 20
3.720421517878369
  0
LWPOLYLINE
  5
10C
330
D6
100
AcDbEntity
  8
AM_4
100
AcDbPolyline
 90
        4
 70
     0
 43
0.0
 10
-0.7050130090239499
 20
3.6755600210851
 10
-0.7126381194325098
 20
3.661723347675267
 10
-0.7213165320766215
 20
3.648415390681712
 10
-0.7414459477465635
 20
3.62319120833719
  0
LWPOLYLINE
  5
10D
330
D6
100
AcDbEntity
  8
AM_4
100
AcDbPolyline
 90
        4
 70
     0
 43
0.0
 10
-0.7414459477465635
 20
3.62319120833719
 10
-0.7514740059923234
 20
3.595221756247226
 10
-0.7694974328101974
 20
3.550273247575549
 10
-0.7899999999999998
 20
3.506250000000001
  0
LWPOLYLINE
  5
10E
330
D6
100
AcDbEntity
  8
AM_4
100
AcDbPolyline
 90
        4
 70
     0
 43
0.0
 10
-0.7899999999999998
 20
3.506250000000001
 10
-0.8047073596565637
 20
3.478304158166409
 10
-0.8204680215486797
 20
3.450887032749096
 10
-0.8547619357146301
 20
3.397444513557057
  0
LINE
  5
10F
330
D6
100
AcDbEntity
  8
AM_4
100
AcDbLine
 10
-0.9279265653962779
 20
3.434170288456081
 30
0.0
 11
-0.8547619357146301
 21
3.397444513557057
 31
0.0
  0
LWPOLYLINE
  5
110
330
D6
100
AcDbEntity
  8
AM_4
100
AcDbPolyline
 90
        4
 70
     0
 43
0.0
 10
-0.9643595041188915
 20
3.38180147570817
 10
-0.9567343937103319
 20
3.395638149118002
 10
-0.94805598106622
 20
3.408946106111558
 10
-0.9279265653962779
 20
3.434170288456081
  0
LWPOLYLINE
  5
111
330
D6
100
AcDbEntity
  8
AM_4
100
AcDbPolyline
 90
        4
 70
     0
 43
0.0
 10
-0.9845845593803111
 20
3.321296941066014
 10
-0.9764297683863143
 20
3.352373069586914
 10
-0.970934268781753
 20
3.367333402436866
 10
-0.9643595041188915
 20
3.38180147570817
  0
LINE
  5
112
330
D6
100
AcDbEntity
  8
AM_4
100
AcDbLine
 10
-0.9845845593803111
 20
3.321296941066014
 30
0.0
 11
-0.9114199296986633
 21
3.284571166166991
 31
0.0
  0
LWPOLYLINE
  5
113
330
D6
100
AcDbEntity
  8
AM_4
100
AcDbPolyline
 90
        4
 70
     0
 43
0.0
 10
-0.8749869909760496
 20
3.336939978914901
 10
-0.8826121013846094
 20
3.323103305505068
 10
-0.8912905140287213
 20
3.309795348511514
 10
-0.9114199296986633
 20
3.284571166166991
  0
LWPOLYLINE
  5
114
330
D6
100
AcDbEntity
  8
AM_4
100
AcDbPolyline
 90
        4
 70
     0
 43
0.0
 10
-0.8547619357146301
 20
3.397444513557057
 10
-0.862916726708627
 20
3.366368385036158
 10
-0.8684122263131882
 20
3.351408052186205
 10
-0.8749869909760496
 20
3.336939978914901
  0
ENDBLK
  5
D9
330
D6
100
AcDbEntity
  8
0
100
AcDbBlockEnd
  0
BLOCK
  5
117
330
115
100
AcDbEntity
  8
0
100
AcDbBlockBegin
  2
4_ASME_B18_3_10_1_0_in_072323_2
 70
     2
 10
0.0
 20
0.0
 30
0.0
  3
4_ASME_B18_3_10_1_0_in_072323_2
  1

  0
ATTDEF
  5
119
330
115
100
AcDbEntity
  8
AM_6
100
AcDbText
 10
4.260999666666667
 20
-1.636340277777778
 30
0.0
 40
0.5
  1
ANSI/ASME-B18.3-1998
100
AcDbAttributeDefinition
  3

  2
NN
 70
     8
280
     0
  0
ATTDEF
  5
11A
330
115
100
AcDbEntity
  8
AM_6
100
AcDbText
 10
4.260999666666667
 20
-2.136340277777778
 30
0.0
 40
0.5
  1
Socket Button Head Cap Screws
100
AcDbAttributeDefinition
  3

  2
NT
 70
     8
280
     0
  0
ATTDEF
  5
11B
330
115
100
AcDbEntity
  8
AM_6
100
AcDbText
 10
4.260999666666667
 20
-2.636340277777778
 30
0.0
 40
0.5
  1
ASME-B18.3-10
100
AcDbAttributeDefinition
  3

  2
NB
 70
     8
280
     0
  0
ATTDEF
  5
11C
330
115
100
AcDbEntity
  8
AM_6
100
AcDbText
 10
4.260999666666667
 20
-3.136340277777778
 30
0.0
 40
0.5
  1
ASME-B18.3-$NS.
100
AcDbAttributeDefinition
  3

  2
NBSYN
 70
     8
280
     0
  0
ATTDEF
  5
11D
330
115
100
AcDbEntity
  8
AM_6
100
AcDbText
 10
4.260999666666667
 20
-3.636340277777778
 30
0.0
 40
0.5
  1
ASME-B18.3-10
100
AcDbAttributeDefinition
  3

  2
LINA
 70
     8
280
     0
  0
ATTDEF
  5
11E
330
115
100
AcDbEntity
  8
AM_6
100
AcDbText
 10
4.260999666666667
 20
-4.136340277777778
 30
0.0
 40
0.5
  1
10
100
AcDbAttributeDefinition
  3

  2
NS
 70
     8
280
     0
  0
ATTDEF
  5
11F
330
115
100
AcDbEntity
  8
AM_6
100
AcDbText
 10
4.260999666666667
 20
-4.636340277777778
 30
0.0
 40
0.5
  1
0.361
100
AcDbAttributeDefinition
  3

  2
A
 70
     8
280
     0
  0
ATTDEF
  5
120
330
115
100
AcDbEntity
  8
AM_6
100
AcDbText
 10
4.260999666666667
 20
-5.136340277777778
 30
0.0
 40
0.5
  1
0.101
100
AcDbAttributeDefinition
  3

  2
H
 70
     8
280
     0
  0
ATTDEF
  5
121
330
115
100
AcDbEntity
  8
AM_6
100
AcDbText
 10
4.260999666666667
 20
-5.636340277777778
 30
0.0
 40
0.5
  1
0.800
100
AcDbAttributeDefinition
  3

  2
L
 70
     8
280
     0
  0
ATTDEF
  5
122
330
115
100
AcDbEntity
  8
AM_6
100
AcDbText
 10
4.260999666666667
 20
-6.136340277777778
 30
0.0
 40
0.5
  1
0.020
100
AcDbAttributeDefinition
  3

  2
S
 70
     8
280
     0
  0
ATTDEF
  5
123
330
115
100
AcDbEntity
  8
AM_6
100
AcDbText
 10
4.260999666666667
 20
-6.636340277777778
 30
0.0
 40
0.5
  1
0.125000
100
AcDbAttributeDefinition
  3

  2
J
 70
     8
280
     0
  0
ATTDEF
  5
124
330
115
100
AcDbEntity
  8
AM_6
100
AcDbText
 10
4.260999666666667
 20
-7.136340277777778
 30
0.0
 40
0.5
  1
baldor
100
AcDbAttributeDefinition
  3

  2
COMPANY
 70
     8
280
     0
  0
LINE
  5
125
330
115
100
AcDbEntity
  8
AM_9
100
AcDbLine
 10
-1.579000333333334
 20
-1.744671494129074
 30
0.0
 11
-1.640000333333334
 21
-1.744671494129074
 31
0.0
  0
LINE
  5
126
330
115
100
AcDbEntity
  8
AM_9
100
AcDbLine
 10
-1.579000333333334
 20
-1.889009061426481
 30
0.0
 11
-1.640000333333334
 21
-1.889009061426481
 31
0.0
  0
LINE
  5
127
330
115
100
AcDbEntity
  8
AM_9
100
AcDbLine
 10
-1.579000333333334
 20
-1.744671494129074
 30
0.0
 11
-1.579000333333334
 21
-1.889009061426481
 31
0.0
  0
LINE
  5
128
330
115
100
AcDbEntity
  8
AM_9
100
AcDbLine
 10
-1.579000333333334
 20
-1.780755885953426
 30
0.0
 11
-1.640000333333334
 21
-1.780755885953426
 31
0.0
  0
LINE
  5
129
330
115
100
AcDbEntity
  8
AM_9
100
AcDbLine
 10
-1.579000333333334
 20
-1.852924669602129
 30
0.0
 11
-1.640000333333334
 21
-1.852924669602129
 31
0.0
  0
LINE
  5
12A
330
115
100
AcDbEntity
  8
AM_9
100
AcDbLine
 10
-0.7390003333333334
 20
-1.746640277777778
 30
0.0
 11
-0.7390003333333334
 21
-1.887040277777778
 31
0.0
  0
LINE
  5
12B
330
115
100
AcDbEntity
  8
AM_9
100
AcDbLine
 10
-0.7390003333333334
 20
-1.746640277777778
 30
0.0
 11
-0.7638003333333336
 21
-1.721840277777778
 31
0.0
  0
LINE
  5
12C
330
115
100
AcDbEntity
  8
AM_9
100
AcDbLine
 10
-0.7638003333333336
 20
-1.911840277777778
 30
0.0
 11
-0.7390003333333334
 21
-1.887040277777778
 31
0.0
  0
LINE
  5
12D
330
115
100
AcDbEntity
  8
AM_9
100
AcDbLine
 10
-0.7638003333333336
 20
-1.721840277777778
 30
0.0
 11
-0.7638003333333336
 21
-1.911840277777778
 31
0.0
  0
LINE
  5
12E
330
115
100
AcDbEntity
  8
AM_9
100
AcDbLine
 10
-1.436833333333334
 20
-1.911840277777778
 30
0.0
 11
-0.7638003333333336
 21
-1.911840277777778
 31
0.0
  0
LINE
  5
12F
330
115
100
AcDbEntity
  8
AM_9
100
AcDbLine
 10
-0.7638003333333336
 20
-1.721840277777778
 30
0.0
 11
-1.436833333333334
 21
-1.721840277777778
 31
0.0
  0
LINE
  5
130
330
115
100
AcDbEntity
  8
AM_5
100
AcDbLine
 10
-0.7390003333333334
 20
-1.887040277777778
 30
0.0
 11
-1.436833333333334
 21
-1.887040277777778
 31
0.0
  0
LINE
  5
131
330
115
100
AcDbEntity
  8
AM_5
100
AcDbLine
 10
-0.7390003333333334
 20
-1.746640277777778
 30
0.0
 11
-1.436833333333334
 21
-1.746640277777778
 31
0.0
  0
LINE
  5
132
330
115
100
AcDbEntity
  8
AM_4
100
AcDbLine
 10
-1.539000333333334
 20
-1.911840277777778
 30
0.0
 11
-1.436833333333334
 21
-1.911840277777778
 31
0.0
  0
LINE
  5
133
330
115
100
AcDbEntity
  8
AM_4
100
AcDbLine
 10
-1.436833333333334
 20
-1.721840277777778
 30
0.0
 11
-1.539000333333334
 21
-1.721840277777778
 31
0.0
  0
LINE
  5
134
330
115
100
AcDbEntity
  8
AM_4
100
AcDbLine
 10
-1.640000333333334
 20
-1.717340277777778
 30
0.0
 11
-1.640000333333334
 21
-1.916340277777778
 31
0.0
  0
ARC
  5
135
330
115
100
AcDbEntity
  8
AM_4
100
AcDbCircle
 10
-1.559000333333333
 20
-1.916340277777777
 30
0.0
 40
0.0810000000000008
100
AcDbArc
 50
180.0
 51
270.0
  0
ARC
  5
136
330
115
100
AcDbEntity
  8
AM_4
100
AcDbCircle
 10
-1.559000333333333
 20
-1.717340277777779
 30
0.0
 40
0.0810000000000008
100
AcDbArc
 50
90.0
 51
180.0
  0
LINE
  5
137
330
115
100
AcDbEntity
  8
AM_4
100
AcDbLine
 10
-1.539000333333334
 20
-1.636340277777778
 30
0.0
 11
-1.539000333333334
 21
-1.997340277777778
 31
0.0
  0
LINE
  5
138
330
115
100
AcDbEntity
  8
AM_4
100
AcDbLine
 10
-1.559000333333334
 20
-1.636340277777778
 30
0.0
 11
-1.559000333333334
 21
-1.997340277777778
 31
0.0
  0
LINE
  5
139
330
115
100
AcDbEntity
  8
AM_4
100
AcDbLine
 10
-1.559000333333334
 20
-1.997340277777778
 30
0.0
 11
-1.539000333333334
 21
-1.997340277777778
 31
0.0
  0
LINE
  5
13A
330
115
100
AcDbEntity
  8
AM_4
100
AcDbLine
 10
-1.539000333333334
 20
-1.636340277777778
 30
0.0
 11
-1.559000333333334
 21
-1.636340277777778
 31
0.0
  0
LINE
  5
13B
330
115
100
AcDbEntity
  8
AM_5
100
AcDbLine
 10
-1.436833333333334
 20
-1.887040277777778
 30
0.0
 11
-1.579000333333333
 21
-1.887040277777778
 31
0.0
  0
LINE
  5
13C
330
115
100
AcDbEntity
  8
AM_5
100
AcDbLine
 10
-1.839000333333334
 20
-1.911840277777778
 30
0.0
 11
-1.839000333333334
 21
-1.721840277777778
 31
0.0
  0
LINE
  5
13D
330
115
100
AcDbEntity
  8
AM_5
100
AcDbLine
 10
-1.436833333333334
 20
-1.746640277777778
 30
0.0
 11
-1.579000333333333
 21
-1.746640277777778
 31
0.0
  0
ENDBLK
  5
118
330
115
100
AcDbEntity
  8
0
100
AcDbBlockEnd
  0
BLOCK
  5
140
330
13E
100
AcDbEntity
  8
0
100
AcDbBlockBegin
  2
5_ASME_B18_3_10_2_0_in_072323_2
 70
     2
 10
0.0
 20
0.0
 30
0.0
  3
5_ASME_B18_3_10_2_0_in_072323_2
  1

  0
ATTDEF
  5
142
330
13E
100
AcDbEntity
  8
AM_6
100
AcDbText
 10
4.260999666666667
 20
1.997340277777778
 30
0.0
 40
0.5
  1
ANSI/ASME-B18.3-1998
100
AcDbAttributeDefinition
  3

  2
NN
 70
     8
280
     0
  0
ATTDEF
  5
143
330
13E
100
AcDbEntity
  8
AM_6
100
AcDbText
 10
4.260999666666667
 20
1.497340277777778
 30
0.0
 40
0.5
  1
Socket Button Head Cap Screws
100
AcDbAttributeDefinition
  3

  2
NT
 70
     8
280
     0
  0
ATTDEF
  5
144
330
13E
100
AcDbEntity
  8
AM_6
100
AcDbText
 10
4.260999666666667
 20
0.9973402777777776
 30
0.0
 40
0.5
  1
ASME-B18.3-10
100
AcDbAttributeDefinition
  3

  2
NB
 70
     8
280
     0
  0
ATTDEF
  5
145
330
13E
100
AcDbEntity
  8
AM_6
100
AcDbText
 10
4.260999666666667
 20
0.4973402777777776
 30
0.0
 40
0.5
  1
ASME-B18.3-$NS.
100
AcDbAttributeDefinition
  3

  2
NBSYN
 70
     8
280
     0
  0
ATTDEF
  5
146
330
13E
100
AcDbEntity
  8
AM_6
100
AcDbText
 10
4.260999666666667
 20
-0.0026597222222224
 30
0.0
 40
0.5
  1
ASME-B18.3-10
100
AcDbAttributeDefinition
  3

  2
LINA
 70
     8
280
     0
  0
ATTDEF
  5
147
330
13E
100
AcDbEntity
  8
AM_6
100
AcDbText
 10
4.260999666666667
 20
-0.5026597222222224
 30
0.0
 40
0.5
  1
10
100
AcDbAttributeDefinition
  3

  2
NS
 70
     8
280
     0
  0
ATTDEF
  5
148
330
13E
100
AcDbEntity
  8
AM_6
100
AcDbText
 10
4.260999666666667
 20
-1.002659722222222
 30
0.0
 40
0.5
  1
0.361
100
AcDbAttributeDefinition
  3

  2
A
 70
     8
280
     0
  0
ATTDEF
  5
149
330
13E
100
AcDbEntity
  8
AM_6
100
AcDbText
 10
4.260999666666667
 20
-1.502659722222222
 30
0.0
 40
0.5
  1
0.101
100
AcDbAttributeDefinition
  3

  2
H
 70
     8
280
     0
  0
ATTDEF
  5
14A
330
13E
100
AcDbEntity
  8
AM_6
100
AcDbText
 10
4.260999666666667
 20
-2.002659722222222
 30
0.0
 40
0.5
  1
0.800
100
AcDbAttributeDefinition
  3

  2
L
 70
     8
280
     0
  0
ATTDEF
  5
14B
330
13E
100
AcDbEntity
  8
AM_6
100
AcDbText
 10
4.260999666666667
 20
-2.502659722222222
 30
0.0
 40
0.5
  1
0.020
100
AcDbAttributeDefinition
  3

  2
S
 70
     8
280
     0
  0
ATTDEF
  5
14C
330
13E
100
AcDbEntity
  8
AM_6
100
AcDbText
 10
4.260999666666667
 20
-3.002659722222222
 30
0.0
 40
0.5
  1
0.125000
100
AcDbAttributeDefinition
  3

  2
J
 70
     8
280
     0
  0
ATTDEF
  5
14D
330
13E
100
AcDbEntity
  8
AM_6
100
AcDbText
 10
4.260999666666667
 20
-3.502659722222222
 30
0.0
 40
0.5
  1
baldor
100
AcDbAttributeDefinition
  3

  2
COMPANY
 70
     8
280
     0
  0
LINE
  5
14E
330
13E
100
AcDbEntity
  8
AM_9
100
AcDbLine
 10
-1.579000333333334
 20
1.889009061426481
 30
0.0
 11
-1.640000333333334
 21
1.889009061426481
 31
0.0
  0
LINE
  5
14F
330
13E
100
AcDbEntity
  8
AM_9
100
AcDbLine
 10
-1.579000333333334
 20
1.744671494129074
 30
0.0
 11
-1.640000333333334
 21
1.744671494129074
 31
0.0
  0
LINE
  5
150
330
13E
100
AcDbEntity
  8
AM_9
100
AcDbLine
 10
-1.579000333333334
 20
1.852924669602129
 30
0.0
 11
-1.640000333333334
 21
1.852924669602129
 31
0.0
  0
LINE
  5
151
330
13E
100
AcDbEntity
  8
AM_9
100
AcDbLine
 10
-1.579000333333334
 20
1.889009061426481
 30
0.0
 11
-1.579000333333334
 21
1.744671494129074
 31
0.0
  0
LINE
  5
152
330
13E
100
AcDbEntity
  8
AM_9
100
AcDbLine
 10
-1.579000333333334
 20
1.780755885953426
 30
0.0
 11
-1.640000333333334
 21
1.780755885953426
 31
0.0
  0
LINE
  5
153
330
13E
100
AcDbEntity
  8
AM_9
100
AcDbLine
 10
-0.7390003333333334
 20
1.887040277777778
 30
0.0
 11
-0.7390003333333334
 21
1.746640277777778
 31
0.0
  0
LINE
  5
154
330
13E
100
AcDbEntity
  8
AM_9
100
AcDbLine
 10
-0.7390003333333334
 20
1.887040277777778
 30
0.0
 11
-0.7638003333333336
 21
1.911840277777778
 31
0.0
  0
LINE
  5
155
330
13E
100
AcDbEntity
  8
AM_9
100
AcDbLine
 10
-0.7638003333333336
 20
1.721840277777778
 30
0.0
 11
-0.7390003333333334
 21
1.746640277777778
 31
0.0
  0
LINE
  5
156
330
13E
100
AcDbEntity
  8
AM_9
100
AcDbLine
 10
-0.7638003333333336
 20
1.911840277777778
 30
0.0
 11
-0.7638003333333336
 21
1.721840277777778
 31
0.0
  0
LINE
  5
157
330
13E
100
AcDbEntity
  8
AM_9
100
AcDbLine
 10
-1.436833333333334
 20
1.721840277777778
 30
0.0
 11
-0.7638003333333336
 21
1.721840277777778
 31
0.0
  0
LINE
  5
158
330
13E
100
AcDbEntity
  8
AM_9
100
AcDbLine
 10
-0.7638003333333336
 20
1.911840277777778
 30
0.0
 11
-1.436833333333334
 21
1.911840277777778
 31
0.0
  0
LINE
  5
159
330
13E
100
AcDbEntity
  8
AM_5
100
AcDbLine
 10
-0.7390003333333334
 20
1.746640277777778
 30
0.0
 11
-1.436833333333334
 21
1.746640277777778
 31
0.0
  0
LINE
  5
15A
330
13E
100
AcDbEntity
  8
AM_5
100
AcDbLine
 10
-0.7390003333333334
 20
1.887040277777778
 30
0.0
 11
-1.436833333333334
 21
1.887040277777778
 31
0.0
  0
LINE
  5
15B
330
13E
100
AcDbEntity
  8
AM_4
100
AcDbLine
 10
-1.539000333333334
 20
1.721840277777778
 30
0.0
 11
-1.436833333333334
 21
1.721840277777778
 31
0.0
  0
LINE
  5
15C
330
13E
100
AcDbEntity
  8
AM_4
100
AcDbLine
 10
-1.436833333333334
 20
1.911840277777778
 30
0.0
 11
-1.539000333333334
 21
1.911840277777778
 31
0.0
  0
LINE
  5
15D
330
13E
100
AcDbEntity
  8
AM_4
100
AcDbLine
 10
-1.640000333333334
 20
1.916340277777778
 30
0.0
 11
-1.640000333333334
 21
1.717340277777778
 31
0.0
  0
ARC
  5
15E
330
13E
100
AcDbEntity
  8
AM_4
100
AcDbCircle
 10
-1.559000333333333
 20
1.717340277777778
 30
0.0
 40
0.0810000000000008
100
AcDbArc
 50
180.0
 51
270.0
  0
ARC
  5
15F
330
13E
100
AcDbEntity
  8
AM_4
100
AcDbCircle
 10
-1.559000333333333
 20
1.916340277777777
 30
0.0
 40
0.0810000000000008
100
AcDbArc
 50
90.0
 51
180.0
  0
LINE
  5
160
330
13E
100
AcDbEntity
  8
AM_4
100
AcDbLine
 10
-1.539000333333334
 20
1.997340277777778
 30
0.0
 11
-1.539000333333334
 21
1.636340277777778
 31
0.0
  0
LINE
  5
161
330
13E
100
AcDbEntity
  8
AM_4
100
AcDbLine
 10
-1.559000333333334
 20
1.997340277777778
 30
0.0
 11
-1.559000333333334
 21
1.636340277777778
 31
0.0
  0
LINE
  5
162
330
13E
100
AcDbEntity
  8
AM_4
100
AcDbLine
 10
-1.559000333333334
 20
1.636340277777778
 30
0.0
 11
-1.539000333333334
 21
1.636340277777778
 31
0.0
  0
LINE
  5
163
330
13E
100
AcDbEntity
  8
AM_4
100
AcDbLine
 10
-1.539000333333334
 20
1.997340277777778
 30
0.0
 11
-1.559000333333334
 21
1.997340277777778
 31
0.0
  0
LINE
  5
164
330
13E
100
AcDbEntity
  8
AM_5
100
AcDbLine
 10
-1.436833333333334
 20
1.746640277777778
 30
0.0
 11
-1.579000333333333
 21
1.746640277777778
 31
0.0
  0
LINE
  5
165
330
13E
100
AcDbEntity
  8
AM_5
100
AcDbLine
 10
-1.839000333333334
 20
1.721840277777778
 30
0.0
 11
-1.839000333333334
 21
1.911840277777778
 31
0.0
  0
LINE
  5
166
330
13E
100
AcDbEntity
  8
AM_5
100
AcDbLine
 10
-1.436833333333334
 20
1.887040277777778
 30
0.0
 11
-1.579000333333333
 21
1.887040277777778
 31
0.0
  0
ENDBLK
  5
141
330
13E
100
AcDbEntity
  8
0
100
AcDbBlockEnd
  0
BLOCK
  5
169
330
167
100
AcDbEntity
  8
0
100
AcDbBlockBegin
  2
6_070897LW_0_in_072323_2
 70
     2
 10
0.0
 20
0.0
 30
0.0
  3
6_070897LW_0_in_072323_2
  1

  0
ATTDEF
  5
16B
330
167
100
AcDbEntity
  8
AM_6
100
AcDbText
 10
4.003166666666666
 20
2.140625
 30
0.0
 40
0.5
  1
Imperial Insert Lockwasher -Inch
100
AcDbAttributeDefinition
  3

  2
NN
 70
     8
280
     0
  0
ATTDEF
  5
16C
330
167
100
AcDbEntity
  8
AM_6
100
AcDbText
 10
4.003166666666666
 20
1.640625
 30
0.0
 40
0.5
  1
Imperial Bearings
100
AcDbAttributeDefinition
  3

  2
NT
 70
     8
280
     0
  0
ATTDEF
  5
16D
330
167
100
AcDbEntity
  8
AM_6
100
AcDbText
 10
4.003166666666666
 20
1.140625
 30
0.0
 40
0.5
  1
070897LW
100
AcDbAttributeDefinition
  3

  2
NB
 70
     8
280
     0
  0
ATTDEF
  5
16E
330
167
100
AcDbEntity
  8
AM_6
100
AcDbText
 10
4.003166666666666
 20
0.640625
 30
0.0
 40
0.5
  1
$PN.LW
100
AcDbAttributeDefinition
  3

  2
NBSYN
 70
     8
280
     0
  0
ATTDEF
  5
16F
330
167
100
AcDbEntity
  8
AM_6
100
AcDbText
 10
4.003166666666666
 20
0.140625
 30
0.0
 40
0.5
  1
070897
100
AcDbAttributeDefinition
  3

  2
LINA
 70
     8
280
     0
  0
ATTDEF
  5
170
330
167
100
AcDbEntity
  8
AM_6
100
AcDbText
 10
4.003166666666666
 20
-0.359375
 30
0.0
 40
0.5
  1
2-11/16
100
AcDbAttributeDefinition
  3

  2
SS
 70
     8
280
     0
  0
ATTDEF
  5
171
330
167
100
AcDbEntity
  8
AM_6
100
AcDbText
 10
4.003166666666666
 20
-0.859375
 30
0.0
 40
0.5
  1
2.687500
100
AcDbAttributeDefinition
  3

  2
SS1
 70
     8
280
     0
  0
ATTDEF
  5
172
330
167
100
AcDbEntity
  8
AM_6
100
AcDbText
 10
4.003166666666666
 20
-1.359375
 30
0.0
 40
0.5
  1
070897
100
AcDbAttributeDefinition
  3

  2
PN
 70
     8
280
     0
  0
ATTDEF
  5
173
330
167
100
AcDbEntity
  8
AM_6
100
AcDbText
 10
4.003166666666666
 20
-1.859375
 30
0.0
 40
0.5
  1
INS-IP-211R
100
AcDbAttributeDefinition
  3

  2
DESCRIPTION
 70
     8
280
     0
  0
ATTDEF
  5
174
330
167
100
AcDbEntity
  8
AM_6
100
AcDbText
 10
4.003166666666666
 20
-2.359375
 30
0.0
 40
0.5
  1
5.1181
100
AcDbAttributeDefinition
  3

  2
A
 70
     8
280
     0
  0
ATTDEF
  5
175
330
167
100
AcDbEntity
  8
AM_6
100
AcDbText
 10
4.003166666666666
 20
-2.859375
 30
0.0
 40
0.5
  1
1-9/32
100
AcDbAttributeDefinition
  3

  2
B
 70
     8
280
     0
  0
ATTDEF
  5
176
330
167
100
AcDbEntity
  8
AM_6
100
AcDbText
 10
4.003166666666666
 20
-3.359375
 30
0.0
 40
0.5
  1
3-1/2
100
AcDbAttributeDefinition
  3

  2
C
 70
     8
280
     0
  0
ATTDEF
  5
177
330
167
100
AcDbEntity
  8
AM_6
100
AcDbText
 10
4.003166666666666
 20
-3.859375
 30
0.0
 40
0.5
  1
1.219
100
AcDbAttributeDefinition
  3

  2
D
 70
     8
280
     0
  0
ATTDEF
  5
178
330
167
100
AcDbEntity
  8
AM_6
100
AcDbText
 10
4.003166666666666
 20
-4.359375
 30
0.0
 40
0.5
  1
4-9/32
100
AcDbAttributeDefinition
  3

  2
E
 70
     8
280
     0
  0
ATTDEF
  5
179
330
167
100
AcDbEntity
  8
AM_6
100
AcDbText
 10
4.003166666666666
 20
-4.859375
 30
0.0
 40
0.5
  1
0.1900
100
AcDbAttributeDefinition
  3

  2
NDM
 70
     8
280
     0
  0
ATTDEF
  5
17A
330
167
100
AcDbEntity
  8
AM_6
100
AcDbText
 10
4.003166666666666
 20
-5.359375
 30
0.0
 40
0.5
  1
0.1450
100
AcDbAttributeDefinition
  3

  2
KDM
 70
     8
280
     0
  0
ATTDEF
  5
17B
330
167
100
AcDbEntity
  8
AM_6
100
AcDbText
 10
4.003166666666666
 20
-5.859375
 30
0.0
 40
0.5
  1
3.74
100
AcDbAttributeDefinition
  3

  2
AL
 70
     8
280
     0
  0
ATTDEF
  5
17C
330
167
100
AcDbEntity
  8
AM_6
100
AcDbText
 10
4.003166666666666
 20
-6.359375
 30
0.0
 40
0.5
  1
0.50
100
AcDbAttributeDefinition
  3

  2
BL
 70
     8
280
     0
  0
ATTDEF
  5
17D
330
167
100
AcDbEntity
  8
AM_6
100
AcDbText
 10
4.003166666666666
 20
-6.859375
 30
0.0
 40
0.5
  1
0.07
100
AcDbAttributeDefinition
  3

  2
CL
 70
     8
280
     0
  0
ATTDEF
  5
17E
330
167
100
AcDbEntity
  8
AM_6
100
AcDbText
 10
4.003166666666666
 20
-7.359375
 30
0.0
 40
0.5
  1
0.44
100
AcDbAttributeDefinition
  3

  2
DL
 70
     8
280
     0
  0
ATTDEF
  5
17F
330
167
100
AcDbEntity
  8
AM_6
100
AcDbText
 10
4.003166666666666
 20
-7.859375
 30
0.0
 40
0.5
  1
baldor
100
AcDbAttributeDefinition
  3

  2
COMPANY
 70
     8
280
     0
  0
LINE
  5
180
330
167
100
AcDbEntity
  8
AM_9
100
AcDbLine
 10
-1.366833333333334
 20
1.289309095649979
 30
0.0
 11
-1.436833333333334
 21
1.289309095649979
 31
0.0
  0
LINE
  5
181
330
167
100
AcDbEntity
  8
AM_9
100
AcDbLine
 10
-0.9968333333333337
 20
1.253855032193372
 30
0.0
 11
-1.366833333333334
 21
1.253855032193372
 31
0.0
  0
LINE
  5
182
330
167
100
AcDbEntity
  8
AM_9
100
AcDbLine
 10
-0.9968333333333337
 20
1.188244629482645
 30
0.0
 11
-1.436833333333334
 21
1.188244629482645
 31
0.0
  0
LINE
  5
183
330
167
100
AcDbEntity
  8
AM_9
100
AcDbLine
 10
-1.366833333333334
 20
1.349525890284645
 30
0.0
 11
-0.9968333333333337
 21
1.349525890284645
 31
0.0
  0
LINE
  5
184
330
167
100
AcDbEntity
  8
AM_9
100
AcDbLine
 10
-0.9968333333333337
 20
1.283915487573918
 30
0.0
 11
-1.436833333333334
 21
1.283915487573918
 31
0.0
  0
LINE
  5
185
330
167
100
AcDbEntity
  8
AM_9
100
AcDbLine
 10
-0.9968333333333337
 20
1.188244629482645
 30
0.0
 11
-0.9968333333333337
 21
1.349525890284645
 31
0.0
  0
LINE
  5
186
330
167
100
AcDbEntity
  8
AM_9
100
AcDbLine
 10
-1.366833333333334
 20
1.384979953741251
 30
0.0
 11
-1.436833333333334
 21
1.384979953741251
 31
0.0
  0
LINE
  5
187
330
167
100
AcDbEntity
  8
AM_9
100
AcDbLine
 10
-1.366833333333334
 20
1.816840277777778
 30
0.0
 11
-1.436833333333334
 21
1.816840277777778
 31
0.0
  0
LINE
  5
188
330
167
100
AcDbEntity
  8
AM_9
100
AcDbLine
 10
-1.366833333333334
 20
1.911872784063331
 30
0.0
 11
-1.436833333333334
 21
1.911872784063331
 31
0.0
  0
LINE
  5
189
330
167
100
AcDbEntity
  8
AM_9
100
AcDbLine
 10
-1.366833333333334
 20
-1.816840277777778
 30
0.0
 11
-1.436833333333334
 21
-1.816840277777778
 31
0.0
  0
LINE
  5
18A
330
167
100
AcDbEntity
  8
AM_9
100
AcDbLine
 10
-1.436833333333334
 20
-1.911872784063331
 30
0.0
 11
-1.366833333333334
 21
-1.911872784063331
 31
0.0
  0
LINE
  5
18B
330
167
100
AcDbEntity
  8
AM_9
100
AcDbLine
 10
-1.366833333333334
 20
1.449593095471877
 30
0.0
 11
-1.436833333333334
 21
1.449593095471877
 31
0.0
  0
LINE
  5
18C
330
167
100
AcDbEntity
  8
AM_9
100
AcDbLine
 10
-1.366833333333334
 20
-1.449593095471877
 30
0.0
 11
-1.436833333333334
 21
-1.449593095471877
 31
0.0
  0
LINE
  5
18D
330
167
100
AcDbEntity
  8
AM_9
100
AcDbLine
 10
-1.366833333333334
 20
-1.092192251982084
 30
0.0
 11
-1.436833333333334
 21
-1.092192251982084
 31
0.0
  0
LINE
  5
18E
330
167
100
AcDbEntity
  8
AM_9
100
AcDbLine
 10
-1.366833333333334
 20
1.092192251982084
 30
0.0
 11
-1.436833333333334
 21
1.092192251982085
 31
0.0
  0
LINE
  5
18F
330
167
100
AcDbEntity
  8
AM_9
100
AcDbLine
 10
-1.366833333333334
 20
0.9578419635566406
 30
0.0
 11
-1.436833333333334
 21
0.9578419635566406
 31
0.0
  0
LINE
  5
190
330
167
100
AcDbEntity
  8
AM_9
100
AcDbLine
 10
-1.366833333333334
 20
-0.9578419635566398
 30
0.0
 11
-1.436833333333334
 21
-0.9578419635566394
 31
0.0
  0
LINE
  5
191
330
167
100
AcDbEntity
  8
AM_9
100
AcDbLine
 10
-1.366833333333334
 20
1.351875224962239
 30
0.0
 11
-1.436833333333334
 21
1.351875224962239
 31
0.0
  0
LINE
  5
192
330
167
100
AcDbEntity
  8
AM_9
100
AcDbLine
 10
-1.366833333333334
 20
1.217524936536795
 30
0.0
 11
-1.436833333333334
 21
1.217524936536795
 31
0.0
  0
LINE
  5
193
330
167
100
AcDbEntity
  8
AM_9
100
AcDbLine
 10
-1.366833333333334
 20
1.379723067792791
 30
0.0
 11
-1.436833333333334
 21
1.379723067792791
 31
0.0
  0
LINE
  5
194
330
167
100
AcDbEntity
  8
AM_9
100
AcDbLine
 10
-1.366833333333334
 20
-1.217524936536795
 30
0.0
 11
-1.436833333333334
 21
-1.217524936536795
 31
0.0
  0
LINE
  5
195
330
167
100
AcDbEntity
  8
AM_9
100
AcDbLine
 10
-1.366833333333334
 20
-1.351875224962226
 30
0.0
 11
-1.436833333333334
 21
-1.351875224962226
 31
0.0
  0
LINE
  5
196
330
167
100
AcDbEntity
  8
AM_9
100
AcDbLine
 10
-1.436833333333334
 20
-1.379723067792791
 30
0.0
 11
-1.366833333333334
 21
-1.379723067792791
 31
0.0
  0
LINE
  5
197
330
167
100
AcDbEntity
  8
AM_9
100
AcDbLine
 10
-1.366833333333334
 20
0.0950000000000002
 30
0.0
 11
-1.436833333333334
 21
0.0950000000000002
 31
0.0
  0
LINE
  5
198
330
167
100
AcDbEntity
  8
AM_9
100
AcDbLine
 10
-1.366833333333334
 20
-0.0949999999999994
 30
0.0
 11
-1.436833333333334
 21
-0.0949999999999994
 31
0.0
  0
LINE
  5
199
330
167
100
AcDbEntity
  8
AM_4
100
AcDbLine
 10
-1.366833333333334
 20
2.140625
 30
0.0
 11
-1.436833333333334
 21
2.140625
 31
0.0
  0
LINE
  5
19A
330
167
100
AcDbEntity
  8
AM_4
100
AcDbLine
 10
-1.436833333333334
 20
-2.140625
 30
0.0
 11
-1.366833333333334
 21
-2.140625
 31
0.0
  0
LINE
  5
19B
330
167
100
AcDbEntity
  8
AM_4
100
AcDbLine
 10
-1.436833333333334
 20
2.140625
 30
0.0
 11
-1.436833333333334
 21
-2.140625
 31
0.0
  0
LINE
  5
19C
330
167
100
AcDbEntity
  8
AM_4
100
AcDbLine
 10
-1.366833333333334
 20
2.140625
 30
0.0
 11
-1.366833333333334
 21
-2.140625
 31
0.0
  0
ENDBLK
  5
16A
330
167
100
AcDbEntity
  8
0
100
AcDbBlockEnd
  0
BLOCK
  5
19F
330
19D
100
AcDbEntity
  8
0
100
AcDbBlockBegin
  2
7_070897I_0_in_072323_2
 70
     2
 10
0.0
 20
0.0
 30
0.0
  3
7_070897I_0_in_072323_2
  1

  0
ATTDEF
  5
1A1
330
19D
100
AcDbEntity
  8
AM_6
100
AcDbText
 10
6.885
 20
2.55905
 30
0.0
 40
0.5
  1
Imperial Insert -Inch
100
AcDbAttributeDefinition
  3

  2
NN
 70
     8
280
     0
  0
ATTDEF
  5
1A2
330
19D
100
AcDbEntity
  8
AM_6
100
AcDbText
 10
6.885
 20
2.05905
 30
0.0
 40
0.5
  1
Imperial Bearings
100
AcDbAttributeDefinition
  3

  2
NT
 70
     8
280
     0
  0
ATTDEF
  5
1A3
330
19D
100
AcDbEntity
  8
AM_6
100
AcDbText
 10
6.885
 20
1.55905
 30
0.0
 40
0.5
  1
070897I
100
AcDbAttributeDefinition
  3

  2
NB
 70
     8
280
     0
  0
ATTDEF
  5
1A4
330
19D
100
AcDbEntity
  8
AM_6
100
AcDbText
 10
6.885
 20
1.05905
 30
0.0
 40
0.5
  1
$PN.I
100
AcDbAttributeDefinition
  3

  2
NBSYN
 70
     8
280
     0
  0
ATTDEF
  5
1A5
330
19D
100
AcDbEntity
  8
AM_6
100
AcDbText
 10
6.885
 20
0.5590500000000005
 30
0.0
 40
0.5
  1
070897
100
AcDbAttributeDefinition
  3

  2
LINA
 70
     8
280
     0
  0
ATTDEF
  5
1A6
330
19D
100
AcDbEntity
  8
AM_6
100
AcDbText
 10
6.885
 20
0.0590500000000005
 30
0.0
 40
0.5
  1
2-11/16
100
AcDbAttributeDefinition
  3

  2
SS
 70
     8
280
     0
  0
ATTDEF
  5
1A7
330
19D
100
AcDbEntity
  8
AM_6
100
AcDbText
 10
6.885
 20
-0.4409499999999995
 30
0.0
 40
0.5
  1
2.687500
100
AcDbAttributeDefinition
  3

  2
SS1
 70
     8
280
     0
  0
ATTDEF
  5
1A8
330
19D
100
AcDbEntity
  8
AM_6
100
AcDbText
 10
6.885
 20
-0.9409499999999995
 30
0.0
 40
0.5
  1
070897
100
AcDbAttributeDefinition
  3

  2
PN
 70
     8
280
     0
  0
ATTDEF
  5
1A9
330
19D
100
AcDbEntity
  8
AM_6
100
AcDbText
 10
6.885
 20
-1.44095
 30
0.0
 40
0.5
  1
INS-IP-211R
100
AcDbAttributeDefinition
  3

  2
DESCRIPTION
 70
     8
280
     0
  0
ATTDEF
  5
1AA
330
19D
100
AcDbEntity
  8
AM_6
100
AcDbText
 10
6.885
 20
-1.94095
 30
0.0
 40
0.5
  1
Contact Seal
100
AcDbAttributeDefinition
  3

  2
ST
 70
     8
280
     0
  0
ATTDEF
  5
1AB
330
19D
100
AcDbEntity
  8
AM_6
100
AcDbText
 10
6.885
 20
-2.44095
 30
0.0
 40
0.5
  1
5.1181
100
AcDbAttributeDefinition
  3

  2
A
 70
     8
280
     0
  0
ATTDEF
  5
1AC
330
19D
100
AcDbEntity
  8
AM_6
100
AcDbText
 10
6.885
 20
-2.94095
 30
0.0
 40
0.5
  1
1-9/32
100
AcDbAttributeDefinition
  3

  2
B
 70
     8
280
     0
  0
ATTDEF
  5
1AD
330
19D
100
AcDbEntity
  8
AM_6
100
AcDbText
 10
6.885
 20
-3.44095
 30
0.0
 40
0.5
  1
3-1/2
100
AcDbAttributeDefinition
  3

  2
C
 70
     8
280
     0
  0
ATTDEF
  5
1AE
330
19D
100
AcDbEntity
  8
AM_6
100
AcDbText
 10
6.885
 20
-3.94095
 30
0.0
 40
0.5
  1
1.219
100
AcDbAttributeDefinition
  3

  2
D
 70
     8
280
     0
  0
ATTDEF
  5
1AF
330
19D
100
AcDbEntity
  8
AM_6
100
AcDbText
 10
6.885
 20
-4.440949999999999
 30
0.0
 40
0.5
  1
4-9/32
100
AcDbAttributeDefinition
  3

  2
E
 70
     8
280
     0
  0
ATTDEF
  5
1B0
330
19D
100
AcDbEntity
  8
AM_6
100
AcDbText
 10
6.885
 20
-4.940949999999999
 30
0.0
 40
0.5
  1
0.1900
100
AcDbAttributeDefinition
  3

  2
NDM
 70
     8
280
     0
  0
ATTDEF
  5
1B1
330
19D
100
AcDbEntity
  8
AM_6
100
AcDbText
 10
6.885
 20
-5.440949999999999
 30
0.0
 40
0.5
  1
0.101
100
AcDbAttributeDefinition
  3

  2
H
 70
     8
280
     0
  0
ATTDEF
  5
1B2
330
19D
100
AcDbEntity
  8
AM_6
100
AcDbText
 10
6.885
 20
-5.940949999999999
 30
0.0
 40
0.5
  1
0.1450
100
AcDbAttributeDefinition
  3

  2
KDM
 70
     8
280
     0
  0
ATTDEF
  5
1B3
330
19D
100
AcDbEntity
  8
AM_6
100
AcDbText
 10
6.885
 20
-6.440949999999999
 30
0.0
 40
0.5
  1
3.74
100
AcDbAttributeDefinition
  3

  2
AL
 70
     8
280
     0
  0
ATTDEF
  5
1B4
330
19D
100
AcDbEntity
  8
AM_6
100
AcDbText
 10
6.885
 20
-6.940949999999999
 30
0.0
 40
0.5
  1
0.50
100
AcDbAttributeDefinition
  3

  2
BL
 70
     8
280
     0
  0
ATTDEF
  5
1B5
330
19D
100
AcDbEntity
  8
AM_6
100
AcDbText
 10
6.885
 20
-7.440949999999999
 30
0.0
 40
0.5
  1
0.07
100
AcDbAttributeDefinition
  3

  2
CL
 70
     8
280
     0
  0
ATTDEF
  5
1B6
330
19D
100
AcDbEntity
  8
AM_6
100
AcDbText
 10
6.885
 20
-7.940949999999999
 30
0.0
 40
0.5
  1
0.44
100
AcDbAttributeDefinition
  3

  2
DL
 70
     8
280
     0
  0
ATTDEF
  5
1B7
330
19D
100
AcDbEntity
  8
AM_6
100
AcDbText
 10
6.885
 20
-8.440949999999999
 30
0.0
 40
0.5
  1
0.8000
100
AcDbAttributeDefinition
  3

  2
LL
 70
     8
280
     0
  0
ATTDEF
  5
1B8
330
19D
100
AcDbEntity
  8
AM_6
100
AcDbText
 10
6.885
 20
-8.940949999999999
 30
0.0
 40
0.5
  1
0.025
100
AcDbAttributeDefinition
  3

  2
Y
 70
     8
280
     0
  0
ATTDEF
  5
1B9
330
19D
100
AcDbEntity
  8
AM_6
100
AcDbText
 10
6.885
 20
-9.440949999999999
 30
0.0
 40
0.5
  1
0.025000
100
AcDbAttributeDefinition
  3

  2
Y1
 70
     8
280
     0
  0
ATTDEF
  5
1BA
330
19D
100
AcDbEntity
  8
AM_6
100
AcDbText
 10
6.885
 20
-9.940949999999999
 30
0.0
 40
0.5
  1
3-15/32
100
AcDbAttributeDefinition
  3

  2
Z
 70
     8
280
     0
  0
ATTDEF
  5
1BB
330
19D
100
AcDbEntity
  8
AM_6
100
AcDbText
 10
6.885
 20
-10.44095
 30
0.0
 40
0.5
  1
3.468750
100
AcDbAttributeDefinition
  3

  2
Z1
 70
     8
280
     0
  0
ATTDEF
  5
1BC
330
19D
100
AcDbEntity
  8
AM_6
100
AcDbText
 10
6.885
 20
-10.94095
 30
0.0
 40
0.5
  1
baldor
100
AcDbAttributeDefinition
  3

  2
COMPANY
 70
     8
280
     0
  0
LINE
  5
1BD
330
19D
100
AcDbEntity
  8
AM_9
100
AcDbLine
 10
1.281625
 20
1.352987427504355
 30
0.0
 11
-1.366833333333334
 21
1.352987427504355
 31
0.0
  0
LINE
  5
1BE
330
19D
100
AcDbEntity
  8
AM_9
100
AcDbLine
 10
1.281625
 20
1.257316569413083
 30
0.0
 11
-1.366833333333334
 21
1.257316569413083
 31
0.0
  0
LINE
  5
1BF
330
19D
100
AcDbEntity
  8
AM_9
100
AcDbLine
 10
-0.5268333333333335
 20
1.816840277777778
 30
0.0
 11
-0.5606173231666629
 21
1.889290277777778
 31
0.0
  0
LINE
  5
1C0
330
19D
100
AcDbEntity
  8
AM_9
100
AcDbLine
 10
-0.5606173231666629
 20
1.744390277777778
 30
0.0
 11
-0.5268333333333335
 21
1.816840277777778
 31
0.0
  0
LINE
  5
1C1
330
19D
100
AcDbEntity
  8
AM_9
100
AcDbLine
 10
-0.5268333333333357
 20
-1.816840277777778
 30
0.0
 11
-0.5606173231666692
 21
-1.744390277777778
 31
0.0
  0
LINE
  5
1C2
330
19D
100
AcDbEntity
  8
AM_9
100
AcDbLine
 10
-0.5606173231666692
 20
-1.889290277777778
 30
0.0
 11
-0.5268333333333357
 21
-1.816840277777778
 31
0.0
  0
LINE
  5
1C3
330
19D
100
AcDbEntity
  8
AM_9
100
AcDbLine
 10
-0.5606173231666629
 20
1.744390277777778
 30
0.0
 11
-0.5606173231666629
 21
1.889290277777778
 31
0.0
  0
LINE
  5
1C4
330
19D
100
AcDbEntity
  8
AM_9
100
AcDbLine
 10
-0.5606173231666629
 20
1.889290277777778
 30
0.0
 11
-1.344283333333333
 21
1.889290277777778
 31
0.0
  0
LINE
  5
1C5
330
19D
100
AcDbEntity
  8
AM_9
100
AcDbLine
 10
-1.344283333333333
 20
1.744390277777778
 30
0.0
 11
-0.5606173231666629
 21
1.744390277777778
 31
0.0
  0
LINE
  5
1C6
330
19D
100
AcDbEntity
  8
AM_9
100
AcDbLine
 10
-1.344283333333337
 20
-1.889290277777778
 30
0.0
 11
-0.5606173231666692
 21
-1.889290277777778
 31
0.0
  0
LINE
  5
1C7
330
19D
100
AcDbEntity
  8
AM_9
100
AcDbLine
 10
-0.5606173231666692
 20
-1.744390277777778
 30
0.0
 11
-1.344283333333337
 21
-1.744390277777778
 31
0.0
  0
LINE
  5
1C8
330
19D
100
AcDbEntity
  8
AM_9
100
AcDbLine
 10
-0.5606173231666692
 20
-1.744390277777778
 30
0.0
 11
-0.5606173231666692
 21
-1.889290277777778
 31
0.0
  0
LINE
  5
1C9
330
19D
100
AcDbEntity
  8
AM_9
100
AcDbLine
 10
-1.344283333333333
 20
1.744390277777778
 30
0.0
 11
-1.344283333333333
 21
1.889290277777778
 31
0.0
  0
LINE
  5
1CA
330
19D
100
AcDbEntity
  8
AM_9
100
AcDbLine
 10
-1.344283333333333
 20
1.889290277777778
 30
0.0
 11
-1.366833333333334
 21
1.911840277777778
 31
0.0
  0
LINE
  5
1CB
330
19D
100
AcDbEntity
  8
AM_9
100
AcDbLine
 10
-1.366833333333334
 20
1.721840277777778
 30
0.0
 11
-1.344283333333333
 21
1.744390277777778
 31
0.0
  0
LINE
  5
1CC
330
19D
100
AcDbEntity
  8
AM_9
100
AcDbLine
 10
-1.344283333333337
 20
-1.744390277777778
 30
0.0
 11
-1.366833333333314
 21
-1.721840277777778
 31
0.0
  0
LINE
  5
1CD
330
19D
100
AcDbEntity
  8
AM_9
100
AcDbLine
 10
-1.366833333333314
 20
-1.911840277777778
 30
0.0
 11
-1.344283333333337
 21
-1.889290277777778
 31
0.0
  0
LINE
  5
1CE
330
19D
100
AcDbEntity
  8
AM_9
100
AcDbLine
 10
-1.344283333333337
 20
-1.744390277777778
 30
0.0
 11
-1.344283333333337
 21
-1.889290277777778
 31
0.0
  0
LINE
  5
1CF
330
19D
100
AcDbEntity
  8
AM_9
100
AcDbLine
 10
1.281625
 20
1.283915487573918
 30
0.0
 11
-1.64
 21
1.283915487573918
 31
0.0
  0
LINE
  5
1D0
330
19D
100
AcDbEntity
  8
AM_9
100
AcDbLine
 10
-1.64
 20
1.188244629482645
 30
0.0
 11
1.281625
 21
1.188244629482645
 31
0.0
  0
LINE
  5
1D1
330
19D
100
AcDbEntity
  8
AM_9
100
AcDbLine
 10
1.281625
 20
1.34375
 30
0.0
 11
-1.64
 21
1.34375
 31
0.0
  0
LINE
  5
1D2
330
19D
100
AcDbEntity
  8
AM_9
100
AcDbLine
 10
-1.64
 20
-1.34375
 30
0.0
 11
1.281625
 21
-1.34375
 31
0.0
  0
LINE
  5
1D3
330
19D
100
AcDbEntity
  8
AM_9
100
AcDbLine
 10
1.86
 20
1.414473684210526
 30
0.0
 11
1.281625
 21
1.414473684210526
 31
0.0
  0
LINE
  5
1D4
330
19D
100
AcDbEntity
  8
AM_9
100
AcDbLine
 10
1.281625
 20
-1.414473684210526
 30
0.0
 11
1.86
 21
-1.414473684210526
 31
0.0
  0
LINE
  5
1D5
330
19D
100
AcDbEntity
  8
AM_9
100
AcDbLine
 10
-1.64
 20
1.349525890284645
 30
0.0
 11
-1.366833333333334
 21
1.349525890284645
 31
0.0
  0
LINE
  5
1D6
330
19D
100
AcDbEntity
  8
AM_9
100
AcDbLine
 10
-1.366833333333334
 20
1.253855032193372
 30
0.0
 11
-1.64
 21
1.253855032193372
 31
0.0
  0
LINE
  5
1D7
330
19D
100
AcDbEntity
  8
AM_9
100
AcDbLine
 10
-1.366833333333334
 20
1.414473684210526
 30
0.0
 11
-1.436833333333334
 21
1.414473684210526
 31
0.0
  0
LINE
  5
1D8
330
19D
100
AcDbEntity
  8
AM_9
100
AcDbLine
 10
-1.436833333333334
 20
-1.414473684210526
 30
0.0
 11
-1.366833333333334
 21
-1.414473684210526
 31
0.0
  0
LINE
  5
1D9
330
19D
100
AcDbEntity
  8
AM_9
100
AcDbLine
 10
-0.9268333333333336
 20
-1.145512985522207
 30
0.0
 11
-1.366833333333334
 21
-1.145512985522207
 31
0.0
  0
LINE
  5
1DA
330
19D
100
AcDbEntity
  8
AM_9
100
AcDbLine
 10
-0.9268333333333336
 20
-1.499066376115481
 30
0.0
 11
-0.9500000000000001
 21
-1.499066376115481
 31
0.0
  0
LINE
  5
1DB
330
19D
100
AcDbEntity
  8
AM_9
100
AcDbLine
 10
-0.9268333333333336
 20
1.145512985522207
 30
0.0
 11
-1.366833333333334
 21
1.145512985522207
 31
0.0
  0
LINE
  5
1DC
330
19D
100
AcDbEntity
  8
AM_9
100
AcDbLine
 10
-0.9268333333333336
 20
1.499066376115481
 30
0.0
 11
-0.9500000000000001
 21
1.499066376115481
 31
0.0
  0
LINE
  5
1DD
330
19D
100
AcDbEntity
  8
AM_9
100
AcDbLine
 10
-0.9268333333333336
 20
-1.145512985522207
 30
0.0
 11
-0.9268333333333336
 21
-1.691008097302049
 31
0.0
  0
LINE
  5
1DE
330
19D
100
AcDbEntity
  8
AM_9
100
AcDbLine
 10
-0.9268333333333336
 20
1.691008097302049
 30
0.0
 11
-0.9268333333333336
 21
1.145512985522207
 31
0.0
  0
LINE
  5
1DF
330
19D
100
AcDbEntity
  8
AM_9
100
AcDbLine
 10
1.86
 20
-1.734375
 30
0.0
 11
1.86
 21
1.734375
 31
0.0
  0
LINE
  5
1E0
330
19D
100
AcDbEntity
  8
AM_9
100
AcDbLine
 10
1.884999999999998
 20
1.734375
 30
0.0
 11
1.86
 21
1.734375
 31
0.0
  0
LINE
  5
1E1
330
19D
100
AcDbEntity
  8
AM_9
100
AcDbLine
 10
1.86
 20
-1.734375
 30
0.0
 11
1.884999999999998
 21
-1.734375
 31
0.0
  0
ARC
  5
1E2
330
19D
100
AcDbEntity
  8
AM_9
100
AcDbCircle
 10
1.840528846153846
 20
1.882612179487179
 30
0.0
 40
0.044471153846154
100
AcDbArc
 50
27.43083776692327
 51
90.0
  0
ARC
  5
1E3
330
19D
100
AcDbEntity
  8
AM_9
100
AcDbCircle
 10
1.840528846153846
 20
-1.882612179487179
 30
0.0
 40
0.044471153846154
100
AcDbArc
 50
270.0
 51
332.5691622330767
  0
LINE
  5
1E4
330
19D
100
AcDbEntity
  8
AM_9
100
AcDbLine
 10
1.840528846153846
 20
-1.927083333333333
 30
0.0
 11
1.840528846153846
 21
1.927083333333333
 31
0.0
  0
LINE
  5
1E5
330
19D
100
AcDbEntity
  8
AM_9
100
AcDbLine
 10
1.840528846153846
 20
1.927083333333333
 30
0.0
 11
1.537875
 21
1.927083333333333
 31
0.0
  0
LINE
  5
1E6
330
19D
100
AcDbEntity
  8
AM_9
100
AcDbLine
 10
1.537875
 20
-1.927083333333333
 30
0.0
 11
1.840528846153846
 21
-1.927083333333333
 31
0.0
  0
LINE
  5
1E7
330
19D
100
AcDbEntity
  8
AM_9
100
AcDbLine
 10
-0.9500000011715093
 20
-1.336878772316009
 30
0.0
 11
-0.9268333333333336
 21
-1.337454706708775
 31
0.0
  0
LINE
  5
1E8
330
19D
100
AcDbEntity
  8
AM_9
100
AcDbLine
 10
-0.9268333333333336
 20
-1.691008097302049
 30
0.0
 11
-0.9500000011715095
 21
-1.690432162909283
 31
0.0
  0
LINE
  5
1E9
330
19D
100
AcDbEntity
  8
AM_9
100
AcDbLine
 10
-0.9500000011715093
 20
1.690432162909283
 30
0.0
 11
-0.9268333333333336
 21
1.691008097302049
 31
0.0
  0
LINE
  5
1EA
330
19D
100
AcDbEntity
  8
AM_9
100
AcDbLine
 10
-0.9268333333333336
 20
1.337454706708775
 30
0.0
 11
-0.9500000011715095
 21
1.336878772316009
 31
0.0
  0
LINE
  5
1EB
330
19D
100
AcDbEntity
  8
AM_9
100
AcDbLine
 10
-0.9500000000000003
 20
-2.15518114074981
 30
0.0
 11
0.0
 21
-2.188355871766971
 31
0.0
  0
LINE
  5
1EC
330
19D
100
AcDbEntity
  8
AM_9
100
AcDbLine
 10
0.0
 20
2.188355871766971
 30
0.0
 11
-0.9500000000000003
 21
2.15518114074981
 31
0.0
  0
LINE
  5
1ED
330
19D
100
AcDbEntity
  8
AM_9
100
AcDbLine
 10
1.537874999999999
 20
-2.153368966601195
 30
0.0
 11
1.537874999999999
 21
2.153368966601195
 31
0.0
  0
ARC
  5
1EE
330
19D
100
AcDbEntity
  8
AM_9
100
AcDbCircle
 10
1.437875000000001
 20
2.153368966601196
 30
0.0
 40
0.0999999999999983
100
AcDbArc
 50
0.0
 51
60.0000000000005
  0
ARC
  5
1EF
330
19D
100
AcDbEntity
  8
AM_9
100
AcDbCircle
 10
1.437875000000001
 20
-2.153368966601196
 30
0.0
 40
0.0999999999999985
100
AcDbArc
 50
299.9999999999995
 51
0.0
  0
LINE
  5
1F0
330
19D
100
AcDbEntity
  8
AM_9
100
AcDbLine
 10
1.487874999999999
 20
-2.239971506979639
 30
0.0
 11
1.487874999999999
 21
2.239971506979639
 31
0.0
  0
LINE
  5
1F1
330
19D
100
AcDbEntity
  8
AM_9
100
AcDbLine
 10
1.487874999999999
 20
2.239971506979639
 30
0.0
 11
1.281625
 21
2.35905
 31
0.0
  0
LINE
  5
1F2
330
19D
100
AcDbEntity
  8
AM_9
100
AcDbLine
 10
1.281625
 20
-2.35905
 30
0.0
 11
1.487874999999999
 21
-2.239971506979639
 31
0.0
  0
LINE
  5
1F3
330
19D
100
AcDbEntity
  8
AM_9
100
AcDbLine
 10
0.67798650161996
 20
2.4949875
 30
0.0
 11
0.6040134983800391
 21
2.4949875
 31
0.0
  0
LINE
  5
1F4
330
19D
100
AcDbEntity
  8
AM_9
100
AcDbLine
 10
0.6040134983800391
 20
-2.4949875
 30
0.0
 11
0.67798650161996
 21
-2.4949875
 31
0.0
  0
LINE
  5
1F5
330
19D
100
AcDbEntity
  8
AM_9
100
AcDbLine
 10
1.231625
 20
2.55905
 30
0.0
 11
0.7149730032399201
 21
2.55905
 31
0.0
  0
LINE
  5
1F6
330
19D
100
AcDbEntity
  8
AM_9
100
AcDbLine
 10
0.7149730032399201
 20
-2.55905
 30
0.0
 11
1.231625
 21
-2.55905
 31
0.0
  0
LINE
  5
1F7
330
19D
100
AcDbEntity
  8
AM_9
100
AcDbLine
 10
1.281625
 20
-2.50905
 30
0.0
 11
1.281625
 21
2.50905
 31
0.0
  0
LINE
  5
1F8
330
19D
100
AcDbEntity
  8
AM_9
100
AcDbLine
 10
1.231625
 20
-2.55905
 30
0.0
 11
1.231625
 21
2.55905
 31
0.0
  0
ARC
  5
1F9
330
19D
100
AcDbEntity
  8
AM_9
100
AcDbCircle
 10
1.231624999999999
 20
2.50905
 30
0.0
 40
0.0500000000000003
100
AcDbArc
 50
0.0
 51
90.0
  0
ARC
  5
1FA
330
19D
100
AcDbEntity
  8
AM_9
100
AcDbCircle
 10
1.231624999999999
 20
-2.50905
 30
0.0
 40
0.0500000000000003
100
AcDbArc
 50
270.0
 51
0.0
  0
LINE
  5
1FB
330
19D
100
AcDbEntity
  8
AM_9
100
AcDbLine
 10
0.6040134983800391
 20
-2.4949875
 30
0.0
 11
0.6040134983800391
 21
2.4949875
 31
0.0
  0
LINE
  5
1FC
330
19D
100
AcDbEntity
  8
AM_9
100
AcDbLine
 10
0.6040134983800391
 20
2.4949875
 30
0.0
 11
0.5670269967600787
 21
2.55905
 31
0.0
  0
LINE
  5
1FD
330
19D
100
AcDbEntity
  8
AM_9
100
AcDbLine
 10
0.5670269967600787
 20
-2.55905
 30
0.0
 11
0.6040134983800391
 21
-2.4949875
 31
0.0
  0
LINE
  5
1FE
330
19D
100
AcDbEntity
  8
AM_9
100
AcDbLine
 10
0.7149730032399201
 20
-2.55905
 30
0.0
 11
0.7149730032399201
 21
2.55905
 31
0.0
  0
LINE
  5
1FF
330
19D
100
AcDbEntity
  8
AM_9
100
AcDbLine
 10
0.67798650161996
 20
-2.4949875
 30
0.0
 11
0.67798650161996
 21
2.4949875
 31
0.0
  0
LINE
  5
200
330
19D
100
AcDbEntity
  8
AM_9
100
AcDbLine
 10
0.67798650161996
 20
-2.4949875
 30
0.0
 11
0.7149730032399201
 21
-2.55905
 31
0.0
  0
LINE
  5
201
330
19D
100
AcDbEntity
  8
AM_9
100
AcDbLine
 10
0.7149730032399201
 20
2.55905
 30
0.0
 11
0.67798650161996
 21
2.4949875
 31
0.0
  0
LINE
  5
202
330
19D
100
AcDbEntity
  8
AM_9
100
AcDbLine
 10
0.0003749999999996
 20
-2.50905
 30
0.0
 11
0.0003749999999996
 21
2.50905
 31
0.0
  0
ARC
  5
203
330
19D
100
AcDbEntity
  8
AM_9
100
AcDbCircle
 10
0.0503749999999991
 20
2.509050000000001
 30
0.0
 40
0.0499999999999998
100
AcDbArc
 50
90.0
 51
180.0
  0
ARC
  5
204
330
19D
100
AcDbEntity
  8
AM_9
100
AcDbCircle
 10
0.0503749999999991
 20
-2.509050000000001
 30
0.0
 40
0.0499999999999995
100
AcDbArc
 50
180.0
 51
270.0
  0
LINE
  5
205
330
19D
100
AcDbEntity
  8
AM_9
100
AcDbLine
 10
0.5670269967600787
 20
-2.55905
 30
0.0
 11
0.5670269967600787
 21
2.55905
 31
0.0
  0
LINE
  5
206
330
19D
100
AcDbEntity
  8
AM_9
100
AcDbLine
 10
0.0503749999999996
 20
-2.55905
 30
0.0
 11
0.0503749999999996
 21
2.55905
 31
0.0
  0
LINE
  5
207
330
19D
100
AcDbEntity
  8
AM_9
100
AcDbLine
 10
0.5670269967600787
 20
2.55905
 30
0.0
 11
0.0503749999999996
 21
2.55905
 31
0.0
  0
LINE
  5
208
330
19D
100
AcDbEntity
  8
AM_9
100
AcDbLine
 10
0.0503749999999996
 20
-2.55905
 30
0.0
 11
0.5670269967600787
 21
-2.55905
 31
0.0
  0
LINE
  5
209
330
19D
100
AcDbEntity
  8
AM_5
100
AcDbLine
 10
-0.6068333333333334
 20
1.889290277777778
 30
0.0
 11
-0.6068333333333334
 21
1.911840277777778
 31
0.0
  0
LINE
  5
20A
330
19D
100
AcDbEntity
  8
AM_5
100
AcDbLine
 10
-0.6068333333333334
 20
1.911840277777778
 30
0.0
 11
-0.5938140847631074
 21
1.889290277777778
 31
0.0
  0
LINE
  5
20B
330
19D
100
AcDbEntity
  8
AM_5
100
AcDbLine
 10
-0.6068333333333334
 20
1.744390277777778
 30
0.0
 11
-0.6068333333333334
 21
1.721840277777778
 31
0.0
  0
LINE
  5
20C
330
19D
100
AcDbEntity
  8
AM_5
100
AcDbLine
 10
-0.6068333333333334
 20
1.721840277777778
 30
0.0
 11
-0.5938140847631079
 21
1.744390277777778
 31
0.0
  0
LINE
  5
20D
330
19D
100
AcDbEntity
  8
AM_5
100
AcDbLine
 10
-0.6068333333333181
 20
-1.889290277777778
 30
0.0
 11
-0.6068333333333181
 21
-1.911840277777778
 31
0.0
  0
LINE
  5
20E
330
19D
100
AcDbEntity
  8
AM_5
100
AcDbLine
 10
-0.6068333333333181
 20
-1.911840277777778
 30
0.0
 11
-0.5938140847631107
 21
-1.889290277777778
 31
0.0
  0
LINE
  5
20F
330
19D
100
AcDbEntity
  8
AM_5
100
AcDbLine
 10
-0.6068333333333181
 20
-1.744390277777778
 30
0.0
 11
-0.6068333333333181
 21
-1.721840277777778
 31
0.0
  0
LINE
  5
210
330
19D
100
AcDbEntity
  8
AM_5
100
AcDbLine
 10
-0.6068333333333181
 20
-1.721840277777778
 30
0.0
 11
-0.5938140847631107
 21
-1.744390277777778
 31
0.0
  0
LINE
  5
211
330
19D
100
AcDbEntity
  8
AM_7
100
AcDbLine
 10
-0.4848333333333334
 20
1.816840277777778
 30
0.0
 11
-1.685050333333334
 21
1.816840277777778
 31
0.0
  0
LINE
  5
212
330
19D
100
AcDbEntity
  8
AM_7
100
AcDbLine
 10
-0.4848333333333368
 20
-1.816840277777778
 30
0.0
 11
-1.685050333333334
 21
-1.816840277777778
 31
0.0
  0
ARC
  5
213
330
19D
100
AcDbEntity
  8
AM_4
100
AcDbCircle
 10
-1.316833333333334
 20
-2.092340561259646
 30
0.0
 40
0.05
100
AcDbArc
 50
180.0
 51
267.9999999999998
  0
ARC
  5
214
330
19D
100
AcDbEntity
  8
AM_4
100
AcDbCircle
 10
-1.316833333333334
 20
2.092340561259646
 30
0.0
 40
0.0500000000000003
100
AcDbArc
 50
92.00000000000023
 51
180.0
  0
LWPOLYLINE
  5
215
330
19D
100
AcDbEntity
  8
AM_4
100
AcDbPolyline
 90
        6
 70
     0
 43
0.0
 10
-1.318578308168459
 20
-1.68126873179059
 10
-1.334932855520174
 20
-1.678876161346741
 10
-1.349253833641607
 20
-1.672792404581568
 10
-1.35997683994175
 20
-1.663682867646965
 10
-1.365905870670556
 20
-1.652512800281862
 10
-1.366833333333334
 20
-1.645685988665757
  0
LWPOLYLINE
  5
216
330
19D
100
AcDbEntity
  8
AM_4
100
AcDbPolyline
 90
        6
 70
     0
 43
0.0
 10
-1.366833333333334
 20
1.645685988665756
 10
-1.366303406027257
 20
1.650856707133888
 10
-1.361049174789223
 20
1.662310724868606
 10
-1.35073359551393
 20
1.671858426813062
 10
-1.33659150615002
 20
1.678393042311169
 10
-1.318578308168459
 20
1.68126873179059
  0
LINE
  5
217
330
19D
100
AcDbEntity
  8
AM_4
100
AcDbLine
 10
-1.436833333333334
 20
1.414473684210526
 30
0.0
 11
-1.64
 21
1.414473684210526
 31
0.0
  0
LINE
  5
218
330
19D
100
AcDbEntity
  8
AM_4
100
AcDbLine
 10
-1.64
 20
-1.414473684210526
 30
0.0
 11
-1.436833333333334
 21
-1.414473684210526
 31
0.0
  0
LINE
  5
219
330
19D
100
AcDbEntity
  8
AM_4
100
AcDbLine
 10
-1.64
 20
-1.414473684210526
 30
0.0
 11
-1.64
 21
1.414473684210526
 31
0.0
  0
LINE
  5
21A
330
19D
100
AcDbEntity
  8
AM_4
100
AcDbLine
 10
-0.9500000000000001
 20
-1.499066376115481
 30
0.0
 11
-1.366833333333334
 21
-1.499066376115481
 31
0.0
  0
LINE
  5
21B
330
19D
100
AcDbEntity
  8
AM_4
100
AcDbLine
 10
-0.9500000000000001
 20
1.499066376115481
 30
0.0
 11
-1.366833333333334
 21
1.499066376115481
 31
0.0
  0
LINE
  5
21C
330
19D
100
AcDbEntity
  8
AM_4
100
AcDbLine
 10
1.884999999999999
 20
-1.882612179487178
 30
0.0
 11
1.884999999999999
 21
1.882612179487178
 31
0.0
  0
ARC
  5
21D
330
19D
100
AcDbEntity
  8
AM_4
100
AcDbCircle
 10
1.840528846153857
 20
1.882612179487183
 30
0.0
 40
0.0444711538461418
100
AcDbArc
 50
0.0
 51
27.43083776692569
  0
ARC
  5
21E
330
19D
100
AcDbEntity
  8
AM_4
100
AcDbCircle
 10
1.840528846153857
 20
-1.882612179487183
 30
0.0
 40
0.0444711538461417
100
AcDbArc
 50
332.5691622330743
 51
0.0
  0
LWPOLYLINE
  5
21F
330
19D
100
AcDbEntity
  8
AM_4
100
AcDbPolyline
 90
        6
 70
     0
 43
0.0
 10
-1.318578308168459
 20
1.327715341197316
 10
-1.334932855520174
 20
1.325322770753467
 10
-1.349253833641607
 20
1.319239013988293
 10
-1.35997683994175
 20
1.310129477053691
 10
-1.365905870670556
 20
1.298959409688588
 10
-1.366833333333334
 20
1.292132598072483
  0
LWPOLYLINE
  5
220
330
19D
100
AcDbEntity
  8
AM_4
100
AcDbPolyline
 90
        6
 70
     0
 43
0.0
 10
-1.366833333333334
 20
-1.292132598072483
 10
-1.366303406027257
 20
-1.297303316540614
 10
-1.361049174789223
 20
-1.308757334275331
 10
-1.35073359551393
 20
-1.318305036219789
 10
-1.33659150615002
 20
-1.324839651717895
 10
-1.318578308168459
 20
-1.327715341197316
  0
LINE
  5
221
330
19D
100
AcDbEntity
  8
AM_4
100
AcDbLine
 10
-1.318578308168459
 20
-1.327715341197316
 30
0.0
 11
-1.318578308168459
 21
1.327715341197316
 31
0.0
  0
LINE
  5
222
330
19D
100
AcDbEntity
  8
AM_4
100
AcDbLine
 10
-1.318578308168459
 20
-1.327715341197316
 30
0.0
 11
-0.9500000011715093
 21
-1.336878772316009
 31
0.0
  0
LINE
  5
223
330
19D
100
AcDbEntity
  8
AM_4
100
AcDbLine
 10
-0.9500000011715095
 20
-1.690432162909283
 30
0.0
 11
-1.318578308168459
 21
-1.68126873179059
 31
0.0
  0
LINE
  5
224
330
19D
100
AcDbEntity
  8
AM_4
100
AcDbLine
 10
-1.318578308168459
 20
1.68126873179059
 30
0.0
 11
-1.318578308168459
 21
2.142310102610601
 31
0.0
  0
LINE
  5
225
330
19D
100
AcDbEntity
  8
AM_4
100
AcDbLine
 10
-1.318578308168459
 20
1.68126873179059
 30
0.0
 11
-0.9500000011715093
 21
1.690432162909283
 31
0.0
  0
LINE
  5
226
330
19D
100
AcDbEntity
  8
AM_4
100
AcDbLine
 10
-0.9500000011715095
 20
1.336878772316009
 30
0.0
 11
-1.318578308168459
 21
1.327715341197316
 31
0.0
  0
LINE
  5
227
330
19D
100
AcDbEntity
  8
AM_4
100
AcDbLine
 10
-1.318578308168459
 20
-2.142310102610601
 30
0.0
 11
-0.9500000000000003
 21
-2.15518114074981
 31
0.0
  0
LINE
  5
228
330
19D
100
AcDbEntity
  8
AM_4
100
AcDbLine
 10
-0.9500000000000003
 20
2.15518114074981
 30
0.0
 11
-1.318578308168459
 21
2.142310102610601
 31
0.0
  0
LINE
  5
229
330
19D
100
AcDbEntity
  8
AM_4
100
AcDbLine
 10
-1.318578308168459
 20
-2.142310102610601
 30
0.0
 11
-1.318578308168459
 21
-1.68126873179059
 31
0.0
  0
ENDBLK
  5
1A0
330
19D
100
AcDbEntity
  8
0
100
AcDbBlockEnd
  0
BLOCK
  5
22C
330
22A
100
AcDbEntity
  8
0
100
AcDbBlockBegin
  2
8_B072323_0_in_072323_2
 70
     2
 10
0.0
 20
0.0
 30
0.0
  3
8_B072323_0_in_072323_2
  1

  0
ATTDEF
  5
22E
330
22A
100
AcDbEntity
  8
AM_6
100
AcDbText
 10
8.113
 20
4.375
 30
0.0
 40
0.5
  1
SFC-207-500-(Contact Seal)-Housing
100
AcDbAttributeDefinition
  3

  2
NN
 70
     8
280
     0
  0
ATTDEF
  5
22F
330
22A
100
AcDbEntity
  8
AM_6
100
AcDbText
 10
8.113
 20
3.875
 30
0.0
 40
0.5
  1
Steal Imperial Piloted Flange Bearing-Inch-207-500
100
AcDbAttributeDefinition
  3

  2
NT
 70
     8
280
     0
  0
ATTDEF
  5
230
330
22A
100
AcDbEntity
  8
AM_6
100
AcDbText
 10
8.113
 20
3.375
 30
0.0
 40
0.5
  1
B072323
100
AcDbAttributeDefinition
  3

  2
NB
 70
     8
280
     0
  0
ATTDEF
  5
231
330
22A
100
AcDbEntity
  8
AM_6
100
AcDbText
 10
8.113
 20
2.875
 30
0.0
 40
0.5
  1
$PN.
100
AcDbAttributeDefinition
  3

  2
NBSYN
 70
     8
280
     0
  0
ATTDEF
  5
232
330
22A
100
AcDbEntity
  8
AM_6
100
AcDbText
 10
8.113
 20
2.375
 30
0.0
 40
0.5
  1
B072323
100
AcDbAttributeDefinition
  3

  2
LINA
 70
     8
280
     0
  0
ATTDEF
  5
233
330
22A
100
AcDbEntity
  8
AM_6
100
AcDbText
 10
8.113
 20
1.875
 30
0.0
 40
0.5
  1
2-11/16
100
AcDbAttributeDefinition
  3

  2
SS
 70
     8
280
     0
  0
ATTDEF
  5
234
330
22A
100
AcDbEntity
  8
AM_6
100
AcDbText
 10
8.113
 20
1.375
 30
0.0
 40
0.5
  1
2.68750
100
AcDbAttributeDefinition
  3

  2
SS1
 70
     8
280
     0
  0
ATTDEF
  5
235
330
22A
100
AcDbEntity
  8
AM_6
100
AcDbText
 10
8.113
 20
0.875
 30
0.0
 40
0.5
  1
072292
100
AcDbAttributeDefinition
  3

  2
PN1
 70
     8
280
     0
  0
ATTDEF
  5
236
330
22A
100
AcDbEntity
  8
AM_6
100
AcDbText
 10
8.113
 20
0.375
 30
0.0
 40
0.5
  1
072323
100
AcDbAttributeDefinition
  3

  2
PN2
 70
     8
280
     0
  0
ATTDEF
  5
237
330
22A
100
AcDbEntity
  8
AM_6
100
AcDbText
 10
8.113
 20
-0.125
 30
0.0
 40
0.5
  1
Expansion
100
AcDbAttributeDefinition
  3

  2
TYPE
 70
     8
280
     0
  0
ATTDEF
  5
238
330
22A
100
AcDbEntity
  8
AM_6
100
AcDbText
 10
8.113
 20
-0.625
 30
0.0
 40
0.5
  1
Contact Seal
100
AcDbAttributeDefinition
  3

  2
ST
 70
     8
280
     0
  0
ATTDEF
  5
239
330
22A
100
AcDbEntity
  8
AM_6
100
AcDbText
 10
8.113
 20
-1.125
 30
0.0
 40
0.5
  1
SFC-IP-211R
100
AcDbAttributeDefinition
  3

  2
DESCRIPTIONS
 70
     8
280
     0
  0
ATTDEF
  5
23A
330
22A
100
AcDbEntity
  8
AM_6
100
AcDbText
 10
8.113
 20
-1.625
 30
0.0
 40
0.5
  1
3.50
100
AcDbAttributeDefinition
  3

  2
A
 70
     8
280
     0
  0
ATTDEF
  5
23B
330
22A
100
AcDbEntity
  8
AM_6
100
AcDbText
 10
8.113
 20
-2.125
 30
0.0
 40
0.5
  1
3.500
100
AcDbAttributeDefinition
  3

  2
A1
 70
     8
280
     0
  0
ATTDEF
  5
23C
330
22A
100
AcDbEntity
  8
AM_6
100
AcDbText
 10
8.113
 20
-2.625
 30
0.0
 40
0.5
  1
8.75
100
AcDbAttributeDefinition
  3

  2
B
 70
     8
280
     0
  0
ATTDEF
  5
23D
330
22A
100
AcDbEntity
  8
AM_6
100
AcDbText
 10
8.113
 20
-3.125
 30
0.0
 40
0.5
  1
8.7500
100
AcDbAttributeDefinition
  3

  2
B1
 70
     8
280
     0
  0
ATTDEF
  5
23E
330
22A
100
AcDbEntity
  8
AM_6
100
AcDbText
 10
8.113
 20
-3.625
 30
0.0
 40
0.5
  1
2.83
100
AcDbAttributeDefinition
  3

  2
C
 70
     8
280
     0
  0
ATTDEF
  5
23F
330
22A
100
AcDbEntity
  8
AM_6
100
AcDbText
 10
8.113
 20
-4.125
 30
0.0
 40
0.5
  1
2.8300
100
AcDbAttributeDefinition
  3

  2
C1
 70
     8
280
     0
  0
ATTDEF
  5
240
330
22A
100
AcDbEntity
  8
AM_6
100
AcDbText
 10
8.113
 20
-4.625
 30
0.0
 40
0.5
  1
5.30
100
AcDbAttributeDefinition
  3

  2
D
 70
     8
280
     0
  0
ATTDEF
  5
241
330
22A
100
AcDbEntity
  8
AM_6
100
AcDbText
 10
8.113
 20
-5.125
 30
0.0
 40
0.5
  1
5.3000
100
AcDbAttributeDefinition
  3

  2
D1
 70
     8
280
     0
  0
ATTDEF
  5
242
330
22A
100
AcDbEntity
  8
AM_6
100
AcDbText
 10
8.113
 20
-5.625
 30
0.0
 40
0.5
  1
7.500
100
AcDbAttributeDefinition
  3

  2
DD
 70
     8
280
     0
  0
ATTDEF
  5
243
330
22A
100
AcDbEntity
  8
AM_6
100
AcDbText
 10
8.113
 20
-6.125
 30
0.0
 40
0.5
  1
7.5000
100
AcDbAttributeDefinition
  3

  2
DD1
 70
     8
280
     0
  0
ATTDEF
  5
244
330
22A
100
AcDbEntity
  8
AM_6
100
AcDbText
 10
8.113
 20
-6.625
 30
0.0
 40
0.5
  1
1.4400
100
AcDbAttributeDefinition
  3

  2
E
 70
     8
280
     0
  0
ATTDEF
  5
245
330
22A
100
AcDbEntity
  8
AM_6
100
AcDbText
 10
8.113
 20
-7.125
 30
0.0
 40
0.5
  1
1.4400
100
AcDbAttributeDefinition
  3

  2
E1
 70
     8
280
     0
  0
ATTDEF
  5
246
330
22A
100
AcDbEntity
  8
AM_6
100
AcDbText
 10
8.113
 20
-7.625
 30
0.0
 40
0.5
  1
0.6250
100
AcDbAttributeDefinition
  3

  2
F
 70
     8
280
     0
  0
ATTDEF
  5
247
330
22A
100
AcDbEntity
  8
AM_6
100
AcDbText
 10
8.113
 20
-8.125
 30
0.0
 40
0.5
  1
0.62500
100
AcDbAttributeDefinition
  3

  2
F1
 70
     8
280
     0
  0
ATTDEF
  5
248
330
22A
100
AcDbEntity
  8
AM_6
100
AcDbText
 10
8.113
 20
-8.625
 30
0.0
 40
0.5
  1
1.89
100
AcDbAttributeDefinition
  3

  2
G
 70
     8
280
     0
  0
ATTDEF
  5
249
330
22A
100
AcDbEntity
  8
AM_6
100
AcDbText
 10
8.113
 20
-9.125
 30
0.0
 40
0.5
  1
1.89
100
AcDbAttributeDefinition
  3

  2
G1
 70
     8
280
     0
  0
ATTDEF
  5
24A
330
22A
100
AcDbEntity
  8
AM_6
100
AcDbText
 10
8.113
 20
-9.625
 30
0.0
 40
0.5
  1
0.63
100
AcDbAttributeDefinition
  3

  2
H
 70
     8
280
     0
  0
ATTDEF
  5
24B
330
22A
100
AcDbEntity
  8
AM_6
100
AcDbText
 10
8.113
 20
-10.125
 30
0.0
 40
0.5
  1
0.63
100
AcDbAttributeDefinition
  3

  2
H1
 70
     8
280
     0
  0
ATTDEF
  5
24C
330
22A
100
AcDbEntity
  8
AM_6
100
AcDbText
 10
8.113
 20
-10.625
 30
0.0
 40
0.5
  1
6.375
100
AcDbAttributeDefinition
  3

  2
K
 70
     8
280
     0
  0
ATTDEF
  5
24D
330
22A
100
AcDbEntity
  8
AM_6
100
AcDbText
 10
8.113
 20
-11.125
 30
0.0
 40
0.5
  1
6.375
100
AcDbAttributeDefinition
  3

  2
K1
 70
     8
280
     0
  0
ATTDEF
  5
24E
330
22A
100
AcDbEntity
  8
AM_6
100
AcDbText
 10
8.113
 20
-11.625
 30
0.0
 40
0.5
  1
4.20
100
AcDbAttributeDefinition
  3

  2
L
 70
     8
280
     0
  0
ATTDEF
  5
24F
330
22A
100
AcDbEntity
  8
AM_6
100
AcDbText
 10
8.113
 20
-12.125
 30
0.0
 40
0.5
  1
4.20
100
AcDbAttributeDefinition
  3

  2
L1
 70
     8
280
     0
  0
ATTDEF
  5
250
330
22A
100
AcDbEntity
  8
AM_6
100
AcDbText
 10
8.113
 20
-12.625
 30
0.0
 40
0.5
  1
0.6250
100
AcDbAttributeDefinition
  3

  2
M
 70
     8
280
     0
  0
ATTDEF
  5
251
330
22A
100
AcDbEntity
  8
AM_6
100
AcDbText
 10
8.113
 20
-13.125
 30
0.0
 40
0.5
  1
0.6250
100
AcDbAttributeDefinition
  3

  2
M1
 70
     8
280
     0
  0
ATTDEF
  5
252
330
22A
100
AcDbEntity
  8
AM_6
100
AcDbText
 10
8.113
 20
-13.625
 30
0.0
 40
0.5
  1
3.77
100
AcDbAttributeDefinition
  3

  2
N
 70
     8
280
     0
  0
ATTDEF
  5
253
330
22A
100
AcDbEntity
  8
AM_6
100
AcDbText
 10
8.113
 20
-14.125
 30
0.0
 40
0.5
  1
3.77
100
AcDbAttributeDefinition
  3

  2
N1
 70
     8
280
     0
  0
ATTDEF
  5
254
330
22A
100
AcDbEntity
  8
AM_6
100
AcDbText
 10
8.113
 20
-14.625
 30
0.0
 40
0.5
  1
1.62
100
AcDbAttributeDefinition
  3

  2
P
 70
     8
280
     0
  0
ATTDEF
  5
255
330
22A
100
AcDbEntity
  8
AM_6
100
AcDbText
 10
8.113
 20
-15.125
 30
0.0
 40
0.5
  1
1.62
100
AcDbAttributeDefinition
  3

  2
P1
 70
     8
280
     0
  0
ATTDEF
  5
256
330
22A
100
AcDbEntity
  8
AM_6
100
AcDbText
 10
8.113
 20
-15.625
 30
0.0
 40
0.5
  1
1.88
100
AcDbAttributeDefinition
  3

  2
Q
 70
     8
280
     0
  0
ATTDEF
  5
257
330
22A
100
AcDbEntity
  8
AM_6
100
AcDbText
 10
8.113
 20
-16.125
 30
0.0
 40
0.5
  1
1.88
100
AcDbAttributeDefinition
  3

  2
Q1
 70
     8
280
     0
  0
ATTDEF
  5
258
330
22A
100
AcDbEntity
  8
AM_6
100
AcDbText
 10
8.113
 20
-16.625
 30
0.0
 40
0.5
  1
0.25
100
AcDbAttributeDefinition
  3

  2
X
 70
     8
280
     0
  0
ATTDEF
  5
259
330
22A
100
AcDbEntity
  8
AM_6
100
AcDbText
 10
8.113
 20
-17.125
 30
0.0
 40
0.5
  1
0.25
100
AcDbAttributeDefinition
  3

  2
X1
 70
     8
280
     0
  0
ATTDEF
  5
25A
330
22A
100
AcDbEntity
  8
AM_6
100
AcDbText
 10
8.113
 20
-17.625
 30
0.0
 40
0.5
  1
0.025
100
AcDbAttributeDefinition
  3

  2
Y
 70
     8
280
     0
  0
ATTDEF
  5
25B
330
22A
100
AcDbEntity
  8
AM_6
100
AcDbText
 10
8.113
 20
-18.125
 30
0.0
 40
0.5
  1
0.025
100
AcDbAttributeDefinition
  3

  2
Y1
 70
     8
280
     0
  0
ATTDEF
  5
25C
330
22A
100
AcDbEntity
  8
AM_6
100
AcDbText
 10
8.113
 20
-18.625
 30
0.0
 40
0.5
  1
3.47
100
AcDbAttributeDefinition
  3

  2
Z
 70
     8
280
     0
  0
ATTDEF
  5
25D
330
22A
100
AcDbEntity
  8
AM_6
100
AcDbText
 10
8.113
 20
-19.125
 30
0.0
 40
0.5
  1
3.47
100
AcDbAttributeDefinition
  3

  2
Z1
 70
     8
280
     0
  0
ATTDEF
  5
25E
330
22A
100
AcDbEntity
  8
AM_6
100
AcDbText
 10
8.113
 20
-19.625
 30
0.0
 40
0.5
  1
5.1181
100
AcDbAttributeDefinition
  3

  2
BORE
 70
     8
280
     0
  0
ATTDEF
  5
25F
330
22A
100
AcDbEntity
  8
AM_6
100
AcDbText
 10
8.113
 20
-20.125
 30
0.0
 40
0.5
  1
0.1021670
100
AcDbAttributeDefinition
  3

  2
O
 70
     8
280
     0
  0
ATTDEF
  5
260
330
22A
100
AcDbEntity
  8
AM_6
100
AcDbText
 10
8.113
 20
-20.625
 30
0.0
 40
0.5
  1
baldor
100
AcDbAttributeDefinition
  3

  2
COMPANY
 70
     8
280
     0
  0
LINE
  5
261
330
22A
100
AcDbEntity
  8
AM_9
100
AcDbLine
 10
-0.6299999999999998
 20
-3.560095264191644
 30
0.0
 11
0.0000000000000001
 21
-3.560095264191644
 31
0.0
  0
LINE
  5
262
330
22A
100
AcDbEntity
  8
AM_9
100
AcDbLine
 10
0.0000000000000001
 20
-2.935095264191644
 30
0.0
 11
-0.6299999999999998
 21
-2.935095264191644
 31
0.0
  0
LINE
  5
263
330
22A
100
AcDbEntity
  8
AM_9
100
AcDbLine
 10
-0.6299999999999998
 20
2.935095264191644
 30
0.0
 11
0.0000000000000001
 21
2.935095264191644
 31
0.0
  0
LINE
  5
264
330
22A
100
AcDbEntity
  8
AM_9
100
AcDbLine
 10
0.0000000000000001
 20
3.560095264191644
 30
0.0
 11
-0.6299999999999998
 21
3.560095264191644
 31
0.0
  0
LINE
  5
265
330
22A
100
AcDbEntity
  8
AM_9
100
AcDbLine
 10
-0.95
 20
-2.55905
 30
0.0
 11
1.88
 21
-2.55905
 31
0.0
  0
LINE
  5
266
330
22A
100
AcDbEntity
  8
AM_9
100
AcDbLine
 10
1.88
 20
2.55905
 30
0.0
 11
-0.95
 21
2.55905
 31
0.0
  0
LINE
  5
267
330
22A
100
AcDbEntity
  8
AM_9
100
AcDbLine
 10
0.0000000000000002
 20
0.2632999999999999
 30
0.0
 11
-0.5807999999999999
 21
0.2632999999999999
 31
0.0
  0
LINE
  5
268
330
22A
100
AcDbEntity
  8
AM_9
100
AcDbLine
 10
-0.5807999999999999
 20
-0.2632999999999999
 30
0.0
 11
0.0000000000000002
 21
-0.2632999999999999
 31
0.0
  0
LINE
  5
269
330
22A
100
AcDbEntity
  8
AM_9
100
AcDbLine
 10
-0.5807999999999999
 20
-0.2632999999999999
 30
0.0
 11
-0.5807999999999999
 21
0.2632999999999999
 31
0.0
  0
LINE
  5
26A
330
22A
100
AcDbEntity
  8
AM_9
100
AcDbLine
 10
-0.5807999999999999
 20
0.2632999999999999
 30
0.0
 11
-0.6299999999999997
 21
0.3125
 31
0.0
  0
LINE
  5
26B
330
22A
100
AcDbEntity
  8
AM_9
100
AcDbLine
 10
-0.6299999999999997
 20
-0.3125
 30
0.0
 11
-0.5807999999999999
 21
-0.2632999999999999
 31
0.0
  0
LINE
  5
26C
330
22A
100
AcDbEntity
  8
AM_5
100
AcDbLine
 10
-0.0000000000000002
 20
-0.3125
 30
0.0
 11
-0.6300000000000002
 21
-0.3125
 31
0.0
  0
LINE
  5
26D
330
22A
100
AcDbEntity
  8
AM_5
100
AcDbLine
 10
-0.0000000000000002
 20
0.3125
 30
0.0
 11
-0.6300000000000002
 21
0.3125
 31
0.0
  0
LINE
  5
26E
330
22A
100
AcDbEntity
  8
AM_7
100
AcDbLine
 10
0.0314999999999999
 20
-3.247595264191644
 30
0.0
 11
-0.6615000000000001
 21
-3.247595264191644
 31
0.0
  0
LINE
  5
26F
330
22A
100
AcDbEntity
  8
AM_7
100
AcDbLine
 10
0.0314999999999999
 20
3.247595264191644
 30
0.0
 11
-0.6615000000000001
 21
3.247595264191644
 31
0.0
  0
LINE
  5
270
330
22A
100
AcDbEntity
  8
AM_7
100
AcDbLine
 10
3.113
 20
0.0
 30
0.0
 11
-3.113
 21
0.0
 31
0.0
  0
LINE
  5
271
330
22A
100
AcDbEntity
  8
AM_4
100
AcDbLine
 10
-0.9499999999999993
 20
-3.1875
 30
0.0
 11
-0.63
 21
-3.824999999999999
 31
0.0
  0
LINE
  5
272
330
22A
100
AcDbEntity
  8
AM_4
100
AcDbLine
 10
-0.9499999999999993
 20
3.1875
 30
0.0
 11
-0.9499999999999993
 21
-3.1875
 31
0.0
  0
LINE
  5
273
330
22A
100
AcDbEntity
  8
AM_4
100
AcDbLine
 10
-0.63
 20
3.824999999999999
 30
0.0
 11
-0.9499999999999993
 21
3.1875
 31
0.0
  0
LINE
  5
274
330
22A
100
AcDbEntity
  8
AM_4
100
AcDbLine
 10
1.88
 20
3.028125
 30
0.0
 11
1.44
 21
3.043490138576369
 31
0.0
  0
LINE
  5
275
330
22A
100
AcDbEntity
  8
AM_4
100
AcDbLine
 10
1.44
 20
-3.043490138576369
 30
0.0
 11
1.88
 21
-3.028125
 31
0.0
  0
LINE
  5
276
330
22A
100
AcDbEntity
  8
AM_4
100
AcDbLine
 10
1.88
 20
3.028125
 30
0.0
 11
1.88
 21
-3.028125
 31
0.0
  0
LINE
  5
277
330
22A
100
AcDbEntity
  8
AM_4
100
AcDbLine
 10
-0.9500000000000003
 20
-3.124620977014652
 30
0.0
 11
-0.6299999999999998
 21
-3.124620977014652
 31
0.0
  0
LINE
  5
278
330
22A
100
AcDbEntity
  8
AM_4
100
AcDbLine
 10
-0.6299999999999998
 20
3.124620977014652
 30
0.0
 11
-0.9500000000000003
 21
3.124620977014652
 31
0.0
  0
LINE
  5
279
330
22A
100
AcDbEntity
  8
AM_4
100
AcDbLine
 10
0.0
 20
-3.1875
 30
0.0
 11
1.44
 21
-3.1875
 31
0.0
  0
LINE
  5
27A
330
22A
100
AcDbEntity
  8
AM_4
100
AcDbLine
 10
1.44
 20
3.1875
 30
0.0
 11
0.0
 21
3.1875
 31
0.0
  0
LINE
  5
27B
330
22A
100
AcDbEntity
  8
AM_4
100
AcDbLine
 10
1.44
 20
3.1875
 30
0.0
 11
1.44
 21
-3.1875
 31
0.0
  0
LINE
  5
27C
330
22A
100
AcDbEntity
  8
AM_4
100
AcDbLine
 10
-0.6299999999999998
 20
-4.375
 30
0.0
 11
0.0
 21
-4.375
 31
0.0
  0
LINE
  5
27D
330
22A
100
AcDbEntity
  8
AM_4
100
AcDbLine
 10
0.0
 20
4.375
 30
0.0
 11
-0.6299999999999998
 21
4.375
 31
0.0
  0
LINE
  5
27E
330
22A
100
AcDbEntity
  8
AM_4
100
AcDbLine
 10
0.0
 20
4.375
 30
0.0
 11
0.0
 21
-4.375
 31
0.0
  0
LINE
  5
27F
330
22A
100
AcDbEntity
  8
AM_4
100
AcDbLine
 10
-0.6299999999999998
 20
4.375
 30
0.0
 11
-0.6299999999999998
 21
-4.375
 31
0.0
  0
ENDBLK
  5
22D
330
22A
100
AcDbEntity
  8
0
100
AcDbBlockEnd
  0
ENDSEC
  0
SECTION
  2
ENTITIES
  0
INSERT
  5
6F
330
1F
100
AcDbEntity
  8
0
100
AcDbBlockReference
  2
1_072323_2
 10
0.0
 20
0.0
 30
0.0
  0
POINT
  5
281
330
1F
100
AcDbEntity
  8
ConnectionPoints
100
AcDbPoint
 10
-0.7899999999999998
 20
3.506250000000001
 30
0.0
  0
POINT
  5
282
330
1F
100
AcDbEntity
  8
ConnectionPoints
100
AcDbPoint
 10
-1.539000333333334
 20
-1.816840277777778
 30
0.0000000000000001
  0
POINT
  5
283
330
1F
100
AcDbEntity
  8
ConnectionPoints
100
AcDbPoint
 10
-1.539000333333334
 20
1.816840277777778
 30
0.0000000000000001
  0
POINT
  5
284
330
1F
100
AcDbEntity
  8
ConnectionPoints
100
AcDbPoint
 10
-1.366833333333334
 20
0.0
 30
0.0000000000000001
  0
POINT
  5
285
330
1F
100
AcDbEntity
  8
ConnectionPoints
100
AcDbPoint
 10
-1.64
 20
0.0
 30
0.0000000000000001
  0
POINT
  5
286
330
1F
100
AcDbEntity
  8
ConnectionPoints
100
AcDbPoint
 10
-1.565833333333333
 20
0.0
 30
0.0000000000000001
  0
POINT
  5
287
330
1F
100
AcDbEntity
  8
ConnectionPoints
100
AcDbPoint
 10
-1.366833333333334
 20
1.816840277777778
 30
0.0000000000000001
  0
POINT
  5
288
330
1F
100
AcDbEntity
  8
ConnectionPoints
100
AcDbPoint
 10
-1.539
 20
1.816840277777778
 30
0.0000000000000001
  0
POINT
  5
289
330
1F
100
AcDbEntity
  8
ConnectionPoints
100
AcDbPoint
 10
-1.366833333333334
 20
-1.816840277777778
 30
0.0000000000000001
  0
POINT
  5
28A
330
1F
100
AcDbEntity
  8
ConnectionPoints
100
AcDbPoint
 10
-1.539
 20
-1.816840277777778
 30
0.0000000000000001
  0
POINT
  5
28B
330
1F
100
AcDbEntity
  8
ConnectionPoints
100
AcDbPoint
 10
-1.366833333333334
 20
0.0
 30
0.0000000000000001
  0
POINT
  5
28C
330
1F
100
AcDbEntity
  8
ConnectionPoints
100
AcDbPoint
 10
-0.7899999999999998
 20
3.506250000000001
 30
0.0
  0
POINT
  5
28D
330
1F
100
AcDbEntity
  8
ConnectionPoints
100
AcDbPoint
 10
-0.7899999999999987
 20
-3.506250000000001
 30
0.0
  0
POINT
  5
28E
330
1F
100
AcDbEntity
  8
ConnectionPoints
100
AcDbPoint
 10
-1.64
 20
0.0
 30
0.0000000000000001
  0
POINT
  5
28F
330
1F
100
AcDbEntity
  8
ConnectionPoints
100
AcDbPoint
 10
-1.89
 20
0.0
 30
0.0000000000000001
  0
ENDSEC
  0
SECTION
  2
OBJECTS
  0
DICTIONARY
  5
C
330
0
100
AcDbDictionary
281
     1
  3
ACAD_DETAILVIEWSTYLE
350
297
  3
ACAD_GROUP
350
D
  3
ACAD_LAYOUT
350
1A
  3
ACAD_MATERIAL
350
43
  3
ACAD_MLEADERSTYLE
350
6B
  3
ACAD_MLINESTYLE
350
17
  3
ACAD_PLOTSETTINGS
350
19
  3
ACAD_PLOTSTYLENAME
350
E
  3
ACAD_SCALELIST
350
47
  3
ACAD_SECTIONVIEWSTYLE
350
298
  3
ACAD_TABLESTYLE
350
69
  3
ACAD_VISUALSTYLE
350
2A
  3
ACDB_RECOMPOSE_DATA
350
294
  3
AcDbVariableDictionary
350
290
  0
SUN
  5
6D
330
29
100
AcDbSun
 90
        1
290
     0
 63
     7
421
 16777215
 40
1.0
291
     1
 91
  2455826
 92
 54000000
292
     0
 70
     2
 71
   256
280
     1
  0
DICTIONARY
  5
297
102
{ACAD_REACTORS
330
C
102
}
330
C
100
AcDbDictionary
281
     1
  0
DICTIONARY
  5
D
102
{ACAD_REACTORS
330
C
102
}
330
C
100
AcDbDictionary
281
     1
  0
DICTIONARY
  5
1A
102
{ACAD_REACTORS
330
C
102
}
330
C
100
AcDbDictionary
281
     1
  3
Layout1
350
1E
  3
Layout2
350
26
  3
Model
350
22
  0
DICTIONARY
  5
43
102
{ACAD_REACTORS
330
C
102
}
330
C
100
AcDbDictionary
281
     1
  3
ByBlock
350
45
  3
ByLayer
350
44
  3
Global
350
46
  0
DICTIONARY
  5
6B
102
{ACAD_REACTORS
330
C
102
}
330
C
100
AcDbDictionary
281
     1
  3
Standard
350
6C
  0
DICTIONARY
  5
17
102
{ACAD_REACTORS
330
C
102
}
330
C
100
AcDbDictionary
281
     1
  3
Standard
350
18
  0
DICTIONARY
  5
19
102
{ACAD_REACTORS
330
C
102
}
330
C
100
AcDbDictionary
281
     1
  0
ACDBDICTIONARYWDFLT
  5
E
102
{ACAD_REACTORS
330
C
102
}
330
C
100
AcDbDictionary
281
     1
  3
Normal
350
F
100
AcDbDictionaryWithDefault
340
F
  0
DICTIONARY
  5
47
102
{ACAD_REACTORS
330
C
102
}
330
C
100
AcDbDictionary
281
     1
  3
A0
350
48
  3
A1
350
49
  3
A2
350
4A
  3
A3
350
4B
  3
A4
350
4C
  3
A5
350
4D
  3
A6
350
4E
  3
A7
350
4F
  3
A8
350
50
  3
A9
350
51
  3
B0
350
52
  3
B1
350
53
  3
B2
350
54
  3
B3
350
55
  3
B4
350
56
  3
B5
350
57
  3
B6
350
58
  3
B7
350
59
  3
B8
350
5A
  3
B9
350
5B
  3
C0
350
5C
  3
C1
350
5D
  3
C2
350
5E
  3
C3
350
5F
  3
C4
350
60
  3
C5
350
61
  3
C6
350
62
  3
C7
350
63
  3
C8
350
64
  3
C9
350
65
  3
D0
350
66
  3
D1
350
67
  3
D2
350
68
  0
DICTIONARY
  5
298
102
{ACAD_REACTORS
330
C
102
}
330
C
100
AcDbDictionary
281
     1
  0
DICTIONARY
  5
69
102
{ACAD_REACTORS
330
C
102
}
330
C
100
AcDbDictionary
281
     1
  3
Standard
350
6A
  0
DICTIONARY
  5
2A
102
{ACAD_REACTORS
330
C
102
}
330
C
100
AcDbDictionary
281
     1
  3
2dWireframe
350
2F
  3
Basic
350
32
  3
Brighten
350
36
  3
ColorChange
350
3A
  3
Conceptual
350
34
  3
Dim
350
35
  3
EdgeColorOff
350
3D
  3
Facepattern
350
39
  3
Flat
350
2B
  3
FlatWithEdges
350
2C
  3
Gouraud
350
2D
  3
GouraudWithEdges
350
2E
  3
Hidden
350
31
  3
JitterOff
350
3B
  3
Linepattern
350
38
  3
OverhangOff
350
3C
  3
Realistic
350
33
  3
Shaded
350
42
  3
Shaded with edges
350
41
  3
Shades of Gray
350
3E
  3
Sketchy
350
3F
  3
Thicken
350
37
  3
Wireframe
350
30
  3
X-Ray
350
40
  0
XRECORD
  5
294
102
{ACAD_REACTORS
330
C
102
}
330
C
100
AcDbXrecord
280
     1
 90
        1
330
6A
  0
DICTIONARY
  5
290
102
{ACAD_REACTORS
330
C
102
}
330
C
100
AcDbDictionary
281
     1
  3
CANNOSCALE
350
291
  3
CMLEADERSTYLE
350
296
  3
CTABLESTYLE
350
295
  0
LAYOUT
  5
1E
102
{ACAD_REACTORS
330
1A
102
}
330
1A
100
AcDbPlotSettings
  1

  2
none_device
  4

  6

 40
0.0
 41
0.0
 42
0.0
 43
0.0
 44
0.0
 45
0.0
 46
0.0
 47
0.0
 48
0.0
 49
0.0
140
0.0
141
0.0
142
1.0
143
1.0
 70
   688
 72
     0
 73
     0
 74
     5
  7

 75
    16
 76
     0
 77
     2
 78
   300
147
1.0
148
0.0
149
0.0
100
AcDbLayout
  1
Layout1
 70
     1
 71
     1
 10
0.0
 20
0.0
 11
12.0
 21
9.0
 12
0.0
 22
0.0
 32
0.0
 14
1.000000000000000E+20
 24
1.000000000000000E+20
 34
1.000000000000000E+20
 15
-1.000000000000000E+20
 25
-1.000000000000000E+20
 35
-1.000000000000000E+20
146
0.0
 13
0.0
 23
0.0
 33
0.0
 16
1.0
 26
0.0
 36
0.0
 17
0.0
 27
1.0
 37
0.0
 76
     0
330
1B
  0
LAYOUT
  5
26
102
{ACAD_REACTORS
330
1A
102
}
330
1A
100
AcDbPlotSettings
  1

  2
none_device
  4

  6

 40
0.0
 41
0.0
 42
0.0
 43
0.0
 44
0.0
 45
0.0
 46
0.0
 47
0.0
 48
0.0
 49
0.0
140
0.0
141
0.0
142
1.0
143
1.0
 70
   688
 72
     0
 73
     0
 74
     5
  7

 75
    16
 76
     0
 77
     2
 78
   300
147
1.0
148
0.0
149
0.0
100
AcDbLayout
  1
Layout2
 70
     1
 71
     2
 10
0.0
 20
0.0
 11
0.0
 21
0.0
 12
0.0
 22
0.0
 32
0.0
 14
0.0
 24
0.0
 34
0.0
 15
0.0
 25
0.0
 35
0.0
146
0.0
 13
0.0
 23
0.0
 33
0.0
 16
1.0
 26
0.0
 36
0.0
 17
0.0
 27
1.0
 37
0.0
 76
     0
330
23
  0
LAYOUT
  5
22
102
{ACAD_REACTORS
330
1A
102
}
330
1A
100
AcDbPlotSettings
  1

  2
none_device
  4
Letter_(8.50_x_11.00_Inches)
  6

 40
6.35
 41
6.35
 42
6.35000508
 43
6.35000508
 44
215.9
 45
279.4
 46
0.0
 47
0.0
 48
0.0
 49
0.0
140
0.0
141
0.0
142
1.0
143
1.0
 70
  1712
 72
     0
 73
     0
 74
     0
  7

 75
     0
 76
     0
 77
     2
 78
   300
147
1.0
148
0.0
149
0.0
100
AcDbLayout
  1
Model
 70
     1
 71
     0
 10
0.0
 20
0.0
 11
12.0
 21
9.0
 12
0.0
 22
0.0
 32
0.0
 14
1.000000000000000E+20
 24
1.000000000000000E+20
 34
1.000000000000000E+20
 15
-1.000000000000000E+20
 25
-1.000000000000000E+20
 35
-1.000000000000000E+20
146
0.0
 13
0.0
 23
0.0
 33
0.0
 16
1.0
 26
0.0
 36
0.0
 17
0.0
 27
1.0
 37
0.0
 76
     0
330
1F
331
29
  0
MATERIAL
  5
45
102
{ACAD_REACTORS
330
43
102
}
330
43
100
AcDbMaterial
  1
ByBlock
 72
     1
 94
      127
  0
MATERIAL
  5
44
102
{ACAD_REACTORS
330
43
102
}
330
43
100
AcDbMaterial
  1
ByLayer
 72
     1
 94
      127
  0
MATERIAL
  5
46
102
{ACAD_REACTORS
330
43
102
}
330
43
100
AcDbMaterial
  1
Global
 72
     1
 94
      127
  0
MLEADERSTYLE
  5
6C
102
{ACAD_REACTORS
330
6B
102
}
330
6B
100
AcDbMLeaderStyle
179
     2
170
     2
171
     1
172
     0
 90
        2
 40
0.0
 41
0.0
173
     1
 91
-1056964608
340
14
 92
       -2
290
     1
 42
0.09
291
     1
 43
0.36
  3
Standard
341
0
 44
0.18
300

342
11
174
     1
178
     6
175
     1
176
     0
 93
-1056964608
 45
0.18
292
     0
297
     0
 46
0.18
343
0
 94
-1056964608
 47
1.0
 49
1.0
140
1.0
293
     1
141
0.0
294
     1
177
     0
142
1.0
295
     0
296
     0
143
0.125
271
     0
272
     9
273
     9
298
     0
  0
MLINESTYLE
  5
18
102
{ACAD_REACTORS
330
17
102
}
330
17
100
AcDbMlineStyle
  2
Standard
 70
     0
  3

 62
   256
 51
90.0
 52
90.0
 71
     2
 49
0.5
 62
   256
  6
BYLAYER
 49
-0.5
 62
   256
  6
BYLAYER
  0
ACDBPLACEHOLDER
  5
F
102
{ACAD_REACTORS
330
E
102
}
330
E
  0
SCALE
  5
48
102
{ACAD_REACTORS
330
47
102
}
330
47
100
AcDbScale
 70
     0
300
1:1
140
1.0
141
1.0
290
     1
  0
SCALE
  5
49
102
{ACAD_REACTORS
330
47
102
}
330
47
100
AcDbScale
 70
     0
300
1:2
140
1.0
141
2.0
290
     0
  0
SCALE
  5
4A
102
{ACAD_REACTORS
330
47
102
}
330
47
100
AcDbScale
 70
     0
300
1:4
140
1.0
141
4.0
290
     0
  0
SCALE
  5
4B
102
{ACAD_REACTORS
330
47
102
}
330
47
100
AcDbScale
 70
     0
300
1:5
140
1.0
141
5.0
290
     0
  0
SCALE
  5
4C
102
{ACAD_REACTORS
330
47
102
}
330
47
100
AcDbScale
 70
     0
300
1:8
140
1.0
141
8.0
290
     0
  0
SCALE
  5
4D
102
{ACAD_REACTORS
330
47
102
}
330
47
100
AcDbScale
 70
     0
300
1:10
140
1.0
141
10.0
290
     0
  0
SCALE
  5
4E
102
{ACAD_REACTORS
330
47
102
}
330
47
100
AcDbScale
 70
     0
300
1:16
140
1.0
141
16.0
290
     0
  0
SCALE
  5
4F
102
{ACAD_REACTORS
330
47
102
}
330
47
100
AcDbScale
 70
     0
300
1:20
140
1.0
141
20.0
290
     0
  0
SCALE
  5
50
102
{ACAD_REACTORS
330
47
102
}
330
47
100
AcDbScale
 70
     0
300
1:30
140
1.0
141
30.0
290
     0
  0
SCALE
  5
51
102
{ACAD_REACTORS
330
47
102
}
330
47
100
AcDbScale
 70
     0
300
1:40
140
1.0
141
40.0
290
     0
  0
SCALE
  5
52
102
{ACAD_REACTORS
330
47
102
}
330
47
100
AcDbScale
 70
     0
300
1:50
140
1.0
141
50.0
290
     0
  0
SCALE
  5
53
102
{ACAD_REACTORS
330
47
102
}
330
47
100
AcDbScale
 70
     0
300
1:100
140
1.0
141
100.0
290
     0
  0
SCALE
  5
54
102
{ACAD_REACTORS
330
47
102
}
330
47
100
AcDbScale
 70
     0
300
2:1
140
2.0
141
1.0
290
     0
  0
SCALE
  5
55
102
{ACAD_REACTORS
330
47
102
}
330
47
100
AcDbScale
 70
     0
300
4:1
140
4.0
141
1.0
290
     0
  0
SCALE
  5
56
102
{ACAD_REACTORS
330
47
102
}
330
47
100
AcDbScale
 70
     0
300
8:1
140
8.0
141
1.0
290
     0
  0
SCALE
  5
57
102
{ACAD_REACTORS
330
47
102
}
330
47
100
AcDbScale
 70
     0
300
10:1
140
10.0
141
1.0
290
     0
  0
SCALE
  5
58
102
{ACAD_REACTORS
330
47
102
}
330
47
100
AcDbScale
 70
     0
300
100:1
140
100.0
141
1.0
290
     0
  0
SCALE
  5
59
102
{ACAD_REACTORS
330
47
102
}
330
47
100
AcDbScale
 70
     0
300
1/128" = 1'-0"
140
0.0078125
141
12.0
290
     0
  0
SCALE
  5
5A
102
{ACAD_REACTORS
330
47
102
}
330
47
100
AcDbScale
 70
     0
300
1/64" = 1'-0"
140
0.015625
141
12.0
290
     0
  0
SCALE
  5
5B
102
{ACAD_REACTORS
330
47
102
}
330
47
100
AcDbScale
 70
     0
300
1/32" = 1'-0"
140
0.03125
141
12.0
290
     0
  0
SCALE
  5
5C
102
{ACAD_REACTORS
330
47
102
}
330
47
100
AcDbScale
 70
     0
300
1/16" = 1'-0"
140
0.0625
141
12.0
290
     0
  0
SCALE
  5
5D
102
{ACAD_REACTORS
330
47
102
}
330
47
100
AcDbScale
 70
     0
300
3/32" = 1'-0"
140
0.09375
141
12.0
290
     0
  0
SCALE
  5
5E
102
{ACAD_REACTORS
330
47
102
}
330
47
100
AcDbScale
 70
     0
300
1/8" = 1'-0"
140
0.125
141
12.0
290
     0
  0
SCALE
  5
5F
102
{ACAD_REACTORS
330
47
102
}
330
47
100
AcDbScale
 70
     0
300
3/16" = 1'-0"
140
0.1875
141
12.0
290
     0
  0
SCALE
  5
60
102
{ACAD_REACTORS
330
47
102
}
330
47
100
AcDbScale
 70
     0
300
1/4" = 1'-0"
140
0.25
141
12.0
290
     0
  0
SCALE
  5
61
102
{ACAD_REACTORS
330
47
102
}
330
47
100
AcDbScale
 70
     0
300
3/8" = 1'-0"
140
0.375
141
12.0
290
     0
  0
SCALE
  5
62
102
{ACAD_REACTORS
330
47
102
}
330
47
100
AcDbScale
 70
     0
300
1/2" = 1'-0"
140
0.5
141
12.0
290
     0
  0
SCALE
  5
63
102
{ACAD_REACTORS
330
47
102
}
330
47
100
AcDbScale
 70
     0
300
3/4" = 1'-0"
140
0.75
141
12.0
290
     0
  0
SCALE
  5
64
102
{ACAD_REACTORS
330
47
102
}
330
47
100
AcDbScale
 70
     0
300
1" = 1'-0"
140
1.0
141
12.0
290
     0
  0
SCALE
  5
65
102
{ACAD_REACTORS
330
47
102
}
330
47
100
AcDbScale
 70
     0
300
1-1/2" = 1'-0"
140
1.5
141
12.0
290
     0
  0
SCALE
  5
66
102
{ACAD_REACTORS
330
47
102
}
330
47
100
AcDbScale
 70
     0
300
3" = 1'-0"
140
3.0
141
12.0
290
     0
  0
SCALE
  5
67
102
{ACAD_REACTORS
330
47
102
}
330
47
100
AcDbScale
 70
     0
300
6" = 1'-0"
140
6.0
141
12.0
290
     0
  0
SCALE
  5
68
102
{ACAD_REACTORS
330
47
102
}
330
47
100
AcDbScale
 70
     0
300
1'-0" = 1'-0"
140
12.0
141
12.0
290
     0
  0
TABLESTYLE
  5
6A
102
{ACAD_REACTORS
330
69
102
}
102
{ACAD_XDICTIONARY
360
292
102
}
330
69
100
AcDbTableStyle
  3
Standard
 70
     0
 71
     0
 40
0.06
 41
0.06
280
     0
281
     0
  7
Standard
140
0.18
170
     2
 62
     0
 63
   257
283
     0
 90
        4
 91
        0
  1

274
    -2
284
     1
 64
     0
275
    -2
285
     1
 65
     0
276
    -2
286
     1
 66
     0
277
    -2
287
     1
 67
     0
278
    -2
288
     1
 68
     0
279
    -2
289
     1
 69
     0
  7
Standard
140
0.25
170
     5
 62
     0
 63
   257
283
     0
 90
        4
 91
        0
  1

274
    -2
284
     1
 64
     0
275
    -2
285
     1
 65
     0
276
    -2
286
     1
 66
     0
277
    -2
287
     1
 67
     0
278
    -2
288
     1
 68
     0
279
    -2
289
     1
 69
     0
  7
Standard
140
0.18
170
     5
 62
     0
 63
   257
283
     0
 90
        4
 91
        0
  1

274
    -2
284
     1
 64
     0
275
    -2
285
     1
 65
     0
276
    -2
286
     1
 66
     0
277
    -2
287
     1
 67
     0
278
    -2
288
     1
 68
     0
279
    -2
289
     1
 69
     0
  0
VISUALSTYLE
  5
2F
102
{ACAD_REACTORS
330
2A
102
}
330
2A
100
AcDbVisualStyle
  2
2dWireframe
 70
     4
177
     3
291
     0
 70
    58
 90
        0
176
     1
 90
        2
176
     1
 90
        0
176
     1
 90
        0
176
     1
 40
0.6
176
     1
 40
30.0
176
     1
 62
     7
420
 16777215
176
     1
 90
        1
176
     1
 90
        4
176
     1
 62
     7
176
     1
 62
   257
176
     1
 90
        1
176
     1
 90
        1
176
     1
 40
1.0
176
     1
 90
        0
176
     1
 62
   257
176
     1
 40
1.0
176
     1
 90
        1
176
     1
 90
        6
176
     1
 90
        2
176
     1
 62
     7
176
     1
 90
        5
176
     1
 90
        0
176
     1
 90
        0
176
     1
290
     0
176
     1
 90
        1
176
     1
 40
0.0
176
     1
 90
        0
176
     1
290
     1
176
     1
290
     1
176
     1
290
     0
176
     1
290
     0
176
     1
290
     0
176
     1
290
     0
176
     1
290
     0
176
     1
290
     0
176
     1
290
     0
176
     1
 90
       50
176
     1
 40
0.0
176
     1
 40
1.0
176
     1
 90
        0
176
     1
 62
    18
420
        0
176
     1
 90
       50
176
     1
 90
        3
176
     1
 62
     5
420
      255
176
     1
290
     0
176
     1
 90
       50
176
     1
 90
       50
176
     1
 90
       50
176
     1
290
     0
176
     1
 90
       50
176
     1
 62
   256
176
     0
 40
1.0
176
     0
 90
        2
176
     1
  1
strokes_ogs.tif
176
     1
290
     0
176
     1
 40
1.0
176
     1
 40
1.0
176
     1
  0
VISUALSTYLE
  5
32
102
{ACAD_REACTORS
330
2A
102
}
330
2A
100
AcDbVisualStyle
  2
Basic
 70
     7
177
     3
291
     1
 70
    58
 90
        1
176
     1
 90
        0
176
     1
 90
        1
176
     1
 90
        0
176
     1
 40
0.6
176
     1
 40
30.0
176
     1
 62
     7
420
 16777215
176
     1
 90
        0
176
     1
 90
        4
176
     1
 62
     7
176
     1
 62
   257
176
     1
 90
        1
176
     1
 90
        1
176
     1
 40
1.0
176
     1
 90
        8
176
     1
 62
     7
176
     1
 40
1.0
176
     1
 90
        1
176
     1
 90
        6
176
     1
 90
        2
176
     1
 62
     7
176
     1
 90
        5
176
     1
 90
        0
176
     1
 90
        0
176
     1
290
     0
176
     1
 90
        1
176
     1
 40
0.0
176
     1
 90
        0
176
     1
290
     0
176
     1
290
     1
176
     1
290
     1
176
     1
290
     0
176
     1
290
     0
176
     1
290
     0
176
     1
290
     0
176
     1
290
     0
176
     1
290
     0
176
     1
 90
       50
176
     1
 40
0.0
176
     1
 40
1.0
176
     1
 90
        0
176
     1
 62
    18
420
        0
176
     1
 90
       50
176
     1
 90
        3
176
     1
 62
     5
420
      255
176
     1
290
     0
176
     1
 90
       50
176
     1
 90
       50
176
     1
 90
       50
176
     1
290
     0
176
     1
 90
       50
176
     1
 62
   256
176
     0
 40
1.0
176
     0
 90
        2
176
     1
  1
strokes_ogs.tif
176
     1
290
     0
176
     1
 40
1.0
176
     1
 40
1.0
176
     1
  0
VISUALSTYLE
  5
36
102
{ACAD_REACTORS
330
2A
102
}
330
2A
100
AcDbVisualStyle
  2
Brighten
 70
    12
177
     3
291
     1
 70
    58
 90
        2
176
     1
 90
        2
176
     1
 90
        0
176
     1
 90
        0
176
     1
 40
0.6
176
     1
 40
30.0
176
     1
 62
     7
420
 16777215
176
     1
 90
        1
176
     1
 90
        4
176
     1
 62
     7
176
     1
 62
   257
176
     1
 90
        1
176
     1
 90
        1
176
     1
 40
1.0
176
     1
 90
        8
176
     1
 62
     7
176
     1
 40
1.0
176
     1
 90
        1
176
     1
 90
        6
176
     1
 90
        2
176
     1
 62
     7
176
     1
 90
        5
176
     1
 90
        0
176
     1
 90
        0
176
     1
290
     0
176
     1
 90
        1
176
     1
 40
50.0
176
     1
 90
        0
176
     1
290
     0
176
     1
290
     1
176
     1
290
     1
176
     1
290
     0
176
     1
290
     0
176
     1
290
     0
176
     1
290
     0
176
     1
290
     0
176
     1
290
     0
176
     1
 90
       50
176
     1
 40
0.0
176
     1
 40
1.0
176
     1
 90
        0
176
     1
 62
    18
420
        0
176
     1
 90
       50
176
     1
 90
        3
176
     1
 62
     5
420
      255
176
     1
290
     0
176
     1
 90
       50
176
     1
 90
       50
176
     1
 90
       50
176
     1
290
     0
176
     1
 90
       50
176
     1
 62
   256
176
     0
 40
1.0
176
     0
 90
        2
176
     1
  1
strokes_ogs.tif
176
     1
290
     0
176
     1
 40
1.0
176
     1
 40
1.0
176
     1
  0
VISUALSTYLE
  5
3A
102
{ACAD_REACTORS
330
2A
102
}
330
2A
100
AcDbVisualStyle
  2
ColorChange
 70
    16
177
     3
291
     1
 70
    58
 90
        2
176
     1
 90
        2
176
     1
 90
        3
176
     1
 90
        0
176
     1
 40
0.6
176
     1
 40
30.0
176
     1
 62
     8
420
  8421504
176
     1
 90
        1
176
     1
 90
        4
176
     1
 62
     7
176
     1
 62
   257
176
     1
 90
        1
176
     1
 90
        1
176
     1
 40
1.0
176
     1
 90
        8
176
     1
 62
     8
420
  8421504
176
     1
 40
1.0
176
     1
 90
        1
176
     1
 90
        6
176
     1
 90
        2
176
     1
 62
     7
176
     1
 90
        5
176
     1
 90
        0
176
     1
 90
        0
176
     1
290
     0
176
     1
 90
        1
176
     1
 40
0.0
176
     1
 90
        0
176
     1
290
     0
176
     1
290
     1
176
     1
290
     1
176
     1
290
     0
176
     1
290
     0
176
     1
290
     0
176
     1
290
     0
176
     1
290
     0
176
     1
290
     0
176
     1
 90
       50
176
     1
 40
0.0
176
     1
 40
1.0
176
     1
 90
        0
176
     1
 62
    18
420
        0
176
     1
 90
       50
176
     1
 90
        3
176
     1
 62
     5
420
      255
176
     1
290
     0
176
     1
 90
       50
176
     1
 90
       50
176
     1
 90
       50
176
     1
290
     0
176
     1
 90
       50
176
     1
 62
   256
176
     0
 40
1.0
176
     0
 90
        2
176
     1
  1
strokes_ogs.tif
176
     1
290
     0
176
     1
 40
1.0
176
     1
 40
1.0
176
     1
  0
VISUALSTYLE
  5
34
102
{ACAD_REACTORS
330
2A
102
}
330
2A
100
AcDbVisualStyle
  2
Conceptual
 70
     9
177
     3
291
     0
 70
    58
 90
        3
176
     1
 90
        2
176
     1
 90
        0
176
     1
 90
        0
176
     1
 40
0.6
176
     1
 40
30.0
176
     1
 62
     7
420
 16777215
176
     1
 90
        2
176
     1
 90
        2
176
     1
 62
     7
176
     1
 62
   257
176
     1
 90
        1
176
     1
 90
        1
176
     1
 40
179.0
176
     1
 90
        8
176
     1
 62
     7
176
     1
 40
1.0
176
     1
 90
        1
176
     1
 90
        6
176
     1
 90
        2
176
     1
 62
     7
176
     1
 90
        3
176
     1
 90
        0
176
     1
 90
        0
176
     1
290
     0
176
     1
 90
        1
176
     1
 40
0.0
176
     1
 90
        0
176
     1
290
     0
176
     1
290
     1
176
     1
290
     1
176
     1
290
     0
176
     1
290
     0
176
     1
290
     0
176
     1
290
     0
176
     1
290
     0
176
     1
290
     0
176
     1
 90
       50
176
     1
 40
0.0
176
     1
 40
1.0
176
     1
 90
        0
176
     1
 62
    18
420
        0
176
     1
 90
       50
176
     1
 90
        3
176
     1
 62
     5
420
      255
176
     1
290
     0
176
     1
 90
       50
176
     1
 90
       50
176
     1
 90
       50
176
     1
290
     0
176
     1
 90
       50
176
     1
 62
   256
176
     0
 40
1.0
176
     0
 90
        2
176
     1
  1
strokes_ogs.tif
176
     1
290
     0
176
     1
 40
1.0
176
     1
 40
1.0
176
     1
  0
VISUALSTYLE
  5
35
102
{ACAD_REACTORS
330
2A
102
}
330
2A
100
AcDbVisualStyle
  2
Dim
 70
    11
177
     3
291
     1
 70
    58
 90
        2
176
     1
 90
        2
176
     1
 90
        0
176
     1
 90
        0
176
     1
 40
0.6
176
     1
 40
30.0
176
     1
 62
     7
420
 16777215
176
     1
 90
        1
176
     1
 90
        4
176
     1
 62
     7
176
     1
 62
   257
176
     1
 90
        1
176
     1
 90
        1
176
     1
 40
1.0
176
     1
 90
        8
176
     1
 62
     7
176
     1
 40
1.0
176
     1
 90
        1
176
     1
 90
        6
176
     1
 90
        2
176
     1
 62
     7
176
     1
 90
        5
176
     1
 90
        0
176
     1
 90
        0
176
     1
290
     0
176
     1
 90
        1
176
     1
 40
-50.0
176
     1
 90
        0
176
     1
290
     0
176
     1
290
     1
176
     1
290
     1
176
     1
290
     0
176
     1
290
     0
176
     1
290
     0
176
     1
290
     0
176
     1
290
     0
176
     1
290
     0
176
     1
 90
       50
176
     1
 40
0.0
176
     1
 40
1.0
176
     1
 90
        0
176
     1
 62
    18
420
        0
176
     1
 90
       50
176
     1
 90
        3
176
     1
 62
     5
420
      255
176
     1
290
     0
176
     1
 90
       50
176
     1
 90
       50
176
     1
 90
       50
176
     1
290
     0
176
     1
 90
       50
176
     1
 62
   256
176
     0
 40
1.0
176
     0
 90
        2
176
     1
  1
strokes_ogs.tif
176
     1
290
     0
176
     1
 40
1.0
176
     1
 40
1.0
176
     1
  0
VISUALSTYLE
  5
3D
102
{ACAD_REACTORS
330
2A
102
}
330
2A
100
AcDbVisualStyle
  2
EdgeColorOff
 70
    22
177
     3
291
     1
 70
    58
 90
        2
176
     0
 90
        2
176
     0
 90
        0
176
     0
 90
        0
176
     0
 40
0.6
176
     0
 40
30.0
176
     0
 62
     7
420
 16777215
176
     0
 90
        1
176
     0
 90
        4
176
     0
 62
     7
176
     0
 62
   257
176
     0
 90
        1
176
     0
 90
        1
176
     0
 40
1.0
176
     0
 90
        8
176
     2
 62
     7
176
     0
 40
1.0
176
     0
 90
        1
176
     0
 90
        6
176
     0
 90
        2
176
     0
 62
     7
176
     0
 90
        5
176
     0
 90
        0
176
     0
 90
        0
176
     0
290
     0
176
     0
 90
        1
176
     0
 40
0.0
176
     0
 90
        0
176
     0
290
     0
176
     0
290
     1
176
     0
290
     1
176
     0
290
     0
176
     0
290
     0
176
     0
290
     0
176
     0
290
     0
176
     0
290
     0
176
     0
290
     0
176
     0
 90
       50
176
     0
 40
0.0
176
     0
 40
1.0
176
     0
 90
        0
176
     0
 62
    18
420
        0
176
     0
 90
       50
176
     0
 90
        3
176
     0
 62
     5
420
      255
176
     0
290
     0
176
     0
 90
       50
176
     0
 90
       50
176
     0
 90
       50
176
     0
290
     0
176
     0
 90
       50
176
     0
 62
   256
176
     0
 40
1.0
176
     0
 90
        2
176
     0
  1
strokes_ogs.tif
176
     0
290
     0
176
     0
 40
1.0
176
     0
 40
1.0
176
     0
  0
VISUALSTYLE
  5
39
102
{ACAD_REACTORS
330
2A
102
}
330
2A
100
AcDbVisualStyle
  2
Facepattern
 70
    15
177
     3
291
     1
 70
    58
 90
        2
176
     1
 90
        2
176
     1
 90
        0
176
     1
 90
        0
176
     1
 40
0.6
176
     1
 40
30.0
176
     1
 62
     7
420
 16777215
176
     1
 90
        1
176
     1
 90
        4
176
     1
 62
     7
176
     1
 62
   257
176
     1
 90
        1
176
     1
 90
        1
176
     1
 40
1.0
176
     1
 90
        8
176
     1
 62
     7
176
     1
 40
1.0
176
     1
 90
        1
176
     1
 90
        6
176
     1
 90
        2
176
     1
 62
     7
176
     1
 90
        5
176
     1
 90
        0
176
     1
 90
        0
176
     1
290
     0
176
     1
 90
        1
176
     1
 40
0.0
176
     1
 90
        0
176
     1
290
     0
176
     1
290
     1
176
     1
290
     1
176
     1
290
     0
176
     1
290
     0
176
     1
290
     0
176
     1
290
     0
176
     1
290
     0
176
     1
290
     0
176
     1
 90
       50
176
     1
 40
0.0
176
     1
 40
1.0
176
     1
 90
        0
176
     1
 62
    18
420
        0
176
     1
 90
       50
176
     1
 90
        3
176
     1
 62
     5
420
      255
176
     1
290
     0
176
     1
 90
       50
176
     1
 90
       50
176
     1
 90
       50
176
     1
290
     0
176
     1
 90
       50
176
     1
 62
   256
176
     0
 40
1.0
176
     0
 90
        2
176
     1
  1
strokes_ogs.tif
176
     1
290
     0
176
     1
 40
1.0
176
     1
 40
1.0
176
     1
  0
VISUALSTYLE
  5
2B
102
{ACAD_REACTORS
330
2A
102
}
330
2A
100
AcDbVisualStyle
  2
Flat
 70
     0
177
     3
291
     1
 70
    58
 90
        2
176
     1
 90
        1
176
     1
 90
        1
176
     1
 90
        2
176
     1
 40
0.6
176
     1
 40
30.0
176
     1
 62
     7
420
 16777215
176
     1
 90
        0
176
     1
 90
        0
176
     1
 62
     7
176
     1
 62
   257
176
     1
 90
        1
176
     1
 90
        1
176
     1
 40
1.0
176
     1
 90
        8
176
     1
 62
     7
176
     1
 40
1.0
176
     1
 90
        1
176
     1
 90
        6
176
     1
 90
        2
176
     1
 62
     7
176
     1
 90
        5
176
     1
 90
        0
176
     1
 90
        0
176
     1
290
     0
176
     1
 90
       13
176
     1
 40
0.0
176
     1
 90
        0
176
     1
290
     0
176
     1
290
     1
176
     1
290
     1
176
     1
290
     0
176
     1
290
     0
176
     1
290
     0
176
     1
290
     0
176
     1
290
     0
176
     1
290
     0
176
     1
 90
       50
176
     1
 40
0.0
176
     1
 40
1.0
176
     1
 90
        0
176
     1
 62
    18
420
        0
176
     1
 90
       50
176
     1
 90
        3
176
     1
 62
     5
420
      255
176
     1
290
     0
176
     1
 90
       50
176
     1
 90
       50
176
     1
 90
       50
176
     1
290
     0
176
     1
 90
       50
176
     1
 62
   256
176
     0
 40
1.0
176
     0
 90
        2
176
     1
  1
strokes_ogs.tif
176
     1
290
     0
176
     1
 40
1.0
176
     1
 40
1.0
176
     1
  0
VISUALSTYLE
  5
2C
102
{ACAD_REACTORS
330
2A
102
}
330
2A
100
AcDbVisualStyle
  2
FlatWithEdges
 70
     1
177
     3
291
     1
 70
    58
 90
        2
176
     1
 90
        1
176
     1
 90
        1
176
     1
 90
        2
176
     1
 40
0.6
176
     1
 40
30.0
176
     1
 62
     7
420
 16777215
176
     1
 90
        1
176
     1
 90
        0
176
     1
 62
     7
176
     1
 62
   257
176
     1
 90
        1
176
     1
 90
        1
176
     1
 40
1.0
176
     1
 90
        0
176
     1
 62
   257
176
     1
 40
1.0
176
     1
 90
        1
176
     1
 90
        6
176
     1
 90
        2
176
     1
 62
     7
176
     1
 90
        5
176
     1
 90
        0
176
     1
 90
        0
176
     1
290
     0
176
     1
 90
       13
176
     1
 40
0.0
176
     1
 90
        0
176
     1
290
     0
176
     1
290
     1
176
     1
290
     1
176
     1
290
     0
176
     1
290
     0
176
     1
290
     0
176
     1
290
     0
176
     1
290
     0
176
     1
290
     0
176
     1
 90
       50
176
     1
 40
0.0
176
     1
 40
1.0
176
     1
 90
        0
176
     1
 62
    18
420
        0
176
     1
 90
       50
176
     1
 90
        3
176
     1
 62
     5
420
      255
176
     1
290
     0
176
     1
 90
       50
176
     1
 90
       50
176
     1
 90
       50
176
     1
290
     0
176
     1
 90
       50
176
     1
 62
   256
176
     0
 40
1.0
176
     0
 90
        2
176
     1
  1
strokes_ogs.tif
176
     1
290
     0
176
     1
 40
1.0
176
     1
 40
1.0
176
     1
  0
VISUALSTYLE
  5
2D
102
{ACAD_REACTORS
330
2A
102
}
330
2A
100
AcDbVisualStyle
  2
Gouraud
 70
     2
177
     3
291
     1
 70
    58
 90
        2
176
     1
 90
        2
176
     1
 90
        1
176
     1
 90
        2
176
     1
 40
0.6
176
     1
 40
30.0
176
     1
 62
     7
420
 16777215
176
     1
 90
        0
176
     1
 90
        0
176
     1
 62
     7
176
     1
 62
   257
176
     1
 90
        1
176
     1
 90
        1
176
     1
 40
1.0
176
     1
 90
        0
176
     1
 62
     7
176
     1
 40
1.0
176
     1
 90
        1
176
     1
 90
        6
176
     1
 90
        2
176
     1
 62
     7
176
     1
 90
        5
176
     1
 90
        0
176
     1
 90
        0
176
     1
290
     0
176
     1
 90
       13
176
     1
 40
0.0
176
     1
 90
        0
176
     1
290
     0
176
     1
290
     1
176
     1
290
     1
176
     1
290
     0
176
     1
290
     0
176
     1
290
     0
176
     1
290
     0
176
     1
290
     0
176
     1
290
     0
176
     1
 90
       50
176
     1
 40
0.0
176
     1
 40
1.0
176
     1
 90
        0
176
     1
 62
    18
420
        0
176
     1
 90
       50
176
     1
 90
        3
176
     1
 62
     5
420
      255
176
     1
290
     0
176
     1
 90
       50
176
     1
 90
       50
176
     1
 90
       50
176
     1
290
     0
176
     1
 90
       50
176
     1
 62
   256
176
     0
 40
1.0
176
     0
 90
        2
176
     1
  1
strokes_ogs.tif
176
     1
290
     0
176
     1
 40
1.0
176
     1
 40
1.0
176
     1
  0
VISUALSTYLE
  5
2E
102
{ACAD_REACTORS
330
2A
102
}
330
2A
100
AcDbVisualStyle
  2
GouraudWithEdges
 70
     3
177
     3
291
     1
 70
    58
 90
        2
176
     1
 90
        2
176
     1
 90
        1
176
     1
 90
        2
176
     1
 40
0.6
176
     1
 40
30.0
176
     1
 62
     7
420
 16777215
176
     1
 90
        1
176
     1
 90
        0
176
     1
 62
     7
176
     1
 62
   257
176
     1
 90
        1
176
     1
 90
        1
176
     1
 40
1.0
176
     1
 90
        0
176
     1
 62
   257
176
     1
 40
1.0
176
     1
 90
        1
176
     1
 90
        6
176
     1
 90
        2
176
     1
 62
     7
176
     1
 90
        5
176
     1
 90
        0
176
     1
 90
        0
176
     1
290
     0
176
     1
 90
       13
176
     1
 40
0.0
176
     1
 90
        0
176
     1
290
     0
176
     1
290
     1
176
     1
290
     1
176
     1
290
     0
176
     1
290
     0
176
     1
290
     0
176
     1
290
     0
176
     1
290
     0
176
     1
290
     0
176
     1
 90
       50
176
     1
 40
0.0
176
     1
 40
1.0
176
     1
 90
        0
176
     1
 62
    18
420
        0
176
     1
 90
       50
176
     1
 90
        3
176
     1
 62
     5
420
      255
176
     1
290
     0
176
     1
 90
       50
176
     1
 90
       50
176
     1
 90
       50
176
     1
290
     0
176
     1
 90
       50
176
     1
 62
   256
176
     0
 40
1.0
176
     0
 90
        2
176
     1
  1
strokes_ogs.tif
176
     1
290
     0
176
     1
 40
1.0
176
     1
 40
1.0
176
     1
  0
VISUALSTYLE
  5
31
102
{ACAD_REACTORS
330
2A
102
}
330
2A
100
AcDbVisualStyle
  2
Hidden
 70
     6
177
     3
291
     0
 70
    58
 90
        1
176
     1
 90
        2
176
     1
 90
        2
176
     1
 90
        0
176
     1
 40
0.6
176
     1
 40
30.0
176
     1
 62
     7
420
 16777215
176
     1
 90
        2
176
     1
 90
        2
176
     1
 62
     7
176
     1
 62
   257
176
     1
 90
        2
176
     1
 90
        1
176
     1
 40
40.0
176
     1
 90
        0
176
     1
 62
   257
176
     1
 40
1.0
176
     1
 90
        1
176
     1
 90
        6
176
     1
 90
        2
176
     1
 62
     7
176
     1
 90
        3
176
     1
 90
        0
176
     1
 90
        0
176
     1
290
     0
176
     1
 90
        1
176
     1
 40
0.0
176
     1
 90
        0
176
     1
290
     0
176
     1
290
     1
176
     1
290
     1
176
     1
290
     0
176
     1
290
     0
176
     1
290
     0
176
     1
290
     0
176
     1
290
     0
176
     1
290
     0
176
     1
 90
       50
176
     1
 40
0.0
176
     1
 40
1.0
176
     1
 90
        0
176
     1
 62
    18
420
        0
176
     1
 90
       50
176
     1
 90
        3
176
     1
 62
     5
420
      255
176
     1
290
     0
176
     1
 90
       50
176
     1
 90
       50
176
     1
 90
       50
176
     1
290
     0
176
     1
 90
       50
176
     1
 62
   256
176
     0
 40
1.0
176
     0
 90
        2
176
     1
  1
strokes_ogs.tif
176
     1
290
     0
176
     1
 40
1.0
176
     1
 40
1.0
176
     1
  0
VISUALSTYLE
  5
3B
102
{ACAD_REACTORS
330
2A
102
}
330
2A
100
AcDbVisualStyle
  2
JitterOff
 70
    20
177
     3
291
     1
 70
    58
 90
        2
176
     0
 90
        2
176
     0
 90
        0
176
     0
 90
        0
176
     0
 40
0.6
176
     0
 40
30.0
176
     0
 62
     7
420
 16777215
176
     0
 90
        1
176
     0
 90
        4
176
     0
 62
     7
176
     0
 62
   257
176
     0
 90
        1
176
     0
 90
        1
176
     0
 40
1.0
176
     0
 90
       10
176
     2
 62
     7
176
     0
 40
1.0
176
     0
 90
        1
176
     0
 90
        6
176
     0
 90
        2
176
     0
 62
     7
176
     0
 90
        5
176
     0
 90
        0
176
     0
 90
        0
176
     0
290
     0
176
     0
 90
        1
176
     0
 40
0.0
176
     0
 90
        0
176
     0
290
     0
176
     0
290
     1
176
     0
290
     1
176
     0
290
     0
176
     0
290
     0
176
     0
290
     0
176
     0
290
     0
176
     0
290
     0
176
     0
290
     0
176
     0
 90
       50
176
     0
 40
0.0
176
     0
 40
1.0
176
     0
 90
        0
176
     0
 62
    18
420
        0
176
     0
 90
       50
176
     0
 90
        3
176
     0
 62
     5
420
      255
176
     0
290
     0
176
     0
 90
       50
176
     0
 90
       50
176
     0
 90
       50
176
     0
290
     0
176
     0
 90
       50
176
     0
 62
   256
176
     0
 40
1.0
176
     0
 90
        2
176
     0
  1
strokes_ogs.tif
176
     0
290
     0
176
     0
 40
1.0
176
     0
 40
1.0
176
     0
  0
VISUALSTYLE
  5
38
102
{ACAD_REACTORS
330
2A
102
}
330
2A
100
AcDbVisualStyle
  2
Linepattern
 70
    14
177
     3
291
     1
 70
    58
 90
        2
176
     1
 90
        2
176
     1
 90
        0
176
     1
 90
        0
176
     1
 40
0.6
176
     1
 40
30.0
176
     1
 62
     7
420
 16777215
176
     1
 90
        1
176
     1
 90
        4
176
     1
 62
     7
176
     1
 62
   257
176
     1
 90
        7
176
     1
 90
        7
176
     1
 40
1.0
176
     1
 90
        8
176
     1
 62
     7
176
     1
 40
1.0
176
     1
 90
        1
176
     1
 90
        6
176
     1
 90
        2
176
     1
 62
     7
176
     1
 90
        5
176
     1
 90
        0
176
     1
 90
        0
176
     1
290
     0
176
     1
 90
        1
176
     1
 40
0.0
176
     1
 90
        0
176
     1
290
     0
176
     1
290
     1
176
     1
290
     1
176
     1
290
     0
176
     1
290
     0
176
     1
290
     0
176
     1
290
     0
176
     1
290
     0
176
     1
290
     0
176
     1
 90
       50
176
     1
 40
0.0
176
     1
 40
1.0
176
     1
 90
        0
176
     1
 62
    18
420
        0
176
     1
 90
       50
176
     1
 90
        3
176
     1
 62
     5
420
      255
176
     1
290
     0
176
     1
 90
       50
176
     1
 90
       50
176
     1
 90
       50
176
     1
290
     0
176
     1
 90
       50
176
     1
 62
   256
176
     0
 40
1.0
176
     0
 90
        2
176
     1
  1
strokes_ogs.tif
176
     1
290
     0
176
     1
 40
1.0
176
     1
 40
1.0
176
     1
  0
VISUALSTYLE
  5
3C
102
{ACAD_REACTORS
330
2A
102
}
330
2A
100
AcDbVisualStyle
  2
OverhangOff
 70
    21
177
     3
291
     1
 70
    58
 90
        2
176
     0
 90
        2
176
     0
 90
        0
176
     0
 90
        0
176
     0
 40
0.6
176
     0
 40
30.0
176
     0
 62
     7
420
 16777215
176
     0
 90
        1
176
     0
 90
        4
176
     0
 62
     7
176
     0
 62
   257
176
     0
 90
        1
176
     0
 90
        1
176
     0
 40
1.0
176
     0
 90
        9
176
     2
 62
     7
176
     0
 40
1.0
176
     0
 90
        1
176
     0
 90
        6
176
     0
 90
        2
176
     0
 62
     7
176
     0
 90
        5
176
     0
 90
        0
176
     0
 90
        0
176
     0
290
     0
176
     0
 90
        1
176
     0
 40
0.0
176
     0
 90
        0
176
     0
290
     0
176
     0
290
     1
176
     0
290
     1
176
     0
290
     0
176
     0
290
     0
176
     0
290
     0
176
     0
290
     0
176
     0
290
     0
176
     0
290
     0
176
     0
 90
       50
176
     0
 40
0.0
176
     0
 40
1.0
176
     0
 90
        0
176
     0
 62
    18
420
        0
176
     0
 90
       50
176
     0
 90
        3
176
     0
 62
     5
420
      255
176
     0
290
     0
176
     0
 90
       50
176
     0
 90
       50
176
     0
 90
       50
176
     0
290
     0
176
     0
 90
       50
176
     0
 62
   256
176
     0
 40
1.0
176
     0
 90
        2
176
     0
  1
strokes_ogs.tif
176
     0
290
     0
176
     0
 40
1.0
176
     0
 40
1.0
176
     0
  0
VISUALSTYLE
  5
33
102
{ACAD_REACTORS
330
2A
102
}
330
2A
100
AcDbVisualStyle
  2
Realistic
 70
     8
177
     3
291
     0
 70
    58
 90
        2
176
     1
 90
        3
176
     1
 90
        0
176
     1
 90
        2
176
     1
 40
0.6
176
     1
 40
30.0
176
     1
 62
     7
420
 16777215
176
     1
 90
        0
176
     1
 90
        0
176
     1
 62
     7
176
     1
 62
   257
176
     1
 90
        1
176
     1
 90
        1
176
     1
 40
1.0
176
     1
 90
        8
176
     1
 62
   257
176
     1
 40
1.0
176
     1
 90
        1
176
     1
 90
        6
176
     1
 90
        2
176
     1
 62
     7
176
     1
 90
        3
176
     1
 90
        0
176
     1
 90
        0
176
     1
290
     0
176
     1
 90
       13
176
     1
 40
0.0
176
     1
 90
        0
176
     1
290
     0
176
     1
290
     1
176
     1
290
     1
176
     1
290
     0
176
     1
290
     0
176
     1
290
     0
176
     1
290
     0
176
     1
290
     0
176
     1
290
     0
176
     1
 90
       50
176
     1
 40
0.0
176
     1
 40
1.0
176
     1
 90
        0
176
     1
 62
    18
420
        0
176
     1
 90
       50
176
     1
 90
        3
176
     1
 62
     5
420
      255
176
     1
290
     0
176
     1
 90
       50
176
     1
 90
       50
176
     1
 90
       50
176
     1
290
     0
176
     1
 90
       50
176
     1
 62
   256
176
     0
 40
1.0
176
     0
 90
        2
176
     1
  1
strokes_ogs.tif
176
     1
290
     0
176
     1
 40
1.0
176
     1
 40
1.0
176
     1
  0
VISUALSTYLE
  5
42
102
{ACAD_REACTORS
330
2A
102
}
330
2A
100
AcDbVisualStyle
  2
Shaded
 70
    27
177
     3
291
     0
 70
    58
 90
        2
176
     1
 90
        2
176
     1
 90
        1
176
     1
 90
        2
176
     1
 40
0.6
176
     1
 40
30.0
176
     1
 62
     7
420
 16777215
176
     1
 90
        0
176
     1
 90
        4
176
     1
 62
     7
176
     1
 62
   257
176
     1
 90
        1
176
     1
 90
        1
176
     1
 40
1.0
176
     1
 90
        8
176
     1
 62
   257
176
     1
 40
1.0
176
     1
 90
        1
176
     1
 90
        6
176
     1
 90
        2
176
     1
 62
     8
420
  7895160
176
     1
 90
        3
176
     1
 90
        0
176
     1
 90
        0
176
     1
290
     0
176
     1
 90
        5
176
     1
 40
0.0
176
     1
 90
        0
176
     1
290
     0
176
     1
290
     1
176
     1
290
     1
176
     1
290
     0
176
     1
290
     0
176
     1
290
     0
176
     1
290
     0
176
     1
290
     0
176
     1
290
     0
176
     1
 90
       50
176
     1
 40
0.0
176
     1
 40
1.0
176
     1
 90
        0
176
     1
 62
    18
420
        0
176
     1
 90
       50
176
     1
 90
        3
176
     1
 62
     5
420
      255
176
     1
290
     0
176
     1
 90
       50
176
     1
 90
       50
176
     1
 90
       50
176
     1
290
     0
176
     1
 90
       50
176
     1
 62
   256
176
     0
 40
1.0
176
     0
 90
        2
176
     1
  1
strokes_ogs.tif
176
     1
290
     0
176
     1
 40
1.0
176
     1
 40
1.0
176
     1
  0
VISUALSTYLE
  5
41
102
{ACAD_REACTORS
330
2A
102
}
330
2A
100
AcDbVisualStyle
  2
Shaded with edges
 70
    26
177
     3
291
     0
 70
    58
 90
        2
176
     1
 90
        2
176
     1
 90
        1
176
     1
 90
        2
176
     1
 40
0.6
176
     1
 40
30.0
176
     1
 62
     7
420
 16777215
176
     1
 90
        1
176
     1
 90
       10
176
     1
 62
     7
176
     1
 62
   257
176
     1
 90
        2
176
     1
 90
        1
176
     1
 40
1.0
176
     1
 90
        8
176
     1
 62
   257
176
     1
 40
1.0
176
     1
 90
        1
176
     1
 90
        6
176
     1
 90
        2
176
     1
 62
     7
176
     1
 90
        3
176
     1
 90
        0
176
     1
 90
        0
176
     1
290
     0
176
     1
 90
        5
176
     1
 40
0.0
176
     1
 90
        0
176
     1
290
     0
176
     1
290
     1
176
     1
290
     1
176
     1
290
     0
176
     1
290
     0
176
     1
290
     0
176
     1
290
     0
176
     1
290
     0
176
     1
290
     0
176
     1
 90
       50
176
     1
 40
0.0
176
     1
 40
1.0
176
     1
 90
        0
176
     1
 62
    18
420
        0
176
     1
 90
       50
176
     1
 90
        3
176
     1
 62
     5
420
      255
176
     1
290
     0
176
     1
 90
       50
176
     1
 90
       50
176
     1
 90
       50
176
     1
290
     0
176
     1
 90
       50
176
     1
 62
   256
176
     0
 40
1.0
176
     0
 90
        2
176
     1
  1
strokes_ogs.tif
176
     1
290
     0
176
     1
 40
1.0
176
     1
 40
1.0
176
     1
  0
VISUALSTYLE
  5
3E
102
{ACAD_REACTORS
330
2A
102
}
330
2A
100
AcDbVisualStyle
  2
Shades of Gray
 70
    23
177
     3
291
     0
 70
    58
 90
        2
176
     1
 90
        2
176
     1
 90
        3
176
     1
 90
        0
176
     1
 40
0.6
176
     1
 40
30.0
176
     1
 62
     7
420
 16777215
176
     1
 90
        2
176
     1
 90
        2
176
     1
 62
     7
176
     1
 62
     7
176
     1
 90
        1
176
     1
 90
        1
176
     1
 40
40.0
176
     1
 90
        8
176
     1
 62
     7
176
     1
 40
1.0
176
     1
 90
        1
176
     1
 90
        6
176
     1
 90
        2
176
     1
 62
     7
176
     1
 90
        3
176
     1
 90
        0
176
     1
 90
        0
176
     1
290
     0
176
     1
 90
        1
176
     1
 40
0.0
176
     1
 90
        0
176
     1
290
     0
176
     1
290
     1
176
     1
290
     1
176
     1
290
     0
176
     1
290
     0
176
     1
290
     0
176
     1
290
     0
176
     1
290
     0
176
     1
290
     0
176
     1
 90
       50
176
     1
 40
0.0
176
     1
 40
1.0
176
     1
 90
        0
176
     1
 62
    18
420
        0
176
     1
 90
       50
176
     1
 90
        3
176
     1
 62
     5
420
      255
176
     1
290
     0
176
     1
 90
       50
176
     1
 90
       50
176
     1
 90
       50
176
     1
290
     0
176
     1
 90
       50
176
     1
 62
   256
176
     0
 40
1.0
176
     0
 90
        2
176
     1
  1
strokes_ogs.tif
176
     1
290
     0
176
     1
 40
1.0
176
     1
 40
1.0
176
     1
  0
VISUALSTYLE
  5
3F
102
{ACAD_REACTORS
330
2A
102
}
330
2A
100
AcDbVisualStyle
  2
Sketchy
 70
    24
177
     3
291
     0
 70
    58
 90
        1
176
     1
 90
        2
176
     1
 90
        2
176
     1
 90
        0
176
     1
 40
0.6
176
     1
 40
30.0
176
     1
 62
     7
420
 16777215
176
     1
 90
        2
176
     1
 90
        2
176
     1
 62
     7
176
     1
 62
     7
176
     1
 90
        1
176
     1
 90
        1
176
     1
 40
40.0
176
     1
 90
       11
176
     1
 62
     7
176
     1
 40
1.0
176
     1
 90
        1
176
     1
 90
        6
176
     1
 90
        2
176
     1
 62
     7
176
     1
 90
        6
176
     1
 90
        0
176
     1
 90
        0
176
     1
290
     0
176
     1
 90
        1
176
     1
 40
0.0
176
     1
 90
        0
176
     1
290
     0
176
     1
290
     1
176
     1
290
     1
176
     1
290
     0
176
     1
290
     0
176
     1
290
     0
176
     1
290
     0
176
     1
290
     0
176
     1
290
     0
176
     1
 90
       50
176
     1
 40
0.0
176
     1
 40
1.0
176
     1
 90
        0
176
     1
 62
    18
420
        0
176
     1
 90
       50
176
     1
 90
        3
176
     1
 62
     5
420
      255
176
     1
290
     0
176
     1
 90
       50
176
     1
 90
       50
176
     1
 90
       50
176
     1
290
     0
176
     1
 90
       50
176
     1
 62
   256
176
     0
 40
1.0
176
     0
 90
        2
176
     1
  1
strokes_ogs.tif
176
     1
290
     0
176
     1
 40
1.0
176
     1
 40
1.0
176
     1
  0
VISUALSTYLE
  5
37
102
{ACAD_REACTORS
330
2A
102
}
330
2A
100
AcDbVisualStyle
  2
Thicken
 70
    13
177
     3
291
     1
 70
    58
 90
        2
176
     1
 90
        2
176
     1
 90
        0
176
     1
 90
        0
176
     1
 40
0.6
176
     1
 40
30.0
176
     1
 62
     7
420
 16777215
176
     1
 90
        1
176
     1
 90
        4
176
     1
 62
     7
176
     1
 62
   257
176
     1
 90
        1
176
     1
 90
        1
176
     1
 40
1.0
176
     1
 90
       12
176
     1
 62
     7
176
     1
 40
1.0
176
     1
 90
        1
176
     1
 90
        6
176
     1
 90
        2
176
     1
 62
     7
176
     1
 90
        5
176
     1
 90
        0
176
     1
 90
        0
176
     1
290
     0
176
     1
 90
        1
176
     1
 40
0.0
176
     1
 90
        0
176
     1
290
     0
176
     1
290
     1
176
     1
290
     1
176
     1
290
     0
176
     1
290
     0
176
     1
290
     0
176
     1
290
     0
176
     1
290
     0
176
     1
290
     0
176
     1
 90
       50
176
     1
 40
0.0
176
     1
 40
1.0
176
     1
 90
        0
176
     1
 62
    18
420
        0
176
     1
 90
       50
176
     1
 90
        3
176
     1
 62
     5
420
      255
176
     1
290
     0
176
     1
 90
       50
176
     1
 90
       50
176
     1
 90
       50
176
     1
290
     0
176
     1
 90
       50
176
     1
 62
   256
176
     0
 40
1.0
176
     0
 90
        2
176
     1
  1
strokes_ogs.tif
176
     1
290
     0
176
     1
 40
1.0
176
     1
 40
1.0
176
     1
  0
VISUALSTYLE
  5
30
102
{ACAD_REACTORS
330
2A
102
}
330
2A
100
AcDbVisualStyle
  2
Wireframe
 70
     5
177
     3
291
     0
 70
    58
 90
        0
176
     1
 90
        2
176
     1
 90
        0
176
     1
 90
        0
176
     1
 40
0.6
176
     1
 40
30.0
176
     1
 62
     7
420
 16777215
176
     1
 90
        1
176
     1
 90
        4
176
     1
 62
     7
176
     1
 62
   257
176
     1
 90
        1
176
     1
 90
        1
176
     1
 40
1.0
176
     1
 90
        0
176
     1
 62
   257
176
     1
 40
1.0
176
     1
 90
        1
176
     1
 90
        6
176
     1
 90
        2
176
     1
 62
     7
176
     1
 90
        3
176
     1
 90
        0
176
     1
 90
        0
176
     1
290
     0
176
     1
 90
        1
176
     1
 40
0.0
176
     1
 90
        0
176
     1
290
     0
176
     1
290
     1
176
     1
290
     1
176
     1
290
     0
176
     1
290
     0
176
     1
290
     0
176
     1
290
     0
176
     1
290
     0
176
     1
290
     0
176
     1
 90
       50
176
     1
 40
0.0
176
     1
 40
1.0
176
     1
 90
        0
176
     1
 62
    18
420
        0
176
     1
 90
       50
176
     1
 90
        3
176
     1
 62
     5
420
      255
176
     1
290
     0
176
     1
 90
       50
176
     1
 90
       50
176
     1
 90
       50
176
     1
290
     0
176
     1
 90
       50
176
     1
 62
   256
176
     0
 40
1.0
176
     0
 90
        2
176
     1
  1
strokes_ogs.tif
176
     1
290
     0
176
     1
 40
1.0
176
     1
 40
1.0
176
     1
  0
VISUALSTYLE
  5
40
102
{ACAD_REACTORS
330
2A
102
}
330
2A
100
AcDbVisualStyle
  2
X-Ray
 70
    25
177
     3
291
     0
 70
    58
 90
        2
176
     1
 90
        2
176
     1
 90
        1
176
     1
 90
        1
176
     1
 40
0.5
176
     1
 40
30.0
176
     1
 62
     7
420
 16777215
176
     1
 90
        1
176
     1
 90
        0
176
     1
 62
     7
176
     1
 62
   257
176
     1
 90
        1
176
     1
 90
        1
176
     1
 40
1.0
176
     1
 90
        8
176
     1
 62
     7
176
     1
 40
1.0
176
     1
 90
        1
176
     1
 90
        6
176
     1
 90
        2
176
     1
 62
     7
176
     1
 90
        3
176
     1
 90
        0
176
     1
 90
        0
176
     1
290
     0
176
     1
 90
       13
176
     1
 40
0.0
176
     1
 90
        0
176
     1
290
     0
176
     1
290
     1
176
     1
290
     1
176
     1
290
     0
176
     1
290
     0
176
     1
290
     0
176
     1
290
     0
176
     1
290
     0
176
     1
290
     0
176
     1
 90
       50
176
     1
 40
0.0
176
     1
 40
1.0
176
     1
 90
        0
176
     1
 62
    18
420
        0
176
     1
 90
       50
176
     1
 90
        3
176
     1
 62
     5
420
      255
176
     1
290
     0
176
     1
 90
       50
176
     1
 90
       50
176
     1
 90
       50
176
     1
290
     0
176
     1
 90
       50
176
     1
 62
   256
176
     0
 40
1.0
176
     0
 90
        2
176
     1
  1
strokes_ogs.tif
176
     1
290
     0
176
     1
 40
1.0
176
     1
 40
1.0
176
     1
  0
DICTIONARYVAR
  5
291
102
{ACAD_REACTORS
330
290
102
}
330
290
100
DictionaryVariables
280
     0
  1
1:1
  0
DICTIONARYVAR
  5
296
102
{ACAD_REACTORS
330
290
102
}
330
290
100
DictionaryVariables
280
     0
  1
Standard
  0
DICTIONARYVAR
  5
295
102
{ACAD_REACTORS
330
290
102
}
330
290
100
DictionaryVariables
280
     0
  1
Standard
  0
DICTIONARY
  5
292
330
6A
100
AcDbDictionary
280
     1
281
     1
  3
ACAD_ROUNDTRIP_2008_TABLESTYLE_CELLSTYLEMAP
360
293
  0
CELLSTYLEMAP
  5
293
102
{ACAD_REACTORS
330
292
102
}
330
292
100
AcDbCellStyleMap
 90
        3
300
CELLSTYLE
  1
TABLEFORMAT_BEGIN
 90
        5
170
     1
 91
        0
 92
    32768
 62
   257
 93
        1
300
CONTENTFORMAT
  1
CONTENTFORMAT_BEGIN
 90
        0
 91
        0
 92
        4
 93
        0
300

 40
0.0
140
1.0
 94
        5
 62
     0
340
11
144
0.25
309
CONTENTFORMAT_END
171
     1
301
MARGIN
  1
CELLMARGIN_BEGIN
 40
0.06
 40
0.06
 40
0.06
 40
0.06
 40
0.06
 40
0.06
309
CELLMARGIN_END
 94
        6
 95
        1
302
GRIDFORMAT
  1
GRIDFORMAT_BEGIN
 90
        0
 91
        1
 62
     0
 92
       -2
340
14
 93
        0
 40
0.045
309
GRIDFORMAT_END
 95
        2
302
GRIDFORMAT
  1
GRIDFORMAT_BEGIN
 90
        0
 91
        1
 62
     0
 92
       -2
340
14
 93
        0
 40
0.045
309
GRIDFORMAT_END
 95
        4
302
GRIDFORMAT
  1
GRIDFORMAT_BEGIN
 90
        0
 91
        1
 62
     0
 92
       -2
340
14
 93
        0
 40
0.045
309
GRIDFORMAT_END
 95
        8
302
GRIDFORMAT
  1
GRIDFORMAT_BEGIN
 90
        0
 91
        1
 62
     0
 92
       -2
340
14
 93
        0
 40
0.045
309
GRIDFORMAT_END
 95
       16
302
GRIDFORMAT
  1
GRIDFORMAT_BEGIN
 90
        0
 91
        1
 62
     0
 92
       -2
340
14
 93
        0
 40
0.045
309
GRIDFORMAT_END
 95
       32
302
GRIDFORMAT
  1
GRIDFORMAT_BEGIN
 90
        0
 91
        1
 62
     0
 92
       -2
340
14
 93
        0
 40
0.045
309
GRIDFORMAT_END
309
TABLEFORMAT_END
  1
CELLSTYLE_BEGIN
 90
        1
 91
        1
300
_TITLE
309
CELLSTYLE_END
300
CELLSTYLE
  1
TABLEFORMAT_BEGIN
 90
        5
170
     1
 91
        0
 92
        0
 62
   257
 93
        1
300
CONTENTFORMAT
  1
CONTENTFORMAT_BEGIN
 90
        0
 91
        0
 92
        4
 93
        0
300

 40
0.0
140
1.0
 94
        5
 62
     0
340
11
144
0.18
309
CONTENTFORMAT_END
171
     1
301
MARGIN
  1
CELLMARGIN_BEGIN
 40
0.06
 40
0.06
 40
0.06
 40
0.06
 40
0.06
 40
0.06
309
CELLMARGIN_END
 94
        6
 95
        1
302
GRIDFORMAT
  1
GRIDFORMAT_BEGIN
 90
        0
 91
        1
 62
     0
 92
       -2
340
14
 93
        0
 40
0.045
309
GRIDFORMAT_END
 95
        2
302
GRIDFORMAT
  1
GRIDFORMAT_BEGIN
 90
        0
 91
        1
 62
     0
 92
       -2
340
14
 93
        0
 40
0.045
309
GRIDFORMAT_END
 95
        4
302
GRIDFORMAT
  1
GRIDFORMAT_BEGIN
 90
        0
 91
        1
 62
     0
 92
       -2
340
14
 93
        0
 40
0.045
309
GRIDFORMAT_END
 95
        8
302
GRIDFORMAT
  1
GRIDFORMAT_BEGIN
 90
        0
 91
        1
 62
     0
 92
       -2
340
14
 93
        0
 40
0.045
309
GRIDFORMAT_END
 95
       16
302
GRIDFORMAT
  1
GRIDFORMAT_BEGIN
 90
        0
 91
        1
 62
     0
 92
       -2
340
14
 93
        0
 40
0.045
309
GRIDFORMAT_END
 95
       32
302
GRIDFORMAT
  1
GRIDFORMAT_BEGIN
 90
        0
 91
        1
 62
     0
 92
       -2
340
14
 93
        0
 40
0.045
309
GRIDFORMAT_END
309
TABLEFORMAT_END
  1
CELLSTYLE_BEGIN
 90
        2
 91
        1
300
_HEADER
309
CELLSTYLE_END
300
CELLSTYLE
  1
TABLEFORMAT_BEGIN
 90
        5
170
     1
 91
        0
 92
        0
 62
   257
 93
        1
300
CONTENTFORMAT
  1
CONTENTFORMAT_BEGIN
 90
        0
 91
        0
 92
        4
 93
        0
300

 40
0.0
140
1.0
 94
        2
 62
     0
340
11
144
0.18
309
CONTENTFORMAT_END
171
     1
301
MARGIN
  1
CELLMARGIN_BEGIN
 40
0.06
 40
0.06
 40
0.06
 40
0.06
 40
0.06
 40
0.06
309
CELLMARGIN_END
 94
        6
 95
        1
302
GRIDFORMAT
  1
GRIDFORMAT_BEGIN
 90
        0
 91
        1
 62
     0
 92
       -2
340
14
 93
        0
 40
0.045
309
GRIDFORMAT_END
 95
        2
302
GRIDFORMAT
  1
GRIDFORMAT_BEGIN
 90
        0
 91
        1
 62
     0
 92
       -2
340
14
 93
        0
 40
0.045
309
GRIDFORMAT_END
 95
        4
302
GRIDFORMAT
  1
GRIDFORMAT_BEGIN
 90
        0
 91
        1
 62
     0
 92
       -2
340
14
 93
        0
 40
0.045
309
GRIDFORMAT_END
 95
        8
302
GRIDFORMAT
  1
GRIDFORMAT_BEGIN
 90
        0
 91
        1
 62
     0
 92
       -2
340
14
 93
        0
 40
0.045
309
GRIDFORMAT_END
 95
       16
302
GRIDFORMAT
  1
GRIDFORMAT_BEGIN
 90
        0
 91
        1
 62
     0
 92
       -2
340
14
 93
        0
 40
0.045
309
GRIDFORMAT_END
 95
       32
302
GRIDFORMAT
  1
GRIDFORMAT_BEGIN
 90
        0
 91
        1
 62
     0
 92
       -2
340
14
 93
        0
 40
0.045
309
GRIDFORMAT_END
309
TABLEFORMAT_END
  1
CELLSTYLE_BEGIN
 90
        3
 91
        2
300
_DATA
309
CELLSTYLE_END
  0
ENDSEC
  0
EOF