0
SECTION
  2
HEADER
  9
$ACADVER
  1
AC1027
  9
$ACADMAINTVER
 70
     8
  9
$DWGCODEPAGE
  3
ANSI_1252
  9
$REQUIREDVERSIONS
160
                 0
  9
$COMMENTS
  1
File was created by Cadenas
  9
$CUSTOMPROPERTYTAG
  1
NN
  9
$CUSTOMPROPERTY
  1
Steel IMPERIAL-HD Piloted Flange 2-7/16 thru 5 Inch Bore
  9
$CUSTOMPROPERTYTAG
  1
NT
  9
$CUSTOMPROPERTY
  1
Steal Imperial Piloted Flange Bearing-Inch-207-500
  9
$CUSTOMPROPERTYTAG
  1
NB
  9
$CUSTOMPROPERTY
  1
072322
  9
$CUSTOMPROPERTYTAG
  1
NBSYN
  9
$CUSTOMPROPERTY
  1
$PN.
  9
$CUSTOMPROPERTYTAG
  1
LINA
  9
$CUSTOMPROPERTY
  1
072322
  9
$CUSTOMPROPERTYTAG
  1
SS
  9
$CUSTOMPROPERTY
  1
2-1/2
  9
$CUSTOMPROPERTYTAG
  1
PN
  9
$CUSTOMPROPERTY
  1
072322
  9
$CUSTOMPROPERTYTAG
  1
TYPE
  9
$CUSTOMPROPERTY
  1
Expansion
  9
$CUSTOMPROPERTYTAG
  1
EF
  9
$CUSTOMPROPERTY
  1
Expansion
  9
$CUSTOMPROPERTYTAG
  1
DESCRIPTION
  9
$CUSTOMPROPERTY
  1
SFC-IP-208/RE
  9
$CUSTOMPROPERTYTAG
  1
ST
  9
$CUSTOMPROPERTY
  1
Contact Seal
  9
$CUSTOMPROPERTYTAG
  1
A
  9
$CUSTOMPROPERTY
  1
3.43
  9
$CUSTOMPROPERTYTAG
  1
B
  9
$CUSTOMPROPERTY
  1
7.63
  9
$CUSTOMPROPERTYTAG
  1
C
  9
$CUSTOMPROPERTY
  1
2.66
  9
$CUSTOMPROPERTYTAG
  1
D
  9
$CUSTOMPROPERTY
  1
4.60
  9
$CUSTOMPROPERTYTAG
  1
DD
  9
$CUSTOMPROPERTY
  1
6.500
  9
$CUSTOMPROPERTYTAG
  1
E
  9
$CUSTOMPROPERTY
  1
1.25
  9
$CUSTOMPROPERTYTAG
  1
F
  9
$CUSTOMPROPERTY
  1
0.500
  9
$CUSTOMPROPERTYTAG
  1
G
  9
$CUSTOMPROPERTY
  1
1.86
  9
$CUSTOMPROPERTYTAG
  1
H
  9
$CUSTOMPROPERTY
  1
0.50
  9
$CUSTOMPROPERTYTAG
  1
K
  9
$CUSTOMPROPERTY
  1
5.500
  9
$CUSTOMPROPERTYTAG
  1
L
  9
$CUSTOMPROPERTY
  1
3.80
  9
$CUSTOMPROPERTYTAG
  1
M
  9
$CUSTOMPROPERTY
  1
0.500
  9
$CUSTOMPROPERTYTAG
  1
N
  9
$CUSTOMPROPERTY
  1
3.61
  9
$CUSTOMPROPERTYTAG
  1
P
  9
$CUSTOMPROPERTY
  1
1.55
  9
$CUSTOMPROPERTYTAG
  1
Q
  9
$CUSTOMPROPERTY
  1
1.75
  9
$CUSTOMPROPERTYTAG
  1
X
  9
$CUSTOMPROPERTY
  1
0.25
  9
$CUSTOMPROPERTYTAG
  1
Y
  9
$CUSTOMPROPERTY
  1
0.025
  9
$CUSTOMPROPERTYTAG
  1
Z
  9
$CUSTOMPROPERTY
  1
2.94
  9
$CUSTOMPROPERTYTAG
  1
COMPANY
  9
$CUSTOMPROPERTY
  1
baldor
  9
$INSBASE
 10
0.0
 20
0.0
 30
0.0
  9
$EXTMIN
 10
1.000000000000000E+20
 20
1.000000000000000E+20
 30
1.000000000000000E+20
  9
$EXTMAX
 10
-1.000000000000000E+20
 20
-1.000000000000000E+20
 30
-1.000000000000000E+20
  9
$LIMMIN
 10
0.0
 20
0.0
  9
$LIMMAX
 10
12.0
 20
9.0
  9
$ORTHOMODE
 70
     0
  9
$REGENMODE
 70
     1
  9
$FILLMODE
 70
     1
  9
$QTEXTMODE
 70
     0
  9
$MIRRTEXT
 70
     1
  9
$LTSCALE
 40
1.0
  9
$ATTMODE
 70
     1
  9
$TEXTSIZE
 40
0.2
  9
$TRACEWID
 40
0.05
  9
$TEXTSTYLE
  7
Standard
  9
$CLAYER
  8
0
  9
$CELTYPE
  6
ByLayer
  9
$CECOLOR
 62
   256
  9
$CELTSCALE
 40
1.0
  9
$DISPSILH
 70
     0
  9
$DIMSCALE
 40
1.0
  9
$DIMASZ
 40
0.18
  9
$DIMEXO
 40
0.0625
  9
$DIMDLI
 40
0.38
  9
$DIMRND
 40
0.0
  9
$DIMDLE
 40
0.0
  9
$DIMEXE
 40
0.18
  9
$DIMTP
 40
0.0
  9
$DIMTM
 40
0.0
  9
$DIMTXT
 40
0.18
  9
$DIMCEN
 40
0.09
  9
$DIMTSZ
 40
0.0
  9
$DIMTOL
 70
     0
  9
$DIMLIM
 70
     0
  9
$DIMTIH
 70
     1
  9
$DIMTOH
 70
     1
  9
$DIMSE1
 70
     0
  9
$DIMSE2
 70
     0
  9
$DIMTAD
 70
     0
  9
$DIMZIN
 70
     0
  9
$DIMBLK
  1

  9
$DIMASO
 70
     1
  9
$DIMSHO
 70
     1
  9
$DIMPOST
  1

  9
$DIMAPOST
  1

  9
$DIMALT
 70
     0
  9
$DIMALTD
 70
     2
  9
$DIMALTF
 40
25.4
  9
$DIMLFAC
 40
1.0
  9
$DIMTOFL
 70
     0
  9
$DIMTVP
 40
0.0
  9
$DIMTIX
 70
     0
  9
$DIMSOXD
 70
     0
  9
$DIMSAH
 70
     0
  9
$DIMBLK1
  1

  9
$DIMBLK2
  1

  9
$DIMSTYLE
  2
Standard
  9
$DIMCLRD
 70
     0
  9
$DIMCLRE
 70
     0
  9
$DIMCLRT
 70
     0
  9
$DIMTFAC
 40
1.0
  9
$DIMGAP
 40
0.09
  9
$DIMJUST
 70
     0
  9
$DIMSD1
 70
     0
  9
$DIMSD2
 70
     0
  9
$DIMTOLJ
 70
     1
  9
$DIMTZIN
 70
     0
  9
$DIMALTZ
 70
     0
  9
$DIMALTTZ
 70
     0
  9
$DIMUPT
 70
     0
  9
$DIMDEC
 70
     4
  9
$DIMTDEC
 70
     4
  9
$DIMALTU
 70
     2
  9
$DIMALTTD
 70
     2
  9
$DIMTXSTY
  7
Standard
  9
$DIMAUNIT
 70
     0
  9
$DIMADEC
 70
     0
  9
$DIMALTRND
 40
0.0
  9
$DIMAZIN
 70
     0
  9
$DIMDSEP
 70
    46
  9
$DIMATFIT
 70
     3
  9
$DIMFRAC
 70
     0
  9
$DIMLDRBLK
  1

  9
$DIMLUNIT
 70
     2
  9
$DIMLWD
 70
    -2
  9
$DIMLWE
 70
    -2
  9
$DIMTMOVE
 70
     0
  9
$DIMFXL
 40
1.0
  9
$DIMFXLON
 70
     0
  9
$DIMJOGANG
 40
0.7853981633974483
  9
$DIMTFILL
 70
     0
  9
$DIMTFILLCLR
 70
     0
  9
$DIMARCSYM
 70
     0
  9
$DIMLTYPE
  6

  9
$DIMLTEX1
  6

  9
$DIMLTEX2
  6

  9
$DIMTXTDIRECTION
 70
     0
  9
$LUNITS
 70
     2
  9
$LUPREC
 70
     4
  9
$SKETCHINC
 40
0.1
  9
$FILLETRAD
 40
0.5
  9
$AUNITS
 70
     0
  9
$AUPREC
 70
     0
  9
$MENU
  1
.
  9
$ELEVATION
 40
0.0
  9
$PELEVATION
 40
0.0
  9
$THICKNESS
 40
0.0
  9
$LIMCHECK
 70
     0
  9
$CHAMFERA
 40
0.0
  9
$CHAMFERB
 40
0.0
  9
$CHAMFERC
 40
0.0
  9
$CHAMFERD
 40
0.0
  9
$SKPOLY
 70
     0
  9
$TDCREATE
 40
2458168.897400845
  9
$TDUCREATE
 40
2458168.855734178
  9
$TDUPDATE
 40
2458168.897401019
  9
$TDUUPDATE
 40
2458168.855734352
  9
$TDINDWG
 40
0.0000000116
  9
$TDUSRTIMER
 40
0.0000000116
  9
$USRTIMER
 70
     1
  9
$ANGBASE
 50
0.0
  9
$ANGDIR
 70
     0
  9
$PDMODE
 70
     0
  9
$PDSIZE
 40
0.0
  9
$PLINEWID
 40
0.0
  9
$SPLFRAME
 70
     0
  9
$SPLINETYPE
 70
     6
  9
$SPLINESEGS
 70
     8
  9
$HANDSEED
  5
25C
  9
$SURFTAB1
 70
     6
  9
$SURFTAB2
 70
     6
  9
$SURFTYPE
 70
     6
  9
$SURFU
 70
     6
  9
$SURFV
 70
     6
  9
$UCSBASE
  2

  9
$UCSNAME
  2

  9
$UCSORG
 10
0.0
 20
0.0
 30
0.0
  9
$UCSXDIR
 10
1.0
 20
0.0
 30
0.0
  9
$UCSYDIR
 10
0.0
 20
1.0
 30
0.0
  9
$UCSORTHOREF
  2

  9
$UCSORTHOVIEW
 70
     0
  9
$UCSORGTOP
 10
0.0
 20
0.0
 30
0.0
  9
$UCSORGBOTTOM
 10
0.0
 20
0.0
 30
0.0
  9
$UCSORGLEFT
 10
0.0
 20
0.0
 30
0.0
  9
$UCSORGRIGHT
 10
0.0
 20
0.0
 30
0.0
  9
$UCSORGFRONT
 10
0.0
 20
0.0
 30
0.0
  9
$UCSORGBACK
 10
0.0
 20
0.0
 30
0.0
  9
$PUCSBASE
  2

  9
$PUCSNAME
  2

  9
$PUCSORG
 10
0.0
 20
0.0
 30
0.0
  9
$PUCSXDIR
 10
1.0
 20
0.0
 30
0.0
  9
$PUCSYDIR
 10
0.0
 20
1.0
 30
0.0
  9
$PUCSORTHOREF
  2

  9
$PUCSORTHOVIEW
 70
     0
  9
$PUCSORGTOP
 10
0.0
 20
0.0
 30
0.0
  9
$PUCSORGBOTTOM
 10
0.0
 20
0.0
 30
0.0
  9
$PUCSORGLEFT
 10
0.0
 20
0.0
 30
0.0
  9
$PUCSORGRIGHT
 10
0.0
 20
0.0
 30
0.0
  9
$PUCSORGFRONT
 10
0.0
 20
0.0
 30
0.0
  9
$PUCSORGBACK
 10
0.0
 20
0.0
 30
0.0
  9
$USERI1
 70
     0
  9
$USERI2
 70
     0
  9
$USERI3
 70
     0
  9
$USERI4
 70
     0
  9
$USERI5
 70
     0
  9
$USERR1
 40
0.0
  9
$USERR2
 40
0.0
  9
$USERR3
 40
0.0
  9
$USERR4
 40
0.0
  9
$USERR5
 40
0.0
  9
$WORLDVIEW
 70
     1
  9
$SHADEDGE
 70
     3
  9
$SHADEDIF
 70
    70
  9
$TILEMODE
 70
     1
  9
$MAXACTVP
 70
    64
  9
$PINSBASE
 10
0.0
 20
0.0
 30
0.0
  9
$PLIMCHECK
 70
     0
  9
$PEXTMIN
 10
1.000000000000000E+20
 20
1.000000000000000E+20
 30
1.000000000000000E+20
  9
$PEXTMAX
 10
-1.000000000000000E+20
 20
-1.000000000000000E+20
 30
-1.000000000000000E+20
  9
$PLIMMIN
 10
0.0
 20
0.0
  9
$PLIMMAX
 10
12.0
 20
9.0
  9
$UNITMODE
 70
     0
  9
$VISRETAIN
 70
     1
  9
$PLINEGEN
 70
     0
  9
$PSLTSCALE
 70
     1
  9
$TREEDEPTH
 70
  3020
  9
$CMLSTYLE
  2
Standard
  9
$CMLJUST
 70
     0
  9
$CMLSCALE
 40
1.0
  9
$PROXYGRAPHICS
 70
     1
  9
$MEASUREMENT
 70
     0
  9
$CELWEIGHT
370
    -1
  9
$ENDCAPS
280
     0
  9
$JOINSTYLE
280
     0
  9
$LWDISPLAY
290
     0
  9
$INSUNITS
 70
     1
  9
$HYPERLINKBASE
  1

  9
$STYLESHEET
  1

  9
$XEDIT
290
     1
  9
$CEPSNTYPE
380
     0
  9
$PSTYLEMODE
290
     1
  9
$FINGERPRINTGUID
  2
{056F542A-BF7C-4888-9E95-6A3DED2C4755}
  9
$VERSIONGUID
  2
{FAEB1C32-E019-11D5-929B-00C0DF256EC4}
  9
$EXTNAMES
290
     1
  9
$PSVPSCALE
 40
0.0
  9
$OLESTARTUP
290
     0
  9
$SORTENTS
280
   127
  9
$INDEXCTL
280
     0
  9
$HIDETEXT
280
     1
  9
$XCLIPFRAME
280
     2
  9
$HALOGAP
280
     0
  9
$OBSCOLOR
 70
   257
  9
$OBSLTYPE
280
     0
  9
$INTERSECTIONDISPLAY
280
     0
  9
$INTERSECTIONCOLOR
 70
   257
  9
$DIMASSOC
280
     2
  9
$PROJECTNAME
  1

  9
$CAMERADISPLAY
290
     0
  9
$LENSLENGTH
 40
50.0
  9
$CAMERAHEIGHT
 40
0.0
  9
$STEPSPERSEC
 40
2.0
  9
$STEPSIZE
 40
6.0
  9
$3DDWFPREC
 40
2.0
  9
$PSOLWIDTH
 40
0.25
  9
$PSOLHEIGHT
 40
4.0
  9
$LOFTANG1
 40
1.570796326794897
  9
$LOFTANG2
 40
1.570796326794897
  9
$LOFTMAG1
 40
0.0
  9
$LOFTMAG2
 40
0.0
  9
$LOFTPARAM
 70
     7
  9
$LOFTNORMALS
280
     1
  9
$LATITUDE
 40
37.795
  9
$LONGITUDE
 40
-122.394
  9
$NORTHDIRECTION
 40
0.0
  9
$TIMEZONE
 70
 -8000
  9
$LIGHTGLYPHDISPLAY
280
     1
  9
$TILEMODELIGHTSYNCH
280
     1
  9
$CMATERIAL
347
44
  9
$SOLIDHIST
280
     0
  9
$SHOWHIST
280
     1
  9
$DWFFRAME
280
     2
  9
$DGNFRAME
280
     2
  9
$REALWORLDSCALE
290
     1
  9
$INTERFERECOLOR
 62
   256
  9
$CSHADOW
280
     0
  9
$SHADOWPLANELOCATION
 40
0.0
  0
ENDSEC
  0
SECTION
  2
CLASSES
  0
CLASS
  1
ACDBDICTIONARYWDFLT
  2
AcDbDictionaryWithDefault
  3
ObjectDBX Classes
 90
        0
 91
        4
280
     0
281
     0
  0
CLASS
  1
VISUALSTYLE
  2
AcDbVisualStyle
  3
ObjectDBX Classes
 90
     4095
 91
        4
280
     0
281
     0
  0
CLASS
  1
MATERIAL
  2
AcDbMaterial
  3
ObjectDBX Classes
 90
     1153
 91
        4
280
     0
281
     0
  0
CLASS
  1
SCALE
  2
AcDbScale
  3
ObjectDBX Classes
 90
     1153
 91
        4
280
     0
281
     0
  0
CLASS
  1
TABLESTYLE
  2
AcDbTableStyle
  3
ObjectDBX Classes
 90
     4095
 91
        4
280
     0
281
     0
  0
CLASS
  1
MLEADERSTYLE
  2
AcDbMLeaderStyle
  3
ACDB_MLEADERSTYLE_CLASS
 90
     4095
 91
        4
280
     0
281
     0
  0
CLASS
  1
SUN
  2
AcDbSun
  3
SCENEOE
 90
     1153
 91
        4
280
     0
281
     0
  0
CLASS
  1
DICTIONARYVAR
  2
AcDbDictionaryVar
  3
ObjectDBX Classes
 90
        0
 91
        4
280
     0
281
     0
  0
CLASS
  1
CELLSTYLEMAP
  2
AcDbCellStyleMap
  3
ObjectDBX Classes
 90
     1152
 91
        4
280
     0
281
     0
  0
ENDSEC
  0
SECTION
  2
TABLES
  0
TABLE
  2
VPORT
  5
8
330
0
100
AcDbSymbolTable
 70
     1
  0
VPORT
  5
29
330
8
100
AcDbSymbolTableRecord
100
AcDbViewportTableRecord
  2
*Active
 70
     0
 10
0.0
 20
0.0
 11
1.0
 21
1.0
 12
0.0
 22
0.0
 13
0.0
 23
0.0
 14
0.5
 24
0.5
 15
0.5
 25
0.5
 16
0.0
 26
0.0
 36
1.0
 17
0.0
 27
0.0
 37
0.0
 40
5.969040000000001
 41
1.303827751196172
 42
50.0
 43
0.0
 44
0.0
 50
0.0
 51
0.0
 71
     0
 72
   100
 73
     1
 74
     3
 75
     0
 76
     0
 77
     0
 78
     0
281
     0
 65
     1
110
0.0
120
0.0
130
0.0
111
1.0
121
0.0
131
0.0
112
0.0
122
1.0
132
0.0
 79
     0
146
0.0
348
2F
 60
     3
 61
     5
292
     1
282
     1
141
0.0
142
0.0
 63
   250
361
6D
  0
ENDTAB
  0
TABLE
  2
LTYPE
  5
5
330
0
100
AcDbSymbolTable
 70
     3
  0
LTYPE
  5
14
330
5
100
AcDbSymbolTableRecord
100
AcDbLinetypeTableRecord
  2
ByBlock
 70
     0
  3

 72
    65
 73
     0
 40
0.0
  0
LTYPE
  5
15
330
5
100
AcDbSymbolTableRecord
100
AcDbLinetypeTableRecord
  2
ByLayer
 70
     0
  3

 72
    65
 73
     0
 40
0.0
  0
LTYPE
  5
16
330
5
100
AcDbSymbolTableRecord
100
AcDbLinetypeTableRecord
  2
Continuous
 70
     0
  3
Solid line
 72
    65
 73
     0
 40
0.0
  0
LTYPE
  5
9D
330
5
100
AcDbSymbolTableRecord
100
AcDbLinetypeTableRecord
  2
Dashed
 70
     0
  3

 72
    65
 73
     2
 40
2.0
 49
1.0
 74
     0
 49
-1.0
 74
     0
  0
LTYPE
  5
22C
330
5
100
AcDbSymbolTableRecord
100
AcDbLinetypeTableRecord
  2
Center
 70
     0
  3

 72
    65
 73
     4
 40
1.5
 49
0.45
 74
     0
 49
-0.5
 74
     0
 49
0.05
 74
     0
 49
-0.5
 74
     0
  0
ENDTAB
  0
TABLE
  2
LAYER
  5
2
330
0
100
AcDbSymbolTable
 70
     7
  0
LAYER
  5
10
330
2
100
AcDbSymbolTableRecord
100
AcDbLayerTableRecord
  2
0
 70
     0
 62
     7
  6
Continuous
370
    -3
390
F
347
46
348
0
  0
LAYER
  5
72
330
2
100
AcDbSymbolTableRecord
100
AcDbLayerTableRecord
  2
AM_6
 70
     0
 62
    -2
  6
Continuous
370
    35
390
F
347
46
348
0
  0
LAYER
  5
9E
330
2
100
AcDbSymbolTableRecord
100
AcDbLayerTableRecord
  2
AM_9
 70
     0
 62
     6
  6
Dashed
370
    25
390
F
347
46
348
0
  0
LAYER
  5
CB
330
2
100
AcDbSymbolTableRecord
100
AcDbLayerTableRecord
  2
AM_4
 70
     0
 62
     7
  6
Continuous
370
    50
390
F
347
46
348
0
  0
LAYER
  5
FB
330
2
100
AcDbSymbolTableRecord
100
AcDbLayerTableRecord
  2
AM_5
 70
     0
 62
     3
  6
Continuous
370
    25
390
F
347
46
348
0
  0
LAYER
  5
22D
330
2
100
AcDbSymbolTableRecord
100
AcDbLayerTableRecord
  2
AM_7
 70
     0
 62
     7
  6
Center
370
    25
390
F
347
46
348
0
  0
LAYER
  5
243
330
2
100
AcDbSymbolTableRecord
100
AcDbLayerTableRecord
  2
ConnectionPoints
 70
     0
 62
     7
  6
Continuous
370
    50
390
F
347
46
348
0
  0
ENDTAB
  0
TABLE
  2
STYLE
  5
3
330
0
100
AcDbSymbolTable
 70
     1
  0
STYLE
  5
11
330
3
100
AcDbSymbolTableRecord
100
AcDbTextStyleTableRecord
  2
Standard
 70
     0
 40
0.0
 41
1.0
 50
0.0
 71
     0
 42
0.2
  3
txt
  4

  0
ENDTAB
  0
TABLE
  2
VIEW
  5
6
330
0
100
AcDbSymbolTable
 70
     0
  0
ENDTAB
  0
TABLE
  2
UCS
  5
7
330
0
100
AcDbSymbolTable
 70
     0
  0
ENDTAB
  0
TABLE
  2
APPID
  5
9
330
0
100
AcDbSymbolTable
 70
     1
  0
APPID
  5
12
330
9
100
AcDbSymbolTableRecord
100
AcDbRegAppTableRecord
  2
ACAD
 70
     0
  0
ENDTAB
  0
TABLE
  2
DIMSTYLE
  5
A
330
0
100
AcDbSymbolTable
 70
     1
100
AcDbDimStyleTable
  0
DIMSTYLE
105
27
330
A
100
AcDbSymbolTableRecord
100
AcDbDimStyleTableRecord
  2
Standard
 70
     0
178
     0
340
11
  0
ENDTAB
  0
TABLE
  2
BLOCK_RECORD
  5
1
330
0
100
AcDbSymbolTable
 70
     9
  0
BLOCK_RECORD
  5
1F
330
1
100
AcDbSymbolTableRecord
100
AcDbBlockTableRecord
  2
*Model_Space
340
22
 70
     0
280
     1
281
     0
  0
BLOCK_RECORD
  5
1B
330
1
100
AcDbSymbolTableRecord
100
AcDbBlockTableRecord
  2
*Paper_Space
340
1E
 70
     0
280
     1
281
     0
  0
BLOCK_RECORD
  5
23
330
1
100
AcDbSymbolTableRecord
100
AcDbBlockTableRecord
  2
*Paper_Space0
340
26
 70
     0
280
     1
281
     0
  0
BLOCK_RECORD
  5
6E
330
1
100
AcDbSymbolTableRecord
100
AcDbBlockTableRecord
  2
1_072322_4
340
0
102
{BLKREFS
331
6F
102
}
 70
     0
280
     1
281
     0
  0
BLOCK_RECORD
  5
91
330
1
100
AcDbSymbolTableRecord
100
AcDbBlockTableRecord
  2
2_405015E_Inch_1_0_in_072322_4
340
0
102
{BLKREFS
331
92
102
}
 70
     0
280
     1
281
     0
  0
BLOCK_RECORD
  5
A1
330
1
100
AcDbSymbolTableRecord
100
AcDbBlockTableRecord
  2
3_405015E_Inch_2_0_in_072322_4
340
0
102
{BLKREFS
331
A2
102
}
 70
     0
280
     1
281
     0
  0
BLOCK_RECORD
  5
EB
330
1
100
AcDbSymbolTableRecord
100
AcDbBlockTableRecord
  2
4_ASME_B18_3_10_1_0_in_072322_4
340
0
102
{BLKREFS
331
EC
102
}
 70
     0
280
     1
281
     0
  0
BLOCK_RECORD
  5
FF
330
1
100
AcDbSymbolTableRecord
100
AcDbBlockTableRecord
  2
5_ASME_B18_3_10_2_0_in_072322_4
340
0
102
{BLKREFS
331
100
102
}
 70
     0
280
     1
281
     0
  0
BLOCK_RECORD
  5
127
330
1
100
AcDbSymbolTableRecord
100
AcDbBlockTableRecord
  2
6_070896LW_0_in_072322_4
340
0
102
{BLKREFS
331
128
102
}
 70
     0
280
     1
281
     0
  0
BLOCK_RECORD
  5
15D
330
1
100
AcDbSymbolTableRecord
100
AcDbBlockTableRecord
  2
7_070896I_0_in_072322_4
340
0
102
{BLKREFS
331
15E
102
}
 70
     0
280
     1
281
     0
  0
BLOCK_RECORD
  5
1E0
330
1
100
AcDbSymbolTableRecord
100
AcDbBlockTableRecord
  2
8_B072322_0_in_072322_4
340
0
102
{BLKREFS
331
1E1
102
}
 70
     0
280
     1
281
     0
  0
ENDTAB
  0
ENDSEC
  0
SECTION
  2
BLOCKS
  0
BLOCK
  5
20
330
1F
100
AcDbEntity
  8
0
100
AcDbBlockBegin
  2
*Model_Space
 70
     0
 10
0.0
 20
0.0
 30
0.0
  3
*Model_Space
  1

  0
ENDBLK
  5
21
330
1F
100
AcDbEntity
  8
0
100
AcDbBlockEnd
  0
BLOCK
  5
1C
330
1B
100
AcDbEntity
 67
     1
  8
0
100
AcDbBlockBegin
  2
*Paper_Space
 70
     0
 10
0.0
 20
0.0
 30
0.0
  3
*Paper_Space
  1

  0
ENDBLK
  5
1D
330
1B
100
AcDbEntity
 67
     1
  8
0
100
AcDbBlockEnd
  0
BLOCK
  5
24
330
23
100
AcDbEntity
  8
0
100
AcDbBlockBegin
  2
*Paper_Space0
 70
     0
 10
0.0
 20
0.0
 30
0.0
  3
*Paper_Space0
  1

  0
ENDBLK
  5
25
330
23
100
AcDbEntity
  8
0
100
AcDbBlockEnd
  0
BLOCK
  5
70
330
6E
100
AcDbEntity
  8
0
100
AcDbBlockBegin
  2
1_072322_4
 70
     2
 10
0.0
 20
0.0
 30
0.0
  3
1_072322_4
  1

  0
ATTDEF
  5
73
330
6E
100
AcDbEntity
  8
AM_6
100
AcDbText
 10
8.815
 20
2.926
 30
0.0
 40
0.5
  1
Steel IMPERIAL-HD Piloted Flange 2-7/16 thru 5 Inch Bore
100
AcDbAttributeDefinition
  3

  2
NN
 70
     8
280
     0
  0
ATTDEF
  5
74
330
6E
100
AcDbEntity
  8
AM_6
100
AcDbText
 10
8.815
 20
2.426
 30
0.0
 40
0.5
  1
Steal Imperial Piloted Flange Bearing-Inch-207-500
100
AcDbAttributeDefinition
  3

  2
NT
 70
     8
280
     0
  0
ATTDEF
  5
75
330
6E
100
AcDbEntity
  8
AM_6
100
AcDbText
 10
8.815
 20
1.926
 30
0.0
 40
0.5
  1
072322
100
AcDbAttributeDefinition
  3

  2
NB
 70
     8
280
     0
  0
ATTDEF
  5
76
330
6E
100
AcDbEntity
  8
AM_6
100
AcDbText
 10
8.815
 20
1.426
 30
0.0
 40
0.5
  1
$PN.
100
AcDbAttributeDefinition
  3

  2
NBSYN
 70
     8
280
     0
  0
ATTDEF
  5
77
330
6E
100
AcDbEntity
  8
AM_6
100
AcDbText
 10
8.815
 20
0.9260000000000002
 30
0.0
 40
0.5
  1
072322
100
AcDbAttributeDefinition
  3

  2
LINA
 70
     8
280
     0
  0
ATTDEF
  5
78
330
6E
100
AcDbEntity
  8
AM_6
100
AcDbText
 10
8.815
 20
0.4260000000000002
 30
0.0
 40
0.5
  1
2-1/2
100
AcDbAttributeDefinition
  3

  2
SS
 70
     8
280
     0
  0
ATTDEF
  5
79
330
6E
100
AcDbEntity
  8
AM_6
100
AcDbText
 10
8.815
 20
-0.0739999999999998
 30
0.0
 40
0.5
  1
072322
100
AcDbAttributeDefinition
  3

  2
PN
 70
     8
280
     0
  0
ATTDEF
  5
7A
330
6E
100
AcDbEntity
  8
AM_6
100
AcDbText
 10
8.815
 20
-0.5739999999999998
 30
0.0
 40
0.5
  1
Expansion
100
AcDbAttributeDefinition
  3

  2
TYPE
 70
     8
280
     0
  0
ATTDEF
  5
7B
330
6E
100
AcDbEntity
  8
AM_6
100
AcDbText
 10
8.815
 20
-1.074
 30
0.0
 40
0.5
  1
Expansion
100
AcDbAttributeDefinition
  3

  2
EF
 70
     8
280
     0
  0
ATTDEF
  5
7C
330
6E
100
AcDbEntity
  8
AM_6
100
AcDbText
 10
8.815
 20
-1.574
 30
0.0
 40
0.5
  1
SFC-IP-208/RE
100
AcDbAttributeDefinition
  3

  2
DESCRIPTION
 70
     8
280
     0
  0
ATTDEF
  5
7D
330
6E
100
AcDbEntity
  8
AM_6
100
AcDbText
 10
8.815
 20
-2.074
 30
0.0
 40
0.5
  1
Contact Seal
100
AcDbAttributeDefinition
  3

  2
ST
 70
     8
280
     0
  0
ATTDEF
  5
7E
330
6E
100
AcDbEntity
  8
AM_6
100
AcDbText
 10
8.815
 20
-2.574
 30
0.0
 40
0.5
  1
3.43
100
AcDbAttributeDefinition
  3

  2
A
 70
     8
280
     0
  0
ATTDEF
  5
7F
330
6E
100
AcDbEntity
  8
AM_6
100
AcDbText
 10
8.815
 20
-3.074
 30
0.0
 40
0.5
  1
7.63
100
AcDbAttributeDefinition
  3

  2
B
 70
     8
280
     0
  0
ATTDEF
  5
80
330
6E
100
AcDbEntity
  8
AM_6
100
AcDbText
 10
8.815
 20
-3.574
 30
0.0
 40
0.5
  1
2.66
100
AcDbAttributeDefinition
  3

  2
C
 70
     8
280
     0
  0
ATTDEF
  5
81
330
6E
100
AcDbEntity
  8
AM_6
100
AcDbText
 10
8.815
 20
-4.074
 30
0.0
 40
0.5
  1
4.60
100
AcDbAttributeDefinition
  3

  2
D
 70
     8
280
     0
  0
ATTDEF
  5
82
330
6E
100
AcDbEntity
  8
AM_6
100
AcDbText
 10
8.815
 20
-4.574
 30
0.0
 40
0.5
  1
6.500
100
AcDbAttributeDefinition
  3

  2
DD
 70
     8
280
     0
  0
ATTDEF
  5
83
330
6E
100
AcDbEntity
  8
AM_6
100
AcDbText
 10
8.815
 20
-5.074
 30
0.0
 40
0.5
  1
1.25
100
AcDbAttributeDefinition
  3

  2
E
 70
     8
280
     0
  0
ATTDEF
  5
84
330
6E
100
AcDbEntity
  8
AM_6
100
AcDbText
 10
8.815
 20
-5.574
 30
0.0
 40
0.5
  1
0.500
100
AcDbAttributeDefinition
  3

  2
F
 70
     8
280
     0
  0
ATTDEF
  5
85
330
6E
100
AcDbEntity
  8
AM_6
100
AcDbText
 10
8.815
 20
-6.074
 30
0.0
 40
0.5
  1
1.86
100
AcDbAttributeDefinition
  3

  2
G
 70
     8
280
     0
  0
ATTDEF
  5
86
330
6E
100
AcDbEntity
  8
AM_6
100
AcDbText
 10
8.815
 20
-6.574
 30
0.0
 40
0.5
  1
0.50
100
AcDbAttributeDefinition
  3

  2
H
 70
     8
280
     0
  0
ATTDEF
  5
87
330
6E
100
AcDbEntity
  8
AM_6
100
AcDbText
 10
8.815
 20
-7.074
 30
0.0
 40
0.5
  1
5.500
100
AcDbAttributeDefinition
  3

  2
K
 70
     8
280
     0
  0
ATTDEF
  5
88
330
6E
100
AcDbEntity
  8
AM_6
100
AcDbText
 10
8.815
 20
-7.574
 30
0.0
 40
0.5
  1
3.80
100
AcDbAttributeDefinition
  3

  2
L
 70
     8
280
     0
  0
ATTDEF
  5
89
330
6E
100
AcDbEntity
  8
AM_6
100
AcDbText
 10
8.815
 20
-8.074
 30
0.0
 40
0.5
  1
0.500
100
AcDbAttributeDefinition
  3

  2
M
 70
     8
280
     0
  0
ATTDEF
  5
8A
330
6E
100
AcDbEntity
  8
AM_6
100
AcDbText
 10
8.815
 20
-8.574
 30
0.0
 40
0.5
  1
3.61
100
AcDbAttributeDefinition
  3

  2
N
 70
     8
280
     0
  0
ATTDEF
  5
8B
330
6E
100
AcDbEntity
  8
AM_6
100
AcDbText
 10
8.815
 20
-9.074
 30
0.0
 40
0.5
  1
1.55
100
AcDbAttributeDefinition
  3

  2
P
 70
     8
280
     0
  0
ATTDEF
  5
8C
330
6E
100
AcDbEntity
  8
AM_6
100
AcDbText
 10
8.815
 20
-9.574
 30
0.0
 40
0.5
  1
1.75
100
AcDbAttributeDefinition
  3

  2
Q
 70
     8
280
     0
  0
ATTDEF
  5
8D
330
6E
100
AcDbEntity
  8
AM_6
100
AcDbText
 10
8.815
 20
-10.074
 30
0.0
 40
0.5
  1
0.25
100
AcDbAttributeDefinition
  3

  2
X
 70
     8
280
     0
  0
ATTDEF
  5
8E
330
6E
100
AcDbEntity
  8
AM_6
100
AcDbText
 10
8.815
 20
-10.574
 30
0.0
 40
0.5
  1
0.025
100
AcDbAttributeDefinition
  3

  2
Y
 70
     8
280
     0
  0
ATTDEF
  5
8F
330
6E
100
AcDbEntity
  8
AM_6
100
AcDbText
 10
8.815
 20
-11.074
 30
0.0
 40
0.5
  1
2.94
100
AcDbAttributeDefinition
  3

  2
Z
 70
     8
280
     0
  0
ATTDEF
  5
90
330
6E
100
AcDbEntity
  8
AM_6
100
AcDbText
 10
8.815
 20
-11.574
 30
0.0
 40
0.5
  1
baldor
100
AcDbAttributeDefinition
  3

  2
COMPANY
 70
     8
280
     0
  0
INSERT
  5
92
330
6E
100
AcDbEntity
  8
0
100
AcDbBlockReference
  2
2_405015E_Inch_1_0_in_072322_4
 10
0.0
 20
0.0
 30
0.0
  0
INSERT
  5
A2
330
6E
100
AcDbEntity
  8
0
100
AcDbBlockReference
  2
3_405015E_Inch_2_0_in_072322_4
 10
0.0
 20
0.0
 30
0.0
  0
INSERT
  5
EC
330
6E
100
AcDbEntity
  8
0
100
AcDbBlockReference
  2
4_ASME_B18_3_10_1_0_in_072322_4
 10
0.0
 20
0.0
 30
0.0
  0
INSERT
  5
100
330
6E
100
AcDbEntity
  8
0
100
AcDbBlockReference
  2
5_ASME_B18_3_10_2_0_in_072322_4
 10
0.0
 20
0.0
 30
0.0
  0
INSERT
  5
128
330
6E
100
AcDbEntity
  8
0
100
AcDbBlockReference
  2
6_070896LW_0_in_072322_4
 10
0.0
 20
0.0
 30
0.0
  0
INSERT
  5
15E
330
6E
100
AcDbEntity
  8
0
100
AcDbBlockReference
  2
7_070896I_0_in_072322_4
 10
0.0
 20
0.0
 30
0.0
  0
INSERT
  5
1E1
330
6E
100
AcDbEntity
  8
0
100
AcDbBlockReference
  2
8_B072322_0_in_072322_4
 10
0.0
 20
0.0
 30
0.0
  0
ENDBLK
  5
71
330
6E
100
AcDbEntity
  8
0
100
AcDbBlockEnd
  0
BLOCK
  5
93
330
91
100
AcDbEntity
  8
0
100
AcDbBlockBegin
  2
2_405015E_Inch_1_0_in_072322_4
 70
     2
 10
0.0
 20
0.0
 30
0.0
  3
2_405015E_Inch_1_0_in_072322_4
  1

  0
ATTDEF
  5
95
330
91
100
AcDbEntity
  8
AM_6
100
AcDbText
 10
5.21875
 20
-0.7037543731415606
 30
0.0
 40
0.5
  1
405015E -Inch
100
AcDbAttributeDefinition
  3

  2
NN
 70
     8
280
     0
  0
ATTDEF
  5
96
330
91
100
AcDbEntity
  8
AM_6
100
AcDbText
 10
5.21875
 20
-1.203754373141561
 30
0.0
 40
0.5
  1
Grease Fitting
100
AcDbAttributeDefinition
  3

  2
NT
 70
     8
280
     0
  0
ATTDEF
  5
97
330
91
100
AcDbEntity
  8
AM_6
100
AcDbText
 10
5.21875
 20
-1.703754373141561
 30
0.0
 40
0.5
  1
405015E-Inch
100
AcDbAttributeDefinition
  3

  2
NB
 70
     8
280
     0
  0
ATTDEF
  5
98
330
91
100
AcDbEntity
  8
AM_6
100
AcDbText
 10
5.21875
 20
-2.203754373141561
 30
0.0
 40
0.5
  1
$MN.-Inch
100
AcDbAttributeDefinition
  3

  2
NBSYN
 70
     8
280
     0
  0
ATTDEF
  5
99
330
91
100
AcDbEntity
  8
AM_6
100
AcDbText
 10
5.21875
 20
-2.703754373141561
 30
0.0
 40
0.5
  1
405015E
100
AcDbAttributeDefinition
  3

  2
LINA
 70
     8
280
     0
  0
ATTDEF
  5
9A
330
91
100
AcDbEntity
  8
AM_6
100
AcDbText
 10
5.21875
 20
-3.203754373141561
 30
0.0
 40
0.5
  1
405015E
100
AcDbAttributeDefinition
  3

  2
MN
 70
     8
280
     0
  0
ATTDEF
  5
9B
330
91
100
AcDbEntity
  8
AM_6
100
AcDbText
 10
5.21875
 20
-3.703754373141561
 30
0.0
 40
0.5
  1
1/8 x 27PTF
100
AcDbAttributeDefinition
  3

  2
T
 70
     8
280
     0
  0
ATTDEF
  5
9C
330
91
100
AcDbEntity
  8
AM_6
100
AcDbText
 10
5.21875
 20
-4.20375437314156
 30
0.0
 40
0.5
  1
baldor
100
AcDbAttributeDefinition
  3

  2
COMPANY
 70
     8
280
     0
  0
LINE
  5
9F
330
91
100
AcDbEntity
  8
AM_9
100
AcDbLine
 10
0.21875
 20
-0.7050000000000005
 30
0.0
 11
0.21875
 21
-0.7037545197229698
 31
0.0
  0
LINE
  5
A0
330
91
100
AcDbEntity
  8
AM_9
100
AcDbLine
 10
-0.21875
 20
-0.7037543731415606
 30
0.0
 11
-0.21875
 21
-0.7050000000000005
 31
0.0
  0
ENDBLK
  5
94
330
91
100
AcDbEntity
  8
0
100
AcDbBlockEnd
  0
BLOCK
  5
A3
330
A1
100
AcDbEntity
  8
0
100
AcDbBlockBegin
  2
3_405015E_Inch_2_0_in_072322_4
 70
     2
 10
0.0
 20
0.0
 30
0.0
  3
3_405015E_Inch_2_0_in_072322_4
  1

  0
ATTDEF
  5
A5
330
A1
100
AcDbEntity
  8
AM_6
100
AcDbText
 10
5.21875
 20
-0.3957736498819274
 30
0.0
 40
0.5
  1
405015E -Inch
100
AcDbAttributeDefinition
  3

  2
NN
 70
     8
280
     0
  0
ATTDEF
  5
A6
330
A1
100
AcDbEntity
  8
AM_6
100
AcDbText
 10
5.21875
 20
-0.8957736498819274
 30
0.0
 40
0.5
  1
Grease Fitting
100
AcDbAttributeDefinition
  3

  2
NT
 70
     8
280
     0
  0
ATTDEF
  5
A7
330
A1
100
AcDbEntity
  8
AM_6
100
AcDbText
 10
5.21875
 20
-1.395773649881928
 30
0.0
 40
0.5
  1
405015E-Inch
100
AcDbAttributeDefinition
  3

  2
NB
 70
     8
280
     0
  0
ATTDEF
  5
A8
330
A1
100
AcDbEntity
  8
AM_6
100
AcDbText
 10
5.21875
 20
-1.895773649881928
 30
0.0
 40
0.5
  1
$MN.-Inch
100
AcDbAttributeDefinition
  3

  2
NBSYN
 70
     8
280
     0
  0
ATTDEF
  5
A9
330
A1
100
AcDbEntity
  8
AM_6
100
AcDbText
 10
5.21875
 20
-2.395773649881928
 30
0.0
 40
0.5
  1
405015E
100
AcDbAttributeDefinition
  3

  2
LINA
 70
     8
280
     0
  0
ATTDEF
  5
AA
330
A1
100
AcDbEntity
  8
AM_6
100
AcDbText
 10
5.21875
 20
-2.895773649881928
 30
0.0
 40
0.5
  1
405015E
100
AcDbAttributeDefinition
  3

  2
MN
 70
     8
280
     0
  0
ATTDEF
  5
AB
330
A1
100
AcDbEntity
  8
AM_6
100
AcDbText
 10
5.21875
 20
-3.395773649881928
 30
0.0
 40
0.5
  1
1/8 x 27PTF
100
AcDbAttributeDefinition
  3

  2
T
 70
     8
280
     0
  0
ATTDEF
  5
AC
330
A1
100
AcDbEntity
  8
AM_6
100
AcDbText
 10
5.21875
 20
-3.895773649881928
 30
0.0
 40
0.5
  1
baldor
100
AcDbAttributeDefinition
  3

  2
COMPANY
 70
     8
280
     0
  0
LWPOLYLINE
  5
AD
330
A1
100
AcDbEntity
  8
AM_9
100
AcDbPolyline
 90
        4
 70
     0
 43
0.0
 10
0.109375
 20
-0.8182235033599717
 10
0.08203125
 20
-0.8281457869719447
 10
0.0546875
 20
-0.8390129703981538
 10
0.0
 20
-0.8632345816978075
  0
LWPOLYLINE
  5
AE
330
A1
100
AcDbEntity
  8
AM_9
100
AcDbPolyline
 90
        4
 70
     0
 43
0.0
 10
0.0
 20
-0.8632345816978075
 10
-0.0544416102741496
 20
-0.8391147698711704
 10
-0.0818700010907651
 20
-0.8282071585873569
 10
-0.109375
 20
-0.8182235033599717
  0
LWPOLYLINE
  5
AF
330
A1
100
AcDbEntity
  8
AM_9
100
AcDbPolyline
 90
        4
 70
     0
 43
0.0
 10
0.0
 20
-0.9288693469735072
 10
0.0544416102741496
 20
-0.9154176854665217
 10
0.0818700010907651
 20
-0.9073963001802253
 10
0.1093749999999999
 20
-0.8983980897380286
  0
LWPOLYLINE
  5
B0
330
A1
100
AcDbEntity
  8
AM_9
100
AcDbPolyline
 90
        4
 70
     0
 43
0.0
 10
-0.109375
 20
-0.8983980897380286
 10
-0.08203125
 20
-0.9073463900193842
 10
-0.0546875
 20
-0.9153497904865038
 10
0.0
 20
-0.9288693469735072
  0
LWPOLYLINE
  5
B1
330
A1
100
AcDbEntity
  8
AM_9
100
AcDbPolyline
 90
        4
 70
     0
 43
0.0
 10
-0.109375
 20
-0.8182235033599717
 10
-0.1367187499999999
 20
-0.8092752030786161
 10
-0.1640625
 20
-0.8012718026114966
 10
-0.21875
 20
-0.787752246124493
  0
LINE
  5
B2
330
A1
100
AcDbEntity
  8
AM_9
100
AcDbLine
 10
0.0
 20
-0.9288693469735072
 30
0.0
 11
0.0
 21
-0.8632345816978075
 31
0.0
  0
LWPOLYLINE
  5
B3
330
A1
100
AcDbEntity
  8
AM_9
100
AcDbPolyline
 90
        4
 70
     0
 43
0.0
 10
0.21875
 20
-0.7877522461244931
 10
0.1643083897258504
 20
-0.8012039076314785
 10
0.1368799989092349
 20
-0.809225292917775
 10
0.109375
 20
-0.8182235033599717
  0
LINE
  5
B4
330
A1
100
AcDbEntity
  8
AM_9
100
AcDbLine
 10
-0.1079174063032668
 20
-0.4204044089187845
 30
0.0
 11
-0.1323898631385329
 21
-0.4334827073766019
 31
0.0
  0
LINE
  5
B5
330
A1
100
AcDbEntity
  8
AM_9
100
AcDbLine
 10
0.1323898631385329
 20
-0.4334827073766019
 30
0.0
 11
0.1079174063032668
 21
-0.4204044089187845
 31
0.0
  0
LINE
  5
B6
330
A1
100
AcDbEntity
  8
AM_9
100
AcDbLine
 10
0.109375
 20
-0.8983980897380286
 30
0.0
 11
0.1151085184739701
 21
-0.8963981522289053
 31
0.0
  0
LINE
  5
B7
330
A1
100
AcDbEntity
  8
AM_9
100
AcDbLine
 10
-0.11510820168959
 20
-0.8963982639163266
 30
0.0
 11
-0.109375
 21
-0.8983980897380286
 31
0.0
  0
LINE
  5
B8
330
A1
100
AcDbEntity
  8
AM_9
100
AcDbLine
 10
-0.1985637213511628
 20
-0.5192077808987597
 30
0.0
 11
-0.2056960555302466
 21
-0.7021351978375342
 31
0.0
  0
LINE
  5
B9
330
A1
100
AcDbEntity
  8
AM_9
100
AcDbLine
 10
0.2056960555302466
 20
-0.7021351978375342
 30
0.0
 11
0.1985637213511628
 21
-0.5192077808987597
 31
0.0
  0
LINE
  5
BA
330
A1
100
AcDbEntity
  8
AM_9
100
AcDbLine
 10
0.0994972486018526
 20
-0.8894068494686299
 30
0.0
 11
0.104501382536949
 21
-0.8805360204051842
 31
0.0
  0
LINE
  5
BB
330
A1
100
AcDbEntity
  8
AM_9
100
AcDbLine
 10
-0.1045013825369489
 20
-0.8805360204051843
 30
0.0
 11
-0.0994972486018526
 21
-0.8894068494686299
 31
0.0
  0
ELLIPSE
  5
BC
330
A1
100
AcDbEntity
  8
AM_9
100
AcDbEllipse
 10
-0.0000000000000001
 20
-0.8693579020750172
 30
0.0
 11
-0.1049999999999999
 21
1.285879139104719E-17
 31
0.0
210
0.0
220
0.0
230
1.0
 40
0.5976650984545971
 41
0.0
 42
3.141592653589793
  0
LINE
  5
BD
330
A1
100
AcDbEntity
  8
AM_9
100
AcDbLine
 10
-0.105
 20
-0.8812779360724323
 30
0.0
 11
-0.105
 21
-0.8934102779884336
 31
0.0
  0
LINE
  5
BE
330
A1
100
AcDbEntity
  8
AM_9
100
AcDbLine
 10
0.105
 20
-0.8934102779884336
 30
0.0
 11
0.105
 21
-0.8812779360724323
 31
0.0
  0
ELLIPSE
  5
BF
330
A1
100
AcDbEntity
  8
AM_9
100
AcDbEllipse
 10
0.0000000000000001
 20
-0.8934102779884336
 30
0.0
 11
-0.1050000000000001
 21
1.285879139104722E-17
 31
0.0
210
0.0
220
0.0
230
1.0
 40
0.5976650984546011
 41
5.901238956514865
 42
9.8067243114341
  0
ELLIPSE
  5
C0
330
A1
100
AcDbEntity
  8
AM_9
100
AcDbEllipse
 10
-0.0000000000008292
 20
-0.785174586375695
 30
0.0
 11
-0.2187500000016232
 21
2.678914873154714E-17
 31
0.0
210
0.0
220
0.0
230
1.0
 40
0.597665098460609
 41
1.016570452410388
 42
2.125022201185852
  0
ELLIPSE
  5
C1
330
A1
100
AcDbEntity
  8
AM_9
100
AcDbEllipse
 10
0.0000000000000008
 20
-0.8435041007128744
 30
0.0
 11
-0.1188200907348952
 21
1.455126437928875E-17
 31
0.0
210
0.0
220
0.0
230
1.0
 40
0.597665098454595
 41
0.3251812259128215
 42
2.816411427676968
  0
LINE
  5
C2
330
A1
100
AcDbEntity
  8
AM_9
100
AcDbLine
 10
0.0804930467500447
 20
-0.8957411360109618
 30
0.0
 11
0.105
 21
-0.882251974382529
 31
0.0
  0
LINE
  5
C3
330
A1
100
AcDbEntity
  8
AM_9
100
AcDbLine
 10
-0.105
 20
-0.8822519743825292
 30
0.0
 11
-0.0804930467500447
 21
-0.8957411360109618
 31
0.0
  0
ELLIPSE
  5
C4
330
A1
100
AcDbEntity
  8
AM_9
100
AcDbEllipse
 10
0.0000000000000013
 20
-0.7998611262901185
 30
0.0
 11
-0.1725340532830192
 21
2.112932760969683E-17
 31
0.0
210
0.0
220
0.0
230
1.0
 40
0.5976650984546003
 41
0.8265245337122069
 42
2.315068119877575
  0
ELLIPSE
  5
C5
330
A1
100
AcDbEntity
  8
AM_9
100
AcDbEllipse
 10
-0.0000000000000012
 20
-0.7851745863780623
 30
0.0
 11
-0.2137499999999955
 21
2.617682533177412E-17
 31
0.0
210
0.0
220
0.0
230
1.0
 40
0.59766509845459
 41
1.012498719510683
 42
2.129093934079119
  0
ELLIPSE
  5
C6
330
A1
100
AcDbEntity
  8
AM_9
100
AcDbEllipse
 10
-0.0000000000000002
 20
-0.9415150298152687
 30
0.0
 11
-0.1350000000000003
 21
1.653273178848931E-17
 31
0.0
210
0.0
220
0.0
230
1.0
 40
0.5976650984545947
 41
0.3059332128280925
 42
2.835659440761703
  0
ELLIPSE
  5
C7
330
A1
100
AcDbEntity
  8
AM_9
100
AcDbEllipse
 10
0.0
 20
-0.4925373460981491
 30
0.0
 11
-0.161902872472269
 21
1.982738345459264E-17
 31
0.0
210
0.0
220
0.0
230
1.0
 40
0.597665098454603
 41
0.0
 42
6.283185307179586
  0
ELLIPSE
  5
C8
330
A1
100
AcDbEntity
  8
AM_9
100
AcDbEllipse
 10
0.0
 20
-0.7049999999999992
 30
0.0
 11
-0.218749999999998
 21
3.259629037943293E-9
 31
0.0
210
0.0
220
0.0
230
1.0
 40
0.5976650984546044
 41
0.0
 42
6.283185307179586
  0
ELLIPSE
  5
C9
330
A1
100
AcDbEntity
  8
AM_9
100
AcDbEllipse
 10
0.0000000000000005
 20
-0.7050000000000005
 30
0.0
 11
-0.2057518972230692
 21
2.519734023527268E-17
 31
0.0
210
0.0
220
0.0
230
1.0
 40
0.597665098454602
 41
0.0
 42
6.283185307179586
  0
ELLIPSE
  5
CA
330
A1
100
AcDbEntity
  8
AM_9
100
AcDbEllipse
 10
-0.0000000000000001
 20
-0.5219732485050671
 30
0.0
 11
-0.1986176267812153
 21
2.432364408918589E-17
 31
0.0
210
0.0
220
0.0
230
1.0
 40
0.5976650984546017
 41
0.0
 42
6.283185307179586
  0
LWPOLYLINE
  5
CC
330
A1
100
AcDbEntity
  8
AM_4
100
AcDbPolyline
 90
        4
 70
     0
 43
0.0
 10
0.1151085184739701
 20
-0.8963981522289053
 10
0.1367187499999999
 20
-0.8884758061260556
 10
0.1640625
 20
-0.8776086226998466
 10
0.21875
 20
-0.8533870114001928
  0
LWPOLYLINE
  5
CD
330
A1
100
AcDbEntity
  8
AM_4
100
AcDbPolyline
 90
        4
 70
     0
 43
0.0
 10
-0.21875
 20
-0.8533870114001928
 10
-0.1643083897258504
 20
-0.8775068232268297
 10
-0.1368799989092349
 20
-0.8884144345106433
 10
-0.11510820168959
 20
-0.8963982639163266
  0
LINE
  5
CE
330
A1
100
AcDbEntity
  8
AM_4
100
AcDbLine
 10
0.105
 20
-0.8796521211450637
 30
0.0
 11
0.1125930676832836
 21
-0.8661918887933323
 31
0.0
  0
LINE
  5
CF
330
A1
100
AcDbEntity
  8
AM_4
100
AcDbLine
 10
-0.1125930676832836
 20
-0.8661918887933323
 30
0.0
 11
-0.105
 21
-0.879652121145064
 31
0.0
  0
ELLIPSE
  5
D0
330
A1
100
AcDbEntity
  8
AM_4
100
AcDbEllipse
 10
0.0
 20
-0.843504100712872
 30
0.0
 11
-0.1188200907348975
 21
1.455126437928903E-17
 31
0.0
210
0.0
220
0.0
230
1.0
 40
0.5976650984546004
 41
2.816411427676939
 42
6.608366533092439
  0
LINE
  5
D1
330
A1
100
AcDbEntity
  8
AM_4
100
AcDbLine
 10
-0.105
 20
-0.8693579020750165
 30
0.0
 11
-0.105
 21
-0.8812779360724323
 31
0.0
  0
LINE
  5
D2
330
A1
100
AcDbEntity
  8
AM_4
100
AcDbLine
 10
0.105
 20
-0.8812779360724323
 30
0.0
 11
0.105
 21
-0.8693579020750165
 31
0.0
  0
ELLIPSE
  5
D3
330
A1
100
AcDbEntity
  8
AM_4
100
AcDbEllipse
 10
0.0
 20
-0.8693579020750163
 30
0.0
 11
-0.1050000000000001
 21
1.285879139104722E-17
 31
0.0
210
0.0
220
0.0
230
1.0
 40
0.5976650984546011
 41
3.141592653589793
 42
6.283185307179586
  0
ELLIPSE
  5
D4
330
A1
100
AcDbEntity
  8
AM_4
100
AcDbEllipse
 10
-0.0000000000000002
 20
-0.785174586378058
 30
0.0
 11
-0.2187500000000003
 21
2.678914873134838E-17
 31
0.0
210
0.0
220
0.0
230
1.0
 40
0.5976650984545991
 41
2.125022201187641
 42
7.29975575958174
  0
LINE
  5
D5
330
A1
100
AcDbEntity
  8
AM_4
100
AcDbLine
 10
0.1054778521758951
 20
-0.881988954121732
 30
0.0
 11
0.1168808366580855
 21
-0.8757125027343259
 31
0.0
  0
LINE
  5
D6
330
A1
100
AcDbEntity
  8
AM_4
100
AcDbLine
 10
-0.1168808366580855
 20
-0.8757125027343259
 30
0.0
 11
-0.105477852175895
 21
-0.881988954121732
 31
0.0
  0
ELLIPSE
  5
D7
330
A1
100
AcDbEntity
  8
AM_4
100
AcDbEllipse
 10
0.0
 20
-0.7998611262901203
 30
0.0
 11
-0.1725340532830155
 21
2.112932760969638E-17
 31
0.0
210
0.0
220
0.0
230
1.0
 40
0.5976650984546008
 41
2.315068119877592
 42
7.109709840891787
  0
ELLIPSE
  5
D8
330
A1
100
AcDbEntity
  8
AM_4
100
AcDbEllipse
 10
0.0
 20
-0.7851745863780568
 30
0.0
 11
-0.2137499999999999
 21
2.617682533177466E-17
 31
0.0
210
0.0
220
0.0
230
1.0
 40
0.5976650984546028
 41
2.129093934079101
 42
7.295684026690277
  0
LINE
  5
D9
330
A1
100
AcDbEntity
  8
AM_4
100
AcDbLine
 10
-0.21875
 20
-0.8533870114001928
 30
0.0
 11
-0.21875
 21
-0.6367875749778641
 31
0.0
  0
LWPOLYLINE
  5
DA
330
A1
100
AcDbEntity
  8
AM_4
100
AcDbPolyline
 90
        4
 70
     0
 43
0.0
 10
-0.109375
 20
-0.6719510830180851
 10
-0.13671875
 20
-0.6808993832994407
 10
-0.1640625
 20
-0.6889027837665603
 10
-0.21875
 20
-0.7024223402535638
  0
LWPOLYLINE
  5
DB
330
A1
100
AcDbEntity
  8
AM_4
100
AcDbPolyline
 90
        4
 70
     0
 43
0.0
 10
-0.109375
 20
-0.5917764966400283
 10
-0.08203125
 20
-0.5828281963586727
 10
-0.0546875
 20
-0.574824795891553
 10
0.0
 20
-0.5613052394045496
  0
LWPOLYLINE
  5
DC
330
A1
100
AcDbEntity
  8
AM_4
100
AcDbPolyline
 90
        4
 70
     0
 43
0.0
 10
-0.21875
 20
-0.6367875749778641
 10
-0.1643083897258504
 20
-0.6126677631512271
 10
-0.1368799989092349
 20
-0.6017601518674134
 10
-0.109375
 20
-0.5917764966400283
  0
LINE
  5
DD
330
A1
100
AcDbEntity
  8
AM_4
100
AcDbLine
 10
0.0
 20
-0.6269400046802494
 30
0.0
 11
0.0
 21
-0.5613052394045496
 31
0.0
  0
LWPOLYLINE
  5
DE
330
A1
100
AcDbEntity
  8
AM_4
100
AcDbPolyline
 90
        4
 70
     0
 43
0.0
 10
0.21875
 20
-0.7024223402535638
 10
0.1643083897258504
 20
-0.6889706787465781
 10
0.1368799989092348
 20
-0.6809492934602817
 10
0.1093749999999999
 20
-0.6719510830180851
  0
LINE
  5
DF
330
A1
100
AcDbEntity
  8
AM_4
100
AcDbLine
 10
0.21875
 20
-0.8533870114001928
 30
0.0
 11
0.21875
 21
-0.6367875749778641
 31
0.0
  0
LWPOLYLINE
  5
E0
330
A1
100
AcDbEntity
  8
AM_4
100
AcDbPolyline
 90
        4
 70
     0
 43
0.0
 10
0.109375
 20
-0.5917764966400283
 10
0.1367187499999999
 20
-0.6016987802520013
 10
0.1640625
 20
-0.6125659636782103
 10
0.21875
 20
-0.6367875749778641
  0
LWPOLYLINE
  5
E1
330
A1
100
AcDbEntity
  8
AM_4
100
AcDbPolyline
 90
        4
 70
     0
 43
0.0
 10
0.0
 20
-0.5613052394045496
 10
0.0544416102741496
 20
-0.5747569009115351
 10
0.0818700010907651
 20
-0.5827782861978316
 10
0.109375
 20
-0.5917764966400283
  0
LWPOLYLINE
  5
E2
330
A1
100
AcDbEntity
  8
AM_4
100
AcDbPolyline
 90
        4
 70
     0
 43
0.0
 10
0.1093749999999999
 20
-0.6719510830180851
 10
0.0820312499999999
 20
-0.6620287994061121
 10
0.0546874999999999
 20
-0.6511616159799031
 10
0.0
 20
-0.6269400046802494
  0
LWPOLYLINE
  5
E3
330
A1
100
AcDbEntity
  8
AM_4
100
AcDbPolyline
 90
        4
 70
     0
 43
0.0
 10
0.0
 20
-0.6269400046802494
 10
-0.0544416102741496
 20
-0.6510598165068863
 10
-0.0818700010907651
 20
-0.6619674277906998
 10
-0.109375
 20
-0.6719510830180851
  0
LINE
  5
E4
330
A1
100
AcDbEntity
  8
AM_4
100
AcDbLine
 10
-0.09743379824949
 20
-0.8700198393625513
 30
0.0
 11
-0.1252720263207729
 21
-0.9114416087248476
 31
0.0
  0
LINE
  5
E5
330
A1
100
AcDbEntity
  8
AM_4
100
AcDbLine
 10
0.1252720263207729
 20
-0.9114416087248476
 30
0.0
 11
0.09743379824949
 21
-0.8700198393625513
 31
0.0
  0
ELLIPSE
  5
E6
330
A1
100
AcDbEntity
  8
AM_4
100
AcDbEllipse
 10
0.0
 20
-0.9415150298152678
 30
0.0
 11
-0.1349999999999999
 21
1.653273178848926E-17
 31
0.0
210
0.0
220
0.0
230
1.0
 40
0.597665098454608
 41
2.835659440761698
 42
6.589118520007682
  0
ELLIPSE
  5
E7
330
A1
100
AcDbEntity
  8
AM_4
100
AcDbEllipse
 10
0.0
 20
-0.8934102779884336
 30
0.0
 11
-0.105
 21
1.285879139104721E-17
 31
0.0
210
0.0
220
0.0
230
1.0
 40
0.5976650984546039
 41
3.523539004254513
 42
5.901238956514866
  0
LINE
  5
E8
330
A1
100
AcDbEntity
  8
AM_4
100
AcDbLine
 10
0.097910187019615
 20
-1.024137407034074
 30
0.0
 11
0.1287314504755746
 21
-0.9658159314574953
 31
0.0
  0
LINE
  5
E9
330
A1
100
AcDbEntity
  8
AM_4
100
AcDbLine
 10
-0.1287314504755746
 20
-0.9658159314574953
 30
0.0
 11
-0.097910187019615
 21
-1.024137407034074
 31
0.0
  0
ELLIPSE
  5
EA
330
A1
100
AcDbEntity
  8
AM_4
100
AcDbEllipse
 10
0.0000000000000007
 20
-1.005654698917714
 30
0.0
 11
-0.1026779019331865
 21
1.257441639456426E-17
 31
0.0
210
0.0
220
0.0
230
1.0
 40
0.5976650984545998
 41
0.0
 42
6.283185307179586
  0
ENDBLK
  5
A4
330
A1
100
AcDbEntity
  8
0
100
AcDbBlockEnd
  0
BLOCK
  5
ED
330
EB
100
AcDbEntity
  8
0
100
AcDbBlockBegin
  2
4_ASME_B18_3_10_1_0_in_072322_4
 70
     2
 10
0.0
 20
0.0
 30
0.0
  3
4_ASME_B18_3_10_1_0_in_072322_4
  1

  0
ATTDEF
  5
EF
330
EB
100
AcDbEntity
  8
AM_6
100
AcDbText
 10
5.095
 20
-0.7089996666666664
 30
0.0
 40
0.5
  1
ANSI/ASME-B18.3-1998
100
AcDbAttributeDefinition
  3

  2
NN
 70
     8
280
     0
  0
ATTDEF
  5
F0
330
EB
100
AcDbEntity
  8
AM_6
100
AcDbText
 10
5.095
 20
-1.208999666666666
 30
0.0
 40
0.5
  1
Socket Button Head Cap Screws
100
AcDbAttributeDefinition
  3

  2
NT
 70
     8
280
     0
  0
ATTDEF
  5
F1
330
EB
100
AcDbEntity
  8
AM_6
100
AcDbText
 10
5.095
 20
-1.708999666666666
 30
0.0
 40
0.5
  1
ASME-B18.3-10
100
AcDbAttributeDefinition
  3

  2
NB
 70
     8
280
     0
  0
ATTDEF
  5
F2
330
EB
100
AcDbEntity
  8
AM_6
100
AcDbText
 10
5.095
 20
-2.208999666666666
 30
0.0
 40
0.5
  1
ASME-B18.3-$NS.
100
AcDbAttributeDefinition
  3

  2
NBSYN
 70
     8
280
     0
  0
ATTDEF
  5
F3
330
EB
100
AcDbEntity
  8
AM_6
100
AcDbText
 10
5.095
 20
-2.708999666666666
 30
0.0
 40
0.5
  1
ASME-B18.3-10
100
AcDbAttributeDefinition
  3

  2
LINA
 70
     8
280
     0
  0
ATTDEF
  5
F4
330
EB
100
AcDbEntity
  8
AM_6
100
AcDbText
 10
5.095
 20
-3.208999666666666
 30
0.0
 40
0.5
  1
10
100
AcDbAttributeDefinition
  3

  2
NS
 70
     8
280
     0
  0
ATTDEF
  5
F5
330
EB
100
AcDbEntity
  8
AM_6
100
AcDbText
 10
5.095
 20
-3.708999666666666
 30
0.0
 40
0.5
  1
0.361
100
AcDbAttributeDefinition
  3

  2
A
 70
     8
280
     0
  0
ATTDEF
  5
F6
330
EB
100
AcDbEntity
  8
AM_6
100
AcDbText
 10
5.095
 20
-4.208999666666666
 30
0.0
 40
0.5
  1
0.101
100
AcDbAttributeDefinition
  3

  2
H
 70
     8
280
     0
  0
ATTDEF
  5
F7
330
EB
100
AcDbEntity
  8
AM_6
100
AcDbText
 10
5.095
 20
-4.708999666666666
 30
0.0
 40
0.5
  1
0.800
100
AcDbAttributeDefinition
  3

  2
L
 70
     8
280
     0
  0
ATTDEF
  5
F8
330
EB
100
AcDbEntity
  8
AM_6
100
AcDbText
 10
5.095
 20
-5.208999666666666
 30
0.0
 40
0.5
  1
0.020
100
AcDbAttributeDefinition
  3

  2
S
 70
     8
280
     0
  0
ATTDEF
  5
F9
330
EB
100
AcDbEntity
  8
AM_6
100
AcDbText
 10
5.095
 20
-5.708999666666666
 30
0.0
 40
0.5
  1
0.125000
100
AcDbAttributeDefinition
  3

  2
J
 70
     8
280
     0
  0
ATTDEF
  5
FA
330
EB
100
AcDbEntity
  8
AM_6
100
AcDbText
 10
5.095
 20
-6.208999666666666
 30
0.0
 40
0.5
  1
baldor
100
AcDbAttributeDefinition
  3

  2
COMPANY
 70
     8
280
     0
  0
LINE
  5
FC
330
EB
100
AcDbEntity
  8
AM_5
100
AcDbLine
 10
0.0702
 20
-0.7089996666666664
 30
0.0
 11
0.0702
 21
-1.609999666666667
 31
0.0
  0
LINE
  5
FD
330
EB
100
AcDbEntity
  8
AM_5
100
AcDbLine
 10
-0.0702
 20
-0.7089996666666668
 30
0.0
 11
-0.0702
 21
-1.609999666666667
 31
0.0
  0
LINE
  5
FE
330
EB
100
AcDbEntity
  8
AM_5
100
AcDbLine
 10
0.095
 20
-1.808999666666667
 30
0.0
 11
-0.095
 21
-1.808999666666667
 31
0.0
  0
ENDBLK
  5
EE
330
EB
100
AcDbEntity
  8
0
100
AcDbBlockEnd
  0
BLOCK
  5
101
330
FF
100
AcDbEntity
  8
0
100
AcDbBlockBegin
  2
5_ASME_B18_3_10_2_0_in_072322_4
 70
     2
 10
0.0
 20
0.0
 30
0.0
  3
5_ASME_B18_3_10_2_0_in_072322_4
  1

  0
ATTDEF
  5
103
330
FF
100
AcDbEntity
  8
AM_6
100
AcDbText
 10
5.1805
 20
-0.7089996666666666
 30
0.0
 40
0.5
  1
ANSI/ASME-B18.3-1998
100
AcDbAttributeDefinition
  3

  2
NN
 70
     8
280
     0
  0
ATTDEF
  5
104
330
FF
100
AcDbEntity
  8
AM_6
100
AcDbText
 10
5.1805
 20
-1.208999666666667
 30
0.0
 40
0.5
  1
Socket Button Head Cap Screws
100
AcDbAttributeDefinition
  3

  2
NT
 70
     8
280
     0
  0
ATTDEF
  5
105
330
FF
100
AcDbEntity
  8
AM_6
100
AcDbText
 10
5.1805
 20
-1.708999666666667
 30
0.0
 40
0.5
  1
ASME-B18.3-10
100
AcDbAttributeDefinition
  3

  2
NB
 70
     8
280
     0
  0
ATTDEF
  5
106
330
FF
100
AcDbEntity
  8
AM_6
100
AcDbText
 10
5.1805
 20
-2.208999666666667
 30
0.0
 40
0.5
  1
ASME-B18.3-$NS.
100
AcDbAttributeDefinition
  3

  2
NBSYN
 70
     8
280
     0
  0
ATTDEF
  5
107
330
FF
100
AcDbEntity
  8
AM_6
100
AcDbText
 10
5.1805
 20
-2.708999666666667
 30
0.0
 40
0.5
  1
ASME-B18.3-10
100
AcDbAttributeDefinition
  3

  2
LINA
 70
     8
280
     0
  0
ATTDEF
  5
108
330
FF
100
AcDbEntity
  8
AM_6
100
AcDbText
 10
5.1805
 20
-3.208999666666667
 30
0.0
 40
0.5
  1
10
100
AcDbAttributeDefinition
  3

  2
NS
 70
     8
280
     0
  0
ATTDEF
  5
109
330
FF
100
AcDbEntity
  8
AM_6
100
AcDbText
 10
5.1805
 20
-3.708999666666667
 30
0.0
 40
0.5
  1
0.361
100
AcDbAttributeDefinition
  3

  2
A
 70
     8
280
     0
  0
ATTDEF
  5
10A
330
FF
100
AcDbEntity
  8
AM_6
100
AcDbText
 10
5.1805
 20
-4.208999666666667
 30
0.0
 40
0.5
  1
0.101
100
AcDbAttributeDefinition
  3

  2
H
 70
     8
280
     0
  0
ATTDEF
  5
10B
330
FF
100
AcDbEntity
  8
AM_6
100
AcDbText
 10
5.1805
 20
-4.708999666666667
 30
0.0
 40
0.5
  1
0.800
100
AcDbAttributeDefinition
  3

  2
L
 70
     8
280
     0
  0
ATTDEF
  5
10C
330
FF
100
AcDbEntity
  8
AM_6
100
AcDbText
 10
5.1805
 20
-5.208999666666667
 30
0.0
 40
0.5
  1
0.020
100
AcDbAttributeDefinition
  3

  2
S
 70
     8
280
     0
  0
ATTDEF
  5
10D
330
FF
100
AcDbEntity
  8
AM_6
100
AcDbText
 10
5.1805
 20
-5.708999666666667
 30
0.0
 40
0.5
  1
0.125000
100
AcDbAttributeDefinition
  3

  2
J
 70
     8
280
     0
  0
ATTDEF
  5
10E
330
FF
100
AcDbEntity
  8
AM_6
100
AcDbText
 10
5.1805
 20
-6.208999666666667
 30
0.0
 40
0.5
  1
baldor
100
AcDbAttributeDefinition
  3

  2
COMPANY
 70
     8
280
     0
  0
LINE
  5
10F
330
FF
100
AcDbEntity
  8
AM_9
100
AcDbLine
 10
-0.0625
 20
-1.548999666666667
 30
0.0
 11
-0.0625
 21
-1.609999666666667
 31
0.0
  0
LINE
  5
110
330
FF
100
AcDbEntity
  8
AM_9
100
AcDbLine
 10
0.0625
 20
-1.548999666666667
 30
0.0
 11
0.0625
 21
-1.609999666666667
 31
0.0
  0
LINE
  5
111
330
FF
100
AcDbEntity
  8
AM_9
100
AcDbLine
 10
-0.0625
 20
-1.548999666666667
 30
0.0
 11
0.0625
 21
-1.548999666666667
 31
0.0
  0
LINE
  5
112
330
FF
100
AcDbEntity
  8
AM_9
100
AcDbLine
 10
0.0
 20
-1.548999666666667
 30
0.0
 11
0.0
 21
-1.609999666666667
 31
0.0
  0
LINE
  5
113
330
FF
100
AcDbEntity
  8
AM_9
100
AcDbLine
 10
0.095
 20
-1.408666666666666
 30
0.0
 11
0.095
 21
-0.7337996666666667
 31
0.0
  0
LINE
  5
114
330
FF
100
AcDbEntity
  8
AM_9
100
AcDbLine
 10
-0.095
 20
-0.7337996666666667
 30
0.0
 11
-0.095
 21
-1.408666666666666
 31
0.0
  0
LINE
  5
115
330
FF
100
AcDbEntity
  8
AM_9
100
AcDbLine
 10
-0.0702
 20
-0.7089996666666666
 30
0.0
 11
-0.095
 21
-0.7337996666666667
 31
0.0
  0
LINE
  5
116
330
FF
100
AcDbEntity
  8
AM_9
100
AcDbLine
 10
0.095
 20
-0.7337996666666667
 30
0.0
 11
0.0702
 21
-0.7089996666666666
 31
0.0
  0
LINE
  5
117
330
FF
100
AcDbEntity
  8
AM_9
100
AcDbLine
 10
-0.0702
 20
-0.7089996666666666
 30
0.0
 11
0.0702
 21
-0.7089996666666666
 31
0.0
  0
LINE
  5
118
330
FF
100
AcDbEntity
  8
AM_9
100
AcDbLine
 10
-0.095
 20
-0.7337996666666667
 30
0.0
 11
0.095
 21
-0.7337996666666667
 31
0.0
  0
LINE
  5
119
330
FF
100
AcDbEntity
  8
AM_5
100
AcDbLine
 10
0.0702
 20
-0.7089996666666666
 30
0.0
 11
0.0702
 21
-1.408666666666666
 31
0.0
  0
LINE
  5
11A
330
FF
100
AcDbEntity
  8
AM_5
100
AcDbLine
 10
-0.0702
 20
-0.7089996666666666
 30
0.0
 11
-0.0702
 21
-1.408666666666666
 31
0.0
  0
LINE
  5
11B
330
FF
100
AcDbEntity
  8
AM_4
100
AcDbLine
 10
0.095
 20
-1.508999666666667
 30
0.0
 11
0.095
 21
-1.408666666666666
 31
0.0
  0
LINE
  5
11C
330
FF
100
AcDbEntity
  8
AM_4
100
AcDbLine
 10
-0.095
 20
-1.408666666666666
 30
0.0
 11
-0.095
 21
-1.508999666666667
 31
0.0
  0
LINE
  5
11D
330
FF
100
AcDbEntity
  8
AM_4
100
AcDbLine
 10
-0.0994999993553689
 20
-1.609999666666666
 30
0.0
 11
0.0995
 21
-1.609999666666666
 31
0.0
  0
ARC
  5
11E
330
FF
100
AcDbEntity
  8
AM_4
100
AcDbCircle
 10
0.0995000000000002
 20
-1.528999666666667
 30
0.0
 40
0.0809999999999997
100
AcDbArc
 50
270.0
 51
0.0
  0
ARC
  5
11F
330
FF
100
AcDbEntity
  8
AM_4
100
AcDbCircle
 10
-0.0995000000000002
 20
-1.528999666666667
 30
0.0
 40
0.0809999999999997
100
AcDbArc
 50
180.0
 51
270.0
  0
LINE
  5
120
330
FF
100
AcDbEntity
  8
AM_4
100
AcDbLine
 10
0.1805
 20
-1.528999666666666
 30
0.0
 11
0.1805
 21
-1.508999666666667
 31
0.0
  0
LINE
  5
121
330
FF
100
AcDbEntity
  8
AM_4
100
AcDbLine
 10
-0.1805
 20
-1.508999666666667
 30
0.0
 11
-0.1805
 21
-1.528999666666666
 31
0.0
  0
LINE
  5
122
330
FF
100
AcDbEntity
  8
AM_4
100
AcDbLine
 10
-0.1805
 20
-1.508999666666667
 30
0.0
 11
0.1805
 21
-1.508999666666667
 31
0.0
  0
LINE
  5
123
330
FF
100
AcDbEntity
  8
AM_4
100
AcDbLine
 10
-0.1805
 20
-1.528999666666666
 30
0.0
 11
0.1805
 21
-1.528999666666666
 31
0.0
  0
LINE
  5
124
330
FF
100
AcDbEntity
  8
AM_5
100
AcDbLine
 10
0.0702
 20
-1.408666666666666
 30
0.0
 11
0.0702
 21
-1.609999666666666
 31
0.0
  0
LINE
  5
125
330
FF
100
AcDbEntity
  8
AM_5
100
AcDbLine
 10
0.095
 20
-1.808999666666667
 30
0.0
 11
-0.095
 21
-1.808999666666667
 31
0.0
  0
LINE
  5
126
330
FF
100
AcDbEntity
  8
AM_5
100
AcDbLine
 10
-0.0702
 20
-1.408666666666666
 30
0.0
 11
-0.0702
 21
-1.609999666666666
 31
0.0
  0
ENDBLK
  5
102
330
FF
100
AcDbEntity
  8
0
100
AcDbBlockEnd
  0
BLOCK
  5
129
330
127
100
AcDbEntity
  8
0
100
AcDbBlockBegin
  2
6_070896LW_0_in_072322_4
 70
     2
 10
0.0
 20
0.0
 30
0.0
  3
6_070896LW_0_in_072322_4
  1

  0
ATTDEF
  5
12B
330
127
100
AcDbEntity
  8
AM_6
100
AcDbText
 10
6.9375
 20
-0.9686666666666663
 30
0.0
 40
0.5
  1
Imperial Insert Lockwasher -Inch
100
AcDbAttributeDefinition
  3

  2
NN
 70
     8
280
     0
  0
ATTDEF
  5
12C
330
127
100
AcDbEntity
  8
AM_6
100
AcDbText
 10
6.9375
 20
-1.468666666666666
 30
0.0
 40
0.5
  1
Imperial Bearings
100
AcDbAttributeDefinition
  3

  2
NT
 70
     8
280
     0
  0
ATTDEF
  5
12D
330
127
100
AcDbEntity
  8
AM_6
100
AcDbText
 10
6.9375
 20
-1.968666666666666
 30
0.0
 40
0.5
  1
070896LW
100
AcDbAttributeDefinition
  3

  2
NB
 70
     8
280
     0
  0
ATTDEF
  5
12E
330
127
100
AcDbEntity
  8
AM_6
100
AcDbText
 10
6.9375
 20
-2.468666666666667
 30
0.0
 40
0.5
  1
$PN.LW
100
AcDbAttributeDefinition
  3

  2
NBSYN
 70
     8
280
     0
  0
ATTDEF
  5
12F
330
127
100
AcDbEntity
  8
AM_6
100
AcDbText
 10
6.9375
 20
-2.968666666666667
 30
0.0
 40
0.5
  1
070896
100
AcDbAttributeDefinition
  3

  2
LINA
 70
     8
280
     0
  0
ATTDEF
  5
130
330
127
100
AcDbEntity
  8
AM_6
100
AcDbText
 10
6.9375
 20
-3.468666666666667
 30
0.0
 40
0.5
  1
2-1/2
100
AcDbAttributeDefinition
  3

  2
SS
 70
     8
280
     0
  0
ATTDEF
  5
131
330
127
100
AcDbEntity
  8
AM_6
100
AcDbText
 10
6.9375
 20
-3.968666666666667
 30
0.0
 40
0.5
  1
2.500000
100
AcDbAttributeDefinition
  3

  2
SS1
 70
     8
280
     0
  0
ATTDEF
  5
132
330
127
100
AcDbEntity
  8
AM_6
100
AcDbText
 10
6.9375
 20
-4.468666666666667
 30
0.0
 40
0.5
  1
070896
100
AcDbAttributeDefinition
  3

  2
PN
 70
     8
280
     0
  0
ATTDEF
  5
133
330
127
100
AcDbEntity
  8
AM_6
100
AcDbText
 10
6.9375
 20
-4.968666666666667
 30
0.0
 40
0.5
  1
INS-IP-208R
100
AcDbAttributeDefinition
  3

  2
DESCRIPTION
 70
     8
280
     0
  0
ATTDEF
  5
134
330
127
100
AcDbEntity
  8
AM_6
100
AcDbText
 10
6.9375
 20
-5.468666666666667
 30
0.0
 40
0.5
  1
4.7241
100
AcDbAttributeDefinition
  3

  2
A
 70
     8
280
     0
  0
ATTDEF
  5
135
330
127
100
AcDbEntity
  8
AM_6
100
AcDbText
 10
6.9375
 20
-5.968666666666667
 30
0.0
 40
0.5
  1
1-9/32
100
AcDbAttributeDefinition
  3

  2
B
 70
     8
280
     0
  0
ATTDEF
  5
136
330
127
100
AcDbEntity
  8
AM_6
100
AcDbText
 10
6.9375
 20
-6.468666666666667
 30
0.0
 40
0.5
  1
3-27/64
100
AcDbAttributeDefinition
  3

  2
C
 70
     8
280
     0
  0
ATTDEF
  5
137
330
127
100
AcDbEntity
  8
AM_6
100
AcDbText
 10
6.9375
 20
-6.968666666666667
 30
0.0
 40
0.5
  1
1.208
100
AcDbAttributeDefinition
  3

  2
D
 70
     8
280
     0
  0
ATTDEF
  5
138
330
127
100
AcDbEntity
  8
AM_6
100
AcDbText
 10
6.9375
 20
-7.468666666666667
 30
0.0
 40
0.5
  1
3-7/8
100
AcDbAttributeDefinition
  3

  2
E
 70
     8
280
     0
  0
ATTDEF
  5
139
330
127
100
AcDbEntity
  8
AM_6
100
AcDbText
 10
6.9375
 20
-7.968666666666667
 30
0.0
 40
0.5
  1
0.1900
100
AcDbAttributeDefinition
  3

  2
NDM
 70
     8
280
     0
  0
ATTDEF
  5
13A
330
127
100
AcDbEntity
  8
AM_6
100
AcDbText
 10
6.9375
 20
-8.468666666666667
 30
0.0
 40
0.5
  1
0.1450
100
AcDbAttributeDefinition
  3

  2
KDM
 70
     8
280
     0
  0
ATTDEF
  5
13B
330
127
100
AcDbEntity
  8
AM_6
100
AcDbText
 10
6.9375
 20
-8.968666666666667
 30
0.0
 40
0.5
  1
3.35
100
AcDbAttributeDefinition
  3

  2
AL
 70
     8
280
     0
  0
ATTDEF
  5
13C
330
127
100
AcDbEntity
  8
AM_6
100
AcDbText
 10
6.9375
 20
-9.468666666666667
 30
0.0
 40
0.5
  1
0.50
100
AcDbAttributeDefinition
  3

  2
BL
 70
     8
280
     0
  0
ATTDEF
  5
13D
330
127
100
AcDbEntity
  8
AM_6
100
AcDbText
 10
6.9375
 20
-9.968666666666667
 30
0.0
 40
0.5
  1
0.07
100
AcDbAttributeDefinition
  3

  2
CL
 70
     8
280
     0
  0
ATTDEF
  5
13E
330
127
100
AcDbEntity
  8
AM_6
100
AcDbText
 10
6.9375
 20
-10.46866666666667
 30
0.0
 40
0.5
  1
0.44
100
AcDbAttributeDefinition
  3

  2
DL
 70
     8
280
     0
  0
ATTDEF
  5
13F
330
127
100
AcDbEntity
  8
AM_6
100
AcDbText
 10
6.9375
 20
-10.96866666666667
 30
0.0
 40
0.5
  1
baldor
100
AcDbAttributeDefinition
  3

  2
COMPANY
 70
     8
280
     0
  0
LINE
  5
140
330
127
100
AcDbEntity
  8
AM_9
100
AcDbLine
 10
-1.663194444444445
 20
-1.338666666666666
 30
0.0
 11
-1.663194444444445
 21
-1.408666666666666
 31
0.0
  0
LINE
  5
141
330
127
100
AcDbEntity
  8
AM_9
100
AcDbLine
 10
-1.755517874001363
 20
-1.338666666666666
 30
0.0
 11
-1.755517874001363
 21
-1.408666666666666
 31
0.0
  0
LINE
  5
142
330
127
100
AcDbEntity
  8
AM_9
100
AcDbLine
 10
1.663194444444444
 20
-1.338666666666666
 30
0.0
 11
1.663194444444444
 21
-1.408666666666666
 31
0.0
  0
LINE
  5
143
330
127
100
AcDbEntity
  8
AM_9
100
AcDbLine
 10
1.758233242988709
 20
-1.408666666666666
 30
0.0
 11
1.758233242988709
 21
-1.338666666666666
 31
0.0
  0
LINE
  5
144
330
127
100
AcDbEntity
  8
AM_9
100
AcDbLine
 10
-1.348007965406408
 20
-1.338666666666666
 30
0.0
 11
-1.348007965406408
 21
-1.408666666666666
 31
0.0
  0
LINE
  5
145
330
127
100
AcDbEntity
  8
AM_9
100
AcDbLine
 10
1.348007965406408
 20
-1.338666666666666
 30
0.0
 11
1.348007965406408
 21
-1.408666666666666
 31
0.0
  0
LINE
  5
146
330
127
100
AcDbEntity
  8
AM_9
100
AcDbLine
 10
-1.020360717645074
 20
-1.338666666666666
 30
0.0
 11
-1.020360717645074
 21
-1.408666666666666
 31
0.0
  0
LINE
  5
147
330
127
100
AcDbEntity
  8
AM_9
100
AcDbLine
 10
1.020360717645074
 20
-1.338666666666666
 30
0.0
 11
1.020360717645074
 21
-1.408666666666666
 31
0.0
  0
LINE
  5
148
330
127
100
AcDbEntity
  8
AM_9
100
AcDbLine
 10
-0.5914414510540423
 20
-0.9686666666666663
 30
0.0
 11
-0.5914414510540423
 21
-1.408666666666666
 31
0.0
  0
LINE
  5
149
330
127
100
AcDbEntity
  8
AM_9
100
AcDbLine
 10
-0.6304075736445329
 20
-1.338666666666666
 30
0.0
 11
-0.6304075736445327
 21
-1.408666666666666
 31
0.0
  0
LINE
  5
14A
330
127
100
AcDbEntity
  8
AM_9
100
AcDbLine
 10
-0.8860104292196299
 20
-1.338666666666666
 30
0.0
 11
-0.8860104292196299
 21
-1.408666666666666
 31
0.0
  0
LINE
  5
14B
330
127
100
AcDbEntity
  8
AM_9
100
AcDbLine
 10
0.8860104292196298
 20
-1.338666666666666
 30
0.0
 11
0.8860104292196306
 21
-1.408666666666666
 31
0.0
  0
LINE
  5
14C
330
127
100
AcDbEntity
  8
AM_9
100
AcDbLine
 10
-0.3994376905167104
 20
-1.338666666666666
 30
0.0
 11
-0.3994376905167104
 21
-1.408666666666666
 31
0.0
  0
LINE
  5
14D
330
127
100
AcDbEntity
  8
AM_9
100
AcDbLine
 10
-0.3604715679262201
 20
-0.9686666666666663
 30
0.0
 11
-0.616738440865791
 21
-0.9686666666666663
 31
0.0
  0
LINE
  5
14E
330
127
100
AcDbEntity
  8
AM_9
100
AcDbLine
 10
-0.3604715679262201
 20
-0.9686666666666663
 30
0.0
 11
-0.3604715679262201
 21
-1.408666666666666
 31
0.0
  0
LINE
  5
14F
330
127
100
AcDbEntity
  8
AM_9
100
AcDbLine
 10
-1.243231214311181
 20
-1.338666666666666
 30
0.0
 11
-1.243231214311181
 21
-1.408666666666666
 31
0.0
  0
LINE
  5
150
330
127
100
AcDbEntity
  8
AM_9
100
AcDbLine
 10
-1.108880925885748
 20
-1.338666666666666
 30
0.0
 11
-1.108880925885748
 21
-1.408666666666666
 31
0.0
  0
LINE
  5
151
330
127
100
AcDbEntity
  8
AM_9
100
AcDbLine
 10
-1.271083507131789
 20
-1.338666666666666
 30
0.0
 11
-1.271083507131789
 21
-1.408666666666666
 31
0.0
  0
LINE
  5
152
330
127
100
AcDbEntity
  8
AM_9
100
AcDbLine
 10
1.108880925885737
 20
-1.338666666666666
 30
0.0
 11
1.108880925885737
 21
-1.408666666666666
 31
0.0
  0
LINE
  5
153
330
127
100
AcDbEntity
  8
AM_9
100
AcDbLine
 10
1.243231214311181
 20
-1.338666666666666
 30
0.0
 11
1.243231214311181
 21
-1.408666666666666
 31
0.0
  0
LINE
  5
154
330
127
100
AcDbEntity
  8
AM_9
100
AcDbLine
 10
1.271083507131788
 20
-1.408666666666666
 30
0.0
 11
1.271083507131788
 21
-1.338666666666666
 31
0.0
  0
LINE
  5
155
330
127
100
AcDbEntity
  8
AM_9
100
AcDbLine
 10
-0.3857685577379693
 20
-1.338666666666666
 30
0.0
 11
-0.3857685577379693
 21
-0.9686666666666663
 31
0.0
  0
LINE
  5
156
330
127
100
AcDbEntity
  8
AM_9
100
AcDbLine
 10
-0.616738440865791
 20
-0.9686666666666663
 30
0.0
 11
-0.616738440865791
 21
-1.338666666666666
 31
0.0
  0
LINE
  5
157
330
127
100
AcDbEntity
  8
AM_9
100
AcDbLine
 10
-0.0950000000000002
 20
-1.338666666666666
 30
0.0
 11
-0.0950000000000002
 21
-1.408666666666666
 31
0.0
  0
LINE
  5
158
330
127
100
AcDbEntity
  8
AM_9
100
AcDbLine
 10
0.0949999999999997
 20
-1.338666666666666
 30
0.0
 11
0.0949999999999998
 21
-1.408666666666666
 31
0.0
  0
LINE
  5
159
330
127
100
AcDbEntity
  8
AM_4
100
AcDbLine
 10
-1.9375
 20
-1.338666666666666
 30
0.0
 11
-1.9375
 21
-1.408666666666666
 31
0.0
  0
LINE
  5
15A
330
127
100
AcDbEntity
  8
AM_4
100
AcDbLine
 10
1.9375
 20
-1.408666666666666
 30
0.0
 11
1.9375
 21
-1.338666666666666
 31
0.0
  0
LINE
  5
15B
330
127
100
AcDbEntity
  8
AM_4
100
AcDbLine
 10
-1.9375
 20
-1.408666666666666
 30
0.0
 11
1.9375
 21
-1.408666666666666
 31
0.0
  0
LINE
  5
15C
330
127
100
AcDbEntity
  8
AM_4
100
AcDbLine
 10
-1.9375
 20
-1.338666666666666
 30
0.0
 11
1.9375
 21
-1.338666666666666
 31
0.0
  0
ENDBLK
  5
12A
330
127
100
AcDbEntity
  8
0
100
AcDbBlockEnd
  0
BLOCK
  5
15F
330
15D
100
AcDbEntity
  8
0
100
AcDbBlockBegin
  2
7_070896I_0_in_072322_4
 70
     2
 10
0.0
 20
0.0
 30
0.0
  3
7_070896I_0_in_072322_4
  1

  0
ATTDEF
  5
161
330
15D
100
AcDbEntity
  8
AM_6
100
AcDbText
 10
7.36205
 20
1.836875
 30
0.0
 40
0.5
  1
Imperial Insert -Inch
100
AcDbAttributeDefinition
  3

  2
NN
 70
     8
280
     0
  0
ATTDEF
  5
162
330
15D
100
AcDbEntity
  8
AM_6
100
AcDbText
 10
7.36205
 20
1.336875
 30
0.0
 40
0.5
  1
Imperial Bearings
100
AcDbAttributeDefinition
  3

  2
NT
 70
     8
280
     0
  0
ATTDEF
  5
163
330
15D
100
AcDbEntity
  8
AM_6
100
AcDbText
 10
7.36205
 20
0.8368750000000003
 30
0.0
 40
0.5
  1
070896I
100
AcDbAttributeDefinition
  3

  2
NB
 70
     8
280
     0
  0
ATTDEF
  5
164
330
15D
100
AcDbEntity
  8
AM_6
100
AcDbText
 10
7.36205
 20
0.3368750000000003
 30
0.0
 40
0.5
  1
$PN.I
100
AcDbAttributeDefinition
  3

  2
NBSYN
 70
     8
280
     0
  0
ATTDEF
  5
165
330
15D
100
AcDbEntity
  8
AM_6
100
AcDbText
 10
7.36205
 20
-0.1631249999999997
 30
0.0
 40
0.5
  1
070896
100
AcDbAttributeDefinition
  3

  2
LINA
 70
     8
280
     0
  0
ATTDEF
  5
166
330
15D
100
AcDbEntity
  8
AM_6
100
AcDbText
 10
7.36205
 20
-0.6631249999999997
 30
0.0
 40
0.5
  1
2-1/2
100
AcDbAttributeDefinition
  3

  2
SS
 70
     8
280
     0
  0
ATTDEF
  5
167
330
15D
100
AcDbEntity
  8
AM_6
100
AcDbText
 10
7.36205
 20
-1.163125
 30
0.0
 40
0.5
  1
2.500000
100
AcDbAttributeDefinition
  3

  2
SS1
 70
     8
280
     0
  0
ATTDEF
  5
168
330
15D
100
AcDbEntity
  8
AM_6
100
AcDbText
 10
7.36205
 20
-1.663125
 30
0.0
 40
0.5
  1
070896
100
AcDbAttributeDefinition
  3

  2
PN
 70
     8
280
     0
  0
ATTDEF
  5
169
330
15D
100
AcDbEntity
  8
AM_6
100
AcDbText
 10
7.36205
 20
-2.163125
 30
0.0
 40
0.5
  1
INS-IP-208R
100
AcDbAttributeDefinition
  3

  2
DESCRIPTION
 70
     8
280
     0
  0
ATTDEF
  5
16A
330
15D
100
AcDbEntity
  8
AM_6
100
AcDbText
 10
7.36205
 20
-2.663125
 30
0.0
 40
0.5
  1
Contact Seal
100
AcDbAttributeDefinition
  3

  2
ST
 70
     8
280
     0
  0
ATTDEF
  5
16B
330
15D
100
AcDbEntity
  8
AM_6
100
AcDbText
 10
7.36205
 20
-3.163125
 30
0.0
 40
0.5
  1
4.7241
100
AcDbAttributeDefinition
  3

  2
A
 70
     8
280
     0
  0
ATTDEF
  5
16C
330
15D
100
AcDbEntity
  8
AM_6
100
AcDbText
 10
7.36205
 20
-3.663125
 30
0.0
 40
0.5
  1
1-9/32
100
AcDbAttributeDefinition
  3

  2
B
 70
     8
280
     0
  0
ATTDEF
  5
16D
330
15D
100
AcDbEntity
  8
AM_6
100
AcDbText
 10
7.36205
 20
-4.163125
 30
0.0
 40
0.5
  1
3-27/64
100
AcDbAttributeDefinition
  3

  2
C
 70
     8
280
     0
  0
ATTDEF
  5
16E
330
15D
100
AcDbEntity
  8
AM_6
100
AcDbText
 10
7.36205
 20
-4.663125
 30
0.0
 40
0.5
  1
1.208
100
AcDbAttributeDefinition
  3

  2
D
 70
     8
280
     0
  0
ATTDEF
  5
16F
330
15D
100
AcDbEntity
  8
AM_6
100
AcDbText
 10
7.36205
 20
-5.163125
 30
0.0
 40
0.5
  1
3-7/8
100
AcDbAttributeDefinition
  3

  2
E
 70
     8
280
     0
  0
ATTDEF
  5
170
330
15D
100
AcDbEntity
  8
AM_6
100
AcDbText
 10
7.36205
 20
-5.663125
 30
0.0
 40
0.5
  1
0.1900
100
AcDbAttributeDefinition
  3

  2
NDM
 70
     8
280
     0
  0
ATTDEF
  5
171
330
15D
100
AcDbEntity
  8
AM_6
100
AcDbText
 10
7.36205
 20
-6.163125
 30
0.0
 40
0.5
  1
0.101
100
AcDbAttributeDefinition
  3

  2
H
 70
     8
280
     0
  0
ATTDEF
  5
172
330
15D
100
AcDbEntity
  8
AM_6
100
AcDbText
 10
7.36205
 20
-6.663125
 30
0.0
 40
0.5
  1
0.1450
100
AcDbAttributeDefinition
  3

  2
KDM
 70
     8
280
     0
  0
ATTDEF
  5
173
330
15D
100
AcDbEntity
  8
AM_6
100
AcDbText
 10
7.36205
 20
-7.163125
 30
0.0
 40
0.5
  1
3.35
100
AcDbAttributeDefinition
  3

  2
AL
 70
     8
280
     0
  0
ATTDEF
  5
174
330
15D
100
AcDbEntity
  8
AM_6
100
AcDbText
 10
7.36205
 20
-7.663125
 30
0.0
 40
0.5
  1
0.50
100
AcDbAttributeDefinition
  3

  2
BL
 70
     8
280
     0
  0
ATTDEF
  5
175
330
15D
100
AcDbEntity
  8
AM_6
100
AcDbText
 10
7.36205
 20
-8.163125
 30
0.0
 40
0.5
  1
0.07
100
AcDbAttributeDefinition
  3

  2
CL
 70
     8
280
     0
  0
ATTDEF
  5
176
330
15D
100
AcDbEntity
  8
AM_6
100
AcDbText
 10
7.36205
 20
-8.663125
 30
0.0
 40
0.5
  1
0.44
100
AcDbAttributeDefinition
  3

  2
DL
 70
     8
280
     0
  0
ATTDEF
  5
177
330
15D
100
AcDbEntity
  8
AM_6
100
AcDbText
 10
7.36205
 20
-9.163125
 30
0.0
 40
0.5
  1
0.8000
100
AcDbAttributeDefinition
  3

  2
LL
 70
     8
280
     0
  0
ATTDEF
  5
178
330
15D
100
AcDbEntity
  8
AM_6
100
AcDbText
 10
7.36205
 20
-9.663125
 30
0.0
 40
0.5
  1
0.025
100
AcDbAttributeDefinition
  3

  2
Y
 70
     8
280
     0
  0
ATTDEF
  5
179
330
15D
100
AcDbEntity
  8
AM_6
100
AcDbText
 10
7.36205
 20
-10.163125
 30
0.0
 40
0.5
  1
0.025000
100
AcDbAttributeDefinition
  3

  2
Y1
 70
     8
280
     0
  0
ATTDEF
  5
17A
330
15D
100
AcDbEntity
  8
AM_6
100
AcDbText
 10
7.36205
 20
-10.663125
 30
0.0
 40
0.5
  1
2-15/16
100
AcDbAttributeDefinition
  3

  2
Z
 70
     8
280
     0
  0
ATTDEF
  5
17B
330
15D
100
AcDbEntity
  8
AM_6
100
AcDbText
 10
7.36205
 20
-11.163125
 30
0.0
 40
0.5
  1
2.937500
100
AcDbAttributeDefinition
  3

  2
Z1
 70
     8
280
     0
  0
ATTDEF
  5
17C
330
15D
100
AcDbEntity
  8
AM_6
100
AcDbText
 10
7.36205
 20
-11.663125
 30
0.0
 40
0.5
  1
baldor
100
AcDbAttributeDefinition
  3

  2
COMPANY
 70
     8
280
     0
  0
LINE
  5
17D
330
15D
100
AcDbEntity
  8
AM_9
100
AcDbLine
 10
-0.6180730383597594
 20
1.2445
 30
0.0
 11
-0.6180730383597594
 21
-1.338666666666667
 31
0.0
  0
LINE
  5
17E
330
15D
100
AcDbEntity
  8
AM_9
100
AcDbLine
 10
-0.3604715679262205
 20
1.2445
 30
0.0
 11
-0.3604715679262205
 21
-1.61
 31
0.0
  0
LINE
  5
17F
330
15D
100
AcDbEntity
  8
AM_9
100
AcDbLine
 10
-0.5914414510540424
 20
-1.408666666666666
 30
0.0
 11
-0.5914414510540424
 21
1.2445
 31
0.0
  0
LINE
  5
180
330
15D
100
AcDbEntity
  8
AM_9
100
AcDbLine
 10
-1.25
 20
1.2445
 30
0.0
 11
-1.25
 21
-1.61
 31
0.0
  0
LINE
  5
181
330
15D
100
AcDbEntity
  8
AM_9
100
AcDbLine
 10
1.25
 20
-1.61
 30
0.0
 11
1.25
 21
1.2445
 31
0.0
  0
LINE
  5
182
330
15D
100
AcDbEntity
  8
AM_9
100
AcDbLine
 10
-0.3871031552319376
 20
1.2445
 30
0.0
 11
-0.3871031552319376
 21
-1.338666666666667
 31
0.0
  0
LINE
  5
183
330
15D
100
AcDbEntity
  8
AM_9
100
AcDbLine
 10
-1.315789473684211
 20
1.811875
 30
0.0
 11
-1.315789473684211
 21
1.2445
 31
0.0
  0
LINE
  5
184
330
15D
100
AcDbEntity
  8
AM_9
100
AcDbLine
 10
1.315789473684211
 20
1.2445
 30
0.0
 11
1.315789473684211
 21
1.811875
 31
0.0
  0
LINE
  5
185
330
15D
100
AcDbEntity
  8
AM_9
100
AcDbLine
 10
-0.385768557737969
 20
-1.408666666666666
 30
0.0
 11
-0.385768557737969
 21
-1.338666666666667
 31
0.0
  0
LINE
  5
186
330
15D
100
AcDbEntity
  8
AM_9
100
AcDbLine
 10
-0.6167384408657908
 20
-1.338666666666667
 30
0.0
 11
-0.6167384408657909
 21
-1.408666666666666
 31
0.0
  0
LINE
  5
187
330
15D
100
AcDbEntity
  8
AM_9
100
AcDbLine
 10
-1.315789473684211
 20
-1.338666666666667
 30
0.0
 11
-1.315789473684211
 21
-1.408666666666666
 31
0.0
  0
LINE
  5
188
330
15D
100
AcDbEntity
  8
AM_9
100
AcDbLine
 10
1.315789473684211
 20
-1.408666666666666
 30
0.0
 11
1.315789473684211
 21
-1.338666666666667
 31
0.0
  0
LINE
  5
189
330
15D
100
AcDbEntity
  8
AM_9
100
AcDbLine
 10
-1.00762716319083
 20
-0.8986666666666666
 30
0.0
 11
-1.00762716319083
 21
-1.338666666666667
 31
0.0
  0
LINE
  5
18A
330
15D
100
AcDbEntity
  8
AM_9
100
AcDbLine
 10
-1.361180553784104
 20
-0.8986666666666666
 30
0.0
 11
-1.361180553784104
 21
-0.91
 31
0.0
  0
LINE
  5
18B
330
15D
100
AcDbEntity
  8
AM_9
100
AcDbLine
 10
1.00762716319083
 20
-0.8986666666666666
 30
0.0
 11
1.00762716319083
 21
-1.338666666666667
 31
0.0
  0
LINE
  5
18C
330
15D
100
AcDbEntity
  8
AM_9
100
AcDbLine
 10
1.361180553784104
 20
-0.8986666666666666
 30
0.0
 11
1.361180553784104
 21
-0.91
 31
0.0
  0
LINE
  5
18D
330
15D
100
AcDbEntity
  8
AM_9
100
AcDbLine
 10
1.46875
 20
1.811875
 30
0.0
 11
-1.46875
 21
1.811875
 31
0.0
  0
LINE
  5
18E
330
15D
100
AcDbEntity
  8
AM_9
100
AcDbLine
 10
-1.46875
 20
1.836875
 30
0.0
 11
-1.46875
 21
1.811875
 31
0.0
  0
LINE
  5
18F
330
15D
100
AcDbEntity
  8
AM_9
100
AcDbLine
 10
1.46875
 20
1.811875
 30
0.0
 11
1.46875
 21
1.836875
 31
0.0
  0
LINE
  5
190
330
15D
100
AcDbEntity
  8
AM_9
100
AcDbLine
 10
-1.546298920283675
 20
-0.8986666666666666
 30
0.0
 11
-1.00762716319083
 21
-0.8986666666666666
 31
0.0
  0
LINE
  5
191
330
15D
100
AcDbEntity
  8
AM_9
100
AcDbLine
 10
1.00762716319083
 20
-0.8986666666666666
 30
0.0
 11
1.546298920283676
 21
-0.8986666666666666
 31
0.0
  0
LINE
  5
192
330
15D
100
AcDbEntity
  8
AM_9
100
AcDbLine
 10
-1.631944444444444
 20
1.75
 30
0.0
 11
-1.631944444444444
 21
1.50075
 31
0.0
  0
LINE
  5
193
330
15D
100
AcDbEntity
  8
AM_9
100
AcDbLine
 10
1.631944444444444
 20
1.50075
 30
0.0
 11
1.631944444444444
 21
1.75
 31
0.0
  0
LINE
  5
194
330
15D
100
AcDbEntity
  8
AM_9
100
AcDbLine
 10
0.0
 20
-0.4986666666666662
 30
0.0
 11
-0.0724499999999999
 21
-0.5324506564999956
 31
0.0
  0
LINE
  5
195
330
15D
100
AcDbEntity
  8
AM_9
100
AcDbLine
 10
0.0724499999999999
 20
-0.5324506564999956
 30
0.0
 11
0.0
 21
-0.4986666666666662
 31
0.0
  0
LINE
  5
196
330
15D
100
AcDbEntity
  8
AM_9
100
AcDbLine
 10
0.0724499999999999
 20
-0.5324506564999956
 30
0.0
 11
-0.0724499999999999
 21
-0.5324506564999956
 31
0.0
  0
LINE
  5
197
330
15D
100
AcDbEntity
  8
AM_9
100
AcDbLine
 10
-0.0724499999999999
 20
-0.5324506564999956
 30
0.0
 11
-0.0724499999999999
 21
-1.316116666666667
 31
0.0
  0
LINE
  5
198
330
15D
100
AcDbEntity
  8
AM_9
100
AcDbLine
 10
0.0724499999999999
 20
-1.316116666666667
 30
0.0
 11
0.0724499999999999
 21
-0.5324506564999956
 31
0.0
  0
LINE
  5
199
330
15D
100
AcDbEntity
  8
AM_9
100
AcDbLine
 10
0.0724499999999999
 20
-1.316116666666667
 30
0.0
 11
-0.0724499999999999
 21
-1.316116666666667
 31
0.0
  0
LINE
  5
19A
330
15D
100
AcDbEntity
  8
AM_9
100
AcDbLine
 10
-0.0724499999999999
 20
-1.316116666666667
 30
0.0
 11
-0.0949999999999999
 21
-1.338666666666667
 31
0.0
  0
LINE
  5
19B
330
15D
100
AcDbEntity
  8
AM_9
100
AcDbLine
 10
0.0949999999999999
 20
-1.338666666666667
 30
0.0
 11
0.0724499999999999
 21
-1.316116666666667
 31
0.0
  0
LINE
  5
19C
330
15D
100
AcDbEntity
  8
AM_9
100
AcDbLine
 10
-1.546016747317198
 20
-0.9100000008011353
 30
0.0
 11
-1.546298920283675
 21
-0.8986666666666666
 31
0.0
  0
LINE
  5
19D
330
15D
100
AcDbEntity
  8
AM_9
100
AcDbLine
 10
-1.192745529690402
 20
-0.8986666666666666
 30
0.0
 11
-1.192463356723924
 21
-0.9100000008011353
 31
0.0
  0
LINE
  5
19E
330
15D
100
AcDbEntity
  8
AM_9
100
AcDbLine
 10
1.192463356723924
 20
-0.9100000008011353
 30
0.0
 11
1.192745529690401
 21
-0.8986666666666666
 31
0.0
  0
LINE
  5
19F
330
15D
100
AcDbEntity
  8
AM_9
100
AcDbLine
 10
1.546298920283676
 20
-0.8986666666666666
 30
0.0
 11
1.546016747317198
 21
-0.9100000008011353
 31
0.0
  0
LINE
  5
1A0
330
15D
100
AcDbEntity
  8
AM_9
100
AcDbLine
 10
1.952469369855462
 20
-0.91
 30
0.0
 11
1.982963931814131
 21
-0.03675
 31
0.0
  0
LINE
  5
1A1
330
15D
100
AcDbEntity
  8
AM_9
100
AcDbLine
 10
-1.982963931814131
 20
-0.03675
 30
0.0
 11
-1.952469369855462
 21
-0.91
 31
0.0
  0
LINE
  5
1A2
330
15D
100
AcDbEntity
  8
AM_9
100
AcDbLine
 10
1.956368966601195
 20
1.50075
 30
0.0
 11
-1.9563689665909
 21
1.50075
 31
0.0
  0
ARC
  5
1A3
330
15D
100
AcDbEntity
  8
AM_9
100
AcDbCircle
 10
-1.956368966601195
 20
1.400749999999999
 30
0.0
 40
0.1000000000000005
100
AcDbArc
 50
90.0
 51
149.9999999999997
  0
ARC
  5
1A4
330
15D
100
AcDbEntity
  8
AM_9
100
AcDbCircle
 10
1.956368966601195
 20
1.400749999999999
 30
0.0
 40
0.1000000000000001
100
AcDbArc
 50
30.00000000000016
 51
90.0
  0
LINE
  5
1A5
330
15D
100
AcDbEntity
  8
AM_9
100
AcDbLine
 10
2.042971506979639
 20
1.45075
 30
0.0
 11
-2.042971506979639
 21
1.45075
 31
0.0
  0
LINE
  5
1A6
330
15D
100
AcDbEntity
  8
AM_9
100
AcDbLine
 10
-2.042971506979639
 20
1.45075
 30
0.0
 11
-2.16205
 21
1.2445
 31
0.0
  0
LINE
  5
1A7
330
15D
100
AcDbEntity
  8
AM_9
100
AcDbLine
 10
2.16205
 20
1.2445
 30
0.0
 11
2.042971506979639
 21
1.45075
 31
0.0
  0
LINE
  5
1A8
330
15D
100
AcDbEntity
  8
AM_9
100
AcDbLine
 10
-2.2979875
 20
0.6408615016199602
 30
0.0
 11
-2.2979875
 21
0.5668884983800395
 31
0.0
  0
LINE
  5
1A9
330
15D
100
AcDbEntity
  8
AM_9
100
AcDbLine
 10
2.2979875
 20
0.5668884983800395
 30
0.0
 11
2.2979875
 21
0.6408615016199602
 31
0.0
  0
LINE
  5
1AA
330
15D
100
AcDbEntity
  8
AM_9
100
AcDbLine
 10
-2.36205
 20
1.1945
 30
0.0
 11
-2.36205
 21
0.6778480032399207
 31
0.0
  0
LINE
  5
1AB
330
15D
100
AcDbEntity
  8
AM_9
100
AcDbLine
 10
2.36205
 20
0.6778480032399207
 30
0.0
 11
2.36205
 21
1.1945
 31
0.0
  0
LINE
  5
1AC
330
15D
100
AcDbEntity
  8
AM_9
100
AcDbLine
 10
2.31205
 20
1.2445
 30
0.0
 11
-2.31204999999993
 21
1.2445
 31
0.0
  0
LINE
  5
1AD
330
15D
100
AcDbEntity
  8
AM_9
100
AcDbLine
 10
2.36205
 20
1.1945
 30
0.0
 11
-2.36205
 21
1.1945
 31
0.0
  0
ARC
  5
1AE
330
15D
100
AcDbEntity
  8
AM_9
100
AcDbCircle
 10
-2.31205
 20
1.1945
 30
0.0
 40
0.0499999999999996
100
AcDbArc
 50
90.0
 51
180.0
  0
ARC
  5
1AF
330
15D
100
AcDbEntity
  8
AM_9
100
AcDbCircle
 10
2.31205
 20
1.1945
 30
0.0
 40
0.0499999999999998
100
AcDbArc
 50
0.0
 51
90.0
  0
LINE
  5
1B0
330
15D
100
AcDbEntity
  8
AM_9
100
AcDbLine
 10
2.36205
 20
0.6778480032399207
 30
0.0
 11
-2.36205
 21
0.6778480032399207
 31
0.0
  0
LINE
  5
1B1
330
15D
100
AcDbEntity
  8
AM_9
100
AcDbLine
 10
2.2979875
 20
0.6408615016199602
 30
0.0
 11
-2.2979875
 21
0.6408615016199602
 31
0.0
  0
LINE
  5
1B2
330
15D
100
AcDbEntity
  8
AM_9
100
AcDbLine
 10
2.2979875
 20
0.6408615016199602
 30
0.0
 11
2.36205
 21
0.6778480032399207
 31
0.0
  0
LINE
  5
1B3
330
15D
100
AcDbEntity
  8
AM_9
100
AcDbLine
 10
-2.36205
 20
0.6778480032399207
 30
0.0
 11
-2.2979875
 21
0.6408615016199602
 31
0.0
  0
LINE
  5
1B4
330
15D
100
AcDbEntity
  8
AM_9
100
AcDbLine
 10
2.2979875
 20
0.5668884983800395
 30
0.0
 11
-2.2979875
 21
0.5668884983800395
 31
0.0
  0
LINE
  5
1B5
330
15D
100
AcDbEntity
  8
AM_9
100
AcDbLine
 10
-2.2979875
 20
0.5668884983800395
 30
0.0
 11
-2.36205
 21
0.5299019967600788
 31
0.0
  0
LINE
  5
1B6
330
15D
100
AcDbEntity
  8
AM_9
100
AcDbLine
 10
2.36205
 20
0.5299019967600788
 30
0.0
 11
2.2979875
 21
0.5668884983800395
 31
0.0
  0
LINE
  5
1B7
330
15D
100
AcDbEntity
  8
AM_9
100
AcDbLine
 10
2.31205
 20
-0.03675
 30
0.0
 11
-2.312049999999929
 21
-0.03675
 31
0.0
  0
ARC
  5
1B8
330
15D
100
AcDbEntity
  8
AM_9
100
AcDbCircle
 10
-2.312050000000001
 20
0.0132499999999998
 30
0.0
 40
0.0499999999999998
100
AcDbArc
 50
180.0
 51
270.0
  0
ARC
  5
1B9
330
15D
100
AcDbEntity
  8
AM_9
100
AcDbCircle
 10
2.312049999999993
 20
0.0132500000000079
 30
0.0
 40
0.0500000000000079
100
AcDbArc
 50
270.0
 51
0.0
  0
LINE
  5
1BA
330
15D
100
AcDbEntity
  8
AM_9
100
AcDbLine
 10
2.36205
 20
0.5299019967600788
 30
0.0
 11
-2.36205
 21
0.5299019967600788
 31
0.0
  0
LINE
  5
1BB
330
15D
100
AcDbEntity
  8
AM_9
100
AcDbLine
 10
2.36205
 20
0.0132499999999994
 30
0.0
 11
-2.36205
 21
0.0132499999999994
 31
0.0
  0
LINE
  5
1BC
330
15D
100
AcDbEntity
  8
AM_9
100
AcDbLine
 10
-2.36205
 20
0.5299019967600788
 30
0.0
 11
-2.36205
 21
0.0132499999999994
 31
0.0
  0
LINE
  5
1BD
330
15D
100
AcDbEntity
  8
AM_9
100
AcDbLine
 10
2.36205
 20
0.0132499999999994
 30
0.0
 11
2.36205
 21
0.5299019967600788
 31
0.0
  0
LINE
  5
1BE
330
15D
100
AcDbEntity
  8
AM_5
100
AcDbLine
 10
0.0949999999999999
 20
-0.5786666666666663
 30
0.0
 11
0.0724499999999999
 21
-0.5656474180964403
 31
0.0
  0
LINE
  5
1BF
330
15D
100
AcDbEntity
  8
AM_5
100
AcDbLine
 10
0.0724499999999999
 20
-0.5786666666666647
 30
0.0
 11
0.0949999999999999
 21
-0.5786666666666647
 31
0.0
  0
LINE
  5
1C0
330
15D
100
AcDbEntity
  8
AM_5
100
AcDbLine
 10
-0.0724499999999999
 20
-0.5786666666666647
 30
0.0
 11
-0.0949999999999999
 21
-0.5786666666666647
 31
0.0
  0
LINE
  5
1C1
330
15D
100
AcDbEntity
  8
AM_5
100
AcDbLine
 10
-0.0949999999999999
 20
-0.5786666666666647
 30
0.0
 11
-0.0724499999999999
 21
-0.5656474180964433
 31
0.0
  0
ARC
  5
1C2
330
15D
100
AcDbEntity
  8
AM_4
100
AcDbCircle
 10
1.889215561259644
 20
-1.288666666666666
 30
0.0
 40
0.0500000000000005
100
AcDbArc
 50
270.0
 51
357.9999999999997
  0
ARC
  5
1C3
330
15D
100
AcDbEntity
  8
AM_4
100
AcDbCircle
 10
-1.889215561259644
 20
-1.288666666666666
 30
0.0
 40
0.0500000000000003
100
AcDbArc
 50
182.0000000000003
 51
270.0
  0
LWPOLYLINE
  5
1C4
330
15D
100
AcDbEntity
  8
AM_4
100
AcDbPolyline
 90
        6
 70
     0
 43
0.0
 10
1.536544848730685
 20
-1.290411641501791
 10
1.534153533934659
 20
-1.306748431399271
 10
1.528075939344718
 20
-1.321053446599463
 10
1.518972330603804
 20
-1.331776718338507
 10
1.507793588446506
 20
-1.337725489563238
 10
1.500905736762308
 20
-1.338666666666667
  0
LWPOLYLINE
  5
1C5
330
15D
100
AcDbEntity
  8
AM_4
100
AcDbPolyline
 90
        6
 70
     0
 43
0.0
 10
-1.500905736762308
 20
-1.338666666666667
 10
-1.506043662286855
 20
-1.33814519195521
 10
-1.517539989191865
 20
-1.332895342911153
 10
-1.52712121451395
 20
-1.322565153523579
 10
-1.533669989616411
 20
-1.308407780662394
 10
-1.536544848730685
 20
-1.290411641501791
  0
LINE
  5
1C6
330
15D
100
AcDbEntity
  8
AM_4
100
AcDbLine
 10
-0.5914414510540424
 20
-1.61
 30
0.0
 11
-0.5914414510540424
 21
-1.408666666666666
 31
0.0
  0
LINE
  5
1C7
330
15D
100
AcDbEntity
  8
AM_4
100
AcDbLine
 10
-0.3857685577379689
 20
-1.61
 30
0.0
 11
-0.385768557737969
 21
-1.408666666666666
 31
0.0
  0
LINE
  5
1C8
330
15D
100
AcDbEntity
  8
AM_4
100
AcDbLine
 10
-0.6167384408657909
 20
-1.408666666666666
 30
0.0
 11
-0.6167384408657909
 21
-1.61
 31
0.0
  0
LINE
  5
1C9
330
15D
100
AcDbEntity
  8
AM_4
100
AcDbLine
 10
-1.315789473684211
 20
-1.408666666666666
 30
0.0
 11
-1.315789473684211
 21
-1.61
 31
0.0
  0
LINE
  5
1CA
330
15D
100
AcDbEntity
  8
AM_4
100
AcDbLine
 10
1.315789473684211
 20
-1.61
 30
0.0
 11
1.315789473684211
 21
-1.408666666666666
 31
0.0
  0
LINE
  5
1CB
330
15D
100
AcDbEntity
  8
AM_4
100
AcDbLine
 10
-0.0994999993553689
 20
-1.61
 30
0.0
 11
-1.315789473684211
 21
-1.61
 31
0.0
  0
LINE
  5
1CC
330
15D
100
AcDbEntity
  8
AM_4
100
AcDbLine
 10
1.315789473684211
 20
-1.61
 30
0.0
 11
0.0995
 21
-1.61
 31
0.0
  0
LINE
  5
1CD
330
15D
100
AcDbEntity
  8
AM_4
100
AcDbLine
 10
-1.361180553784104
 20
-0.91
 30
0.0
 11
-1.361180553784104
 21
-1.338666666666667
 31
0.0
  0
LINE
  5
1CE
330
15D
100
AcDbEntity
  8
AM_4
100
AcDbLine
 10
1.361180553784104
 20
-0.91
 30
0.0
 11
1.361180553784104
 21
-1.338666666666667
 31
0.0
  0
LINE
  5
1CF
330
15D
100
AcDbEntity
  8
AM_4
100
AcDbLine
 10
1.594284188595369
 20
1.836875
 30
0.0
 11
-1.594284188578659
 21
1.836875
 31
0.0
  0
ARC
  5
1D0
330
15D
100
AcDbEntity
  8
AM_4
100
AcDbCircle
 10
-1.594284188034188
 20
1.799214743589743
 30
0.0
 40
0.0376602564102564
100
AcDbArc
 50
90.0
 51
180.0
  0
ARC
  5
1D1
330
15D
100
AcDbEntity
  8
AM_4
100
AcDbCircle
 10
1.594284188034188
 20
1.799214743589743
 30
0.0
 40
0.0376602564102564
100
AcDbArc
 50
0.0
 51
90.0
  0
LINE
  5
1D2
330
15D
100
AcDbEntity
  8
AM_4
100
AcDbLine
 10
1.631944444444444
 20
1.799214743589743
 30
0.0
 11
-1.631944444444444
 21
1.799214743589743
 31
0.0
  0
LINE
  5
1D3
330
15D
100
AcDbEntity
  8
AM_4
100
AcDbLine
 10
-1.631944444444444
 20
1.799214743589743
 30
0.0
 11
-1.631944444444444
 21
1.75
 31
0.0
  0
LINE
  5
1D4
330
15D
100
AcDbEntity
  8
AM_4
100
AcDbLine
 10
1.631944444444444
 20
1.75
 30
0.0
 11
1.631944444444444
 21
1.799214743589743
 31
0.0
  0
LWPOLYLINE
  5
1D5
330
15D
100
AcDbEntity
  8
AM_4
100
AcDbPolyline
 90
        6
 70
     0
 43
0.0
 10
1.147352346169034
 20
-1.338666666666667
 10
1.152490271693581
 20
-1.33814519195521
 10
1.163986598598591
 20
-1.332895342911153
 10
1.173567823920677
 20
-1.322565153523579
 10
1.180116599023137
 20
-1.308407780662395
 10
1.182991458137411
 20
-1.290411641501791
  0
LWPOLYLINE
  5
1D6
330
15D
100
AcDbEntity
  8
AM_4
100
AcDbPolyline
 90
        6
 70
     0
 43
0.0
 10
-1.182991458137411
 20
-1.290411641501791
 10
-1.180600143341385
 20
-1.306748431399271
 10
-1.174522548751443
 20
-1.321053446599463
 10
-1.16541894001053
 20
-1.331776718338507
 10
-1.154240197853232
 20
-1.337725489563238
 10
-1.147352346169034
 20
-1.338666666666667
  0
LINE
  5
1D7
330
15D
100
AcDbEntity
  8
AM_4
100
AcDbLine
 10
-1.536544848730685
 20
-1.290411641501791
 30
0.0
 11
-1.9391851026106
 21
-1.290411641501791
 31
0.0
  0
LINE
  5
1D8
330
15D
100
AcDbEntity
  8
AM_4
100
AcDbLine
 10
-1.536544848730685
 20
-1.290411641501791
 30
0.0
 11
-1.546016747317198
 21
-0.9100000008011353
 31
0.0
  0
LINE
  5
1D9
330
15D
100
AcDbEntity
  8
AM_4
100
AcDbLine
 10
-1.192463356723924
 20
-0.9100000008011353
 30
0.0
 11
-1.182991458137411
 21
-1.290411641501791
 31
0.0
  0
LINE
  5
1DA
330
15D
100
AcDbEntity
  8
AM_4
100
AcDbLine
 10
1.182991458137411
 20
-1.290411641501791
 30
0.0
 11
-1.182991458137411
 21
-1.290411641501791
 31
0.0
  0
LINE
  5
1DB
330
15D
100
AcDbEntity
  8
AM_4
100
AcDbLine
 10
1.182991458137411
 20
-1.290411641501791
 30
0.0
 11
1.192463356723924
 21
-0.9100000008011353
 31
0.0
  0
LINE
  5
1DC
330
15D
100
AcDbEntity
  8
AM_4
100
AcDbLine
 10
1.546016747317198
 20
-0.9100000008011353
 30
0.0
 11
1.536544848730685
 21
-1.290411641501791
 31
0.0
  0
LINE
  5
1DD
330
15D
100
AcDbEntity
  8
AM_4
100
AcDbLine
 10
1.9391851026106
 20
-1.290411641501791
 30
0.0
 11
1.952469369855462
 21
-0.91
 31
0.0
  0
LINE
  5
1DE
330
15D
100
AcDbEntity
  8
AM_4
100
AcDbLine
 10
-1.952469369855462
 20
-0.91
 30
0.0
 11
-1.9391851026106
 21
-1.290411641501791
 31
0.0
  0
LINE
  5
1DF
330
15D
100
AcDbEntity
  8
AM_4
100
AcDbLine
 10
1.9391851026106
 20
-1.290411641501791
 30
0.0
 11
1.536544848730685
 21
-1.290411641501791
 31
0.0
  0
ENDBLK
  5
160
330
15D
100
AcDbEntity
  8
0
100
AcDbBlockEnd
  0
BLOCK
  5
1E2
330
1E0
100
AcDbEntity
  8
0
100
AcDbBlockBegin
  2
8_B072322_0_in_072322_4
 70
     2
 10
0.0
 20
0.0
 30
0.0
  3
8_B072322_0_in_072322_4
  1

  0
ATTDEF
  5
1E4
330
1E0
100
AcDbEntity
  8
AM_6
100
AcDbText
 10
8.815
 20
2.926
 30
0.0
 40
0.5
  1
SFC-207-500-(Contact Seal)-Housing
100
AcDbAttributeDefinition
  3

  2
NN
 70
     8
280
     0
  0
ATTDEF
  5
1E5
330
1E0
100
AcDbEntity
  8
AM_6
100
AcDbText
 10
8.815
 20
2.426
 30
0.0
 40
0.5
  1
Steal Imperial Piloted Flange Bearing-Inch-207-500
100
AcDbAttributeDefinition
  3

  2
NT
 70
     8
280
     0
  0
ATTDEF
  5
1E6
330
1E0
100
AcDbEntity
  8
AM_6
100
AcDbText
 10
8.815
 20
1.926
 30
0.0
 40
0.5
  1
B072322
100
AcDbAttributeDefinition
  3

  2
NB
 70
     8
280
     0
  0
ATTDEF
  5
1E7
330
1E0
100
AcDbEntity
  8
AM_6
100
AcDbText
 10
8.815
 20
1.426
 30
0.0
 40
0.5
  1
$PN.
100
AcDbAttributeDefinition
  3

  2
NBSYN
 70
     8
280
     0
  0
ATTDEF
  5
1E8
330
1E0
100
AcDbEntity
  8
AM_6
100
AcDbText
 10
8.815
 20
0.9260000000000002
 30
0.0
 40
0.5
  1
B072322
100
AcDbAttributeDefinition
  3

  2
LINA
 70
     8
280
     0
  0
ATTDEF
  5
1E9
330
1E0
100
AcDbEntity
  8
AM_6
100
AcDbText
 10
8.815
 20
0.4260000000000002
 30
0.0
 40
0.5
  1
2-1/2
100
AcDbAttributeDefinition
  3

  2
SS
 70
     8
280
     0
  0
ATTDEF
  5
1EA
330
1E0
100
AcDbEntity
  8
AM_6
100
AcDbText
 10
8.815
 20
-0.0739999999999998
 30
0.0
 40
0.5
  1
2.50000
100
AcDbAttributeDefinition
  3

  2
SS1
 70
     8
280
     0
  0
ATTDEF
  5
1EB
330
1E0
100
AcDbEntity
  8
AM_6
100
AcDbText
 10
8.815
 20
-0.5739999999999998
 30
0.0
 40
0.5
  1
072291
100
AcDbAttributeDefinition
  3

  2
PN1
 70
     8
280
     0
  0
ATTDEF
  5
1EC
330
1E0
100
AcDbEntity
  8
AM_6
100
AcDbText
 10
8.815
 20
-1.074
 30
0.0
 40
0.5
  1
072322
100
AcDbAttributeDefinition
  3

  2
PN2
 70
     8
280
     0
  0
ATTDEF
  5
1ED
330
1E0
100
AcDbEntity
  8
AM_6
100
AcDbText
 10
8.815
 20
-1.574
 30
0.0
 40
0.5
  1
Expansion
100
AcDbAttributeDefinition
  3

  2
TYPE
 70
     8
280
     0
  0
ATTDEF
  5
1EE
330
1E0
100
AcDbEntity
  8
AM_6
100
AcDbText
 10
8.815
 20
-2.074
 30
0.0
 40
0.5
  1
Contact Seal
100
AcDbAttributeDefinition
  3

  2
ST
 70
     8
280
     0
  0
ATTDEF
  5
1EF
330
1E0
100
AcDbEntity
  8
AM_6
100
AcDbText
 10
8.815
 20
-2.574
 30
0.0
 40
0.5
  1
SFC-IP-208/R
100
AcDbAttributeDefinition
  3

  2
DESCRIPTIONS
 70
     8
280
     0
  0
ATTDEF
  5
1F0
330
1E0
100
AcDbEntity
  8
AM_6
100
AcDbText
 10
8.815
 20
-3.074
 30
0.0
 40
0.5
  1
3.43
100
AcDbAttributeDefinition
  3

  2
A
 70
     8
280
     0
  0
ATTDEF
  5
1F1
330
1E0
100
AcDbEntity
  8
AM_6
100
AcDbText
 10
8.815
 20
-3.574
 30
0.0
 40
0.5
  1
3.430
100
AcDbAttributeDefinition
  3

  2
A1
 70
     8
280
     0
  0
ATTDEF
  5
1F2
330
1E0
100
AcDbEntity
  8
AM_6
100
AcDbText
 10
8.815
 20
-4.074
 30
0.0
 40
0.5
  1
7.63
100
AcDbAttributeDefinition
  3

  2
B
 70
     8
280
     0
  0
ATTDEF
  5
1F3
330
1E0
100
AcDbEntity
  8
AM_6
100
AcDbText
 10
8.815
 20
-4.574
 30
0.0
 40
0.5
  1
7.6300
100
AcDbAttributeDefinition
  3

  2
B1
 70
     8
280
     0
  0
ATTDEF
  5
1F4
330
1E0
100
AcDbEntity
  8
AM_6
100
AcDbText
 10
8.815
 20
-5.074
 30
0.0
 40
0.5
  1
2.66
100
AcDbAttributeDefinition
  3

  2
C
 70
     8
280
     0
  0
ATTDEF
  5
1F5
330
1E0
100
AcDbEntity
  8
AM_6
100
AcDbText
 10
8.815
 20
-5.574
 30
0.0
 40
0.5
  1
2.6600
100
AcDbAttributeDefinition
  3

  2
C1
 70
     8
280
     0
  0
ATTDEF
  5
1F6
330
1E0
100
AcDbEntity
  8
AM_6
100
AcDbText
 10
8.815
 20
-6.074
 30
0.0
 40
0.5
  1
4.60
100
AcDbAttributeDefinition
  3

  2
D
 70
     8
280
     0
  0
ATTDEF
  5
1F7
330
1E0
100
AcDbEntity
  8
AM_6
100
AcDbText
 10
8.815
 20
-6.574
 30
0.0
 40
0.5
  1
4.6000
100
AcDbAttributeDefinition
  3

  2
D1
 70
     8
280
     0
  0
ATTDEF
  5
1F8
330
1E0
100
AcDbEntity
  8
AM_6
100
AcDbText
 10
8.815
 20
-7.074
 30
0.0
 40
0.5
  1
6.500
100
AcDbAttributeDefinition
  3

  2
DD
 70
     8
280
     0
  0
ATTDEF
  5
1F9
330
1E0
100
AcDbEntity
  8
AM_6
100
AcDbText
 10
8.815
 20
-7.574
 30
0.0
 40
0.5
  1
6.5000
100
AcDbAttributeDefinition
  3

  2
DD1
 70
     8
280
     0
  0
ATTDEF
  5
1FA
330
1E0
100
AcDbEntity
  8
AM_6
100
AcDbText
 10
8.815
 20
-8.074
 30
0.0
 40
0.5
  1
1.2500
100
AcDbAttributeDefinition
  3

  2
E
 70
     8
280
     0
  0
ATTDEF
  5
1FB
330
1E0
100
AcDbEntity
  8
AM_6
100
AcDbText
 10
8.815
 20
-8.574
 30
0.0
 40
0.5
  1
1.2500
100
AcDbAttributeDefinition
  3

  2
E1
 70
     8
280
     0
  0
ATTDEF
  5
1FC
330
1E0
100
AcDbEntity
  8
AM_6
100
AcDbText
 10
8.815
 20
-9.074
 30
0.0
 40
0.5
  1
0.5000
100
AcDbAttributeDefinition
  3

  2
F
 70
     8
280
     0
  0
ATTDEF
  5
1FD
330
1E0
100
AcDbEntity
  8
AM_6
100
AcDbText
 10
8.815
 20
-9.574
 30
0.0
 40
0.5
  1
0.50000
100
AcDbAttributeDefinition
  3

  2
F1
 70
     8
280
     0
  0
ATTDEF
  5
1FE
330
1E0
100
AcDbEntity
  8
AM_6
100
AcDbText
 10
8.815
 20
-10.074
 30
0.0
 40
0.5
  1
1.86
100
AcDbAttributeDefinition
  3

  2
G
 70
     8
280
     0
  0
ATTDEF
  5
1FF
330
1E0
100
AcDbEntity
  8
AM_6
100
AcDbText
 10
8.815
 20
-10.574
 30
0.0
 40
0.5
  1
1.86
100
AcDbAttributeDefinition
  3

  2
G1
 70
     8
280
     0
  0
ATTDEF
  5
200
330
1E0
100
AcDbEntity
  8
AM_6
100
AcDbText
 10
8.815
 20
-11.074
 30
0.0
 40
0.5
  1
0.50
100
AcDbAttributeDefinition
  3

  2
H
 70
     8
280
     0
  0
ATTDEF
  5
201
330
1E0
100
AcDbEntity
  8
AM_6
100
AcDbText
 10
8.815
 20
-11.574
 30
0.0
 40
0.5
  1
0.50
100
AcDbAttributeDefinition
  3

  2
H1
 70
     8
280
     0
  0
ATTDEF
  5
202
330
1E0
100
AcDbEntity
  8
AM_6
100
AcDbText
 10
8.815
 20
-12.074
 30
0.0
 40
0.5
  1
5.500
100
AcDbAttributeDefinition
  3

  2
K
 70
     8
280
     0
  0
ATTDEF
  5
203
330
1E0
100
AcDbEntity
  8
AM_6
100
AcDbText
 10
8.815
 20
-12.574
 30
0.0
 40
0.5
  1
5.500
100
AcDbAttributeDefinition
  3

  2
K1
 70
     8
280
     0
  0
ATTDEF
  5
204
330
1E0
100
AcDbEntity
  8
AM_6
100
AcDbText
 10
8.815
 20
-13.074
 30
0.0
 40
0.5
  1
3.80
100
AcDbAttributeDefinition
  3

  2
L
 70
     8
280
     0
  0
ATTDEF
  5
205
330
1E0
100
AcDbEntity
  8
AM_6
100
AcDbText
 10
8.815
 20
-13.574
 30
0.0
 40
0.5
  1
3.80
100
AcDbAttributeDefinition
  3

  2
L1
 70
     8
280
     0
  0
ATTDEF
  5
206
330
1E0
100
AcDbEntity
  8
AM_6
100
AcDbText
 10
8.815
 20
-14.074
 30
0.0
 40
0.5
  1
0.5000
100
AcDbAttributeDefinition
  3

  2
M
 70
     8
280
     0
  0
ATTDEF
  5
207
330
1E0
100
AcDbEntity
  8
AM_6
100
AcDbText
 10
8.815
 20
-14.574
 30
0.0
 40
0.5
  1
0.5000
100
AcDbAttributeDefinition
  3

  2
M1
 70
     8
280
     0
  0
ATTDEF
  5
208
330
1E0
100
AcDbEntity
  8
AM_6
100
AcDbText
 10
8.815
 20
-15.074
 30
0.0
 40
0.5
  1
3.61
100
AcDbAttributeDefinition
  3

  2
N
 70
     8
280
     0
  0
ATTDEF
  5
209
330
1E0
100
AcDbEntity
  8
AM_6
100
AcDbText
 10
8.815
 20
-15.574
 30
0.0
 40
0.5
  1
3.61
100
AcDbAttributeDefinition
  3

  2
N1
 70
     8
280
     0
  0
ATTDEF
  5
20A
330
1E0
100
AcDbEntity
  8
AM_6
100
AcDbText
 10
8.815
 20
-16.074
 30
0.0
 40
0.5
  1
1.55
100
AcDbAttributeDefinition
  3

  2
P
 70
     8
280
     0
  0
ATTDEF
  5
20B
330
1E0
100
AcDbEntity
  8
AM_6
100
AcDbText
 10
8.815
 20
-16.574
 30
0.0
 40
0.5
  1
1.55
100
AcDbAttributeDefinition
  3

  2
P1
 70
     8
280
     0
  0
ATTDEF
  5
20C
330
1E0
100
AcDbEntity
  8
AM_6
100
AcDbText
 10
8.815
 20
-17.074
 30
0.0
 40
0.5
  1
1.75
100
AcDbAttributeDefinition
  3

  2
Q
 70
     8
280
     0
  0
ATTDEF
  5
20D
330
1E0
100
AcDbEntity
  8
AM_6
100
AcDbText
 10
8.815
 20
-17.574
 30
0.0
 40
0.5
  1
1.75
100
AcDbAttributeDefinition
  3

  2
Q1
 70
     8
280
     0
  0
ATTDEF
  5
20E
330
1E0
100
AcDbEntity
  8
AM_6
100
AcDbText
 10
8.815
 20
-18.074
 30
0.0
 40
0.5
  1
0.25
100
AcDbAttributeDefinition
  3

  2
X
 70
     8
280
     0
  0
ATTDEF
  5
20F
330
1E0
100
AcDbEntity
  8
AM_6
100
AcDbText
 10
8.815
 20
-18.574
 30
0.0
 40
0.5
  1
0.25
100
AcDbAttributeDefinition
  3

  2
X1
 70
     8
280
     0
  0
ATTDEF
  5
210
330
1E0
100
AcDbEntity
  8
AM_6
100
AcDbText
 10
8.815
 20
-19.074
 30
0.0
 40
0.5
  1
0.025
100
AcDbAttributeDefinition
  3

  2
Y
 70
     8
280
     0
  0
ATTDEF
  5
211
330
1E0
100
AcDbEntity
  8
AM_6
100
AcDbText
 10
8.815
 20
-19.574
 30
0.0
 40
0.5
  1
0.025
100
AcDbAttributeDefinition
  3

  2
Y1
 70
     8
280
     0
  0
ATTDEF
  5
212
330
1E0
100
AcDbEntity
  8
AM_6
100
AcDbText
 10
8.815
 20
-20.074
 30
0.0
 40
0.5
  1
2.94
100
AcDbAttributeDefinition
  3

  2
Z
 70
     8
280
     0
  0
ATTDEF
  5
213
330
1E0
100
AcDbEntity
  8
AM_6
100
AcDbText
 10
8.815
 20
-20.574
 30
0.0
 40
0.5
  1
2.94
100
AcDbAttributeDefinition
  3

  2
Z1
 70
     8
280
     0
  0
ATTDEF
  5
214
330
1E0
100
AcDbEntity
  8
AM_6
100
AcDbText
 10
8.815
 20
-21.074
 30
0.0
 40
0.5
  1
4.7241
100
AcDbAttributeDefinition
  3

  2
BORE
 70
     8
280
     0
  0
ATTDEF
  5
215
330
1E0
100
AcDbEntity
  8
AM_6
100
AcDbText
 10
8.815
 20
-21.574
 30
0.0
 40
0.5
  1
0.1003330
100
AcDbAttributeDefinition
  3

  2
O
 70
     8
280
     0
  0
ATTDEF
  5
216
330
1E0
100
AcDbEntity
  8
AM_6
100
AcDbText
 10
8.815
 20
-22.074
 30
0.0
 40
0.5
  1
baldor
100
AcDbAttributeDefinition
  3

  2
COMPANY
 70
     8
280
     0
  0
LINE
  5
217
330
1E0
100
AcDbEntity
  8
AM_9
100
AcDbLine
 10
-3.45835
 20
0.0
 30
0.0
 11
-3.45835
 21
-0.4583499999999998
 31
0.0
  0
LINE
  5
218
330
1E0
100
AcDbEntity
  8
AM_9
100
AcDbLine
 10
-3.04165
 20
-0.4583499999999998
 30
0.0
 11
-3.04165
 21
0.0
 31
0.0
  0
LINE
  5
219
330
1E0
100
AcDbEntity
  8
AM_9
100
AcDbLine
 10
3.04165
 20
0.0
 30
0.0
 11
3.04165
 21
-0.4583499999999998
 31
0.0
  0
LINE
  5
21A
330
1E0
100
AcDbEntity
  8
AM_9
100
AcDbLine
 10
3.45835
 20
-0.4583499999999998
 30
0.0
 11
3.45835
 21
0.0
 31
0.0
  0
LINE
  5
21B
330
1E0
100
AcDbEntity
  8
AM_9
100
AcDbLine
 10
3.45835
 20
-0.4583499999999998
 30
0.0
 11
3.04165
 21
-0.4583499999999998
 31
0.0
  0
LINE
  5
21C
330
1E0
100
AcDbEntity
  8
AM_9
100
AcDbLine
 10
3.04165
 20
-0.4583499999999998
 30
0.0
 11
3.0
 21
-0.5
 31
0.0
  0
LINE
  5
21D
330
1E0
100
AcDbEntity
  8
AM_9
100
AcDbLine
 10
3.5
 20
-0.5
 30
0.0
 11
3.45835
 21
-0.4583499999999998
 31
0.0
  0
LINE
  5
21E
330
1E0
100
AcDbEntity
  8
AM_9
100
AcDbLine
 10
-3.04165
 20
-0.4583499999999998
 30
0.0
 11
-3.45835
 21
-0.4583499999999998
 31
0.0
  0
LINE
  5
21F
330
1E0
100
AcDbEntity
  8
AM_9
100
AcDbLine
 10
-3.45835
 20
-0.4583499999999998
 30
0.0
 11
-3.5
 21
-0.5
 31
0.0
  0
LINE
  5
220
330
1E0
100
AcDbEntity
  8
AM_9
100
AcDbLine
 10
-3.0
 20
-0.5
 30
0.0
 11
-3.04165
 21
-0.4583499999999998
 31
0.0
  0
LINE
  5
221
330
1E0
100
AcDbEntity
  8
AM_9
100
AcDbLine
 10
2.36205
 20
-0.9100000000000001
 30
0.0
 11
2.36205
 21
1.75
 31
0.0
  0
LINE
  5
222
330
1E0
100
AcDbEntity
  8
AM_9
100
AcDbLine
 10
-2.36205
 20
1.75
 30
0.0
 11
-2.36205
 21
-0.9100000000000001
 31
0.0
  0
LINE
  5
223
330
1E0
100
AcDbEntity
  8
AM_9
100
AcDbLine
 10
-1.375
 20
-0.4999999999999998
 30
0.0
 11
-1.375
 21
0.0000000000000002
 31
0.0
  0
LINE
  5
224
330
1E0
100
AcDbEntity
  8
AM_9
100
AcDbLine
 10
-1.875
 20
0.0000000000000002
 30
0.0
 11
-1.875
 21
-0.4999999999999998
 31
0.0
  0
LINE
  5
225
330
1E0
100
AcDbEntity
  8
AM_9
100
AcDbLine
 10
1.875
 20
-0.4999999999999998
 30
0.0
 11
1.875
 21
0.0000000000000002
 31
0.0
  0
LINE
  5
226
330
1E0
100
AcDbEntity
  8
AM_9
100
AcDbLine
 10
1.375
 20
0.0000000000000002
 30
0.0
 11
1.375
 21
-0.4999999999999998
 31
0.0
  0
LINE
  5
227
330
1E0
100
AcDbEntity
  8
AM_9
100
AcDbLine
 10
0.1243031678415305
 20
-0.9099999999999991
 30
0.0
 11
-0.1243031678415306
 21
-0.9099999999999991
 31
0.0
  0
LINE
  5
228
330
1E0
100
AcDbEntity
  8
AM_5
100
AcDbLine
 10
3.5
 20
-0.0000000000000001
 30
0.0
 11
3.5
 21
-0.5
 31
0.0
  0
LINE
  5
229
330
1E0
100
AcDbEntity
  8
AM_5
100
AcDbLine
 10
3.0
 20
-0.0000000000000001
 30
0.0
 11
3.0
 21
-0.5
 31
0.0
  0
LINE
  5
22A
330
1E0
100
AcDbEntity
  8
AM_5
100
AcDbLine
 10
-3.0
 20
-0.0000000000000001
 30
0.0
 11
-3.0
 21
-0.5
 31
0.0
  0
LINE
  5
22B
330
1E0
100
AcDbEntity
  8
AM_5
100
AcDbLine
 10
-3.5
 20
-0.0000000000000001
 30
0.0
 11
-3.5
 21
-0.4999999999999994
 31
0.0
  0
LINE
  5
22E
330
1E0
100
AcDbEntity
  8
AM_7
100
AcDbLine
 10
-1.625
 20
0.0250000000000002
 30
0.0
 11
-1.625
 21
-0.5249999999999998
 31
0.0
  0
LINE
  5
22F
330
1E0
100
AcDbEntity
  8
AM_7
100
AcDbLine
 10
1.625
 20
0.0249999999999998
 30
0.0
 11
1.625
 21
-0.5250000000000002
 31
0.0
  0
LINE
  5
230
330
1E0
100
AcDbEntity
  8
AM_7
100
AcDbLine
 10
3.25
 20
0.025
 30
0.0
 11
3.25
 21
-0.525
 31
0.0
  0
LINE
  5
231
330
1E0
100
AcDbEntity
  8
AM_7
100
AcDbLine
 10
-3.25
 20
0.025
 30
0.0
 11
-3.25
 21
-0.525
 31
0.0
  0
LINE
  5
232
330
1E0
100
AcDbEntity
  8
AM_7
100
AcDbLine
 10
0.0
 20
2.926
 30
0.0
 11
0.0
 21
-2.926
 31
0.0
  0
LINE
  5
233
330
1E0
100
AcDbEntity
  8
AM_4
100
AcDbLine
 10
-2.612499999999999
 20
1.75
 30
0.0
 11
2.612499999999999
 21
1.75
 31
0.0
  0
LINE
  5
234
330
1E0
100
AcDbEntity
  8
AM_4
100
AcDbLine
 10
-2.612499999999999
 20
1.75
 30
0.0
 11
-2.629960384745874
 21
1.25
 31
0.0
  0
LINE
  5
235
330
1E0
100
AcDbEntity
  8
AM_4
100
AcDbLine
 10
2.629960384745874
 20
1.25
 30
0.0
 11
2.612499999999999
 21
1.75
 31
0.0
  0
LINE
  5
236
330
1E0
100
AcDbEntity
  8
AM_4
100
AcDbLine
 10
0.1243031678415305
 20
-0.9099999999999991
 30
0.0
 11
2.75
 21
-0.9100000000000001
 31
0.0
  0
LINE
  5
237
330
1E0
100
AcDbEntity
  8
AM_4
100
AcDbLine
 10
2.75
 20
-0.9100000000000001
 30
0.0
 11
2.75
 21
-0.4999999999999998
 31
0.0
  0
LINE
  5
238
330
1E0
100
AcDbEntity
  8
AM_4
100
AcDbLine
 10
-2.75
 20
-0.4999999999999998
 30
0.0
 11
-2.75
 21
-0.9100000000000001
 31
0.0
  0
LINE
  5
239
330
1E0
100
AcDbEntity
  8
AM_4
100
AcDbLine
 10
-2.75
 20
-0.9100000000000001
 30
0.0
 11
-0.1243031678415306
 21
-0.9099999999999991
 31
0.0
  0
LINE
  5
23A
330
1E0
100
AcDbEntity
  8
AM_4
100
AcDbLine
 10
-2.75
 20
1.25
 30
0.0
 11
2.75
 21
1.25
 31
0.0
  0
LINE
  5
23B
330
1E0
100
AcDbEntity
  8
AM_4
100
AcDbLine
 10
2.75
 20
0.0
 30
0.0
 11
2.75
 21
1.25
 31
0.0
  0
LINE
  5
23C
330
1E0
100
AcDbEntity
  8
AM_4
100
AcDbLine
 10
-2.75
 20
1.25
 30
0.0
 11
-2.75
 21
0.0
 31
0.0
  0
LINE
  5
23D
330
1E0
100
AcDbEntity
  8
AM_4
100
AcDbLine
 10
-0.5
 20
-0.4999999999999998
 30
0.0
 11
-0.5
 21
-0.9099999999999991
 31
0.0
  0
LINE
  5
23E
330
1E0
100
AcDbEntity
  8
AM_4
100
AcDbLine
 10
0.5
 20
-0.4999999999999998
 30
0.0
 11
0.5
 21
-0.9099999999999991
 31
0.0
  0
LINE
  5
23F
330
1E0
100
AcDbEntity
  8
AM_4
100
AcDbLine
 10
-3.815
 20
0.0
 30
0.0
 11
3.815
 21
0.0
 31
0.0
  0
LINE
  5
240
330
1E0
100
AcDbEntity
  8
AM_4
100
AcDbLine
 10
-3.815
 20
-0.4999999999999998
 30
0.0
 11
3.815
 21
-0.4999999999999998
 31
0.0
  0
LINE
  5
241
330
1E0
100
AcDbEntity
  8
AM_4
100
AcDbLine
 10
3.815
 20
-0.4999999999999998
 30
0.0
 11
3.815
 21
0.0
 31
0.0
  0
LINE
  5
242
330
1E0
100
AcDbEntity
  8
AM_4
100
AcDbLine
 10
-3.815
 20
0.0
 30
0.0
 11
-3.815
 21
-0.4999999999999998
 31
0.0
  0
ENDBLK
  5
1E3
330
1E0
100
AcDbEntity
  8
0
100
AcDbBlockEnd
  0
ENDSEC
  0
SECTION
  2
ENTITIES
  0
INSERT
  5
6F
330
1F
100
AcDbEntity
  8
0
100
AcDbBlockReference
  2
1_072322_4
 10
0.0
 20
0.0
 30
0.0
  0
POINT
  5
244
330
1F
100
AcDbEntity
  8
ConnectionPoints
100
AcDbPoint
 10
0.0
 20
-0.7049999999999998
 30
3.025000000000001
  0
POINT
  5
245
330
1F
100
AcDbEntity
  8
ConnectionPoints
100
AcDbPoint
 10
0.0
 20
-1.508999666666667
 30
-1.663194444444444
  0
POINT
  5
246
330
1F
100
AcDbEntity
  8
ConnectionPoints
100
AcDbPoint
 10
0.0
 20
-1.508999666666667
 30
1.663194444444444
  0
POINT
  5
247
330
1F
100
AcDbEntity
  8
ConnectionPoints
100
AcDbPoint
 10
0.0
 20
-1.338666666666666
 30
0.0000000000000001
  0
POINT
  5
248
330
1F
100
AcDbEntity
  8
ConnectionPoints
100
AcDbPoint
 10
0.0
 20
-1.61
 30
0.0000000000000001
  0
POINT
  5
249
330
1F
100
AcDbEntity
  8
ConnectionPoints
100
AcDbPoint
 10
0.0
 20
-1.537666666666667
 30
0.0000000000000001
  0
POINT
  5
24A
330
1F
100
AcDbEntity
  8
ConnectionPoints
100
AcDbPoint
 10
0.0
 20
-1.338666666666666
 30
1.663194444444445
  0
POINT
  5
24B
330
1F
100
AcDbEntity
  8
ConnectionPoints
100
AcDbPoint
 10
0.0
 20
-1.509
 30
1.663194444444445
  0
POINT
  5
24C
330
1F
100
AcDbEntity
  8
ConnectionPoints
100
AcDbPoint
 10
0.0
 20
-1.338666666666666
 30
-1.663194444444444
  0
POINT
  5
24D
330
1F
100
AcDbEntity
  8
ConnectionPoints
100
AcDbPoint
 10
0.0
 20
-1.509
 30
-1.663194444444444
  0
POINT
  5
24E
330
1F
100
AcDbEntity
  8
ConnectionPoints
100
AcDbPoint
 10
0.0
 20
-1.338666666666666
 30
0.0000000000000001
  0
POINT
  5
24F
330
1F
100
AcDbEntity
  8
ConnectionPoints
100
AcDbPoint
 10
0.0
 20
-0.7049999999999998
 30
3.025000000000001
  0
POINT
  5
250
330
1F
100
AcDbEntity
  8
ConnectionPoints
100
AcDbPoint
 10
0.0
 20
-0.7050000000000006
 30
-3.025000000000001
  0
POINT
  5
251
330
1F
100
AcDbEntity
  8
ConnectionPoints
100
AcDbPoint
 10
0.0
 20
-1.61
 30
0.0000000000000001
  0
POINT
  5
252
330
1F
100
AcDbEntity
  8
ConnectionPoints
100
AcDbPoint
 10
0.0
 20
-1.86
 30
0.0000000000000001
  0
ENDSEC
  0
SECTION
  2
OBJECTS
  0
DICTIONARY
  5
C
330
0
100
AcDbDictionary
281
     1
  3
ACAD_DETAILVIEWSTYLE
350
25A
  3
ACAD_GROUP
350
D
  3
ACAD_LAYOUT
350
1A
  3
ACAD_MATERIAL
350
43
  3
ACAD_MLEADERSTYLE
350
6B
  3
ACAD_MLINESTYLE
350
17
  3
ACAD_PLOTSETTINGS
350
19
  3
ACAD_PLOTSTYLENAME
350
E
  3
ACAD_SCALELIST
350
47
  3
ACAD_SECTIONVIEWSTYLE
350
25B
  3
ACAD_TABLESTYLE
350
69
  3
ACAD_VISUALSTYLE
350
2A
  3
ACDB_RECOMPOSE_DATA
350
257
  3
AcDbVariableDictionary
350
253
  0
SUN
  5
6D
330
29
100
AcDbSun
 90
        1
290
     0
 63
     7
421
 16777215
 40
1.0
291
     1
 91
  2455826
 92
 54000000
292
     0
 70
     2
 71
   256
280
     1
  0
DICTIONARY
  5
25A
102
{ACAD_REACTORS
330
C
102
}
330
C
100
AcDbDictionary
281
     1
  0
DICTIONARY
  5
D
102
{ACAD_REACTORS
330
C
102
}
330
C
100
AcDbDictionary
281
     1
  0
DICTIONARY
  5
1A
102
{ACAD_REACTORS
330
C
102
}
330
C
100
AcDbDictionary
281
     1
  3
Layout1
350
1E
  3
Layout2
350
26
  3
Model
350
22
  0
DICTIONARY
  5
43
102
{ACAD_REACTORS
330
C
102
}
330
C
100
AcDbDictionary
281
     1
  3
ByBlock
350
45
  3
ByLayer
350
44
  3
Global
350
46
  0
DICTIONARY
  5
6B
102
{ACAD_REACTORS
330
C
102
}
330
C
100
AcDbDictionary
281
     1
  3
Standard
350
6C
  0
DICTIONARY
  5
17
102
{ACAD_REACTORS
330
C
102
}
330
C
100
AcDbDictionary
281
     1
  3
Standard
350
18
  0
DICTIONARY
  5
19
102
{ACAD_REACTORS
330
C
102
}
330
C
100
AcDbDictionary
281
     1
  0
ACDBDICTIONARYWDFLT
  5
E
102
{ACAD_REACTORS
330
C
102
}
330
C
100
AcDbDictionary
281
     1
  3
Normal
350
F
100
AcDbDictionaryWithDefault
340
F
  0
DICTIONARY
  5
47
102
{ACAD_REACTORS
330
C
102
}
330
C
100
AcDbDictionary
281
     1
  3
A0
350
48
  3
A1
350
49
  3
A2
350
4A
  3
A3
350
4B
  3
A4
350
4C
  3
A5
350
4D
  3
A6
350
4E
  3
A7
350
4F
  3
A8
350
50
  3
A9
350
51
  3
B0
350
52
  3
B1
350
53
  3
B2
350
54
  3
B3
350
55
  3
B4
350
56
  3
B5
350
57
  3
B6
350
58
  3
B7
350
59
  3
B8
350
5A
  3
B9
350
5B
  3
C0
350
5C
  3
C1
350
5D
  3
C2
350
5E
  3
C3
350
5F
  3
C4
350
60
  3
C5
350
61
  3
C6
350
62
  3
C7
350
63
  3
C8
350
64
  3
C9
350
65
  3
D0
350
66
  3
D1
350
67
  3
D2
350
68
  0
DICTIONARY
  5
25B
102
{ACAD_REACTORS
330
C
102
}
330
C
100
AcDbDictionary
281
     1
  0
DICTIONARY
  5
69
102
{ACAD_REACTORS
330
C
102
}
330
C
100
AcDbDictionary
281
     1
  3
Standard
350
6A
  0
DICTIONARY
  5
2A
102
{ACAD_REACTORS
330
C
102
}
330
C
100
AcDbDictionary
281
     1
  3
2dWireframe
350
2F
  3
Basic
350
32
  3
Brighten
350
36
  3
ColorChange
350
3A
  3
Conceptual
350
34
  3
Dim
350
35
  3
EdgeColorOff
350
3D
  3
Facepattern
350
39
  3
Flat
350
2B
  3
FlatWithEdges
350
2C
  3
Gouraud
350
2D
  3
GouraudWithEdges
350
2E
  3
Hidden
350
31
  3
JitterOff
350
3B
  3
Linepattern
350
38
  3
OverhangOff
350
3C
  3
Realistic
350
33
  3
Shaded
350
42
  3
Shaded with edges
350
41
  3
Shades of Gray
350
3E
  3
Sketchy
350
3F
  3
Thicken
350
37
  3
Wireframe
350
30
  3
X-Ray
350
40
  0
XRECORD
  5
257
102
{ACAD_REACTORS
330
C
102
}
330
C
100
AcDbXrecord
280
     1
 90
        1
330
6A
  0
DICTIONARY
  5
253
102
{ACAD_REACTORS
330
C
102
}
330
C
100
AcDbDictionary
281
     1
  3
CANNOSCALE
350
254
  3
CMLEADERSTYLE
350
259
  3
CTABLESTYLE
350
258
  0
LAYOUT
  5
1E
102
{ACAD_REACTORS
330
1A
102
}
330
1A
100
AcDbPlotSettings
  1

  2
none_device
  4

  6

 40
0.0
 41
0.0
 42
0.0
 43
0.0
 44
0.0
 45
0.0
 46
0.0
 47
0.0
 48
0.0
 49
0.0
140
0.0
141
0.0
142
1.0
143
1.0
 70
   688
 72
     0
 73
     0
 74
     5
  7

 75
    16
 76
     0
 77
     2
 78
   300
147
1.0
148
0.0
149
0.0
100
AcDbLayout
  1
Layout1
 70
     1
 71
     1
 10
0.0
 20
0.0
 11
12.0
 21
9.0
 12
0.0
 22
0.0
 32
0.0
 14
1.000000000000000E+20
 24
1.000000000000000E+20
 34
1.000000000000000E+20
 15
-1.000000000000000E+20
 25
-1.000000000000000E+20
 35
-1.000000000000000E+20
146
0.0
 13
0.0
 23
0.0
 33
0.0
 16
1.0
 26
0.0
 36
0.0
 17
0.0
 27
1.0
 37
0.0
 76
     0
330
1B
  0
LAYOUT
  5
26
102
{ACAD_REACTORS
330
1A
102
}
330
1A
100
AcDbPlotSettings
  1

  2
none_device
  4

  6

 40
0.0
 41
0.0
 42
0.0
 43
0.0
 44
0.0
 45
0.0
 46
0.0
 47
0.0
 48
0.0
 49
0.0
140
0.0
141
0.0
142
1.0
143
1.0
 70
   688
 72
     0
 73
     0
 74
     5
  7

 75
    16
 76
     0
 77
     2
 78
   300
147
1.0
148
0.0
149
0.0
100
AcDbLayout
  1
Layout2
 70
     1
 71
     2
 10
0.0
 20
0.0
 11
0.0
 21
0.0
 12
0.0
 22
0.0
 32
0.0
 14
0.0
 24
0.0
 34
0.0
 15
0.0
 25
0.0
 35
0.0
146
0.0
 13
0.0
 23
0.0
 33
0.0
 16
1.0
 26
0.0
 36
0.0
 17
0.0
 27
1.0
 37
0.0
 76
     0
330
23
  0
LAYOUT
  5
22
102
{ACAD_REACTORS
330
1A
102
}
330
1A
100
AcDbPlotSettings
  1

  2
none_device
  4
Letter_(8.50_x_11.00_Inches)
  6

 40
6.35
 41
6.35
 42
6.35000508
 43
6.35000508
 44
215.9
 45
279.4
 46
0.0
 47
0.0
 48
0.0
 49
0.0
140
0.0
141
0.0
142
1.0
143
1.0
 70
  1712
 72
     0
 73
     0
 74
     0
  7

 75
     0
 76
     0
 77
     2
 78
   300
147
1.0
148
0.0
149
0.0
100
AcDbLayout
  1
Model
 70
     1
 71
     0
 10
0.0
 20
0.0
 11
12.0
 21
9.0
 12
0.0
 22
0.0
 32
0.0
 14
1.000000000000000E+20
 24
1.000000000000000E+20
 34
1.000000000000000E+20
 15
-1.000000000000000E+20
 25
-1.000000000000000E+20
 35
-1.000000000000000E+20
146
0.0
 13
0.0
 23
0.0
 33
0.0
 16
1.0
 26
0.0
 36
0.0
 17
0.0
 27
1.0
 37
0.0
 76
     0
330
1F
331
29
  0
MATERIAL
  5
45
102
{ACAD_REACTORS
330
43
102
}
330
43
100
AcDbMaterial
  1
ByBlock
 72
     1
 94
      127
  0
MATERIAL
  5
44
102
{ACAD_REACTORS
330
43
102
}
330
43
100
AcDbMaterial
  1
ByLayer
 72
     1
 94
      127
  0
MATERIAL
  5
46
102
{ACAD_REACTORS
330
43
102
}
330
43
100
AcDbMaterial
  1
Global
 72
     1
 94
      127
  0
MLEADERSTYLE
  5
6C
102
{ACAD_REACTORS
330
6B
102
}
330
6B
100
AcDbMLeaderStyle
179
     2
170
     2
171
     1
172
     0
 90
        2
 40
0.0
 41
0.0
173
     1
 91
-1056964608
340
14
 92
       -2
290
     1
 42
0.09
291
     1
 43
0.36
  3
Standard
341
0
 44
0.18
300

342
11
174
     1
178
     6
175
     1
176
     0
 93
-1056964608
 45
0.18
292
     0
297
     0
 46
0.18
343
0
 94
-1056964608
 47
1.0
 49
1.0
140
1.0
293
     1
141
0.0
294
     1
177
     0
142
1.0
295
     0
296
     0
143
0.125
271
     0
272
     9
273
     9
298
     0
  0
MLINESTYLE
  5
18
102
{ACAD_REACTORS
330
17
102
}
330
17
100
AcDbMlineStyle
  2
Standard
 70
     0
  3

 62
   256
 51
90.0
 52
90.0
 71
     2
 49
0.5
 62
   256
  6
BYLAYER
 49
-0.5
 62
   256
  6
BYLAYER
  0
ACDBPLACEHOLDER
  5
F
102
{ACAD_REACTORS
330
E
102
}
330
E
  0
SCALE
  5
48
102
{ACAD_REACTORS
330
47
102
}
330
47
100
AcDbScale
 70
     0
300
1:1
140
1.0
141
1.0
290
     1
  0
SCALE
  5
49
102
{ACAD_REACTORS
330
47
102
}
330
47
100
AcDbScale
 70
     0
300
1:2
140
1.0
141
2.0
290
     0
  0
SCALE
  5
4A
102
{ACAD_REACTORS
330
47
102
}
330
47
100
AcDbScale
 70
     0
300
1:4
140
1.0
141
4.0
290
     0
  0
SCALE
  5
4B
102
{ACAD_REACTORS
330
47
102
}
330
47
100
AcDbScale
 70
     0
300
1:5
140
1.0
141
5.0
290
     0
  0
SCALE
  5
4C
102
{ACAD_REACTORS
330
47
102
}
330
47
100
AcDbScale
 70
     0
300
1:8
140
1.0
141
8.0
290
     0
  0
SCALE
  5
4D
102
{ACAD_REACTORS
330
47
102
}
330
47
100
AcDbScale
 70
     0
300
1:10
140
1.0
141
10.0
290
     0
  0
SCALE
  5
4E
102
{ACAD_REACTORS
330
47
102
}
330
47
100
AcDbScale
 70
     0
300
1:16
140
1.0
141
16.0
290
     0
  0
SCALE
  5
4F
102
{ACAD_REACTORS
330
47
102
}
330
47
100
AcDbScale
 70
     0
300
1:20
140
1.0
141
20.0
290
     0
  0
SCALE
  5
50
102
{ACAD_REACTORS
330
47
102
}
330
47
100
AcDbScale
 70
     0
300
1:30
140
1.0
141
30.0
290
     0
  0
SCALE
  5
51
102
{ACAD_REACTORS
330
47
102
}
330
47
100
AcDbScale
 70
     0
300
1:40
140
1.0
141
40.0
290
     0
  0
SCALE
  5
52
102
{ACAD_REACTORS
330
47
102
}
330
47
100
AcDbScale
 70
     0
300
1:50
140
1.0
141
50.0
290
     0
  0
SCALE
  5
53
102
{ACAD_REACTORS
330
47
102
}
330
47
100
AcDbScale
 70
     0
300
1:100
140
1.0
141
100.0
290
     0
  0
SCALE
  5
54
102
{ACAD_REACTORS
330
47
102
}
330
47
100
AcDbScale
 70
     0
300
2:1
140
2.0
141
1.0
290
     0
  0
SCALE
  5
55
102
{ACAD_REACTORS
330
47
102
}
330
47
100
AcDbScale
 70
     0
300
4:1
140
4.0
141
1.0
290
     0
  0
SCALE
  5
56
102
{ACAD_REACTORS
330
47
102
}
330
47
100
AcDbScale
 70
     0
300
8:1
140
8.0
141
1.0
290
     0
  0
SCALE
  5
57
102
{ACAD_REACTORS
330
47
102
}
330
47
100
AcDbScale
 70
     0
300
10:1
140
10.0
141
1.0
290
     0
  0
SCALE
  5
58
102
{ACAD_REACTORS
330
47
102
}
330
47
100
AcDbScale
 70
     0
300
100:1
140
100.0
141
1.0
290
     0
  0
SCALE
  5
59
102
{ACAD_REACTORS
330
47
102
}
330
47
100
AcDbScale
 70
     0
300
1/128" = 1'-0"
140
0.0078125
141
12.0
290
     0
  0
SCALE
  5
5A
102
{ACAD_REACTORS
330
47
102
}
330
47
100
AcDbScale
 70
     0
300
1/64" = 1'-0"
140
0.015625
141
12.0
290
     0
  0
SCALE
  5
5B
102
{ACAD_REACTORS
330
47
102
}
330
47
100
AcDbScale
 70
     0
300
1/32" = 1'-0"
140
0.03125
141
12.0
290
     0
  0
SCALE
  5
5C
102
{ACAD_REACTORS
330
47
102
}
330
47
100
AcDbScale
 70
     0
300
1/16" = 1'-0"
140
0.0625
141
12.0
290
     0
  0
SCALE
  5
5D
102
{ACAD_REACTORS
330
47
102
}
330
47
100
AcDbScale
 70
     0
300
3/32" = 1'-0"
140
0.09375
141
12.0
290
     0
  0
SCALE
  5
5E
102
{ACAD_REACTORS
330
47
102
}
330
47
100
AcDbScale
 70
     0
300
1/8" = 1'-0"
140
0.125
141
12.0
290
     0
  0
SCALE
  5
5F
102
{ACAD_REACTORS
330
47
102
}
330
47
100
AcDbScale
 70
     0
300
3/16" = 1'-0"
140
0.1875
141
12.0
290
     0
  0
SCALE
  5
60
102
{ACAD_REACTORS
330
47
102
}
330
47
100
AcDbScale
 70
     0
300
1/4" = 1'-0"
140
0.25
141
12.0
290
     0
  0
SCALE
  5
61
102
{ACAD_REACTORS
330
47
102
}
330
47
100
AcDbScale
 70
     0
300
3/8" = 1'-0"
140
0.375
141
12.0
290
     0
  0
SCALE
  5
62
102
{ACAD_REACTORS
330
47
102
}
330
47
100
AcDbScale
 70
     0
300
1/2" = 1'-0"
140
0.5
141
12.0
290
     0
  0
SCALE
  5
63
102
{ACAD_REACTORS
330
47
102
}
330
47
100
AcDbScale
 70
     0
300
3/4" = 1'-0"
140
0.75
141
12.0
290
     0
  0
SCALE
  5
64
102
{ACAD_REACTORS
330
47
102
}
330
47
100
AcDbScale
 70
     0
300
1" = 1'-0"
140
1.0
141
12.0
290
     0
  0
SCALE
  5
65
102
{ACAD_REACTORS
330
47
102
}
330
47
100
AcDbScale
 70
     0
300
1-1/2" = 1'-0"
140
1.5
141
12.0
290
     0
  0
SCALE
  5
66
102
{ACAD_REACTORS
330
47
102
}
330
47
100
AcDbScale
 70
     0
300
3" = 1'-0"
140
3.0
141
12.0
290
     0
  0
SCALE
  5
67
102
{ACAD_REACTORS
330
47
102
}
330
47
100
AcDbScale
 70
     0
300
6" = 1'-0"
140
6.0
141
12.0
290
     0
  0
SCALE
  5
68
102
{ACAD_REACTORS
330
47
102
}
330
47
100
AcDbScale
 70
     0
300
1'-0" = 1'-0"
140
12.0
141
12.0
290
     0
  0
TABLESTYLE
  5
6A
102
{ACAD_REACTORS
330
69
102
}
102
{ACAD_XDICTIONARY
360
255
102
}
330
69
100
AcDbTableStyle
  3
Standard
 70
     0
 71
     0
 40
0.06
 41
0.06
280
     0
281
     0
  7
Standard
140
0.18
170
     2
 62
     0
 63
   257
283
     0
 90
        4
 91
        0
  1

274
    -2
284
     1
 64
     0
275
    -2
285
     1
 65
     0
276
    -2
286
     1
 66
     0
277
    -2
287
     1
 67
     0
278
    -2
288
     1
 68
     0
279
    -2
289
     1
 69
     0
  7
Standard
140
0.25
170
     5
 62
     0
 63
   257
283
     0
 90
        4
 91
        0
  1

274
    -2
284
     1
 64
     0
275
    -2
285
     1
 65
     0
276
    -2
286
     1
 66
     0
277
    -2
287
     1
 67
     0
278
    -2
288
     1
 68
     0
279
    -2
289
     1
 69
     0
  7
Standard
140
0.18
170
     5
 62
     0
 63
   257
283
     0
 90
        4
 91
        0
  1

274
    -2
284
     1
 64
     0
275
    -2
285
     1
 65
     0
276
    -2
286
     1
 66
     0
277
    -2
287
     1
 67
     0
278
    -2
288
     1
 68
     0
279
    -2
289
     1
 69
     0
  0
VISUALSTYLE
  5
2F
102
{ACAD_REACTORS
330
2A
102
}
330
2A
100
AcDbVisualStyle
  2
2dWireframe
 70
     4
177
     3
291
     0
 70
    58
 90
        0
176
     1
 90
        2
176
     1
 90
        0
176
     1
 90
        0
176
     1
 40
0.6
176
     1
 40
30.0
176
     1
 62
     7
420
 16777215
176
     1
 90
        1
176
     1
 90
        4
176
     1
 62
     7
176
     1
 62
   257
176
     1
 90
        1
176
     1
 90
        1
176
     1
 40
1.0
176
     1
 90
        0
176
     1
 62
   257
176
     1
 40
1.0
176
     1
 90
        1
176
     1
 90
        6
176
     1
 90
        2
176
     1
 62
     7
176
     1
 90
        5
176
     1
 90
        0
176
     1
 90
        0
176
     1
290
     0
176
     1
 90
        1
176
     1
 40
0.0
176
     1
 90
        0
176
     1
290
     1
176
     1
290
     1
176
     1
290
     0
176
     1
290
     0
176
     1
290
     0
176
     1
290
     0
176
     1
290
     0
176
     1
290
     0
176
     1
290
     0
176
     1
 90
       50
176
     1
 40
0.0
176
     1
 40
1.0
176
     1
 90
        0
176
     1
 62
    18
420
        0
176
     1
 90
       50
176
     1
 90
        3
176
     1
 62
     5
420
      255
176
     1
290
     0
176
     1
 90
       50
176
     1
 90
       50
176
     1
 90
       50
176
     1
290
     0
176
     1
 90
       50
176
     1
 62
   256
176
     0
 40
1.0
176
     0
 90
        2
176
     1
  1
strokes_ogs.tif
176
     1
290
     0
176
     1
 40
1.0
176
     1
 40
1.0
176
     1
  0
VISUALSTYLE
  5
32
102
{ACAD_REACTORS
330
2A
102
}
330
2A
100
AcDbVisualStyle
  2
Basic
 70
     7
177
     3
291
     1
 70
    58
 90
        1
176
     1
 90
        0
176
     1
 90
        1
176
     1
 90
        0
176
     1
 40
0.6
176
     1
 40
30.0
176
     1
 62
     7
420
 16777215
176
     1
 90
        0
176
     1
 90
        4
176
     1
 62
     7
176
     1
 62
   257
176
     1
 90
        1
176
     1
 90
        1
176
     1
 40
1.0
176
     1
 90
        8
176
     1
 62
     7
176
     1
 40
1.0
176
     1
 90
        1
176
     1
 90
        6
176
     1
 90
        2
176
     1
 62
     7
176
     1
 90
        5
176
     1
 90
        0
176
     1
 90
        0
176
     1
290
     0
176
     1
 90
        1
176
     1
 40
0.0
176
     1
 90
        0
176
     1
290
     0
176
     1
290
     1
176
     1
290
     1
176
     1
290
     0
176
     1
290
     0
176
     1
290
     0
176
     1
290
     0
176
     1
290
     0
176
     1
290
     0
176
     1
 90
       50
176
     1
 40
0.0
176
     1
 40
1.0
176
     1
 90
        0
176
     1
 62
    18
420
        0
176
     1
 90
       50
176
     1
 90
        3
176
     1
 62
     5
420
      255
176
     1
290
     0
176
     1
 90
       50
176
     1
 90
       50
176
     1
 90
       50
176
     1
290
     0
176
     1
 90
       50
176
     1
 62
   256
176
     0
 40
1.0
176
     0
 90
        2
176
     1
  1
strokes_ogs.tif
176
     1
290
     0
176
     1
 40
1.0
176
     1
 40
1.0
176
     1
  0
VISUALSTYLE
  5
36
102
{ACAD_REACTORS
330
2A
102
}
330
2A
100
AcDbVisualStyle
  2
Brighten
 70
    12
177
     3
291
     1
 70
    58
 90
        2
176
     1
 90
        2
176
     1
 90
        0
176
     1
 90
        0
176
     1
 40
0.6
176
     1
 40
30.0
176
     1
 62
     7
420
 16777215
176
     1
 90
        1
176
     1
 90
        4
176
     1
 62
     7
176
     1
 62
   257
176
     1
 90
        1
176
     1
 90
        1
176
     1
 40
1.0
176
     1
 90
        8
176
     1
 62
     7
176
     1
 40
1.0
176
     1
 90
        1
176
     1
 90
        6
176
     1
 90
        2
176
     1
 62
     7
176
     1
 90
        5
176
     1
 90
        0
176
     1
 90
        0
176
     1
290
     0
176
     1
 90
        1
176
     1
 40
50.0
176
     1
 90
        0
176
     1
290
     0
176
     1
290
     1
176
     1
290
     1
176
     1
290
     0
176
     1
290
     0
176
     1
290
     0
176
     1
290
     0
176
     1
290
     0
176
     1
290
     0
176
     1
 90
       50
176
     1
 40
0.0
176
     1
 40
1.0
176
     1
 90
        0
176
     1
 62
    18
420
        0
176
     1
 90
       50
176
     1
 90
        3
176
     1
 62
     5
420
      255
176
     1
290
     0
176
     1
 90
       50
176
     1
 90
       50
176
     1
 90
       50
176
     1
290
     0
176
     1
 90
       50
176
     1
 62
   256
176
     0
 40
1.0
176
     0
 90
        2
176
     1
  1
strokes_ogs.tif
176
     1
290
     0
176
     1
 40
1.0
176
     1
 40
1.0
176
     1
  0
VISUALSTYLE
  5
3A
102
{ACAD_REACTORS
330
2A
102
}
330
2A
100
AcDbVisualStyle
  2
ColorChange
 70
    16
177
     3
291
     1
 70
    58
 90
        2
176
     1
 90
        2
176
     1
 90
        3
176
     1
 90
        0
176
     1
 40
0.6
176
     1
 40
30.0
176
     1
 62
     8
420
  8421504
176
     1
 90
        1
176
     1
 90
        4
176
     1
 62
     7
176
     1
 62
   257
176
     1
 90
        1
176
     1
 90
        1
176
     1
 40
1.0
176
     1
 90
        8
176
     1
 62
     8
420
  8421504
176
     1
 40
1.0
176
     1
 90
        1
176
     1
 90
        6
176
     1
 90
        2
176
     1
 62
     7
176
     1
 90
        5
176
     1
 90
        0
176
     1
 90
        0
176
     1
290
     0
176
     1
 90
        1
176
     1
 40
0.0
176
     1
 90
        0
176
     1
290
     0
176
     1
290
     1
176
     1
290
     1
176
     1
290
     0
176
     1
290
     0
176
     1
290
     0
176
     1
290
     0
176
     1
290
     0
176
     1
290
     0
176
     1
 90
       50
176
     1
 40
0.0
176
     1
 40
1.0
176
     1
 90
        0
176
     1
 62
    18
420
        0
176
     1
 90
       50
176
     1
 90
        3
176
     1
 62
     5
420
      255
176
     1
290
     0
176
     1
 90
       50
176
     1
 90
       50
176
     1
 90
       50
176
     1
290
     0
176
     1
 90
       50
176
     1
 62
   256
176
     0
 40
1.0
176
     0
 90
        2
176
     1
  1
strokes_ogs.tif
176
     1
290
     0
176
     1
 40
1.0
176
     1
 40
1.0
176
     1
  0
VISUALSTYLE
  5
34
102
{ACAD_REACTORS
330
2A
102
}
330
2A
100
AcDbVisualStyle
  2
Conceptual
 70
     9
177
     3
291
     0
 70
    58
 90
        3
176
     1
 90
        2
176
     1
 90
        0
176
     1
 90
        0
176
     1
 40
0.6
176
     1
 40
30.0
176
     1
 62
     7
420
 16777215
176
     1
 90
        2
176
     1
 90
        2
176
     1
 62
     7
176
     1
 62
   257
176
     1
 90
        1
176
     1
 90
        1
176
     1
 40
179.0
176
     1
 90
        8
176
     1
 62
     7
176
     1
 40
1.0
176
     1
 90
        1
176
     1
 90
        6
176
     1
 90
        2
176
     1
 62
     7
176
     1
 90
        3
176
     1
 90
        0
176
     1
 90
        0
176
     1
290
     0
176
     1
 90
        1
176
     1
 40
0.0
176
     1
 90
        0
176
     1
290
     0
176
     1
290
     1
176
     1
290
     1
176
     1
290
     0
176
     1
290
     0
176
     1
290
     0
176
     1
290
     0
176
     1
290
     0
176
     1
290
     0
176
     1
 90
       50
176
     1
 40
0.0
176
     1
 40
1.0
176
     1
 90
        0
176
     1
 62
    18
420
        0
176
     1
 90
       50
176
     1
 90
        3
176
     1
 62
     5
420
      255
176
     1
290
     0
176
     1
 90
       50
176
     1
 90
       50
176
     1
 90
       50
176
     1
290
     0
176
     1
 90
       50
176
     1
 62
   256
176
     0
 40
1.0
176
     0
 90
        2
176
     1
  1
strokes_ogs.tif
176
     1
290
     0
176
     1
 40
1.0
176
     1
 40
1.0
176
     1
  0
VISUALSTYLE
  5
35
102
{ACAD_REACTORS
330
2A
102
}
330
2A
100
AcDbVisualStyle
  2
Dim
 70
    11
177
     3
291
     1
 70
    58
 90
        2
176
     1
 90
        2
176
     1
 90
        0
176
     1
 90
        0
176
     1
 40
0.6
176
     1
 40
30.0
176
     1
 62
     7
420
 16777215
176
     1
 90
        1
176
     1
 90
        4
176
     1
 62
     7
176
     1
 62
   257
176
     1
 90
        1
176
     1
 90
        1
176
     1
 40
1.0
176
     1
 90
        8
176
     1
 62
     7
176
     1
 40
1.0
176
     1
 90
        1
176
     1
 90
        6
176
     1
 90
        2
176
     1
 62
     7
176
     1
 90
        5
176
     1
 90
        0
176
     1
 90
        0
176
     1
290
     0
176
     1
 90
        1
176
     1
 40
-50.0
176
     1
 90
        0
176
     1
290
     0
176
     1
290
     1
176
     1
290
     1
176
     1
290
     0
176
     1
290
     0
176
     1
290
     0
176
     1
290
     0
176
     1
290
     0
176
     1
290
     0
176
     1
 90
       50
176
     1
 40
0.0
176
     1
 40
1.0
176
     1
 90
        0
176
     1
 62
    18
420
        0
176
     1
 90
       50
176
     1
 90
        3
176
     1
 62
     5
420
      255
176
     1
290
     0
176
     1
 90
       50
176
     1
 90
       50
176
     1
 90
       50
176
     1
290
     0
176
     1
 90
       50
176
     1
 62
   256
176
     0
 40
1.0
176
     0
 90
        2
176
     1
  1
strokes_ogs.tif
176
     1
290
     0
176
     1
 40
1.0
176
     1
 40
1.0
176
     1
  0
VISUALSTYLE
  5
3D
102
{ACAD_REACTORS
330
2A
102
}
330
2A
100
AcDbVisualStyle
  2
EdgeColorOff
 70
    22
177
     3
291
     1
 70
    58
 90
        2
176
     0
 90
        2
176
     0
 90
        0
176
     0
 90
        0
176
     0
 40
0.6
176
     0
 40
30.0
176
     0
 62
     7
420
 16777215
176
     0
 90
        1
176
     0
 90
        4
176
     0
 62
     7
176
     0
 62
   257
176
     0
 90
        1
176
     0
 90
        1
176
     0
 40
1.0
176
     0
 90
        8
176
     2
 62
     7
176
     0
 40
1.0
176
     0
 90
        1
176
     0
 90
        6
176
     0
 90
        2
176
     0
 62
     7
176
     0
 90
        5
176
     0
 90
        0
176
     0
 90
        0
176
     0
290
     0
176
     0
 90
        1
176
     0
 40
0.0
176
     0
 90
        0
176
     0
290
     0
176
     0
290
     1
176
     0
290
     1
176
     0
290
     0
176
     0
290
     0
176
     0
290
     0
176
     0
290
     0
176
     0
290
     0
176
     0
290
     0
176
     0
 90
       50
176
     0
 40
0.0
176
     0
 40
1.0
176
     0
 90
        0
176
     0
 62
    18
420
        0
176
     0
 90
       50
176
     0
 90
        3
176
     0
 62
     5
420
      255
176
     0
290
     0
176
     0
 90
       50
176
     0
 90
       50
176
     0
 90
       50
176
     0
290
     0
176
     0
 90
       50
176
     0
 62
   256
176
     0
 40
1.0
176
     0
 90
        2
176
     0
  1
strokes_ogs.tif
176
     0
290
     0
176
     0
 40
1.0
176
     0
 40
1.0
176
     0
  0
VISUALSTYLE
  5
39
102
{ACAD_REACTORS
330
2A
102
}
330
2A
100
AcDbVisualStyle
  2
Facepattern
 70
    15
177
     3
291
     1
 70
    58
 90
        2
176
     1
 90
        2
176
     1
 90
        0
176
     1
 90
        0
176
     1
 40
0.6
176
     1
 40
30.0
176
     1
 62
     7
420
 16777215
176
     1
 90
        1
176
     1
 90
        4
176
     1
 62
     7
176
     1
 62
   257
176
     1
 90
        1
176
     1
 90
        1
176
     1
 40
1.0
176
     1
 90
        8
176
     1
 62
     7
176
     1
 40
1.0
176
     1
 90
        1
176
     1
 90
        6
176
     1
 90
        2
176
     1
 62
     7
176
     1
 90
        5
176
     1
 90
        0
176
     1
 90
        0
176
     1
290
     0
176
     1
 90
        1
176
     1
 40
0.0
176
     1
 90
        0
176
     1
290
     0
176
     1
290
     1
176
     1
290
     1
176
     1
290
     0
176
     1
290
     0
176
     1
290
     0
176
     1
290
     0
176
     1
290
     0
176
     1
290
     0
176
     1
 90
       50
176
     1
 40
0.0
176
     1
 40
1.0
176
     1
 90
        0
176
     1
 62
    18
420
        0
176
     1
 90
       50
176
     1
 90
        3
176
     1
 62
     5
420
      255
176
     1
290
     0
176
     1
 90
       50
176
     1
 90
       50
176
     1
 90
       50
176
     1
290
     0
176
     1
 90
       50
176
     1
 62
   256
176
     0
 40
1.0
176
     0
 90
        2
176
     1
  1
strokes_ogs.tif
176
     1
290
     0
176
     1
 40
1.0
176
     1
 40
1.0
176
     1
  0
VISUALSTYLE
  5
2B
102
{ACAD_REACTORS
330
2A
102
}
330
2A
100
AcDbVisualStyle
  2
Flat
 70
     0
177
     3
291
     1
 70
    58
 90
        2
176
     1
 90
        1
176
     1
 90
        1
176
     1
 90
        2
176
     1
 40
0.6
176
     1
 40
30.0
176
     1
 62
     7
420
 16777215
176
     1
 90
        0
176
     1
 90
        0
176
     1
 62
     7
176
     1
 62
   257
176
     1
 90
        1
176
     1
 90
        1
176
     1
 40
1.0
176
     1
 90
        8
176
     1
 62
     7
176
     1
 40
1.0
176
     1
 90
        1
176
     1
 90
        6
176
     1
 90
        2
176
     1
 62
     7
176
     1
 90
        5
176
     1
 90
        0
176
     1
 90
        0
176
     1
290
     0
176
     1
 90
       13
176
     1
 40
0.0
176
     1
 90
        0
176
     1
290
     0
176
     1
290
     1
176
     1
290
     1
176
     1
290
     0
176
     1
290
     0
176
     1
290
     0
176
     1
290
     0
176
     1
290
     0
176
     1
290
     0
176
     1
 90
       50
176
     1
 40
0.0
176
     1
 40
1.0
176
     1
 90
        0
176
     1
 62
    18
420
        0
176
     1
 90
       50
176
     1
 90
        3
176
     1
 62
     5
420
      255
176
     1
290
     0
176
     1
 90
       50
176
     1
 90
       50
176
     1
 90
       50
176
     1
290
     0
176
     1
 90
       50
176
     1
 62
   256
176
     0
 40
1.0
176
     0
 90
        2
176
     1
  1
strokes_ogs.tif
176
     1
290
     0
176
     1
 40
1.0
176
     1
 40
1.0
176
     1
  0
VISUALSTYLE
  5
2C
102
{ACAD_REACTORS
330
2A
102
}
330
2A
100
AcDbVisualStyle
  2
FlatWithEdges
 70
     1
177
     3
291
     1
 70
    58
 90
        2
176
     1
 90
        1
176
     1
 90
        1
176
     1
 90
        2
176
     1
 40
0.6
176
     1
 40
30.0
176
     1
 62
     7
420
 16777215
176
     1
 90
        1
176
     1
 90
        0
176
     1
 62
     7
176
     1
 62
   257
176
     1
 90
        1
176
     1
 90
        1
176
     1
 40
1.0
176
     1
 90
        0
176
     1
 62
   257
176
     1
 40
1.0
176
     1
 90
        1
176
     1
 90
        6
176
     1
 90
        2
176
     1
 62
     7
176
     1
 90
        5
176
     1
 90
        0
176
     1
 90
        0
176
     1
290
     0
176
     1
 90
       13
176
     1
 40
0.0
176
     1
 90
        0
176
     1
290
     0
176
     1
290
     1
176
     1
290
     1
176
     1
290
     0
176
     1
290
     0
176
     1
290
     0
176
     1
290
     0
176
     1
290
     0
176
     1
290
     0
176
     1
 90
       50
176
     1
 40
0.0
176
     1
 40
1.0
176
     1
 90
        0
176
     1
 62
    18
420
        0
176
     1
 90
       50
176
     1
 90
        3
176
     1
 62
     5
420
      255
176
     1
290
     0
176
     1
 90
       50
176
     1
 90
       50
176
     1
 90
       50
176
     1
290
     0
176
     1
 90
       50
176
     1
 62
   256
176
     0
 40
1.0
176
     0
 90
        2
176
     1
  1
strokes_ogs.tif
176
     1
290
     0
176
     1
 40
1.0
176
     1
 40
1.0
176
     1
  0
VISUALSTYLE
  5
2D
102
{ACAD_REACTORS
330
2A
102
}
330
2A
100
AcDbVisualStyle
  2
Gouraud
 70
     2
177
     3
291
     1
 70
    58
 90
        2
176
     1
 90
        2
176
     1
 90
        1
176
     1
 90
        2
176
     1
 40
0.6
176
     1
 40
30.0
176
     1
 62
     7
420
 16777215
176
     1
 90
        0
176
     1
 90
        0
176
     1
 62
     7
176
     1
 62
   257
176
     1
 90
        1
176
     1
 90
        1
176
     1
 40
1.0
176
     1
 90
        0
176
     1
 62
     7
176
     1
 40
1.0
176
     1
 90
        1
176
     1
 90
        6
176
     1
 90
        2
176
     1
 62
     7
176
     1
 90
        5
176
     1
 90
        0
176
     1
 90
        0
176
     1
290
     0
176
     1
 90
       13
176
     1
 40
0.0
176
     1
 90
        0
176
     1
290
     0
176
     1
290
     1
176
     1
290
     1
176
     1
290
     0
176
     1
290
     0
176
     1
290
     0
176
     1
290
     0
176
     1
290
     0
176
     1
290
     0
176
     1
 90
       50
176
     1
 40
0.0
176
     1
 40
1.0
176
     1
 90
        0
176
     1
 62
    18
420
        0
176
     1
 90
       50
176
     1
 90
        3
176
     1
 62
     5
420
      255
176
     1
290
     0
176
     1
 90
       50
176
     1
 90
       50
176
     1
 90
       50
176
     1
290
     0
176
     1
 90
       50
176
     1
 62
   256
176
     0
 40
1.0
176
     0
 90
        2
176
     1
  1
strokes_ogs.tif
176
     1
290
     0
176
     1
 40
1.0
176
     1
 40
1.0
176
     1
  0
VISUALSTYLE
  5
2E
102
{ACAD_REACTORS
330
2A
102
}
330
2A
100
AcDbVisualStyle
  2
GouraudWithEdges
 70
     3
177
     3
291
     1
 70
    58
 90
        2
176
     1
 90
        2
176
     1
 90
        1
176
     1
 90
        2
176
     1
 40
0.6
176
     1
 40
30.0
176
     1
 62
     7
420
 16777215
176
     1
 90
        1
176
     1
 90
        0
176
     1
 62
     7
176
     1
 62
   257
176
     1
 90
        1
176
     1
 90
        1
176
     1
 40
1.0
176
     1
 90
        0
176
     1
 62
   257
176
     1
 40
1.0
176
     1
 90
        1
176
     1
 90
        6
176
     1
 90
        2
176
     1
 62
     7
176
     1
 90
        5
176
     1
 90
        0
176
     1
 90
        0
176
     1
290
     0
176
     1
 90
       13
176
     1
 40
0.0
176
     1
 90
        0
176
     1
290
     0
176
     1
290
     1
176
     1
290
     1
176
     1
290
     0
176
     1
290
     0
176
     1
290
     0
176
     1
290
     0
176
     1
290
     0
176
     1
290
     0
176
     1
 90
       50
176
     1
 40
0.0
176
     1
 40
1.0
176
     1
 90
        0
176
     1
 62
    18
420
        0
176
     1
 90
       50
176
     1
 90
        3
176
     1
 62
     5
420
      255
176
     1
290
     0
176
     1
 90
       50
176
     1
 90
       50
176
     1
 90
       50
176
     1
290
     0
176
     1
 90
       50
176
     1
 62
   256
176
     0
 40
1.0
176
     0
 90
        2
176
     1
  1
strokes_ogs.tif
176
     1
290
     0
176
     1
 40
1.0
176
     1
 40
1.0
176
     1
  0
VISUALSTYLE
  5
31
102
{ACAD_REACTORS
330
2A
102
}
330
2A
100
AcDbVisualStyle
  2
Hidden
 70
     6
177
     3
291
     0
 70
    58
 90
        1
176
     1
 90
        2
176
     1
 90
        2
176
     1
 90
        0
176
     1
 40
0.6
176
     1
 40
30.0
176
     1
 62
     7
420
 16777215
176
     1
 90
        2
176
     1
 90
        2
176
     1
 62
     7
176
     1
 62
   257
176
     1
 90
        2
176
     1
 90
        1
176
     1
 40
40.0
176
     1
 90
        0
176
     1
 62
   257
176
     1
 40
1.0
176
     1
 90
        1
176
     1
 90
        6
176
     1
 90
        2
176
     1
 62
     7
176
     1
 90
        3
176
     1
 90
        0
176
     1
 90
        0
176
     1
290
     0
176
     1
 90
        1
176
     1
 40
0.0
176
     1
 90
        0
176
     1
290
     0
176
     1
290
     1
176
     1
290
     1
176
     1
290
     0
176
     1
290
     0
176
     1
290
     0
176
     1
290
     0
176
     1
290
     0
176
     1
290
     0
176
     1
 90
       50
176
     1
 40
0.0
176
     1
 40
1.0
176
     1
 90
        0
176
     1
 62
    18
420
        0
176
     1
 90
       50
176
     1
 90
        3
176
     1
 62
     5
420
      255
176
     1
290
     0
176
     1
 90
       50
176
     1
 90
       50
176
     1
 90
       50
176
     1
290
     0
176
     1
 90
       50
176
     1
 62
   256
176
     0
 40
1.0
176
     0
 90
        2
176
     1
  1
strokes_ogs.tif
176
     1
290
     0
176
     1
 40
1.0
176
     1
 40
1.0
176
     1
  0
VISUALSTYLE
  5
3B
102
{ACAD_REACTORS
330
2A
102
}
330
2A
100
AcDbVisualStyle
  2
JitterOff
 70
    20
177
     3
291
     1
 70
    58
 90
        2
176
     0
 90
        2
176
     0
 90
        0
176
     0
 90
        0
176
     0
 40
0.6
176
     0
 40
30.0
176
     0
 62
     7
420
 16777215
176
     0
 90
        1
176
     0
 90
        4
176
     0
 62
     7
176
     0
 62
   257
176
     0
 90
        1
176
     0
 90
        1
176
     0
 40
1.0
176
     0
 90
       10
176
     2
 62
     7
176
     0
 40
1.0
176
     0
 90
        1
176
     0
 90
        6
176
     0
 90
        2
176
     0
 62
     7
176
     0
 90
        5
176
     0
 90
        0
176
     0
 90
        0
176
     0
290
     0
176
     0
 90
        1
176
     0
 40
0.0
176
     0
 90
        0
176
     0
290
     0
176
     0
290
     1
176
     0
290
     1
176
     0
290
     0
176
     0
290
     0
176
     0
290
     0
176
     0
290
     0
176
     0
290
     0
176
     0
290
     0
176
     0
 90
       50
176
     0
 40
0.0
176
     0
 40
1.0
176
     0
 90
        0
176
     0
 62
    18
420
        0
176
     0
 90
       50
176
     0
 90
        3
176
     0
 62
     5
420
      255
176
     0
290
     0
176
     0
 90
       50
176
     0
 90
       50
176
     0
 90
       50
176
     0
290
     0
176
     0
 90
       50
176
     0
 62
   256
176
     0
 40
1.0
176
     0
 90
        2
176
     0
  1
strokes_ogs.tif
176
     0
290
     0
176
     0
 40
1.0
176
     0
 40
1.0
176
     0
  0
VISUALSTYLE
  5
38
102
{ACAD_REACTORS
330
2A
102
}
330
2A
100
AcDbVisualStyle
  2
Linepattern
 70
    14
177
     3
291
     1
 70
    58
 90
        2
176
     1
 90
        2
176
     1
 90
        0
176
     1
 90
        0
176
     1
 40
0.6
176
     1
 40
30.0
176
     1
 62
     7
420
 16777215
176
     1
 90
        1
176
     1
 90
        4
176
     1
 62
     7
176
     1
 62
   257
176
     1
 90
        7
176
     1
 90
        7
176
     1
 40
1.0
176
     1
 90
        8
176
     1
 62
     7
176
     1
 40
1.0
176
     1
 90
        1
176
     1
 90
        6
176
     1
 90
        2
176
     1
 62
     7
176
     1
 90
        5
176
     1
 90
        0
176
     1
 90
        0
176
     1
290
     0
176
     1
 90
        1
176
     1
 40
0.0
176
     1
 90
        0
176
     1
290
     0
176
     1
290
     1
176
     1
290
     1
176
     1
290
     0
176
     1
290
     0
176
     1
290
     0
176
     1
290
     0
176
     1
290
     0
176
     1
290
     0
176
     1
 90
       50
176
     1
 40
0.0
176
     1
 40
1.0
176
     1
 90
        0
176
     1
 62
    18
420
        0
176
     1
 90
       50
176
     1
 90
        3
176
     1
 62
     5
420
      255
176
     1
290
     0
176
     1
 90
       50
176
     1
 90
       50
176
     1
 90
       50
176
     1
290
     0
176
     1
 90
       50
176
     1
 62
   256
176
     0
 40
1.0
176
     0
 90
        2
176
     1
  1
strokes_ogs.tif
176
     1
290
     0
176
     1
 40
1.0
176
     1
 40
1.0
176
     1
  0
VISUALSTYLE
  5
3C
102
{ACAD_REACTORS
330
2A
102
}
330
2A
100
AcDbVisualStyle
  2
OverhangOff
 70
    21
177
     3
291
     1
 70
    58
 90
        2
176
     0
 90
        2
176
     0
 90
        0
176
     0
 90
        0
176
     0
 40
0.6
176
     0
 40
30.0
176
     0
 62
     7
420
 16777215
176
     0
 90
        1
176
     0
 90
        4
176
     0
 62
     7
176
     0
 62
   257
176
     0
 90
        1
176
     0
 90
        1
176
     0
 40
1.0
176
     0
 90
        9
176
     2
 62
     7
176
     0
 40
1.0
176
     0
 90
        1
176
     0
 90
        6
176
     0
 90
        2
176
     0
 62
     7
176
     0
 90
        5
176
     0
 90
        0
176
     0
 90
        0
176
     0
290
     0
176
     0
 90
        1
176
     0
 40
0.0
176
     0
 90
        0
176
     0
290
     0
176
     0
290
     1
176
     0
290
     1
176
     0
290
     0
176
     0
290
     0
176
     0
290
     0
176
     0
290
     0
176
     0
290
     0
176
     0
290
     0
176
     0
 90
       50
176
     0
 40
0.0
176
     0
 40
1.0
176
     0
 90
        0
176
     0
 62
    18
420
        0
176
     0
 90
       50
176
     0
 90
        3
176
     0
 62
     5
420
      255
176
     0
290
     0
176
     0
 90
       50
176
     0
 90
       50
176
     0
 90
       50
176
     0
290
     0
176
     0
 90
       50
176
     0
 62
   256
176
     0
 40
1.0
176
     0
 90
        2
176
     0
  1
strokes_ogs.tif
176
     0
290
     0
176
     0
 40
1.0
176
     0
 40
1.0
176
     0
  0
VISUALSTYLE
  5
33
102
{ACAD_REACTORS
330
2A
102
}
330
2A
100
AcDbVisualStyle
  2
Realistic
 70
     8
177
     3
291
     0
 70
    58
 90
        2
176
     1
 90
        3
176
     1
 90
        0
176
     1
 90
        2
176
     1
 40
0.6
176
     1
 40
30.0
176
     1
 62
     7
420
 16777215
176
     1
 90
        0
176
     1
 90
        0
176
     1
 62
     7
176
     1
 62
   257
176
     1
 90
        1
176
     1
 90
        1
176
     1
 40
1.0
176
     1
 90
        8
176
     1
 62
   257
176
     1
 40
1.0
176
     1
 90
        1
176
     1
 90
        6
176
     1
 90
        2
176
     1
 62
     7
176
     1
 90
        3
176
     1
 90
        0
176
     1
 90
        0
176
     1
290
     0
176
     1
 90
       13
176
     1
 40
0.0
176
     1
 90
        0
176
     1
290
     0
176
     1
290
     1
176
     1
290
     1
176
     1
290
     0
176
     1
290
     0
176
     1
290
     0
176
     1
290
     0
176
     1
290
     0
176
     1
290
     0
176
     1
 90
       50
176
     1
 40
0.0
176
     1
 40
1.0
176
     1
 90
        0
176
     1
 62
    18
420
        0
176
     1
 90
       50
176
     1
 90
        3
176
     1
 62
     5
420
      255
176
     1
290
     0
176
     1
 90
       50
176
     1
 90
       50
176
     1
 90
       50
176
     1
290
     0
176
     1
 90
       50
176
     1
 62
   256
176
     0
 40
1.0
176
     0
 90
        2
176
     1
  1
strokes_ogs.tif
176
     1
290
     0
176
     1
 40
1.0
176
     1
 40
1.0
176
     1
  0
VISUALSTYLE
  5
42
102
{ACAD_REACTORS
330
2A
102
}
330
2A
100
AcDbVisualStyle
  2
Shaded
 70
    27
177
     3
291
     0
 70
    58
 90
        2
176
     1
 90
        2
176
     1
 90
        1
176
     1
 90
        2
176
     1
 40
0.6
176
     1
 40
30.0
176
     1
 62
     7
420
 16777215
176
     1
 90
        0
176
     1
 90
        4
176
     1
 62
     7
176
     1
 62
   257
176
     1
 90
        1
176
     1
 90
        1
176
     1
 40
1.0
176
     1
 90
        8
176
     1
 62
   257
176
     1
 40
1.0
176
     1
 90
        1
176
     1
 90
        6
176
     1
 90
        2
176
     1
 62
     8
420
  7895160
176
     1
 90
        3
176
     1
 90
        0
176
     1
 90
        0
176
     1
290
     0
176
     1
 90
        5
176
     1
 40
0.0
176
     1
 90
        0
176
     1
290
     0
176
     1
290
     1
176
     1
290
     1
176
     1
290
     0
176
     1
290
     0
176
     1
290
     0
176
     1
290
     0
176
     1
290
     0
176
     1
290
     0
176
     1
 90
       50
176
     1
 40
0.0
176
     1
 40
1.0
176
     1
 90
        0
176
     1
 62
    18
420
        0
176
     1
 90
       50
176
     1
 90
        3
176
     1
 62
     5
420
      255
176
     1
290
     0
176
     1
 90
       50
176
     1
 90
       50
176
     1
 90
       50
176
     1
290
     0
176
     1
 90
       50
176
     1
 62
   256
176
     0
 40
1.0
176
     0
 90
        2
176
     1
  1
strokes_ogs.tif
176
     1
290
     0
176
     1
 40
1.0
176
     1
 40
1.0
176
     1
  0
VISUALSTYLE
  5
41
102
{ACAD_REACTORS
330
2A
102
}
330
2A
100
AcDbVisualStyle
  2
Shaded with edges
 70
    26
177
     3
291
     0
 70
    58
 90
        2
176
     1
 90
        2
176
     1
 90
        1
176
     1
 90
        2
176
     1
 40
0.6
176
     1
 40
30.0
176
     1
 62
     7
420
 16777215
176
     1
 90
        1
176
     1
 90
       10
176
     1
 62
     7
176
     1
 62
   257
176
     1
 90
        2
176
     1
 90
        1
176
     1
 40
1.0
176
     1
 90
        8
176
     1
 62
   257
176
     1
 40
1.0
176
     1
 90
        1
176
     1
 90
        6
176
     1
 90
        2
176
     1
 62
     7
176
     1
 90
        3
176
     1
 90
        0
176
     1
 90
        0
176
     1
290
     0
176
     1
 90
        5
176
     1
 40
0.0
176
     1
 90
        0
176
     1
290
     0
176
     1
290
     1
176
     1
290
     1
176
     1
290
     0
176
     1
290
     0
176
     1
290
     0
176
     1
290
     0
176
     1
290
     0
176
     1
290
     0
176
     1
 90
       50
176
     1
 40
0.0
176
     1
 40
1.0
176
     1
 90
        0
176
     1
 62
    18
420
        0
176
     1
 90
       50
176
     1
 90
        3
176
     1
 62
     5
420
      255
176
     1
290
     0
176
     1
 90
       50
176
     1
 90
       50
176
     1
 90
       50
176
     1
290
     0
176
     1
 90
       50
176
     1
 62
   256
176
     0
 40
1.0
176
     0
 90
        2
176
     1
  1
strokes_ogs.tif
176
     1
290
     0
176
     1
 40
1.0
176
     1
 40
1.0
176
     1
  0
VISUALSTYLE
  5
3E
102
{ACAD_REACTORS
330
2A
102
}
330
2A
100
AcDbVisualStyle
  2
Shades of Gray
 70
    23
177
     3
291
     0
 70
    58
 90
        2
176
     1
 90
        2
176
     1
 90
        3
176
     1
 90
        0
176
     1
 40
0.6
176
     1
 40
30.0
176
     1
 62
     7
420
 16777215
176
     1
 90
        2
176
     1
 90
        2
176
     1
 62
     7
176
     1
 62
     7
176
     1
 90
        1
176
     1
 90
        1
176
     1
 40
40.0
176
     1
 90
        8
176
     1
 62
     7
176
     1
 40
1.0
176
     1
 90
        1
176
     1
 90
        6
176
     1
 90
        2
176
     1
 62
     7
176
     1
 90
        3
176
     1
 90
        0
176
     1
 90
        0
176
     1
290
     0
176
     1
 90
        1
176
     1
 40
0.0
176
     1
 90
        0
176
     1
290
     0
176
     1
290
     1
176
     1
290
     1
176
     1
290
     0
176
     1
290
     0
176
     1
290
     0
176
     1
290
     0
176
     1
290
     0
176
     1
290
     0
176
     1
 90
       50
176
     1
 40
0.0
176
     1
 40
1.0
176
     1
 90
        0
176
     1
 62
    18
420
        0
176
     1
 90
       50
176
     1
 90
        3
176
     1
 62
     5
420
      255
176
     1
290
     0
176
     1
 90
       50
176
     1
 90
       50
176
     1
 90
       50
176
     1
290
     0
176
     1
 90
       50
176
     1
 62
   256
176
     0
 40
1.0
176
     0
 90
        2
176
     1
  1
strokes_ogs.tif
176
     1
290
     0
176
     1
 40
1.0
176
     1
 40
1.0
176
     1
  0
VISUALSTYLE
  5
3F
102
{ACAD_REACTORS
330
2A
102
}
330
2A
100
AcDbVisualStyle
  2
Sketchy
 70
    24
177
     3
291
     0
 70
    58
 90
        1
176
     1
 90
        2
176
     1
 90
        2
176
     1
 90
        0
176
     1
 40
0.6
176
     1
 40
30.0
176
     1
 62
     7
420
 16777215
176
     1
 90
        2
176
     1
 90
        2
176
     1
 62
     7
176
     1
 62
     7
176
     1
 90
        1
176
     1
 90
        1
176
     1
 40
40.0
176
     1
 90
       11
176
     1
 62
     7
176
     1
 40
1.0
176
     1
 90
        1
176
     1
 90
        6
176
     1
 90
        2
176
     1
 62
     7
176
     1
 90
        6
176
     1
 90
        0
176
     1
 90
        0
176
     1
290
     0
176
     1
 90
        1
176
     1
 40
0.0
176
     1
 90
        0
176
     1
290
     0
176
     1
290
     1
176
     1
290
     1
176
     1
290
     0
176
     1
290
     0
176
     1
290
     0
176
     1
290
     0
176
     1
290
     0
176
     1
290
     0
176
     1
 90
       50
176
     1
 40
0.0
176
     1
 40
1.0
176
     1
 90
        0
176
     1
 62
    18
420
        0
176
     1
 90
       50
176
     1
 90
        3
176
     1
 62
     5
420
      255
176
     1
290
     0
176
     1
 90
       50
176
     1
 90
       50
176
     1
 90
       50
176
     1
290
     0
176
     1
 90
       50
176
     1
 62
   256
176
     0
 40
1.0
176
     0
 90
        2
176
     1
  1
strokes_ogs.tif
176
     1
290
     0
176
     1
 40
1.0
176
     1
 40
1.0
176
     1
  0
VISUALSTYLE
  5
37
102
{ACAD_REACTORS
330
2A
102
}
330
2A
100
AcDbVisualStyle
  2
Thicken
 70
    13
177
     3
291
     1
 70
    58
 90
        2
176
     1
 90
        2
176
     1
 90
        0
176
     1
 90
        0
176
     1
 40
0.6
176
     1
 40
30.0
176
     1
 62
     7
420
 16777215
176
     1
 90
        1
176
     1
 90
        4
176
     1
 62
     7
176
     1
 62
   257
176
     1
 90
        1
176
     1
 90
        1
176
     1
 40
1.0
176
     1
 90
       12
176
     1
 62
     7
176
     1
 40
1.0
176
     1
 90
        1
176
     1
 90
        6
176
     1
 90
        2
176
     1
 62
     7
176
     1
 90
        5
176
     1
 90
        0
176
     1
 90
        0
176
     1
290
     0
176
     1
 90
        1
176
     1
 40
0.0
176
     1
 90
        0
176
     1
290
     0
176
     1
290
     1
176
     1
290
     1
176
     1
290
     0
176
     1
290
     0
176
     1
290
     0
176
     1
290
     0
176
     1
290
     0
176
     1
290
     0
176
     1
 90
       50
176
     1
 40
0.0
176
     1
 40
1.0
176
     1
 90
        0
176
     1
 62
    18
420
        0
176
     1
 90
       50
176
     1
 90
        3
176
     1
 62
     5
420
      255
176
     1
290
     0
176
     1
 90
       50
176
     1
 90
       50
176
     1
 90
       50
176
     1
290
     0
176
     1
 90
       50
176
     1
 62
   256
176
     0
 40
1.0
176
     0
 90
        2
176
     1
  1
strokes_ogs.tif
176
     1
290
     0
176
     1
 40
1.0
176
     1
 40
1.0
176
     1
  0
VISUALSTYLE
  5
30
102
{ACAD_REACTORS
330
2A
102
}
330
2A
100
AcDbVisualStyle
  2
Wireframe
 70
     5
177
     3
291
     0
 70
    58
 90
        0
176
     1
 90
        2
176
     1
 90
        0
176
     1
 90
        0
176
     1
 40
0.6
176
     1
 40
30.0
176
     1
 62
     7
420
 16777215
176
     1
 90
        1
176
     1
 90
        4
176
     1
 62
     7
176
     1
 62
   257
176
     1
 90
        1
176
     1
 90
        1
176
     1
 40
1.0
176
     1
 90
        0
176
     1
 62
   257
176
     1
 40
1.0
176
     1
 90
        1
176
     1
 90
        6
176
     1
 90
        2
176
     1
 62
     7
176
     1
 90
        3
176
     1
 90
        0
176
     1
 90
        0
176
     1
290
     0
176
     1
 90
        1
176
     1
 40
0.0
176
     1
 90
        0
176
     1
290
     0
176
     1
290
     1
176
     1
290
     1
176
     1
290
     0
176
     1
290
     0
176
     1
290
     0
176
     1
290
     0
176
     1
290
     0
176
     1
290
     0
176
     1
 90
       50
176
     1
 40
0.0
176
     1
 40
1.0
176
     1
 90
        0
176
     1
 62
    18
420
        0
176
     1
 90
       50
176
     1
 90
        3
176
     1
 62
     5
420
      255
176
     1
290
     0
176
     1
 90
       50
176
     1
 90
       50
176
     1
 90
       50
176
     1
290
     0
176
     1
 90
       50
176
     1
 62
   256
176
     0
 40
1.0
176
     0
 90
        2
176
     1
  1
strokes_ogs.tif
176
     1
290
     0
176
     1
 40
1.0
176
     1
 40
1.0
176
     1
  0
VISUALSTYLE
  5
40
102
{ACAD_REACTORS
330
2A
102
}
330
2A
100
AcDbVisualStyle
  2
X-Ray
 70
    25
177
     3
291
     0
 70
    58
 90
        2
176
     1
 90
        2
176
     1
 90
        1
176
     1
 90
        1
176
     1
 40
0.5
176
     1
 40
30.0
176
     1
 62
     7
420
 16777215
176
     1
 90
        1
176
     1
 90
        0
176
     1
 62
     7
176
     1
 62
   257
176
     1
 90
        1
176
     1
 90
        1
176
     1
 40
1.0
176
     1
 90
        8
176
     1
 62
     7
176
     1
 40
1.0
176
     1
 90
        1
176
     1
 90
        6
176
     1
 90
        2
176
     1
 62
     7
176
     1
 90
        3
176
     1
 90
        0
176
     1
 90
        0
176
     1
290
     0
176
     1
 90
       13
176
     1
 40
0.0
176
     1
 90
        0
176
     1
290
     0
176
     1
290
     1
176
     1
290
     1
176
     1
290
     0
176
     1
290
     0
176
     1
290
     0
176
     1
290
     0
176
     1
290
     0
176
     1
290
     0
176
     1
 90
       50
176
     1
 40
0.0
176
     1
 40
1.0
176
     1
 90
        0
176
     1
 62
    18
420
        0
176
     1
 90
       50
176
     1
 90
        3
176
     1
 62
     5
420
      255
176
     1
290
     0
176
     1
 90
       50
176
     1
 90
       50
176
     1
 90
       50
176
     1
290
     0
176
     1
 90
       50
176
     1
 62
   256
176
     0
 40
1.0
176
     0
 90
        2
176
     1
  1
strokes_ogs.tif
176
     1
290
     0
176
     1
 40
1.0
176
     1
 40
1.0
176
     1
  0
DICTIONARYVAR
  5
254
102
{ACAD_REACTORS
330
253
102
}
330
253
100
DictionaryVariables
280
     0
  1
1:1
  0
DICTIONARYVAR
  5
259
102
{ACAD_REACTORS
330
253
102
}
330
253
100
DictionaryVariables
280
     0
  1
Standard
  0
DICTIONARYVAR
  5
258
102
{ACAD_REACTORS
330
253
102
}
330
253
100
DictionaryVariables
280
     0
  1
Standard
  0
DICTIONARY
  5
255
330
6A
100
AcDbDictionary
280
     1
281
     1
  3
ACAD_ROUNDTRIP_2008_TABLESTYLE_CELLSTYLEMAP
360
256
  0
CELLSTYLEMAP
  5
256
102
{ACAD_REACTORS
330
255
102
}
330
255
100
AcDbCellStyleMap
 90
        3
300
CELLSTYLE
  1
TABLEFORMAT_BEGIN
 90
        5
170
     1
 91
        0
 92
    32768
 62
   257
 93
        1
300
CONTENTFORMAT
  1
CONTENTFORMAT_BEGIN
 90
        0
 91
        0
 92
        4
 93
        0
300

 40
0.0
140
1.0
 94
        5
 62
     0
340
11
144
0.25
309
CONTENTFORMAT_END
171
     1
301
MARGIN
  1
CELLMARGIN_BEGIN
 40
0.06
 40
0.06
 40
0.06
 40
0.06
 40
0.06
 40
0.06
309
CELLMARGIN_END
 94
        6
 95
        1
302
GRIDFORMAT
  1
GRIDFORMAT_BEGIN
 90
        0
 91
        1
 62
     0
 92
       -2
340
14
 93
        0
 40
0.045
309
GRIDFORMAT_END
 95
        2
302
GRIDFORMAT
  1
GRIDFORMAT_BEGIN
 90
        0
 91
        1
 62
     0
 92
       -2
340
14
 93
        0
 40
0.045
309
GRIDFORMAT_END
 95
        4
302
GRIDFORMAT
  1
GRIDFORMAT_BEGIN
 90
        0
 91
        1
 62
     0
 92
       -2
340
14
 93
        0
 40
0.045
309
GRIDFORMAT_END
 95
        8
302
GRIDFORMAT
  1
GRIDFORMAT_BEGIN
 90
        0
 91
        1
 62
     0
 92
       -2
340
14
 93
        0
 40
0.045
309
GRIDFORMAT_END
 95
       16
302
GRIDFORMAT
  1
GRIDFORMAT_BEGIN
 90
        0
 91
        1
 62
     0
 92
       -2
340
14
 93
        0
 40
0.045
309
GRIDFORMAT_END
 95
       32
302
GRIDFORMAT
  1
GRIDFORMAT_BEGIN
 90
        0
 91
        1
 62
     0
 92
       -2
340
14
 93
        0
 40
0.045
309
GRIDFORMAT_END
309
TABLEFORMAT_END
  1
CELLSTYLE_BEGIN
 90
        1
 91
        1
300
_TITLE
309
CELLSTYLE_END
300
CELLSTYLE
  1
TABLEFORMAT_BEGIN
 90
        5
170
     1
 91
        0
 92
        0
 62
   257
 93
        1
300
CONTENTFORMAT
  1
CONTENTFORMAT_BEGIN
 90
        0
 91
        0
 92
        4
 93
        0
300

 40
0.0
140
1.0
 94
        5
 62
     0
340
11
144
0.18
309
CONTENTFORMAT_END
171
     1
301
MARGIN
  1
CELLMARGIN_BEGIN
 40
0.06
 40
0.06
 40
0.06
 40
0.06
 40
0.06
 40
0.06
309
CELLMARGIN_END
 94
        6
 95
        1
302
GRIDFORMAT
  1
GRIDFORMAT_BEGIN
 90
        0
 91
        1
 62
     0
 92
       -2
340
14
 93
        0
 40
0.045
309
GRIDFORMAT_END
 95
        2
302
GRIDFORMAT
  1
GRIDFORMAT_BEGIN
 90
        0
 91
        1
 62
     0
 92
       -2
340
14
 93
        0
 40
0.045
309
GRIDFORMAT_END
 95
        4
302
GRIDFORMAT
  1
GRIDFORMAT_BEGIN
 90
        0
 91
        1
 62
     0
 92
       -2
340
14
 93
        0
 40
0.045
309
GRIDFORMAT_END
 95
        8
302
GRIDFORMAT
  1
GRIDFORMAT_BEGIN
 90
        0
 91
        1
 62
     0
 92
       -2
340
14
 93
        0
 40
0.045
309
GRIDFORMAT_END
 95
       16
302
GRIDFORMAT
  1
GRIDFORMAT_BEGIN
 90
        0
 91
        1
 62
     0
 92
       -2
340
14
 93
        0
 40
0.045
309
GRIDFORMAT_END
 95
       32
302
GRIDFORMAT
  1
GRIDFORMAT_BEGIN
 90
        0
 91
        1
 62
     0
 92
       -2
340
14
 93
        0
 40
0.045
309
GRIDFORMAT_END
309
TABLEFORMAT_END
  1
CELLSTYLE_BEGIN
 90
        2
 91
        1
300
_HEADER
309
CELLSTYLE_END
300
CELLSTYLE
  1
TABLEFORMAT_BEGIN
 90
        5
170
     1
 91
        0
 92
        0
 62
   257
 93
        1
300
CONTENTFORMAT
  1
CONTENTFORMAT_BEGIN
 90
        0
 91
        0
 92
        4
 93
        0
300

 40
0.0
140
1.0
 94
        2
 62
     0
340
11
144
0.18
309
CONTENTFORMAT_END
171
     1
301
MARGIN
  1
CELLMARGIN_BEGIN
 40
0.06
 40
0.06
 40
0.06
 40
0.06
 40
0.06
 40
0.06
309
CELLMARGIN_END
 94
        6
 95
        1
302
GRIDFORMAT
  1
GRIDFORMAT_BEGIN
 90
        0
 91
        1
 62
     0
 92
       -2
340
14
 93
        0
 40
0.045
309
GRIDFORMAT_END
 95
        2
302
GRIDFORMAT
  1
GRIDFORMAT_BEGIN
 90
        0
 91
        1
 62
     0
 92
       -2
340
14
 93
        0
 40
0.045
309
GRIDFORMAT_END
 95
        4
302
GRIDFORMAT
  1
GRIDFORMAT_BEGIN
 90
        0
 91
        1
 62
     0
 92
       -2
340
14
 93
        0
 40
0.045
309
GRIDFORMAT_END
 95
        8
302
GRIDFORMAT
  1
GRIDFORMAT_BEGIN
 90
        0
 91
        1
 62
     0
 92
       -2
340
14
 93
        0
 40
0.045
309
GRIDFORMAT_END
 95
       16
302
GRIDFORMAT
  1
GRIDFORMAT_BEGIN
 90
        0
 91
        1
 62
     0
 92
       -2
340
14
 93
        0
 40
0.045
309
GRIDFORMAT_END
 95
       32
302
GRIDFORMAT
  1
GRIDFORMAT_BEGIN
 90
        0
 91
        1
 62
     0
 92
       -2
340
14
 93
        0
 40
0.045
309
GRIDFORMAT_END
309
TABLEFORMAT_END
  1
CELLSTYLE_BEGIN
 90
        3
 91
        2
300
_DATA
309
CELLSTYLE_END
  0
ENDSEC
  0
EOF