0
SECTION
  2
HEADER
  9
$ACADVER
  1
AC1027
  9
$ACADMAINTVER
 70
     8
  9
$DWGCODEPAGE
  3
ANSI_1252
  9
$REQUIREDVERSIONS
160
                 0
  9
$COMMENTS
  1
File was created by Cadenas
  9
$CUSTOMPROPERTYTAG
  1
NN
  9
$CUSTOMPROPERTY
  1
Steel IMPERIAL-HD Piloted Flange 2-7/16 thru 5 Inch Bore
  9
$CUSTOMPROPERTYTAG
  1
NT
  9
$CUSTOMPROPERTY
  1
Steal Imperial Piloted Flange Bearing-Inch-207-500
  9
$CUSTOMPROPERTYTAG
  1
NB
  9
$CUSTOMPROPERTY
  1
072321
  9
$CUSTOMPROPERTYTAG
  1
NBSYN
  9
$CUSTOMPROPERTY
  1
$PN.
  9
$CUSTOMPROPERTYTAG
  1
LINA
  9
$CUSTOMPROPERTY
  1
072321
  9
$CUSTOMPROPERTYTAG
  1
SS
  9
$CUSTOMPROPERTY
  1
2-7/16
  9
$CUSTOMPROPERTYTAG
  1
PN
  9
$CUSTOMPROPERTY
  1
072321
  9
$CUSTOMPROPERTYTAG
  1
TYPE
  9
$CUSTOMPROPERTY
  1
Expansion
  9
$CUSTOMPROPERTYTAG
  1
EF
  9
$CUSTOMPROPERTY
  1
Expansion
  9
$CUSTOMPROPERTYTAG
  1
DESCRIPTION
  9
$CUSTOMPROPERTY
  1
SFC-IP-207RE
  9
$CUSTOMPROPERTYTAG
  1
ST
  9
$CUSTOMPROPERTY
  1
Contact Seal
  9
$CUSTOMPROPERTYTAG
  1
A
  9
$CUSTOMPROPERTY
  1
3.43
  9
$CUSTOMPROPERTYTAG
  1
B
  9
$CUSTOMPROPERTY
  1
7.63
  9
$CUSTOMPROPERTYTAG
  1
C
  9
$CUSTOMPROPERTY
  1
2.66
  9
$CUSTOMPROPERTYTAG
  1
D
  9
$CUSTOMPROPERTY
  1
4.60
  9
$CUSTOMPROPERTYTAG
  1
DD
  9
$CUSTOMPROPERTY
  1
6.500
  9
$CUSTOMPROPERTYTAG
  1
E
  9
$CUSTOMPROPERTY
  1
1.25
  9
$CUSTOMPROPERTYTAG
  1
F
  9
$CUSTOMPROPERTY
  1
0.500
  9
$CUSTOMPROPERTYTAG
  1
G
  9
$CUSTOMPROPERTY
  1
1.86
  9
$CUSTOMPROPERTYTAG
  1
H
  9
$CUSTOMPROPERTY
  1
0.50
  9
$CUSTOMPROPERTYTAG
  1
K
  9
$CUSTOMPROPERTY
  1
5.500
  9
$CUSTOMPROPERTYTAG
  1
L
  9
$CUSTOMPROPERTY
  1
3.80
  9
$CUSTOMPROPERTYTAG
  1
M
  9
$CUSTOMPROPERTY
  1
0.500
  9
$CUSTOMPROPERTYTAG
  1
N
  9
$CUSTOMPROPERTY
  1
3.61
  9
$CUSTOMPROPERTYTAG
  1
P
  9
$CUSTOMPROPERTY
  1
1.50
  9
$CUSTOMPROPERTYTAG
  1
Q
  9
$CUSTOMPROPERTY
  1
1.75
  9
$CUSTOMPROPERTYTAG
  1
X
  9
$CUSTOMPROPERTY
  1
0.25
  9
$CUSTOMPROPERTYTAG
  1
Y
  9
$CUSTOMPROPERTY
  1
0.025
  9
$CUSTOMPROPERTYTAG
  1
Z
  9
$CUSTOMPROPERTY
  1
2.94
  9
$CUSTOMPROPERTYTAG
  1
COMPANY
  9
$CUSTOMPROPERTY
  1
baldor
  9
$INSBASE
 10
0.0
 20
0.0
 30
0.0
  9
$EXTMIN
 10
1.000000000000000E+20
 20
1.000000000000000E+20
 30
1.000000000000000E+20
  9
$EXTMAX
 10
-1.000000000000000E+20
 20
-1.000000000000000E+20
 30
-1.000000000000000E+20
  9
$LIMMIN
 10
0.0
 20
0.0
  9
$LIMMAX
 10
12.0
 20
9.0
  9
$ORTHOMODE
 70
     0
  9
$REGENMODE
 70
     1
  9
$FILLMODE
 70
     1
  9
$QTEXTMODE
 70
     0
  9
$MIRRTEXT
 70
     1
  9
$LTSCALE
 40
1.0
  9
$ATTMODE
 70
     1
  9
$TEXTSIZE
 40
0.2
  9
$TRACEWID
 40
0.05
  9
$TEXTSTYLE
  7
Standard
  9
$CLAYER
  8
0
  9
$CELTYPE
  6
ByLayer
  9
$CECOLOR
 62
   256
  9
$CELTSCALE
 40
1.0
  9
$DISPSILH
 70
     0
  9
$DIMSCALE
 40
1.0
  9
$DIMASZ
 40
0.18
  9
$DIMEXO
 40
0.0625
  9
$DIMDLI
 40
0.38
  9
$DIMRND
 40
0.0
  9
$DIMDLE
 40
0.0
  9
$DIMEXE
 40
0.18
  9
$DIMTP
 40
0.0
  9
$DIMTM
 40
0.0
  9
$DIMTXT
 40
0.18
  9
$DIMCEN
 40
0.09
  9
$DIMTSZ
 40
0.0
  9
$DIMTOL
 70
     0
  9
$DIMLIM
 70
     0
  9
$DIMTIH
 70
     1
  9
$DIMTOH
 70
     1
  9
$DIMSE1
 70
     0
  9
$DIMSE2
 70
     0
  9
$DIMTAD
 70
     0
  9
$DIMZIN
 70
     0
  9
$DIMBLK
  1

  9
$DIMASO
 70
     1
  9
$DIMSHO
 70
     1
  9
$DIMPOST
  1

  9
$DIMAPOST
  1

  9
$DIMALT
 70
     0
  9
$DIMALTD
 70
     2
  9
$DIMALTF
 40
25.4
  9
$DIMLFAC
 40
1.0
  9
$DIMTOFL
 70
     0
  9
$DIMTVP
 40
0.0
  9
$DIMTIX
 70
     0
  9
$DIMSOXD
 70
     0
  9
$DIMSAH
 70
     0
  9
$DIMBLK1
  1

  9
$DIMBLK2
  1

  9
$DIMSTYLE
  2
Standard
  9
$DIMCLRD
 70
     0
  9
$DIMCLRE
 70
     0
  9
$DIMCLRT
 70
     0
  9
$DIMTFAC
 40
1.0
  9
$DIMGAP
 40
0.09
  9
$DIMJUST
 70
     0
  9
$DIMSD1
 70
     0
  9
$DIMSD2
 70
     0
  9
$DIMTOLJ
 70
     1
  9
$DIMTZIN
 70
     0
  9
$DIMALTZ
 70
     0
  9
$DIMALTTZ
 70
     0
  9
$DIMUPT
 70
     0
  9
$DIMDEC
 70
     4
  9
$DIMTDEC
 70
     4
  9
$DIMALTU
 70
     2
  9
$DIMALTTD
 70
     2
  9
$DIMTXSTY
  7
Standard
  9
$DIMAUNIT
 70
     0
  9
$DIMADEC
 70
     0
  9
$DIMALTRND
 40
0.0
  9
$DIMAZIN
 70
     0
  9
$DIMDSEP
 70
    46
  9
$DIMATFIT
 70
     3
  9
$DIMFRAC
 70
     0
  9
$DIMLDRBLK
  1

  9
$DIMLUNIT
 70
     2
  9
$DIMLWD
 70
    -2
  9
$DIMLWE
 70
    -2
  9
$DIMTMOVE
 70
     0
  9
$DIMFXL
 40
1.0
  9
$DIMFXLON
 70
     0
  9
$DIMJOGANG
 40
0.7853981633974483
  9
$DIMTFILL
 70
     0
  9
$DIMTFILLCLR
 70
     0
  9
$DIMARCSYM
 70
     0
  9
$DIMLTYPE
  6

  9
$DIMLTEX1
  6

  9
$DIMLTEX2
  6

  9
$DIMTXTDIRECTION
 70
     0
  9
$LUNITS
 70
     2
  9
$LUPREC
 70
     4
  9
$SKETCHINC
 40
0.1
  9
$FILLETRAD
 40
0.5
  9
$AUNITS
 70
     0
  9
$AUPREC
 70
     0
  9
$MENU
  1
.
  9
$ELEVATION
 40
0.0
  9
$PELEVATION
 40
0.0
  9
$THICKNESS
 40
0.0
  9
$LIMCHECK
 70
     0
  9
$CHAMFERA
 40
0.0
  9
$CHAMFERB
 40
0.0
  9
$CHAMFERC
 40
0.0
  9
$CHAMFERD
 40
0.0
  9
$SKPOLY
 70
     0
  9
$TDCREATE
 40
2458168.897393611
  9
$TDUCREATE
 40
2458168.855726944
  9
$TDUPDATE
 40
2458168.897393785
  9
$TDUUPDATE
 40
2458168.855727118
  9
$TDINDWG
 40
0.0000000116
  9
$TDUSRTIMER
 40
0.0000000116
  9
$USRTIMER
 70
     1
  9
$ANGBASE
 50
0.0
  9
$ANGDIR
 70
     0
  9
$PDMODE
 70
     0
  9
$PDSIZE
 40
0.0
  9
$PLINEWID
 40
0.0
  9
$SPLFRAME
 70
     0
  9
$SPLINETYPE
 70
     6
  9
$SPLINESEGS
 70
     8
  9
$HANDSEED
  5
299
  9
$SURFTAB1
 70
     6
  9
$SURFTAB2
 70
     6
  9
$SURFTYPE
 70
     6
  9
$SURFU
 70
     6
  9
$SURFV
 70
     6
  9
$UCSBASE
  2

  9
$UCSNAME
  2

  9
$UCSORG
 10
0.0
 20
0.0
 30
0.0
  9
$UCSXDIR
 10
1.0
 20
0.0
 30
0.0
  9
$UCSYDIR
 10
0.0
 20
1.0
 30
0.0
  9
$UCSORTHOREF
  2

  9
$UCSORTHOVIEW
 70
     0
  9
$UCSORGTOP
 10
0.0
 20
0.0
 30
0.0
  9
$UCSORGBOTTOM
 10
0.0
 20
0.0
 30
0.0
  9
$UCSORGLEFT
 10
0.0
 20
0.0
 30
0.0
  9
$UCSORGRIGHT
 10
0.0
 20
0.0
 30
0.0
  9
$UCSORGFRONT
 10
0.0
 20
0.0
 30
0.0
  9
$UCSORGBACK
 10
0.0
 20
0.0
 30
0.0
  9
$PUCSBASE
  2

  9
$PUCSNAME
  2

  9
$PUCSORG
 10
0.0
 20
0.0
 30
0.0
  9
$PUCSXDIR
 10
1.0
 20
0.0
 30
0.0
  9
$PUCSYDIR
 10
0.0
 20
1.0
 30
0.0
  9
$PUCSORTHOREF
  2

  9
$PUCSORTHOVIEW
 70
     0
  9
$PUCSORGTOP
 10
0.0
 20
0.0
 30
0.0
  9
$PUCSORGBOTTOM
 10
0.0
 20
0.0
 30
0.0
  9
$PUCSORGLEFT
 10
0.0
 20
0.0
 30
0.0
  9
$PUCSORGRIGHT
 10
0.0
 20
0.0
 30
0.0
  9
$PUCSORGFRONT
 10
0.0
 20
0.0
 30
0.0
  9
$PUCSORGBACK
 10
0.0
 20
0.0
 30
0.0
  9
$USERI1
 70
     0
  9
$USERI2
 70
     0
  9
$USERI3
 70
     0
  9
$USERI4
 70
     0
  9
$USERI5
 70
     0
  9
$USERR1
 40
0.0
  9
$USERR2
 40
0.0
  9
$USERR3
 40
0.0
  9
$USERR4
 40
0.0
  9
$USERR5
 40
0.0
  9
$WORLDVIEW
 70
     1
  9
$SHADEDGE
 70
     3
  9
$SHADEDIF
 70
    70
  9
$TILEMODE
 70
     1
  9
$MAXACTVP
 70
    64
  9
$PINSBASE
 10
0.0
 20
0.0
 30
0.0
  9
$PLIMCHECK
 70
     0
  9
$PEXTMIN
 10
1.000000000000000E+20
 20
1.000000000000000E+20
 30
1.000000000000000E+20
  9
$PEXTMAX
 10
-1.000000000000000E+20
 20
-1.000000000000000E+20
 30
-1.000000000000000E+20
  9
$PLIMMIN
 10
0.0
 20
0.0
  9
$PLIMMAX
 10
12.0
 20
9.0
  9
$UNITMODE
 70
     0
  9
$VISRETAIN
 70
     1
  9
$PLINEGEN
 70
     0
  9
$PSLTSCALE
 70
     1
  9
$TREEDEPTH
 70
  3020
  9
$CMLSTYLE
  2
Standard
  9
$CMLJUST
 70
     0
  9
$CMLSCALE
 40
1.0
  9
$PROXYGRAPHICS
 70
     1
  9
$MEASUREMENT
 70
     0
  9
$CELWEIGHT
370
    -1
  9
$ENDCAPS
280
     0
  9
$JOINSTYLE
280
     0
  9
$LWDISPLAY
290
     0
  9
$INSUNITS
 70
     1
  9
$HYPERLINKBASE
  1

  9
$STYLESHEET
  1

  9
$XEDIT
290
     1
  9
$CEPSNTYPE
380
     0
  9
$PSTYLEMODE
290
     1
  9
$FINGERPRINTGUID
  2
{2398026B-ED9D-4EC7-A660-7F403EFF332E}
  9
$VERSIONGUID
  2
{FAEB1C32-E019-11D5-929B-00C0DF256EC4}
  9
$EXTNAMES
290
     1
  9
$PSVPSCALE
 40
0.0
  9
$OLESTARTUP
290
     0
  9
$SORTENTS
280
   127
  9
$INDEXCTL
280
     0
  9
$HIDETEXT
280
     1
  9
$XCLIPFRAME
280
     2
  9
$HALOGAP
280
     0
  9
$OBSCOLOR
 70
   257
  9
$OBSLTYPE
280
     0
  9
$INTERSECTIONDISPLAY
280
     0
  9
$INTERSECTIONCOLOR
 70
   257
  9
$DIMASSOC
280
     2
  9
$PROJECTNAME
  1

  9
$CAMERADISPLAY
290
     0
  9
$LENSLENGTH
 40
50.0
  9
$CAMERAHEIGHT
 40
0.0
  9
$STEPSPERSEC
 40
2.0
  9
$STEPSIZE
 40
6.0
  9
$3DDWFPREC
 40
2.0
  9
$PSOLWIDTH
 40
0.25
  9
$PSOLHEIGHT
 40
4.0
  9
$LOFTANG1
 40
1.570796326794897
  9
$LOFTANG2
 40
1.570796326794897
  9
$LOFTMAG1
 40
0.0
  9
$LOFTMAG2
 40
0.0
  9
$LOFTPARAM
 70
     7
  9
$LOFTNORMALS
280
     1
  9
$LATITUDE
 40
37.795
  9
$LONGITUDE
 40
-122.394
  9
$NORTHDIRECTION
 40
0.0
  9
$TIMEZONE
 70
 -8000
  9
$LIGHTGLYPHDISPLAY
280
     1
  9
$TILEMODELIGHTSYNCH
280
     1
  9
$CMATERIAL
347
44
  9
$SOLIDHIST
280
     0
  9
$SHOWHIST
280
     1
  9
$DWFFRAME
280
     2
  9
$DGNFRAME
280
     2
  9
$REALWORLDSCALE
290
     1
  9
$INTERFERECOLOR
 62
   256
  9
$CSHADOW
280
     0
  9
$SHADOWPLANELOCATION
 40
0.0
  0
ENDSEC
  0
SECTION
  2
CLASSES
  0
CLASS
  1
ACDBDICTIONARYWDFLT
  2
AcDbDictionaryWithDefault
  3
ObjectDBX Classes
 90
        0
 91
        4
280
     0
281
     0
  0
CLASS
  1
VISUALSTYLE
  2
AcDbVisualStyle
  3
ObjectDBX Classes
 90
     4095
 91
        4
280
     0
281
     0
  0
CLASS
  1
MATERIAL
  2
AcDbMaterial
  3
ObjectDBX Classes
 90
     1153
 91
        4
280
     0
281
     0
  0
CLASS
  1
SCALE
  2
AcDbScale
  3
ObjectDBX Classes
 90
     1153
 91
        4
280
     0
281
     0
  0
CLASS
  1
TABLESTYLE
  2
AcDbTableStyle
  3
ObjectDBX Classes
 90
     4095
 91
        4
280
     0
281
     0
  0
CLASS
  1
MLEADERSTYLE
  2
AcDbMLeaderStyle
  3
ACDB_MLEADERSTYLE_CLASS
 90
     4095
 91
        4
280
     0
281
     0
  0
CLASS
  1
SUN
  2
AcDbSun
  3
SCENEOE
 90
     1153
 91
        4
280
     0
281
     0
  0
CLASS
  1
DICTIONARYVAR
  2
AcDbDictionaryVar
  3
ObjectDBX Classes
 90
        0
 91
        4
280
     0
281
     0
  0
CLASS
  1
CELLSTYLEMAP
  2
AcDbCellStyleMap
  3
ObjectDBX Classes
 90
     1152
 91
        4
280
     0
281
     0
  0
ENDSEC
  0
SECTION
  2
TABLES
  0
TABLE
  2
VPORT
  5
8
330
0
100
AcDbSymbolTable
 70
     1
  0
VPORT
  5
29
330
8
100
AcDbSymbolTableRecord
100
AcDbViewportTableRecord
  2
*Active
 70
     0
 10
0.0
 20
0.0
 11
1.0
 21
1.0
 12
0.0
 22
0.0
 13
0.0
 23
0.0
 14
0.5
 24
0.5
 15
0.5
 25
0.5
 16
0.0
 26
0.0
 36
1.0
 17
0.0
 27
0.0
 37
0.0
 40
7.7826
 41
0.7669724770642203
 42
50.0
 43
0.0
 44
0.0
 50
0.0
 51
0.0
 71
     0
 72
   100
 73
     1
 74
     3
 75
     0
 76
     0
 77
     0
 78
     0
281
     0
 65
     1
110
0.0
120
0.0
130
0.0
111
1.0
121
0.0
131
0.0
112
0.0
122
1.0
132
0.0
 79
     0
146
0.0
348
2F
 60
     3
 61
     5
292
     1
282
     1
141
0.0
142
0.0
 63
   250
361
6D
  0
ENDTAB
  0
TABLE
  2
LTYPE
  5
5
330
0
100
AcDbSymbolTable
 70
     3
  0
LTYPE
  5
14
330
5
100
AcDbSymbolTableRecord
100
AcDbLinetypeTableRecord
  2
ByBlock
 70
     0
  3

 72
    65
 73
     0
 40
0.0
  0
LTYPE
  5
15
330
5
100
AcDbSymbolTableRecord
100
AcDbLinetypeTableRecord
  2
ByLayer
 70
     0
  3

 72
    65
 73
     0
 40
0.0
  0
LTYPE
  5
16
330
5
100
AcDbSymbolTableRecord
100
AcDbLinetypeTableRecord
  2
Continuous
 70
     0
  3
Solid line
 72
    65
 73
     0
 40
0.0
  0
LTYPE
  5
9D
330
5
100
AcDbSymbolTableRecord
100
AcDbLinetypeTableRecord
  2
Dashed
 70
     0
  3

 72
    65
 73
     2
 40
2.0
 49
1.0
 74
     0
 49
-1.0
 74
     0
  0
LTYPE
  5
AB
330
5
100
AcDbSymbolTableRecord
100
AcDbLinetypeTableRecord
  2
Center
 70
     0
  3

 72
    65
 73
     4
 40
1.5
 49
0.45
 74
     0
 49
-0.5
 74
     0
 49
0.05
 74
     0
 49
-0.5
 74
     0
  0
ENDTAB
  0
TABLE
  2
LAYER
  5
2
330
0
100
AcDbSymbolTable
 70
     7
  0
LAYER
  5
10
330
2
100
AcDbSymbolTableRecord
100
AcDbLayerTableRecord
  2
0
 70
     0
 62
     7
  6
Continuous
370
    -3
390
F
347
46
348
0
  0
LAYER
  5
72
330
2
100
AcDbSymbolTableRecord
100
AcDbLayerTableRecord
  2
AM_6
 70
     0
 62
    -2
  6
Continuous
370
    35
390
F
347
46
348
0
  0
LAYER
  5
9E
330
2
100
AcDbSymbolTableRecord
100
AcDbLayerTableRecord
  2
AM_9
 70
     0
 62
     6
  6
Dashed
370
    25
390
F
347
46
348
0
  0
LAYER
  5
A5
330
2
100
AcDbSymbolTableRecord
100
AcDbLayerTableRecord
  2
AM_5
 70
     0
 62
     3
  6
Continuous
370
    25
390
F
347
46
348
0
  0
LAYER
  5
AC
330
2
100
AcDbSymbolTableRecord
100
AcDbLayerTableRecord
  2
AM_7
 70
     0
 62
     7
  6
Center
370
    25
390
F
347
46
348
0
  0
LAYER
  5
AE
330
2
100
AcDbSymbolTableRecord
100
AcDbLayerTableRecord
  2
AM_4
 70
     0
 62
     7
  6
Continuous
370
    50
390
F
347
46
348
0
  0
LAYER
  5
280
330
2
100
AcDbSymbolTableRecord
100
AcDbLayerTableRecord
  2
ConnectionPoints
 70
     0
 62
     7
  6
Continuous
370
    50
390
F
347
46
348
0
  0
ENDTAB
  0
TABLE
  2
STYLE
  5
3
330
0
100
AcDbSymbolTable
 70
     1
  0
STYLE
  5
11
330
3
100
AcDbSymbolTableRecord
100
AcDbTextStyleTableRecord
  2
Standard
 70
     0
 40
0.0
 41
1.0
 50
0.0
 71
     0
 42
0.2
  3
txt
  4

  0
ENDTAB
  0
TABLE
  2
VIEW
  5
6
330
0
100
AcDbSymbolTable
 70
     0
  0
ENDTAB
  0
TABLE
  2
UCS
  5
7
330
0
100
AcDbSymbolTable
 70
     0
  0
ENDTAB
  0
TABLE
  2
APPID
  5
9
330
0
100
AcDbSymbolTable
 70
     1
  0
APPID
  5
12
330
9
100
AcDbSymbolTableRecord
100
AcDbRegAppTableRecord
  2
ACAD
 70
     0
  0
ENDTAB
  0
TABLE
  2
DIMSTYLE
  5
A
330
0
100
AcDbSymbolTable
 70
     1
100
AcDbDimStyleTable
  0
DIMSTYLE
105
27
330
A
100
AcDbSymbolTableRecord
100
AcDbDimStyleTableRecord
  2
Standard
 70
     0
178
     0
340
11
  0
ENDTAB
  0
TABLE
  2
BLOCK_RECORD
  5
1
330
0
100
AcDbSymbolTable
 70
     9
  0
BLOCK_RECORD
  5
1F
330
1
100
AcDbSymbolTableRecord
100
AcDbBlockTableRecord
  2
*Model_Space
340
22
 70
     0
280
     1
281
     0
  0
BLOCK_RECORD
  5
1B
330
1
100
AcDbSymbolTableRecord
100
AcDbBlockTableRecord
  2
*Paper_Space
340
1E
 70
     0
280
     1
281
     0
  0
BLOCK_RECORD
  5
23
330
1
100
AcDbSymbolTableRecord
100
AcDbBlockTableRecord
  2
*Paper_Space0
340
26
 70
     0
280
     1
281
     0
  0
BLOCK_RECORD
  5
6E
330
1
100
AcDbSymbolTableRecord
100
AcDbBlockTableRecord
  2
1_072321_2
340
0
102
{BLKREFS
331
6F
102
}
 70
     0
280
     1
281
     0
  0
BLOCK_RECORD
  5
91
330
1
100
AcDbSymbolTableRecord
100
AcDbBlockTableRecord
  2
2_405015E_Inch_1_0_in_072321_2
340
0
102
{BLKREFS
331
92
102
}
 70
     0
280
     1
281
     0
  0
BLOCK_RECORD
  5
D6
330
1
100
AcDbSymbolTableRecord
100
AcDbBlockTableRecord
  2
3_405015E_Inch_2_0_in_072321_2
340
0
102
{BLKREFS
331
D7
102
}
 70
     0
280
     1
281
     0
  0
BLOCK_RECORD
  5
115
330
1
100
AcDbSymbolTableRecord
100
AcDbBlockTableRecord
  2
4_ASME_B18_3_10_1_0_in_072321_2
340
0
102
{BLKREFS
331
116
102
}
 70
     0
280
     1
281
     0
  0
BLOCK_RECORD
  5
13E
330
1
100
AcDbSymbolTableRecord
100
AcDbBlockTableRecord
  2
5_ASME_B18_3_10_2_0_in_072321_2
340
0
102
{BLKREFS
331
13F
102
}
 70
     0
280
     1
281
     0
  0
BLOCK_RECORD
  5
167
330
1
100
AcDbSymbolTableRecord
100
AcDbBlockTableRecord
  2
6_070895LW_0_in_072321_2
340
0
102
{BLKREFS
331
168
102
}
 70
     0
280
     1
281
     0
  0
BLOCK_RECORD
  5
19D
330
1
100
AcDbSymbolTableRecord
100
AcDbBlockTableRecord
  2
7_070895I_0_in_072321_2
340
0
102
{BLKREFS
331
19E
102
}
 70
     0
280
     1
281
     0
  0
BLOCK_RECORD
  5
22A
330
1
100
AcDbSymbolTableRecord
100
AcDbBlockTableRecord
  2
8_B072321_0_in_072321_2
340
0
102
{BLKREFS
331
22B
102
}
 70
     0
280
     1
281
     0
  0
ENDTAB
  0
ENDSEC
  0
SECTION
  2
BLOCKS
  0
BLOCK
  5
20
330
1F
100
AcDbEntity
  8
0
100
AcDbBlockBegin
  2
*Model_Space
 70
     0
 10
0.0
 20
0.0
 30
0.0
  3
*Model_Space
  1

  0
ENDBLK
  5
21
330
1F
100
AcDbEntity
  8
0
100
AcDbBlockEnd
  0
BLOCK
  5
1C
330
1B
100
AcDbEntity
 67
     1
  8
0
100
AcDbBlockBegin
  2
*Paper_Space
 70
     0
 10
0.0
 20
0.0
 30
0.0
  3
*Paper_Space
  1

  0
ENDBLK
  5
1D
330
1B
100
AcDbEntity
 67
     1
  8
0
100
AcDbBlockEnd
  0
BLOCK
  5
24
330
23
100
AcDbEntity
  8
0
100
AcDbBlockBegin
  2
*Paper_Space0
 70
     0
 10
0.0
 20
0.0
 30
0.0
  3
*Paper_Space0
  1

  0
ENDBLK
  5
25
330
23
100
AcDbEntity
  8
0
100
AcDbBlockEnd
  0
BLOCK
  5
70
330
6E
100
AcDbEntity
  8
0
100
AcDbBlockBegin
  2
1_072321_2
 70
     2
 10
0.0
 20
0.0
 30
0.0
  3
1_072321_2
  1

  0
ATTDEF
  5
73
330
6E
100
AcDbEntity
  8
AM_6
100
AcDbText
 10
7.926
 20
3.815
 30
0.0
 40
0.5
  1
Steel IMPERIAL-HD Piloted Flange 2-7/16 thru 5 Inch Bore
100
AcDbAttributeDefinition
  3

  2
NN
 70
     8
280
     0
  0
ATTDEF
  5
74
330
6E
100
AcDbEntity
  8
AM_6
100
AcDbText
 10
7.926
 20
3.315
 30
0.0
 40
0.5
  1
Steal Imperial Piloted Flange Bearing-Inch-207-500
100
AcDbAttributeDefinition
  3

  2
NT
 70
     8
280
     0
  0
ATTDEF
  5
75
330
6E
100
AcDbEntity
  8
AM_6
100
AcDbText
 10
7.926
 20
2.815
 30
0.0
 40
0.5
  1
072321
100
AcDbAttributeDefinition
  3

  2
NB
 70
     8
280
     0
  0
ATTDEF
  5
76
330
6E
100
AcDbEntity
  8
AM_6
100
AcDbText
 10
7.926
 20
2.315
 30
0.0
 40
0.5
  1
$PN.
100
AcDbAttributeDefinition
  3

  2
NBSYN
 70
     8
280
     0
  0
ATTDEF
  5
77
330
6E
100
AcDbEntity
  8
AM_6
100
AcDbText
 10
7.926
 20
1.815
 30
0.0
 40
0.5
  1
072321
100
AcDbAttributeDefinition
  3

  2
LINA
 70
     8
280
     0
  0
ATTDEF
  5
78
330
6E
100
AcDbEntity
  8
AM_6
100
AcDbText
 10
7.926
 20
1.315
 30
0.0
 40
0.5
  1
2-7/16
100
AcDbAttributeDefinition
  3

  2
SS
 70
     8
280
     0
  0
ATTDEF
  5
79
330
6E
100
AcDbEntity
  8
AM_6
100
AcDbText
 10
7.926
 20
0.815
 30
0.0
 40
0.5
  1
072321
100
AcDbAttributeDefinition
  3

  2
PN
 70
     8
280
     0
  0
ATTDEF
  5
7A
330
6E
100
AcDbEntity
  8
AM_6
100
AcDbText
 10
7.926
 20
0.3149999999999999
 30
0.0
 40
0.5
  1
Expansion
100
AcDbAttributeDefinition
  3

  2
TYPE
 70
     8
280
     0
  0
ATTDEF
  5
7B
330
6E
100
AcDbEntity
  8
AM_6
100
AcDbText
 10
7.926
 20
-0.1850000000000001
 30
0.0
 40
0.5
  1
Expansion
100
AcDbAttributeDefinition
  3

  2
EF
 70
     8
280
     0
  0
ATTDEF
  5
7C
330
6E
100
AcDbEntity
  8
AM_6
100
AcDbText
 10
7.926
 20
-0.685
 30
0.0
 40
0.5
  1
SFC-IP-207RE
100
AcDbAttributeDefinition
  3

  2
DESCRIPTION
 70
     8
280
     0
  0
ATTDEF
  5
7D
330
6E
100
AcDbEntity
  8
AM_6
100
AcDbText
 10
7.926
 20
-1.185
 30
0.0
 40
0.5
  1
Contact Seal
100
AcDbAttributeDefinition
  3

  2
ST
 70
     8
280
     0
  0
ATTDEF
  5
7E
330
6E
100
AcDbEntity
  8
AM_6
100
AcDbText
 10
7.926
 20
-1.685
 30
0.0
 40
0.5
  1
3.43
100
AcDbAttributeDefinition
  3

  2
A
 70
     8
280
     0
  0
ATTDEF
  5
7F
330
6E
100
AcDbEntity
  8
AM_6
100
AcDbText
 10
7.926
 20
-2.185
 30
0.0
 40
0.5
  1
7.63
100
AcDbAttributeDefinition
  3

  2
B
 70
     8
280
     0
  0
ATTDEF
  5
80
330
6E
100
AcDbEntity
  8
AM_6
100
AcDbText
 10
7.926
 20
-2.685
 30
0.0
 40
0.5
  1
2.66
100
AcDbAttributeDefinition
  3

  2
C
 70
     8
280
     0
  0
ATTDEF
  5
81
330
6E
100
AcDbEntity
  8
AM_6
100
AcDbText
 10
7.926
 20
-3.185
 30
0.0
 40
0.5
  1
4.60
100
AcDbAttributeDefinition
  3

  2
D
 70
     8
280
     0
  0
ATTDEF
  5
82
330
6E
100
AcDbEntity
  8
AM_6
100
AcDbText
 10
7.926
 20
-3.685
 30
0.0
 40
0.5
  1
6.500
100
AcDbAttributeDefinition
  3

  2
DD
 70
     8
280
     0
  0
ATTDEF
  5
83
330
6E
100
AcDbEntity
  8
AM_6
100
AcDbText
 10
7.926
 20
-4.185
 30
0.0
 40
0.5
  1
1.25
100
AcDbAttributeDefinition
  3

  2
E
 70
     8
280
     0
  0
ATTDEF
  5
84
330
6E
100
AcDbEntity
  8
AM_6
100
AcDbText
 10
7.926
 20
-4.685
 30
0.0
 40
0.5
  1
0.500
100
AcDbAttributeDefinition
  3

  2
F
 70
     8
280
     0
  0
ATTDEF
  5
85
330
6E
100
AcDbEntity
  8
AM_6
100
AcDbText
 10
7.926
 20
-5.185
 30
0.0
 40
0.5
  1
1.86
100
AcDbAttributeDefinition
  3

  2
G
 70
     8
280
     0
  0
ATTDEF
  5
86
330
6E
100
AcDbEntity
  8
AM_6
100
AcDbText
 10
7.926
 20
-5.685
 30
0.0
 40
0.5
  1
0.50
100
AcDbAttributeDefinition
  3

  2
H
 70
     8
280
     0
  0
ATTDEF
  5
87
330
6E
100
AcDbEntity
  8
AM_6
100
AcDbText
 10
7.926
 20
-6.185
 30
0.0
 40
0.5
  1
5.500
100
AcDbAttributeDefinition
  3

  2
K
 70
     8
280
     0
  0
ATTDEF
  5
88
330
6E
100
AcDbEntity
  8
AM_6
100
AcDbText
 10
7.926
 20
-6.685
 30
0.0
 40
0.5
  1
3.80
100
AcDbAttributeDefinition
  3

  2
L
 70
     8
280
     0
  0
ATTDEF
  5
89
330
6E
100
AcDbEntity
  8
AM_6
100
AcDbText
 10
7.926
 20
-7.185
 30
0.0
 40
0.5
  1
0.500
100
AcDbAttributeDefinition
  3

  2
M
 70
     8
280
     0
  0
ATTDEF
  5
8A
330
6E
100
AcDbEntity
  8
AM_6
100
AcDbText
 10
7.926
 20
-7.685
 30
0.0
 40
0.5
  1
3.61
100
AcDbAttributeDefinition
  3

  2
N
 70
     8
280
     0
  0
ATTDEF
  5
8B
330
6E
100
AcDbEntity
  8
AM_6
100
AcDbText
 10
7.926
 20
-8.185
 30
0.0
 40
0.5
  1
1.50
100
AcDbAttributeDefinition
  3

  2
P
 70
     8
280
     0
  0
ATTDEF
  5
8C
330
6E
100
AcDbEntity
  8
AM_6
100
AcDbText
 10
7.926
 20
-8.685
 30
0.0
 40
0.5
  1
1.75
100
AcDbAttributeDefinition
  3

  2
Q
 70
     8
280
     0
  0
ATTDEF
  5
8D
330
6E
100
AcDbEntity
  8
AM_6
100
AcDbText
 10
7.926
 20
-9.185
 30
0.0
 40
0.5
  1
0.25
100
AcDbAttributeDefinition
  3

  2
X
 70
     8
280
     0
  0
ATTDEF
  5
8E
330
6E
100
AcDbEntity
  8
AM_6
100
AcDbText
 10
7.926
 20
-9.685
 30
0.0
 40
0.5
  1
0.025
100
AcDbAttributeDefinition
  3

  2
Y
 70
     8
280
     0
  0
ATTDEF
  5
8F
330
6E
100
AcDbEntity
  8
AM_6
100
AcDbText
 10
7.926
 20
-10.185
 30
0.0
 40
0.5
  1
2.94
100
AcDbAttributeDefinition
  3

  2
Z
 70
     8
280
     0
  0
ATTDEF
  5
90
330
6E
100
AcDbEntity
  8
AM_6
100
AcDbText
 10
7.926
 20
-10.685
 30
0.0
 40
0.5
  1
baldor
100
AcDbAttributeDefinition
  3

  2
COMPANY
 70
     8
280
     0
  0
INSERT
  5
92
330
6E
100
AcDbEntity
  8
0
100
AcDbBlockReference
  2
2_405015E_Inch_1_0_in_072321_2
 10
0.0
 20
0.0
 30
0.0
  0
INSERT
  5
D7
330
6E
100
AcDbEntity
  8
0
100
AcDbBlockReference
  2
3_405015E_Inch_2_0_in_072321_2
 10
0.0
 20
0.0
 30
0.0
  0
INSERT
  5
116
330
6E
100
AcDbEntity
  8
0
100
AcDbBlockReference
  2
4_ASME_B18_3_10_1_0_in_072321_2
 10
0.0
 20
0.0
 30
0.0
  0
INSERT
  5
13F
330
6E
100
AcDbEntity
  8
0
100
AcDbBlockReference
  2
5_ASME_B18_3_10_2_0_in_072321_2
 10
0.0
 20
0.0
 30
0.0
  0
INSERT
  5
168
330
6E
100
AcDbEntity
  8
0
100
AcDbBlockReference
  2
6_070895LW_0_in_072321_2
 10
0.0
 20
0.0
 30
0.0
  0
INSERT
  5
19E
330
6E
100
AcDbEntity
  8
0
100
AcDbBlockReference
  2
7_070895I_0_in_072321_2
 10
0.0
 20
0.0
 30
0.0
  0
INSERT
  5
22B
330
6E
100
AcDbEntity
  8
0
100
AcDbBlockReference
  2
8_B072321_0_in_072321_2
 10
0.0
 20
0.0
 30
0.0
  0
ENDBLK
  5
71
330
6E
100
AcDbEntity
  8
0
100
AcDbBlockEnd
  0
BLOCK
  5
93
330
91
100
AcDbEntity
  8
0
100
AcDbBlockBegin
  2
2_405015E_Inch_1_0_in_072321_2
 70
     2
 10
0.0
 20
0.0
 30
0.0
  3
2_405015E_Inch_1_0_in_072321_2
  1

  0
ATTDEF
  5
95
330
91
100
AcDbEntity
  8
AM_6
100
AcDbText
 10
4.604226350118072
 20
-2.729321015412572
 30
0.0
 40
0.5
  1
405015E -Inch
100
AcDbAttributeDefinition
  3

  2
NN
 70
     8
280
     0
  0
ATTDEF
  5
96
330
91
100
AcDbEntity
  8
AM_6
100
AcDbText
 10
4.604226350118072
 20
-3.229321015412572
 30
0.0
 40
0.5
  1
Grease Fitting
100
AcDbAttributeDefinition
  3

  2
NT
 70
     8
280
     0
  0
ATTDEF
  5
97
330
91
100
AcDbEntity
  8
AM_6
100
AcDbText
 10
4.604226350118072
 20
-3.729321015412572
 30
0.0
 40
0.5
  1
405015E-Inch
100
AcDbAttributeDefinition
  3

  2
NB
 70
     8
280
     0
  0
ATTDEF
  5
98
330
91
100
AcDbEntity
  8
AM_6
100
AcDbText
 10
4.604226350118072
 20
-4.229321015412571
 30
0.0
 40
0.5
  1
$MN.-Inch
100
AcDbAttributeDefinition
  3

  2
NBSYN
 70
     8
280
     0
  0
ATTDEF
  5
99
330
91
100
AcDbEntity
  8
AM_6
100
AcDbText
 10
4.604226350118072
 20
-4.729321015412571
 30
0.0
 40
0.5
  1
405015E
100
AcDbAttributeDefinition
  3

  2
LINA
 70
     8
280
     0
  0
ATTDEF
  5
9A
330
91
100
AcDbEntity
  8
AM_6
100
AcDbText
 10
4.604226350118072
 20
-5.229321015412571
 30
0.0
 40
0.5
  1
405015E
100
AcDbAttributeDefinition
  3

  2
MN
 70
     8
280
     0
  0
ATTDEF
  5
9B
330
91
100
AcDbEntity
  8
AM_6
100
AcDbText
 10
4.604226350118072
 20
-5.729321015412571
 30
0.0
 40
0.5
  1
1/8 x 27PTF
100
AcDbAttributeDefinition
  3

  2
T
 70
     8
280
     0
  0
ATTDEF
  5
9C
330
91
100
AcDbEntity
  8
AM_6
100
AcDbText
 10
4.604226350118072
 20
-6.229321015412571
 30
0.0
 40
0.5
  1
baldor
100
AcDbAttributeDefinition
  3

  2
COMPANY
 70
     8
280
     0
  0
LINE
  5
9F
330
91
100
AcDbEntity
  8
AM_9
100
AcDbLine
 10
-0.5893010423143717
 20
-2.736813790570696
 30
0.0
 11
-0.6406800719700824
 21
-2.729321015412572
 31
0.0
  0
LINE
  5
A0
330
91
100
AcDbEntity
  8
AM_9
100
AcDbLine
 10
-0.4032664250400526
 20
-3.047802736904076
 30
0.0
 11
-0.3957736498819281
 21
-2.996423707248365
 31
0.0
  0
LINE
  5
A1
330
91
100
AcDbEntity
  8
AM_9
100
AcDbLine
 10
-0.3957736498819281
 20
-2.996423707248365
 30
0.0
 11
-0.5893010423143717
 21
-2.736813790570696
 31
0.0
  0
LINE
  5
A2
330
91
100
AcDbEntity
  8
AM_9
100
AcDbLine
 10
-0.6406800719700824
 20
-2.729321015412572
 30
0.0
 11
-0.8279707279110478
 21
-2.8600392674364
 31
0.0
  0
LINE
  5
A3
330
91
100
AcDbEntity
  8
AM_9
100
AcDbLine
 10
-0.5820292720889529
 20
-3.189960732563601
 30
0.0
 11
-0.4032664250400526
 21
-3.047802736904076
 31
0.0
  0
LINE
  5
A4
330
91
100
AcDbEntity
  8
AM_9
100
AcDbLine
 10
-0.4032664250400526
 20
-3.047802736904076
 30
0.0
 11
-0.6406800719700824
 21
-2.729321015412572
 31
0.0
  0
LINE
  5
A6
330
91
100
AcDbEntity
  8
AM_5
100
AcDbLine
 10
-0.5522854989840053
 20
-3.120886989930538
 30
0.0
 11
-0.3957736498819281
 21
-2.996423707248365
 31
0.0
  0
LINE
  5
A7
330
91
100
AcDbEntity
  8
AM_5
100
AcDbLine
 10
-0.5820292720889527
 20
-3.189960732563601
 30
0.0
 11
-0.5522854989840053
 21
-3.120886989930538
 31
0.0
  0
LINE
  5
A8
330
91
100
AcDbEntity
  8
AM_5
100
AcDbLine
 10
-0.7745365957574694
 20
-2.822745274746622
 30
0.0
 11
-0.5310281287304092
 21
-3.14940297441707
 31
0.0
  0
LINE
  5
A9
330
91
100
AcDbEntity
  8
AM_5
100
AcDbLine
 10
-0.7532792255038733
 20
-2.851261259233154
 30
0.0
 11
-0.5893010423143716
 21
-2.736813790570696
 31
0.0
  0
LINE
  5
AA
330
91
100
AcDbEntity
  8
AM_5
100
AcDbLine
 10
-0.8279707279110482
 20
-2.860039267436401
 30
0.0
 11
-0.7532792255038733
 21
-2.851261259233154
 31
0.0
  0
LINE
  5
AD
330
91
100
AcDbEntity
  8
AM_7
100
AcDbLine
 10
-1.031310566558691
 20
-3.268249695071025
 30
0.0
 11
-0.4668814784571718
 21
-2.847493465758983
 31
0.0
  0
LINE
  5
AF
330
91
100
AcDbEntity
  8
AM_4
100
AcDbLine
 10
-0.9321127374127502
 20
-3.063338029486235
 30
0.0
 11
-0.9561651133261673
 21
-3.081267982439873
 31
0.0
  0
LINE
  5
B0
330
91
100
AcDbEntity
  8
AM_4
100
AcDbLine
 10
-0.8306554426507003
 20
-3.249634613833792
 30
0.0
 11
-0.8066030667372833
 21
-3.231704660880154
 31
0.0
  0
LINE
  5
B1
330
91
100
AcDbEntity
  8
AM_4
100
AcDbLine
 10
-0.5613052394045497
 20
-3.232932971110903
 30
0.0
 11
-0.5742607597130558
 21
-3.200381907701999
 31
0.0
  0
LINE
  5
B2
330
91
100
AcDbEntity
  8
AM_4
100
AcDbLine
 10
-0.6544353460911125
 20
-3.26014841754746
 30
0.0
 11
-0.6269400046802494
 21
-3.281860705225515
 31
0.0
  0
LINE
  5
B3
330
91
100
AcDbEntity
  8
AM_4
100
AcDbLine
 10
-0.6544353460911125
 20
-3.26014841754746
 30
0.0
 11
-0.9159138266650018
 21
-2.909384602143462
 31
0.0
  0
LINE
  5
B4
330
91
100
AcDbEntity
  8
AM_4
100
AcDbLine
 10
-0.9288693469735079
 20
-2.876833538734558
 30
0.0
 11
-0.9159138266650018
 21
-2.909384602143462
 31
0.0
  0
LINE
  5
B5
330
91
100
AcDbEntity
  8
AM_4
100
AcDbLine
 10
-0.835739240286945
 20
-2.849618092298002
 30
0.0
 11
-0.8632345816978082
 21
-2.827905804619946
 31
0.0
  0
LINE
  5
B6
330
91
100
AcDbEntity
  8
AM_4
100
AcDbLine
 10
-0.8066030667372833
 20
-3.231704660880154
 30
0.0
 11
-0.7724894794854148
 21
-3.223512027721241
 31
0.0
  0
LINE
  5
B7
330
91
100
AcDbEntity
  8
AM_4
100
AcDbLine
 10
-0.9145187219403298
 20
-3.032984995159769
 30
0.0
 11
-0.9321127374127502
 21
-3.063338029486235
 31
0.0
  0
LINE
  5
B8
330
91
100
AcDbEntity
  8
AM_4
100
AcDbLine
 10
-0.8066030667372833
 20
-3.231704660880154
 30
0.0
 11
-0.9321127374127502
 21
-3.063338029486235
 31
0.0
  0
LINE
  5
B9
330
91
100
AcDbEntity
  8
AM_4
100
AcDbLine
 10
-0.9561651133261673
 20
-3.081267982439873
 30
0.0
 11
-1.022199818106639
 21
-3.093075512433732
 31
0.0
  0
LINE
  5
BA
330
91
100
AcDbEntity
  8
AM_4
100
AcDbLine
 10
-0.8608302415238963
 20
-3.309546895654485
 30
0.0
 11
-0.8306554426507003
 21
-3.249634613833792
 31
0.0
  0
LINE
  5
BB
330
91
100
AcDbEntity
  8
AM_4
100
AcDbLine
 10
-0.8306554426507003
 20
-3.249634613833792
 30
0.0
 11
-0.9561651133261673
 21
-3.081267982439873
 31
0.0
  0
LINE
  5
BC
330
91
100
AcDbEntity
  8
AM_4
100
AcDbLine
 10
-0.9442877005497026
 20
-3.331445995097077
 30
0.0
 11
-0.8608302415238963
 21
-3.309546895654485
 31
0.0
  0
LINE
  5
BD
330
91
100
AcDbEntity
  8
AM_4
100
AcDbLine
 10
-1.022199818106639
 20
-3.093075512433732
 30
0.0
 11
-1.067021697285724
 21
-3.166802828743878
 31
0.0
  0
LINE
  5
BE
330
91
100
AcDbEntity
  8
AM_4
100
AcDbLine
 10
-0.9442877005497026
 20
-3.331445995097077
 30
0.0
 11
-1.067021697285724
 21
-3.166802828743878
 31
0.0
  0
LINE
  5
BF
330
91
100
AcDbEntity
  8
AM_4
100
AcDbLine
 10
-0.8608302415238963
 20
-3.309546895654485
 30
0.0
 11
-1.022199818106639
 21
-3.093075512433732
 31
0.0
  0
LINE
  5
C0
330
91
100
AcDbEntity
  8
AM_4
100
AcDbLine
 10
-0.7724894794854148
 20
-3.223512027721241
 30
0.0
 11
-0.6967435443479553
 21
-3.234043121360862
 31
0.0
  0
LINE
  5
C1
330
91
100
AcDbEntity
  8
AM_4
100
AcDbLine
 10
-0.9029787082322858
 20
-2.957386194198955
 30
0.0
 11
-0.9145187219403298
 21
-3.032984995159769
 31
0.0
  0
LINE
  5
C2
330
91
100
AcDbEntity
  8
AM_4
100
AcDbLine
 10
-0.7724894794854148
 20
-3.223512027721241
 30
0.0
 11
-0.9145187219403298
 21
-3.032984995159769
 31
0.0
  0
LINE
  5
C3
330
91
100
AcDbEntity
  8
AM_4
100
AcDbLine
 10
-0.6967435443479553
 20
-3.234043121360862
 30
0.0
 11
-0.6574236715833855
 21
-3.256139688228557
 31
0.0
  0
LINE
  5
C4
330
91
100
AcDbEntity
  8
AM_4
100
AcDbLine
 10
-0.9129255011727287
 20
-2.913393331462365
 30
0.0
 11
-0.9029787082322858
 21
-2.957386194198955
 31
0.0
  0
LINE
  5
C5
330
91
100
AcDbEntity
  8
AM_4
100
AcDbLine
 10
-0.6967435443479553
 20
-3.234043121360862
 30
0.0
 11
-0.9029787082322858
 21
-2.957386194198955
 31
0.0
  0
LWPOLYLINE
  5
C6
330
91
100
AcDbEntity
  8
AM_4
100
AcDbPolyline
 90
        4
 70
     0
 43
0.0
 10
-0.7851745863780571
 20
-3.084766509845461
 10
-0.8035581786060771
 20
-3.059089281789273
 10
-0.8209968710198611
 20
-3.032707673871564
 10
-0.8533870114001932
 20
-2.978090330357298
  0
LWPOLYLINE
  5
C7
330
91
100
AcDbEntity
  8
AM_4
100
AcDbPolyline
 90
        4
 70
     0
 43
0.0
 10
-0.7024223402535639
 20
-3.180603913602776
 10
-0.7229253231618701
 20
-3.15909856788933
 10
-0.7550193115541467
 20
-3.122833043556385
 10
-0.7851745863780571
 20
-3.084766509845461
  0
LWPOLYLINE
  5
C8
330
91
100
AcDbEntity
  8
AM_4
100
AcDbPolyline
 90
        4
 70
     0
 43
0.0
 10
-0.7050000000000004
 20
-3.025000000000001
 10
-0.6772096426133896
 20
-3.064651578896131
 10
-0.6515417399032533
 20
-3.105885351278361
 10
-0.6367875749778643
 20
-3.131676179488164
  0
LWPOLYLINE
  5
C9
330
91
100
AcDbEntity
  8
AM_4
100
AcDbPolyline
 90
        4
 70
     0
 43
0.0
 10
-0.7877522461244936
 20
-2.929162596242685
 10
-0.7448466976310452
 20
-2.975587042579954
 10
-0.7244745880621766
 20
-2.999903823809963
 10
-0.7050000000000004
 20
-3.025000000000001
  0
LINE
  5
CA
330
91
100
AcDbEntity
  8
AM_4
100
AcDbLine
 10
-0.9288693469735079
 20
-2.876833538734558
 30
0.0
 11
-0.8632345816978082
 21
-2.827905804619946
 31
0.0
  0
LWPOLYLINE
  5
CB
330
91
100
AcDbEntity
  8
AM_4
100
AcDbPolyline
 90
        4
 70
     0
 43
0.0
 10
-0.8983980897380291
 20
-2.932881322411352
 10
-0.9073463900193847
 20
-2.919861193308007
 10
-0.9153497904865043
 20
-2.90613668434314
 10
-0.9288693469735079
 20
-2.876833538734558
  0
LWPOLYLINE
  5
CC
330
91
100
AcDbEntity
  8
AM_4
100
AcDbPolyline
 90
        4
 70
     0
 43
0.0
 10
-0.8533870114001932
 20
-2.978090330357298
 10
-0.8775068232268303
 20
-2.956866262475508
 10
-0.8884144345106438
 20
-2.945245759432768
 10
-0.8983980897380291
 20
-2.932881322411352
  0
LINE
  5
CD
330
91
100
AcDbEntity
  8
AM_4
100
AcDbLine
 10
-0.8533870114001932
 20
-2.978090330357298
 30
0.0
 11
-0.7877522461244936
 21
-2.929162596242685
 31
0.0
  0
LWPOLYLINE
  5
CE
330
91
100
AcDbEntity
  8
AM_4
100
AcDbPolyline
 90
        4
 70
     0
 43
0.0
 10
-0.8182235033599724
 20
-2.873114812565892
 10
-0.8092752030786167
 20
-2.886134941669237
 10
-0.8012718026114971
 20
-2.899859450634104
 10
-0.7877522461244936
 20
-2.929162596242685
  0
LWPOLYLINE
  5
CF
330
91
100
AcDbEntity
  8
AM_4
100
AcDbPolyline
 90
        4
 70
     0
 43
0.0
 10
-0.8632345816978082
 20
-2.827905804619946
 10
-0.8391147698711712
 20
-2.849129872501737
 10
-0.8282071585873576
 20
-2.860750375544476
 10
-0.8182235033599724
 20
-2.873114812565892
  0
LINE
  5
D0
330
91
100
AcDbEntity
  8
AM_4
100
AcDbLine
 10
-0.7024223402535639
 20
-3.180603913602776
 30
0.0
 11
-0.6367875749778643
 21
-3.131676179488164
 31
0.0
  0
LWPOLYLINE
  5
D1
330
91
100
AcDbEntity
  8
AM_4
100
AcDbPolyline
 90
        4
 70
     0
 43
0.0
 10
-0.6719510830180851
 20
-3.23665169727957
 10
-0.6808993832994408
 20
-3.223631568176225
 10
-0.6889027837665604
 20
-3.209907059211358
 10
-0.7024223402535639
 20
-3.180603913602776
  0
LWPOLYLINE
  5
D2
330
91
100
AcDbEntity
  8
AM_4
100
AcDbPolyline
 90
        4
 70
     0
 43
0.0
 10
-0.6269400046802494
 20
-3.281860705225515
 10
-0.6510598165068864
 20
-3.260636637343726
 10
-0.6619674277907
 20
-3.249016134300986
 10
-0.6719510830180851
 20
-3.23665169727957
  0
LINE
  5
D3
330
91
100
AcDbEntity
  8
AM_4
100
AcDbLine
 10
-0.6269400046802494
 20
-3.281860705225515
 30
0.0
 11
-0.5613052394045497
 21
-3.232932971110903
 31
0.0
  0
LWPOLYLINE
  5
D4
330
91
100
AcDbEntity
  8
AM_4
100
AcDbPolyline
 90
        4
 70
     0
 43
0.0
 10
-0.5917764966400284
 20
-3.17688518743411
 10
-0.5828281963586728
 20
-3.189905316537455
 10
-0.5748247958915531
 20
-3.203629825502321
 10
-0.5613052394045497
 20
-3.232932971110903
  0
LWPOLYLINE
  5
D5
330
91
100
AcDbEntity
  8
AM_4
100
AcDbPolyline
 90
        4
 70
     0
 43
0.0
 10
-0.6367875749778643
 20
-3.131676179488164
 10
-0.6126677631512273
 20
-3.152900247369955
 10
-0.6017601518674136
 20
-3.164520750412695
 10
-0.5917764966400284
 20
-3.17688518743411
  0
ENDBLK
  5
94
330
91
100
AcDbEntity
  8
0
100
AcDbBlockEnd
  0
BLOCK
  5
D8
330
D6
100
AcDbEntity
  8
0
100
AcDbBlockBegin
  2
3_405015E_Inch_2_0_in_072321_2
 70
     2
 10
0.0
 20
0.0
 30
0.0
  3
3_405015E_Inch_2_0_in_072321_2
  1

  0
ATTDEF
  5
DA
330
D6
100
AcDbEntity
  8
AM_6
100
AcDbText
 10
4.604226350118072
 20
3.331445995097077
 30
0.0
 40
0.5
  1
405015E -Inch
100
AcDbAttributeDefinition
  3

  2
NN
 70
     8
280
     0
  0
ATTDEF
  5
DB
330
D6
100
AcDbEntity
  8
AM_6
100
AcDbText
 10
4.604226350118072
 20
2.831445995097077
 30
0.0
 40
0.5
  1
Grease Fitting
100
AcDbAttributeDefinition
  3

  2
NT
 70
     8
280
     0
  0
ATTDEF
  5
DC
330
D6
100
AcDbEntity
  8
AM_6
100
AcDbText
 10
4.604226350118072
 20
2.331445995097077
 30
0.0
 40
0.5
  1
405015E-Inch
100
AcDbAttributeDefinition
  3

  2
NB
 70
     8
280
     0
  0
ATTDEF
  5
DD
330
D6
100
AcDbEntity
  8
AM_6
100
AcDbText
 10
4.604226350118072
 20
1.831445995097077
 30
0.0
 40
0.5
  1
$MN.-Inch
100
AcDbAttributeDefinition
  3

  2
NBSYN
 70
     8
280
     0
  0
ATTDEF
  5
DE
330
D6
100
AcDbEntity
  8
AM_6
100
AcDbText
 10
4.604226350118072
 20
1.331445995097077
 30
0.0
 40
0.5
  1
405015E
100
AcDbAttributeDefinition
  3

  2
LINA
 70
     8
280
     0
  0
ATTDEF
  5
DF
330
D6
100
AcDbEntity
  8
AM_6
100
AcDbText
 10
4.604226350118072
 20
0.8314459950970767
 30
0.0
 40
0.5
  1
405015E
100
AcDbAttributeDefinition
  3

  2
MN
 70
     8
280
     0
  0
ATTDEF
  5
E0
330
D6
100
AcDbEntity
  8
AM_6
100
AcDbText
 10
4.604226350118072
 20
0.3314459950970767
 30
0.0
 40
0.5
  1
1/8 x 27PTF
100
AcDbAttributeDefinition
  3

  2
T
 70
     8
280
     0
  0
ATTDEF
  5
E1
330
D6
100
AcDbEntity
  8
AM_6
100
AcDbText
 10
4.604226350118072
 20
-0.1685540049029233
 30
0.0
 40
0.5
  1
baldor
100
AcDbAttributeDefinition
  3

  2
COMPANY
 70
     8
280
     0
  0
LINE
  5
E2
330
D6
100
AcDbEntity
  8
AM_9
100
AcDbLine
 10
-0.5893010423143711
 20
2.736813790570697
 30
0.0
 11
-0.3957736498819278
 21
2.996423707248366
 31
0.0
  0
LINE
  5
E3
330
D6
100
AcDbEntity
  8
AM_9
100
AcDbLine
 10
-0.3957736498819278
 20
2.996423707248366
 30
0.0
 11
-0.4032664250400523
 21
3.047802736904077
 31
0.0
  0
LINE
  5
E4
330
D6
100
AcDbEntity
  8
AM_9
100
AcDbLine
 10
-0.6406800719700817
 20
2.729321015412572
 30
0.0
 11
-0.5893010423143711
 21
2.736813790570697
 31
0.0
  0
LINE
  5
E5
330
D6
100
AcDbEntity
  8
AM_9
100
AcDbLine
 10
-0.6406800719700817
 20
2.729321015412572
 30
0.0
 11
-0.4032664250400523
 21
3.047802736904077
 31
0.0
  0
LINE
  5
E6
330
D6
100
AcDbEntity
  8
AM_9
100
AcDbLine
 10
-0.4032664250400523
 20
3.047802736904077
 30
0.0
 11
-0.5820292720889528
 21
3.189960732563602
 31
0.0
  0
LINE
  5
E7
330
D6
100
AcDbEntity
  8
AM_9
100
AcDbLine
 10
-0.8279707279110474
 20
2.860039267436401
 30
0.0
 11
-0.6406800719700817
 21
2.729321015412572
 31
0.0
  0
LINE
  5
E8
330
D6
100
AcDbEntity
  8
AM_5
100
AcDbLine
 10
-0.7532792255038728
 20
2.851261259233154
 30
0.0
 11
-0.5893010423143716
 21
2.736813790570697
 31
0.0
  0
LINE
  5
E9
330
D6
100
AcDbEntity
  8
AM_5
100
AcDbLine
 10
-0.8279707279110481
 20
2.860039267436401
 30
0.0
 11
-0.7532792255038728
 21
2.851261259233154
 31
0.0
  0
LINE
  5
EA
330
D6
100
AcDbEntity
  8
AM_5
100
AcDbLine
 10
-0.531028128730409
 20
3.14940297441707
 30
0.0
 11
-0.7745365957574688
 21
2.822745274746623
 31
0.0
  0
LINE
  5
EB
330
D6
100
AcDbEntity
  8
AM_5
100
AcDbLine
 10
-0.552285498984005
 20
3.120886989930539
 30
0.0
 11
-0.3957736498819279
 21
2.996423707248366
 31
0.0
  0
LINE
  5
EC
330
D6
100
AcDbEntity
  8
AM_5
100
AcDbLine
 10
-0.5820292720889527
 20
3.189960732563601
 30
0.0
 11
-0.552285498984005
 21
3.120886989930539
 31
0.0
  0
LINE
  5
ED
330
D6
100
AcDbEntity
  8
AM_7
100
AcDbLine
 10
-1.031310566558691
 20
3.268249695071025
 30
0.0
 11
-0.4668814784571712
 21
2.847493465758984
 31
0.0
  0
LINE
  5
EE
330
D6
100
AcDbEntity
  8
AM_4
100
AcDbLine
 10
-0.8066030667372833
 20
3.231704660880154
 30
0.0
 11
-0.8306554426507003
 21
3.249634613833793
 31
0.0
  0
LINE
  5
EF
330
D6
100
AcDbEntity
  8
AM_4
100
AcDbLine
 10
-0.956165113326167
 20
3.081267982439873
 30
0.0
 11
-0.93211273741275
 21
3.063338029486235
 31
0.0
  0
LINE
  5
F0
330
D6
100
AcDbEntity
  8
AM_4
100
AcDbLine
 10
-0.9159138266650013
 20
2.909384602143462
 30
0.0
 11
-0.6544353460911125
 21
3.260148417547461
 31
0.0
  0
LINE
  5
F1
330
D6
100
AcDbEntity
  8
AM_4
100
AcDbLine
 10
-0.6269400046802495
 20
3.281860705225516
 30
0.0
 11
-0.6544353460911125
 21
3.260148417547461
 31
0.0
  0
LINE
  5
F2
330
D6
100
AcDbEntity
  8
AM_4
100
AcDbLine
 10
-0.9159138266650013
 20
2.909384602143462
 30
0.0
 11
-0.9288693469735074
 21
2.876833538734559
 31
0.0
  0
LINE
  5
F3
330
D6
100
AcDbEntity
  8
AM_4
100
AcDbLine
 10
-0.5742607597130558
 20
3.200381907702001
 30
0.0
 11
-0.5613052394045498
 21
3.232932971110904
 31
0.0
  0
LINE
  5
F4
330
D6
100
AcDbEntity
  8
AM_4
100
AcDbLine
 10
-0.8632345816978076
 20
2.827905804619947
 30
0.0
 11
-0.8357392402869445
 21
2.849618092298002
 31
0.0
  0
LINE
  5
F5
330
D6
100
AcDbEntity
  8
AM_4
100
AcDbLine
 10
-0.93211273741275
 20
3.063338029486235
 30
0.0
 11
-0.8066030667372833
 21
3.231704660880154
 31
0.0
  0
LINE
  5
F6
330
D6
100
AcDbEntity
  8
AM_4
100
AcDbLine
 10
-0.93211273741275
 20
3.063338029486235
 30
0.0
 11
-0.9145187219403296
 21
3.03298499515977
 31
0.0
  0
LINE
  5
F7
330
D6
100
AcDbEntity
  8
AM_4
100
AcDbLine
 10
-0.7724894794854148
 20
3.223512027721242
 30
0.0
 11
-0.8066030667372833
 21
3.231704660880154
 31
0.0
  0
LINE
  5
F8
330
D6
100
AcDbEntity
  8
AM_4
100
AcDbLine
 10
-1.067021697285724
 20
3.166802828743878
 30
0.0
 11
-0.9442877005497027
 21
3.331445995097077
 31
0.0
  0
LINE
  5
F9
330
D6
100
AcDbEntity
  8
AM_4
100
AcDbLine
 10
-1.067021697285724
 20
3.166802828743878
 30
0.0
 11
-1.022199818106639
 21
3.093075512433732
 31
0.0
  0
LINE
  5
FA
330
D6
100
AcDbEntity
  8
AM_4
100
AcDbLine
 10
-0.8608302415238964
 20
3.309546895654486
 30
0.0
 11
-0.9442877005497027
 21
3.331445995097077
 31
0.0
  0
LINE
  5
FB
330
D6
100
AcDbEntity
  8
AM_4
100
AcDbLine
 10
-1.022199818106639
 20
3.093075512433732
 30
0.0
 11
-0.8608302415238964
 21
3.309546895654486
 31
0.0
  0
LINE
  5
FC
330
D6
100
AcDbEntity
  8
AM_4
100
AcDbLine
 10
-0.956165113326167
 20
3.081267982439873
 30
0.0
 11
-0.8306554426507003
 21
3.249634613833793
 31
0.0
  0
LINE
  5
FD
330
D6
100
AcDbEntity
  8
AM_4
100
AcDbLine
 10
-0.8306554426507003
 20
3.249634613833793
 30
0.0
 11
-0.8608302415238964
 21
3.309546895654486
 31
0.0
  0
LINE
  5
FE
330
D6
100
AcDbEntity
  8
AM_4
100
AcDbLine
 10
-1.022199818106639
 20
3.093075512433732
 30
0.0
 11
-0.956165113326167
 21
3.081267982439873
 31
0.0
  0
LINE
  5
FF
330
D6
100
AcDbEntity
  8
AM_4
100
AcDbLine
 10
-0.9145187219403296
 20
3.03298499515977
 30
0.0
 11
-0.7724894794854148
 21
3.223512027721242
 31
0.0
  0
LINE
  5
100
330
D6
100
AcDbEntity
  8
AM_4
100
AcDbLine
 10
-0.9145187219403296
 20
3.03298499515977
 30
0.0
 11
-0.9029787082322855
 21
2.957386194198955
 31
0.0
  0
LINE
  5
101
330
D6
100
AcDbEntity
  8
AM_4
100
AcDbLine
 10
-0.6967435443479553
 20
3.234043121360862
 30
0.0
 11
-0.7724894794854148
 21
3.223512027721242
 31
0.0
  0
LINE
  5
102
330
D6
100
AcDbEntity
  8
AM_4
100
AcDbLine
 10
-0.9029787082322855
 20
2.957386194198955
 30
0.0
 11
-0.6967435443479553
 21
3.234043121360862
 31
0.0
  0
LINE
  5
103
330
D6
100
AcDbEntity
  8
AM_4
100
AcDbLine
 10
-0.9029787082322855
 20
2.957386194198955
 30
0.0
 11
-0.9129255011727283
 21
2.913393331462365
 31
0.0
  0
LINE
  5
104
330
D6
100
AcDbEntity
  8
AM_4
100
AcDbLine
 10
-0.6574236715833855
 20
3.256139688228558
 30
0.0
 11
-0.6967435443479553
 21
3.234043121360862
 31
0.0
  0
LINE
  5
105
330
D6
100
AcDbEntity
  8
AM_4
100
AcDbLine
 10
-0.6269400046802495
 20
3.281860705225516
 30
0.0
 11
-0.5613052394045498
 21
3.232932971110904
 31
0.0
  0
LWPOLYLINE
  5
106
330
D6
100
AcDbEntity
  8
AM_4
100
AcDbPolyline
 90
        4
 70
     0
 43
0.0
 10
-0.6719510830180853
 20
3.236651697279571
 10
-0.6620287994061123
 20
3.24894576608191
 10
-0.6511616159799032
 20
3.260535455022728
 10
-0.6269400046802495
 20
3.281860705225516
  0
LWPOLYLINE
  5
107
330
D6
100
AcDbEntity
  8
AM_4
100
AcDbPolyline
 90
        4
 70
     0
 43
0.0
 10
-0.5613052394045498
 20
3.232932971110904
 10
-0.5747569009115352
 20
3.203756282081737
 10
-0.5827782861978317
 20
3.189984228749939
 10
-0.5917764966400284
 20
3.17688518743411
  0
LINE
  5
108
330
D6
100
AcDbEntity
  8
AM_4
100
AcDbLine
 10
-0.7024223402535639
 20
3.180603913602777
 30
0.0
 11
-0.6367875749778642
 21
3.131676179488165
 31
0.0
  0
LWPOLYLINE
  5
109
330
D6
100
AcDbEntity
  8
AM_4
100
AcDbPolyline
 90
        4
 70
     0
 43
0.0
 10
-0.8533870114001929
 20
2.978090330357298
 10
-0.8211496132263961
 20
3.032467397841943
 10
-0.8036637296550445
 20
3.058935729361011
 10
-0.785174586378057
 20
3.084766509845462
  0
LWPOLYLINE
  5
10A
330
D6
100
AcDbEntity
  8
AM_4
100
AcDbPolyline
 90
        4
 70
     0
 43
0.0
 10
-0.785174586378057
 20
3.084766509845462
 10
-0.7551111821082007
 20
3.122723635610446
 10
-0.72292532316187
 20
3.15909856788933
 10
-0.7024223402535639
 20
3.180603913602777
  0
LWPOLYLINE
  5
10B
330
D6
100
AcDbEntity
  8
AM_4
100
AcDbPolyline
 90
        4
 70
     0
 43
0.0
 10
-0.7024223402535639
 20
3.180603913602777
 10
-0.6889706787465784
 20
3.209780602631944
 10
-0.6809492934602818
 20
3.223552655963742
 10
-0.6719510830180853
 20
3.236651697279571
  0
LWPOLYLINE
  5
10C
330
D6
100
AcDbEntity
  8
AM_4
100
AcDbPolyline
 90
        4
 70
     0
 43
0.0
 10
-0.5917764966400284
 20
3.17688518743411
 10
-0.6016987802520014
 20
3.164591118631771
 10
-0.6125659636782104
 20
3.153001429690953
 10
-0.6367875749778642
 20
3.131676179488165
  0
LWPOLYLINE
  5
10D
330
D6
100
AcDbEntity
  8
AM_4
100
AcDbPolyline
 90
        4
 70
     0
 43
0.0
 10
-0.6367875749778642
 20
3.131676179488165
 10
-0.6515417399032531
 20
3.105885351278362
 10
-0.6771310289687786
 20
3.064770869265474
 10
-0.7050000000000002
 20
3.025000000000001
  0
LWPOLYLINE
  5
10E
330
D6
100
AcDbEntity
  8
AM_4
100
AcDbPolyline
 90
        4
 70
     0
 43
0.0
 10
-0.7050000000000002
 20
3.025000000000001
 10
-0.7243575755586374
 20
3.000048832244819
 10
-0.7446600509315108
 20
2.975802044351159
 10
-0.7877522461244932
 20
2.929162596242686
  0
LINE
  5
10F
330
D6
100
AcDbEntity
  8
AM_4
100
AcDbLine
 10
-0.8533870114001929
 20
2.978090330357298
 30
0.0
 11
-0.7877522461244932
 21
2.929162596242686
 31
0.0
  0
LWPOLYLINE
  5
110
330
D6
100
AcDbEntity
  8
AM_4
100
AcDbPolyline
 90
        4
 70
     0
 43
0.0
 10
-0.8983980897380287
 20
2.932881322411352
 10
-0.8884758061260557
 20
2.945175391213692
 10
-0.8776086226998467
 20
2.95676508015451
 10
-0.8533870114001929
 20
2.978090330357298
  0
LWPOLYLINE
  5
111
330
D6
100
AcDbEntity
  8
AM_4
100
AcDbPolyline
 90
        4
 70
     0
 43
0.0
 10
-0.9288693469735074
 20
2.876833538734559
 10
-0.9154176854665219
 20
2.906010227763726
 10
-0.9073963001802253
 20
2.919782281095523
 10
-0.8983980897380287
 20
2.932881322411352
  0
LINE
  5
112
330
D6
100
AcDbEntity
  8
AM_4
100
AcDbLine
 10
-0.9288693469735074
 20
2.876833538734559
 30
0.0
 11
-0.8632345816978076
 21
2.827905804619947
 31
0.0
  0
LWPOLYLINE
  5
113
330
D6
100
AcDbEntity
  8
AM_4
100
AcDbPolyline
 90
        4
 70
     0
 43
0.0
 10
-0.8182235033599718
 20
2.873114812565892
 10
-0.8281457869719449
 20
2.860820743763552
 10
-0.8390129703981539
 20
2.849231054822734
 10
-0.8632345816978076
 20
2.827905804619947
  0
LWPOLYLINE
  5
114
330
D6
100
AcDbEntity
  8
AM_4
100
AcDbPolyline
 90
        4
 70
     0
 43
0.0
 10
-0.7877522461244932
 20
2.929162596242686
 10
-0.8012039076314786
 20
2.899985907213519
 10
-0.8092252929177751
 20
2.886213853881721
 10
-0.8182235033599718
 20
2.873114812565892
  0
ENDBLK
  5
D9
330
D6
100
AcDbEntity
  8
0
100
AcDbBlockEnd
  0
BLOCK
  5
117
330
115
100
AcDbEntity
  8
0
100
AcDbBlockBegin
  2
4_ASME_B18_3_10_1_0_in_072321_2
 70
     2
 10
0.0
 20
0.0
 30
0.0
  3
4_ASME_B18_3_10_1_0_in_072321_2
  1

  0
ATTDEF
  5
119
330
115
100
AcDbEntity
  8
AM_6
100
AcDbText
 10
4.291000333333334
 20
-1.465333333333334
 30
0.0
 40
0.5
  1
ANSI/ASME-B18.3-1998
100
AcDbAttributeDefinition
  3

  2
NN
 70
     8
280
     0
  0
ATTDEF
  5
11A
330
115
100
AcDbEntity
  8
AM_6
100
AcDbText
 10
4.291000333333334
 20
-1.965333333333334
 30
0.0
 40
0.5
  1
Socket Button Head Cap Screws
100
AcDbAttributeDefinition
  3

  2
NT
 70
     8
280
     0
  0
ATTDEF
  5
11B
330
115
100
AcDbEntity
  8
AM_6
100
AcDbText
 10
4.291000333333334
 20
-2.465333333333334
 30
0.0
 40
0.5
  1
ASME-B18.3-10
100
AcDbAttributeDefinition
  3

  2
NB
 70
     8
280
     0
  0
ATTDEF
  5
11C
330
115
100
AcDbEntity
  8
AM_6
100
AcDbText
 10
4.291000333333334
 20
-2.965333333333334
 30
0.0
 40
0.5
  1
ASME-B18.3-$NS.
100
AcDbAttributeDefinition
  3

  2
NBSYN
 70
     8
280
     0
  0
ATTDEF
  5
11D
330
115
100
AcDbEntity
  8
AM_6
100
AcDbText
 10
4.291000333333334
 20
-3.465333333333334
 30
0.0
 40
0.5
  1
ASME-B18.3-10
100
AcDbAttributeDefinition
  3

  2
LINA
 70
     8
280
     0
  0
ATTDEF
  5
11E
330
115
100
AcDbEntity
  8
AM_6
100
AcDbText
 10
4.291000333333334
 20
-3.965333333333334
 30
0.0
 40
0.5
  1
10
100
AcDbAttributeDefinition
  3

  2
NS
 70
     8
280
     0
  0
ATTDEF
  5
11F
330
115
100
AcDbEntity
  8
AM_6
100
AcDbText
 10
4.291000333333334
 20
-4.465333333333334
 30
0.0
 40
0.5
  1
0.361
100
AcDbAttributeDefinition
  3

  2
A
 70
     8
280
     0
  0
ATTDEF
  5
120
330
115
100
AcDbEntity
  8
AM_6
100
AcDbText
 10
4.291000333333334
 20
-4.965333333333334
 30
0.0
 40
0.5
  1
0.101
100
AcDbAttributeDefinition
  3

  2
H
 70
     8
280
     0
  0
ATTDEF
  5
121
330
115
100
AcDbEntity
  8
AM_6
100
AcDbText
 10
4.291000333333334
 20
-5.465333333333334
 30
0.0
 40
0.5
  1
0.800
100
AcDbAttributeDefinition
  3

  2
L
 70
     8
280
     0
  0
ATTDEF
  5
122
330
115
100
AcDbEntity
  8
AM_6
100
AcDbText
 10
4.291000333333334
 20
-5.965333333333334
 30
0.0
 40
0.5
  1
0.020
100
AcDbAttributeDefinition
  3

  2
S
 70
     8
280
     0
  0
ATTDEF
  5
123
330
115
100
AcDbEntity
  8
AM_6
100
AcDbText
 10
4.291000333333334
 20
-6.465333333333334
 30
0.0
 40
0.5
  1
0.125000
100
AcDbAttributeDefinition
  3

  2
J
 70
     8
280
     0
  0
ATTDEF
  5
124
330
115
100
AcDbEntity
  8
AM_6
100
AcDbText
 10
4.291000333333334
 20
-6.965333333333334
 30
0.0
 40
0.5
  1
baldor
100
AcDbAttributeDefinition
  3

  2
COMPANY
 70
     8
280
     0
  0
LINE
  5
125
330
115
100
AcDbEntity
  8
AM_9
100
AcDbLine
 10
-1.548999666666667
 20
-1.57366454968463
 30
0.0
 11
-1.609999666666667
 21
-1.57366454968463
 31
0.0
  0
LINE
  5
126
330
115
100
AcDbEntity
  8
AM_9
100
AcDbLine
 10
-1.548999666666667
 20
-1.718002116982037
 30
0.0
 11
-1.609999666666667
 21
-1.718002116982037
 31
0.0
  0
LINE
  5
127
330
115
100
AcDbEntity
  8
AM_9
100
AcDbLine
 10
-1.548999666666667
 20
-1.57366454968463
 30
0.0
 11
-1.548999666666667
 21
-1.718002116982037
 31
0.0
  0
LINE
  5
128
330
115
100
AcDbEntity
  8
AM_9
100
AcDbLine
 10
-1.548999666666667
 20
-1.609748941508982
 30
0.0
 11
-1.609999666666667
 21
-1.609748941508982
 31
0.0
  0
LINE
  5
129
330
115
100
AcDbEntity
  8
AM_9
100
AcDbLine
 10
-1.548999666666667
 20
-1.681917725157685
 30
0.0
 11
-1.609999666666667
 21
-1.681917725157685
 31
0.0
  0
LINE
  5
12A
330
115
100
AcDbEntity
  8
AM_9
100
AcDbLine
 10
-0.7089996666666666
 20
-1.575633333333333
 30
0.0
 11
-0.7089996666666666
 21
-1.716033333333334
 31
0.0
  0
LINE
  5
12B
330
115
100
AcDbEntity
  8
AM_9
100
AcDbLine
 10
-0.7089996666666666
 20
-1.575633333333333
 30
0.0
 11
-0.7337996666666667
 21
-1.550833333333334
 31
0.0
  0
LINE
  5
12C
330
115
100
AcDbEntity
  8
AM_9
100
AcDbLine
 10
-0.7337996666666667
 20
-1.740833333333333
 30
0.0
 11
-0.7089996666666666
 21
-1.716033333333334
 31
0.0
  0
LINE
  5
12D
330
115
100
AcDbEntity
  8
AM_9
100
AcDbLine
 10
-0.7337996666666667
 20
-1.550833333333334
 30
0.0
 11
-0.7337996666666667
 21
-1.740833333333333
 31
0.0
  0
LINE
  5
12E
330
115
100
AcDbEntity
  8
AM_9
100
AcDbLine
 10
-1.408666666666666
 20
-1.740833333333333
 30
0.0
 11
-0.7337996666666667
 21
-1.740833333333333
 31
0.0
  0
LINE
  5
12F
330
115
100
AcDbEntity
  8
AM_9
100
AcDbLine
 10
-0.7337996666666667
 20
-1.550833333333334
 30
0.0
 11
-1.408666666666666
 21
-1.550833333333334
 31
0.0
  0
LINE
  5
130
330
115
100
AcDbEntity
  8
AM_5
100
AcDbLine
 10
-0.7089996666666666
 20
-1.716033333333334
 30
0.0
 11
-1.408666666666666
 21
-1.716033333333334
 31
0.0
  0
LINE
  5
131
330
115
100
AcDbEntity
  8
AM_5
100
AcDbLine
 10
-0.7089996666666666
 20
-1.575633333333333
 30
0.0
 11
-1.408666666666666
 21
-1.575633333333333
 31
0.0
  0
LINE
  5
132
330
115
100
AcDbEntity
  8
AM_4
100
AcDbLine
 10
-1.508999666666667
 20
-1.740833333333333
 30
0.0
 11
-1.408666666666666
 21
-1.740833333333333
 31
0.0
  0
LINE
  5
133
330
115
100
AcDbEntity
  8
AM_4
100
AcDbLine
 10
-1.408666666666666
 20
-1.550833333333334
 30
0.0
 11
-1.508999666666667
 21
-1.550833333333334
 31
0.0
  0
LINE
  5
134
330
115
100
AcDbEntity
  8
AM_4
100
AcDbLine
 10
-1.609999666666666
 20
-1.546333333333333
 30
0.0
 11
-1.609999666666666
 21
-1.745333333333334
 31
0.0
  0
ARC
  5
135
330
115
100
AcDbEntity
  8
AM_4
100
AcDbCircle
 10
-1.528999666666667
 20
-1.745333333333334
 30
0.0
 40
0.0809999999999997
100
AcDbArc
 50
180.0
 51
270.0
  0
ARC
  5
136
330
115
100
AcDbEntity
  8
AM_4
100
AcDbCircle
 10
-1.528999666666667
 20
-1.546333333333333
 30
0.0
 40
0.0809999999999997
100
AcDbArc
 50
90.0
 51
180.0
  0
LINE
  5
137
330
115
100
AcDbEntity
  8
AM_4
100
AcDbLine
 10
-1.508999666666667
 20
-1.465333333333334
 30
0.0
 11
-1.508999666666667
 21
-1.826333333333333
 31
0.0
  0
LINE
  5
138
330
115
100
AcDbEntity
  8
AM_4
100
AcDbLine
 10
-1.528999666666666
 20
-1.465333333333334
 30
0.0
 11
-1.528999666666666
 21
-1.826333333333333
 31
0.0
  0
LINE
  5
139
330
115
100
AcDbEntity
  8
AM_4
100
AcDbLine
 10
-1.528999666666666
 20
-1.826333333333333
 30
0.0
 11
-1.508999666666667
 21
-1.826333333333333
 31
0.0
  0
LINE
  5
13A
330
115
100
AcDbEntity
  8
AM_4
100
AcDbLine
 10
-1.508999666666667
 20
-1.465333333333334
 30
0.0
 11
-1.528999666666666
 21
-1.465333333333334
 31
0.0
  0
LINE
  5
13B
330
115
100
AcDbEntity
  8
AM_5
100
AcDbLine
 10
-1.408666666666666
 20
-1.716033333333334
 30
0.0
 11
-1.548999666666667
 21
-1.716033333333334
 31
0.0
  0
LINE
  5
13C
330
115
100
AcDbEntity
  8
AM_5
100
AcDbLine
 10
-1.808999666666667
 20
-1.740833333333333
 30
0.0
 11
-1.808999666666667
 21
-1.550833333333334
 31
0.0
  0
LINE
  5
13D
330
115
100
AcDbEntity
  8
AM_5
100
AcDbLine
 10
-1.408666666666666
 20
-1.575633333333333
 30
0.0
 11
-1.548999666666667
 21
-1.575633333333333
 31
0.0
  0
ENDBLK
  5
118
330
115
100
AcDbEntity
  8
0
100
AcDbBlockEnd
  0
BLOCK
  5
140
330
13E
100
AcDbEntity
  8
0
100
AcDbBlockBegin
  2
5_ASME_B18_3_10_2_0_in_072321_2
 70
     2
 10
0.0
 20
0.0
 30
0.0
  3
5_ASME_B18_3_10_2_0_in_072321_2
  1

  0
ATTDEF
  5
142
330
13E
100
AcDbEntity
  8
AM_6
100
AcDbText
 10
4.291000333333334
 20
1.826333333333333
 30
0.0
 40
0.5
  1
ANSI/ASME-B18.3-1998
100
AcDbAttributeDefinition
  3

  2
NN
 70
     8
280
     0
  0
ATTDEF
  5
143
330
13E
100
AcDbEntity
  8
AM_6
100
AcDbText
 10
4.291000333333334
 20
1.326333333333333
 30
0.0
 40
0.5
  1
Socket Button Head Cap Screws
100
AcDbAttributeDefinition
  3

  2
NT
 70
     8
280
     0
  0
ATTDEF
  5
144
330
13E
100
AcDbEntity
  8
AM_6
100
AcDbText
 10
4.291000333333334
 20
0.8263333333333334
 30
0.0
 40
0.5
  1
ASME-B18.3-10
100
AcDbAttributeDefinition
  3

  2
NB
 70
     8
280
     0
  0
ATTDEF
  5
145
330
13E
100
AcDbEntity
  8
AM_6
100
AcDbText
 10
4.291000333333334
 20
0.3263333333333334
 30
0.0
 40
0.5
  1
ASME-B18.3-$NS.
100
AcDbAttributeDefinition
  3

  2
NBSYN
 70
     8
280
     0
  0
ATTDEF
  5
146
330
13E
100
AcDbEntity
  8
AM_6
100
AcDbText
 10
4.291000333333334
 20
-0.1736666666666666
 30
0.0
 40
0.5
  1
ASME-B18.3-10
100
AcDbAttributeDefinition
  3

  2
LINA
 70
     8
280
     0
  0
ATTDEF
  5
147
330
13E
100
AcDbEntity
  8
AM_6
100
AcDbText
 10
4.291000333333334
 20
-0.6736666666666666
 30
0.0
 40
0.5
  1
10
100
AcDbAttributeDefinition
  3

  2
NS
 70
     8
280
     0
  0
ATTDEF
  5
148
330
13E
100
AcDbEntity
  8
AM_6
100
AcDbText
 10
4.291000333333334
 20
-1.173666666666667
 30
0.0
 40
0.5
  1
0.361
100
AcDbAttributeDefinition
  3

  2
A
 70
     8
280
     0
  0
ATTDEF
  5
149
330
13E
100
AcDbEntity
  8
AM_6
100
AcDbText
 10
4.291000333333334
 20
-1.673666666666667
 30
0.0
 40
0.5
  1
0.101
100
AcDbAttributeDefinition
  3

  2
H
 70
     8
280
     0
  0
ATTDEF
  5
14A
330
13E
100
AcDbEntity
  8
AM_6
100
AcDbText
 10
4.291000333333334
 20
-2.173666666666667
 30
0.0
 40
0.5
  1
0.800
100
AcDbAttributeDefinition
  3

  2
L
 70
     8
280
     0
  0
ATTDEF
  5
14B
330
13E
100
AcDbEntity
  8
AM_6
100
AcDbText
 10
4.291000333333334
 20
-2.673666666666667
 30
0.0
 40
0.5
  1
0.020
100
AcDbAttributeDefinition
  3

  2
S
 70
     8
280
     0
  0
ATTDEF
  5
14C
330
13E
100
AcDbEntity
  8
AM_6
100
AcDbText
 10
4.291000333333334
 20
-3.173666666666667
 30
0.0
 40
0.5
  1
0.125000
100
AcDbAttributeDefinition
  3

  2
J
 70
     8
280
     0
  0
ATTDEF
  5
14D
330
13E
100
AcDbEntity
  8
AM_6
100
AcDbText
 10
4.291000333333334
 20
-3.673666666666667
 30
0.0
 40
0.5
  1
baldor
100
AcDbAttributeDefinition
  3

  2
COMPANY
 70
     8
280
     0
  0
LINE
  5
14E
330
13E
100
AcDbEntity
  8
AM_9
100
AcDbLine
 10
-1.548999666666667
 20
1.718002116982037
 30
0.0
 11
-1.609999666666667
 21
1.718002116982037
 31
0.0
  0
LINE
  5
14F
330
13E
100
AcDbEntity
  8
AM_9
100
AcDbLine
 10
-1.548999666666667
 20
1.57366454968463
 30
0.0
 11
-1.609999666666667
 21
1.57366454968463
 31
0.0
  0
LINE
  5
150
330
13E
100
AcDbEntity
  8
AM_9
100
AcDbLine
 10
-1.548999666666667
 20
1.681917725157685
 30
0.0
 11
-1.609999666666667
 21
1.681917725157685
 31
0.0
  0
LINE
  5
151
330
13E
100
AcDbEntity
  8
AM_9
100
AcDbLine
 10
-1.548999666666667
 20
1.718002116982037
 30
0.0
 11
-1.548999666666667
 21
1.57366454968463
 31
0.0
  0
LINE
  5
152
330
13E
100
AcDbEntity
  8
AM_9
100
AcDbLine
 10
-1.548999666666667
 20
1.609748941508982
 30
0.0
 11
-1.609999666666667
 21
1.609748941508982
 31
0.0
  0
LINE
  5
153
330
13E
100
AcDbEntity
  8
AM_9
100
AcDbLine
 10
-0.7089996666666666
 20
1.716033333333334
 30
0.0
 11
-0.7089996666666666
 21
1.575633333333333
 31
0.0
  0
LINE
  5
154
330
13E
100
AcDbEntity
  8
AM_9
100
AcDbLine
 10
-0.7089996666666666
 20
1.716033333333334
 30
0.0
 11
-0.7337996666666667
 21
1.740833333333333
 31
0.0
  0
LINE
  5
155
330
13E
100
AcDbEntity
  8
AM_9
100
AcDbLine
 10
-0.7337996666666667
 20
1.550833333333334
 30
0.0
 11
-0.7089996666666666
 21
1.575633333333333
 31
0.0
  0
LINE
  5
156
330
13E
100
AcDbEntity
  8
AM_9
100
AcDbLine
 10
-0.7337996666666667
 20
1.740833333333333
 30
0.0
 11
-0.7337996666666667
 21
1.550833333333334
 31
0.0
  0
LINE
  5
157
330
13E
100
AcDbEntity
  8
AM_9
100
AcDbLine
 10
-1.408666666666666
 20
1.550833333333334
 30
0.0
 11
-0.7337996666666667
 21
1.550833333333334
 31
0.0
  0
LINE
  5
158
330
13E
100
AcDbEntity
  8
AM_9
100
AcDbLine
 10
-0.7337996666666667
 20
1.740833333333333
 30
0.0
 11
-1.408666666666666
 21
1.740833333333333
 31
0.0
  0
LINE
  5
159
330
13E
100
AcDbEntity
  8
AM_5
100
AcDbLine
 10
-0.7089996666666666
 20
1.575633333333333
 30
0.0
 11
-1.408666666666666
 21
1.575633333333333
 31
0.0
  0
LINE
  5
15A
330
13E
100
AcDbEntity
  8
AM_5
100
AcDbLine
 10
-0.7089996666666666
 20
1.716033333333334
 30
0.0
 11
-1.408666666666666
 21
1.716033333333334
 31
0.0
  0
LINE
  5
15B
330
13E
100
AcDbEntity
  8
AM_4
100
AcDbLine
 10
-1.508999666666667
 20
1.550833333333334
 30
0.0
 11
-1.408666666666666
 21
1.550833333333334
 31
0.0
  0
LINE
  5
15C
330
13E
100
AcDbEntity
  8
AM_4
100
AcDbLine
 10
-1.408666666666666
 20
1.740833333333333
 30
0.0
 11
-1.508999666666667
 21
1.740833333333333
 31
0.0
  0
LINE
  5
15D
330
13E
100
AcDbEntity
  8
AM_4
100
AcDbLine
 10
-1.609999666666666
 20
1.745333333333334
 30
0.0
 11
-1.609999666666666
 21
1.546333333333333
 31
0.0
  0
ARC
  5
15E
330
13E
100
AcDbEntity
  8
AM_4
100
AcDbCircle
 10
-1.528999666666667
 20
1.546333333333333
 30
0.0
 40
0.0809999999999997
100
AcDbArc
 50
180.0
 51
270.0
  0
ARC
  5
15F
330
13E
100
AcDbEntity
  8
AM_4
100
AcDbCircle
 10
-1.528999666666667
 20
1.745333333333334
 30
0.0
 40
0.0809999999999997
100
AcDbArc
 50
90.0
 51
180.0
  0
LINE
  5
160
330
13E
100
AcDbEntity
  8
AM_4
100
AcDbLine
 10
-1.508999666666667
 20
1.826333333333333
 30
0.0
 11
-1.508999666666667
 21
1.465333333333334
 31
0.0
  0
LINE
  5
161
330
13E
100
AcDbEntity
  8
AM_4
100
AcDbLine
 10
-1.528999666666666
 20
1.826333333333333
 30
0.0
 11
-1.528999666666666
 21
1.465333333333334
 31
0.0
  0
LINE
  5
162
330
13E
100
AcDbEntity
  8
AM_4
100
AcDbLine
 10
-1.528999666666666
 20
1.465333333333334
 30
0.0
 11
-1.508999666666667
 21
1.465333333333334
 31
0.0
  0
LINE
  5
163
330
13E
100
AcDbEntity
  8
AM_4
100
AcDbLine
 10
-1.508999666666667
 20
1.826333333333333
 30
0.0
 11
-1.528999666666666
 21
1.826333333333333
 31
0.0
  0
LINE
  5
164
330
13E
100
AcDbEntity
  8
AM_5
100
AcDbLine
 10
-1.408666666666666
 20
1.575633333333333
 30
0.0
 11
-1.548999666666667
 21
1.575633333333333
 31
0.0
  0
LINE
  5
165
330
13E
100
AcDbEntity
  8
AM_5
100
AcDbLine
 10
-1.808999666666667
 20
1.550833333333334
 30
0.0
 11
-1.808999666666667
 21
1.740833333333333
 31
0.0
  0
LINE
  5
166
330
13E
100
AcDbEntity
  8
AM_5
100
AcDbLine
 10
-1.408666666666666
 20
1.716033333333334
 30
0.0
 11
-1.548999666666667
 21
1.716033333333334
 31
0.0
  0
ENDBLK
  5
141
330
13E
100
AcDbEntity
  8
0
100
AcDbBlockEnd
  0
BLOCK
  5
169
330
167
100
AcDbEntity
  8
0
100
AcDbBlockBegin
  2
6_070895LW_0_in_072321_2
 70
     2
 10
0.0
 20
0.0
 30
0.0
  3
6_070895LW_0_in_072321_2
  1

  0
ATTDEF
  5
16B
330
167
100
AcDbEntity
  8
AM_6
100
AcDbText
 10
4.031333333333333
 20
1.9375
 30
0.0
 40
0.5
  1
Imperial Insert Lockwasher -Inch
100
AcDbAttributeDefinition
  3

  2
NN
 70
     8
280
     0
  0
ATTDEF
  5
16C
330
167
100
AcDbEntity
  8
AM_6
100
AcDbText
 10
4.031333333333333
 20
1.4375
 30
0.0
 40
0.5
  1
Imperial Bearings
100
AcDbAttributeDefinition
  3

  2
NT
 70
     8
280
     0
  0
ATTDEF
  5
16D
330
167
100
AcDbEntity
  8
AM_6
100
AcDbText
 10
4.031333333333333
 20
0.9375000000000002
 30
0.0
 40
0.5
  1
070895LW
100
AcDbAttributeDefinition
  3

  2
NB
 70
     8
280
     0
  0
ATTDEF
  5
16E
330
167
100
AcDbEntity
  8
AM_6
100
AcDbText
 10
4.031333333333333
 20
0.4375000000000002
 30
0.0
 40
0.5
  1
$PN.LW
100
AcDbAttributeDefinition
  3

  2
NBSYN
 70
     8
280
     0
  0
ATTDEF
  5
16F
330
167
100
AcDbEntity
  8
AM_6
100
AcDbText
 10
4.031333333333333
 20
-0.0624999999999998
 30
0.0
 40
0.5
  1
070895
100
AcDbAttributeDefinition
  3

  2
LINA
 70
     8
280
     0
  0
ATTDEF
  5
170
330
167
100
AcDbEntity
  8
AM_6
100
AcDbText
 10
4.031333333333333
 20
-0.5624999999999998
 30
0.0
 40
0.5
  1
2-7/16
100
AcDbAttributeDefinition
  3

  2
SS
 70
     8
280
     0
  0
ATTDEF
  5
171
330
167
100
AcDbEntity
  8
AM_6
100
AcDbText
 10
4.031333333333333
 20
-1.0625
 30
0.0
 40
0.5
  1
2.437500
100
AcDbAttributeDefinition
  3

  2
SS1
 70
     8
280
     0
  0
ATTDEF
  5
172
330
167
100
AcDbEntity
  8
AM_6
100
AcDbText
 10
4.031333333333333
 20
-1.5625
 30
0.0
 40
0.5
  1
070895
100
AcDbAttributeDefinition
  3

  2
PN
 70
     8
280
     0
  0
ATTDEF
  5
173
330
167
100
AcDbEntity
  8
AM_6
100
AcDbText
 10
4.031333333333333
 20
-2.0625
 30
0.0
 40
0.5
  1
INS-IP-207R
100
AcDbAttributeDefinition
  3

  2
DESCRIPTION
 70
     8
280
     0
  0
ATTDEF
  5
174
330
167
100
AcDbEntity
  8
AM_6
100
AcDbText
 10
4.031333333333333
 20
-2.5625
 30
0.0
 40
0.5
  1
4.7241
100
AcDbAttributeDefinition
  3

  2
A
 70
     8
280
     0
  0
ATTDEF
  5
175
330
167
100
AcDbEntity
  8
AM_6
100
AcDbText
 10
4.031333333333333
 20
-3.0625
 30
0.0
 40
0.5
  1
1-9/32
100
AcDbAttributeDefinition
  3

  2
B
 70
     8
280
     0
  0
ATTDEF
  5
176
330
167
100
AcDbEntity
  8
AM_6
100
AcDbText
 10
4.031333333333333
 20
-3.5625
 30
0.0
 40
0.5
  1
3-27/64
100
AcDbAttributeDefinition
  3

  2
C
 70
     8
280
     0
  0
ATTDEF
  5
177
330
167
100
AcDbEntity
  8
AM_6
100
AcDbText
 10
4.031333333333333
 20
-4.0625
 30
0.0
 40
0.5
  1
1.208
100
AcDbAttributeDefinition
  3

  2
D
 70
     8
280
     0
  0
ATTDEF
  5
178
330
167
100
AcDbEntity
  8
AM_6
100
AcDbText
 10
4.031333333333333
 20
-4.5625
 30
0.0
 40
0.5
  1
3-7/8
100
AcDbAttributeDefinition
  3

  2
E
 70
     8
280
     0
  0
ATTDEF
  5
179
330
167
100
AcDbEntity
  8
AM_6
100
AcDbText
 10
4.031333333333333
 20
-5.0625
 30
0.0
 40
0.5
  1
0.1900
100
AcDbAttributeDefinition
  3

  2
NDM
 70
     8
280
     0
  0
ATTDEF
  5
17A
330
167
100
AcDbEntity
  8
AM_6
100
AcDbText
 10
4.031333333333333
 20
-5.5625
 30
0.0
 40
0.5
  1
0.1450
100
AcDbAttributeDefinition
  3

  2
KDM
 70
     8
280
     0
  0
ATTDEF
  5
17B
330
167
100
AcDbEntity
  8
AM_6
100
AcDbText
 10
4.031333333333333
 20
-6.0625
 30
0.0
 40
0.5
  1
3.35
100
AcDbAttributeDefinition
  3

  2
AL
 70
     8
280
     0
  0
ATTDEF
  5
17C
330
167
100
AcDbEntity
  8
AM_6
100
AcDbText
 10
4.031333333333333
 20
-6.5625
 30
0.0
 40
0.5
  1
0.50
100
AcDbAttributeDefinition
  3

  2
BL
 70
     8
280
     0
  0
ATTDEF
  5
17D
330
167
100
AcDbEntity
  8
AM_6
100
AcDbText
 10
4.031333333333333
 20
-7.0625
 30
0.0
 40
0.5
  1
0.07
100
AcDbAttributeDefinition
  3

  2
CL
 70
     8
280
     0
  0
ATTDEF
  5
17E
330
167
100
AcDbEntity
  8
AM_6
100
AcDbText
 10
4.031333333333333
 20
-7.5625
 30
0.0
 40
0.5
  1
0.44
100
AcDbAttributeDefinition
  3

  2
DL
 70
     8
280
     0
  0
ATTDEF
  5
17F
330
167
100
AcDbEntity
  8
AM_6
100
AcDbText
 10
4.031333333333333
 20
-8.0625
 30
0.0
 40
0.5
  1
baldor
100
AcDbAttributeDefinition
  3

  2
COMPANY
 70
     8
280
     0
  0
LINE
  5
180
330
167
100
AcDbEntity
  8
AM_9
100
AcDbLine
 10
-1.338666666666666
 20
1.163947765002008
 30
0.0
 11
-1.408666666666666
 21
1.163947765002008
 31
0.0
  0
LINE
  5
181
330
167
100
AcDbEntity
  8
AM_9
100
AcDbLine
 10
-0.9686666666666665
 20
1.131765154047956
 30
0.0
 11
-1.338666666666666
 21
1.131765154047956
 31
0.0
  0
LINE
  5
182
330
167
100
AcDbEntity
  8
AM_9
100
AcDbLine
 10
-0.9686666666666665
 20
1.07220478927997
 30
0.0
 11
-1.408666666666666
 21
1.07220478927997
 31
0.0
  0
LINE
  5
183
330
167
100
AcDbEntity
  8
AM_9
100
AcDbLine
 10
-1.338666666666666
 20
1.227436012139228
 30
0.0
 11
-0.9686666666666665
 21
1.227436012139228
 31
0.0
  0
LINE
  5
184
330
167
100
AcDbEntity
  8
AM_9
100
AcDbLine
 10
-0.9686666666666665
 20
1.167875647371243
 30
0.0
 11
-1.408666666666666
 21
1.167875647371243
 31
0.0
  0
LINE
  5
185
330
167
100
AcDbEntity
  8
AM_9
100
AcDbLine
 10
-0.9686666666666665
 20
1.07220478927997
 30
0.0
 11
-0.9686666666666665
 21
1.227436012139228
 31
0.0
  0
LINE
  5
186
330
167
100
AcDbEntity
  8
AM_9
100
AcDbLine
 10
-1.338666666666666
 20
1.25961862309328
 30
0.0
 11
-1.408666666666666
 21
1.25961862309328
 31
0.0
  0
LINE
  5
187
330
167
100
AcDbEntity
  8
AM_9
100
AcDbLine
 10
-1.338666666666666
 20
1.645833333333333
 30
0.0
 11
-1.408666666666666
 21
1.645833333333333
 31
0.0
  0
LINE
  5
188
330
167
100
AcDbEntity
  8
AM_9
100
AcDbLine
 10
-1.338666666666666
 20
1.740872955931842
 30
0.0
 11
-1.408666666666666
 21
1.740872955931842
 31
0.0
  0
LINE
  5
189
330
167
100
AcDbEntity
  8
AM_9
100
AcDbLine
 10
-1.338666666666666
 20
-1.645833333333333
 30
0.0
 11
-1.408666666666666
 21
-1.645833333333333
 31
0.0
  0
LINE
  5
18A
330
167
100
AcDbEntity
  8
AM_9
100
AcDbLine
 10
-1.408666666666666
 20
-1.740872955931842
 30
0.0
 11
-1.338666666666666
 21
-1.740872955931842
 31
0.0
  0
LINE
  5
18B
330
167
100
AcDbEntity
  8
AM_9
100
AcDbLine
 10
-1.338666666666666
 20
1.314138232875795
 30
0.0
 11
-1.408666666666666
 21
1.314138232875795
 31
0.0
  0
LINE
  5
18C
330
167
100
AcDbEntity
  8
AM_9
100
AcDbLine
 10
-1.338666666666666
 20
-1.314138232875795
 30
0.0
 11
-1.408666666666666
 21
-1.314138232875795
 31
0.0
  0
LINE
  5
18D
330
167
100
AcDbEntity
  8
AM_9
100
AcDbLine
 10
-1.338666666666666
 20
-0.9964112000957026
 30
0.0
 11
-1.408666666666666
 21
-0.9964112000957026
 31
0.0
  0
LINE
  5
18E
330
167
100
AcDbEntity
  8
AM_9
100
AcDbLine
 10
-1.338666666666666
 20
0.996411200095703
 30
0.0
 11
-1.408666666666666
 21
0.9964112000957033
 31
0.0
  0
LINE
  5
18F
330
167
100
AcDbEntity
  8
AM_9
100
AcDbLine
 10
-1.338666666666666
 20
0.862060911670259
 30
0.0
 11
-1.408666666666666
 21
0.862060911670259
 31
0.0
  0
LINE
  5
190
330
167
100
AcDbEntity
  8
AM_9
100
AcDbLine
 10
-1.338666666666666
 20
-0.8620609116702578
 30
0.0
 11
-1.408666666666666
 21
-0.8620609116702582
 31
0.0
  0
LINE
  5
191
330
167
100
AcDbEntity
  8
AM_9
100
AcDbLine
 10
-1.338666666666666
 20
1.230955054915582
 30
0.0
 11
-1.408666666666666
 21
1.230955054915582
 31
0.0
  0
LINE
  5
192
330
167
100
AcDbEntity
  8
AM_9
100
AcDbLine
 10
-1.338666666666666
 20
1.096604766490138
 30
0.0
 11
-1.408666666666666
 21
1.096604766490138
 31
0.0
  0
LINE
  5
193
330
167
100
AcDbEntity
  8
AM_9
100
AcDbLine
 10
-1.338666666666666
 20
1.258807930530091
 30
0.0
 11
-1.408666666666666
 21
1.258807930530091
 31
0.0
  0
LINE
  5
194
330
167
100
AcDbEntity
  8
AM_9
100
AcDbLine
 10
-1.338666666666666
 20
-1.096604766490137
 30
0.0
 11
-1.408666666666666
 21
-1.096604766490137
 31
0.0
  0
LINE
  5
195
330
167
100
AcDbEntity
  8
AM_9
100
AcDbLine
 10
-1.338666666666666
 20
-1.230955054915564
 30
0.0
 11
-1.408666666666666
 21
-1.230955054915564
 31
0.0
  0
LINE
  5
196
330
167
100
AcDbEntity
  8
AM_9
100
AcDbLine
 10
-1.408666666666666
 20
-1.258807930530089
 30
0.0
 11
-1.338666666666666
 21
-1.258807930530089
 31
0.0
  0
LINE
  5
197
330
167
100
AcDbEntity
  8
AM_9
100
AcDbLine
 10
-1.338666666666666
 20
0.0950000000000005
 30
0.0
 11
-1.408666666666666
 21
0.0950000000000005
 31
0.0
  0
LINE
  5
198
330
167
100
AcDbEntity
  8
AM_9
100
AcDbLine
 10
-1.338666666666666
 20
-0.0949999999999993
 30
0.0
 11
-1.408666666666666
 21
-0.0949999999999993
 31
0.0
  0
LINE
  5
199
330
167
100
AcDbEntity
  8
AM_4
100
AcDbLine
 10
-1.338666666666666
 20
1.9375
 30
0.0
 11
-1.408666666666666
 21
1.9375
 31
0.0
  0
LINE
  5
19A
330
167
100
AcDbEntity
  8
AM_4
100
AcDbLine
 10
-1.408666666666666
 20
-1.9375
 30
0.0
 11
-1.338666666666666
 21
-1.9375
 31
0.0
  0
LINE
  5
19B
330
167
100
AcDbEntity
  8
AM_4
100
AcDbLine
 10
-1.408666666666666
 20
1.9375
 30
0.0
 11
-1.408666666666666
 21
-1.9375
 31
0.0
  0
LINE
  5
19C
330
167
100
AcDbEntity
  8
AM_4
100
AcDbLine
 10
-1.338666666666666
 20
1.9375
 30
0.0
 11
-1.338666666666666
 21
-1.9375
 31
0.0
  0
ENDBLK
  5
16A
330
167
100
AcDbEntity
  8
0
100
AcDbBlockEnd
  0
BLOCK
  5
19F
330
19D
100
AcDbEntity
  8
0
100
AcDbBlockBegin
  2
7_070895I_0_in_072321_2
 70
     2
 10
0.0
 20
0.0
 30
0.0
  3
7_070895I_0_in_072321_2
  1

  0
ATTDEF
  5
1A1
330
19D
100
AcDbEntity
  8
AM_6
100
AcDbText
 10
6.836875
 20
2.36205
 30
0.0
 40
0.5
  1
Imperial Insert -Inch
100
AcDbAttributeDefinition
  3

  2
NN
 70
     8
280
     0
  0
ATTDEF
  5
1A2
330
19D
100
AcDbEntity
  8
AM_6
100
AcDbText
 10
6.836875
 20
1.86205
 30
0.0
 40
0.5
  1
Imperial Bearings
100
AcDbAttributeDefinition
  3

  2
NT
 70
     8
280
     0
  0
ATTDEF
  5
1A3
330
19D
100
AcDbEntity
  8
AM_6
100
AcDbText
 10
6.836875
 20
1.36205
 30
0.0
 40
0.5
  1
070895I
100
AcDbAttributeDefinition
  3

  2
NB
 70
     8
280
     0
  0
ATTDEF
  5
1A4
330
19D
100
AcDbEntity
  8
AM_6
100
AcDbText
 10
6.836875
 20
0.8620500000000004
 30
0.0
 40
0.5
  1
$PN.I
100
AcDbAttributeDefinition
  3

  2
NBSYN
 70
     8
280
     0
  0
ATTDEF
  5
1A5
330
19D
100
AcDbEntity
  8
AM_6
100
AcDbText
 10
6.836875
 20
0.3620500000000004
 30
0.0
 40
0.5
  1
070895
100
AcDbAttributeDefinition
  3

  2
LINA
 70
     8
280
     0
  0
ATTDEF
  5
1A6
330
19D
100
AcDbEntity
  8
AM_6
100
AcDbText
 10
6.836875
 20
-0.1379499999999996
 30
0.0
 40
0.5
  1
2-7/16
100
AcDbAttributeDefinition
  3

  2
SS
 70
     8
280
     0
  0
ATTDEF
  5
1A7
330
19D
100
AcDbEntity
  8
AM_6
100
AcDbText
 10
6.836875
 20
-0.6379499999999996
 30
0.0
 40
0.5
  1
2.437500
100
AcDbAttributeDefinition
  3

  2
SS1
 70
     8
280
     0
  0
ATTDEF
  5
1A8
330
19D
100
AcDbEntity
  8
AM_6
100
AcDbText
 10
6.836875
 20
-1.13795
 30
0.0
 40
0.5
  1
070895
100
AcDbAttributeDefinition
  3

  2
PN
 70
     8
280
     0
  0
ATTDEF
  5
1A9
330
19D
100
AcDbEntity
  8
AM_6
100
AcDbText
 10
6.836875
 20
-1.63795
 30
0.0
 40
0.5
  1
INS-IP-207R
100
AcDbAttributeDefinition
  3

  2
DESCRIPTION
 70
     8
280
     0
  0
ATTDEF
  5
1AA
330
19D
100
AcDbEntity
  8
AM_6
100
AcDbText
 10
6.836875
 20
-2.13795
 30
0.0
 40
0.5
  1
Contact Seal
100
AcDbAttributeDefinition
  3

  2
ST
 70
     8
280
     0
  0
ATTDEF
  5
1AB
330
19D
100
AcDbEntity
  8
AM_6
100
AcDbText
 10
6.836875
 20
-2.63795
 30
0.0
 40
0.5
  1
4.7241
100
AcDbAttributeDefinition
  3

  2
A
 70
     8
280
     0
  0
ATTDEF
  5
1AC
330
19D
100
AcDbEntity
  8
AM_6
100
AcDbText
 10
6.836875
 20
-3.13795
 30
0.0
 40
0.5
  1
1-9/32
100
AcDbAttributeDefinition
  3

  2
B
 70
     8
280
     0
  0
ATTDEF
  5
1AD
330
19D
100
AcDbEntity
  8
AM_6
100
AcDbText
 10
6.836875
 20
-3.63795
 30
0.0
 40
0.5
  1
3-27/64
100
AcDbAttributeDefinition
  3

  2
C
 70
     8
280
     0
  0
ATTDEF
  5
1AE
330
19D
100
AcDbEntity
  8
AM_6
100
AcDbText
 10
6.836875
 20
-4.13795
 30
0.0
 40
0.5
  1
1.208
100
AcDbAttributeDefinition
  3

  2
D
 70
     8
280
     0
  0
ATTDEF
  5
1AF
330
19D
100
AcDbEntity
  8
AM_6
100
AcDbText
 10
6.836875
 20
-4.63795
 30
0.0
 40
0.5
  1
3-7/8
100
AcDbAttributeDefinition
  3

  2
E
 70
     8
280
     0
  0
ATTDEF
  5
1B0
330
19D
100
AcDbEntity
  8
AM_6
100
AcDbText
 10
6.836875
 20
-5.13795
 30
0.0
 40
0.5
  1
0.1900
100
AcDbAttributeDefinition
  3

  2
NDM
 70
     8
280
     0
  0
ATTDEF
  5
1B1
330
19D
100
AcDbEntity
  8
AM_6
100
AcDbText
 10
6.836875
 20
-5.63795
 30
0.0
 40
0.5
  1
0.101
100
AcDbAttributeDefinition
  3

  2
H
 70
     8
280
     0
  0
ATTDEF
  5
1B2
330
19D
100
AcDbEntity
  8
AM_6
100
AcDbText
 10
6.836875
 20
-6.13795
 30
0.0
 40
0.5
  1
0.1450
100
AcDbAttributeDefinition
  3

  2
KDM
 70
     8
280
     0
  0
ATTDEF
  5
1B3
330
19D
100
AcDbEntity
  8
AM_6
100
AcDbText
 10
6.836875
 20
-6.63795
 30
0.0
 40
0.5
  1
3.35
100
AcDbAttributeDefinition
  3

  2
AL
 70
     8
280
     0
  0
ATTDEF
  5
1B4
330
19D
100
AcDbEntity
  8
AM_6
100
AcDbText
 10
6.836875
 20
-7.13795
 30
0.0
 40
0.5
  1
0.50
100
AcDbAttributeDefinition
  3

  2
BL
 70
     8
280
     0
  0
ATTDEF
  5
1B5
330
19D
100
AcDbEntity
  8
AM_6
100
AcDbText
 10
6.836875
 20
-7.63795
 30
0.0
 40
0.5
  1
0.07
100
AcDbAttributeDefinition
  3

  2
CL
 70
     8
280
     0
  0
ATTDEF
  5
1B6
330
19D
100
AcDbEntity
  8
AM_6
100
AcDbText
 10
6.836875
 20
-8.13795
 30
0.0
 40
0.5
  1
0.44
100
AcDbAttributeDefinition
  3

  2
DL
 70
     8
280
     0
  0
ATTDEF
  5
1B7
330
19D
100
AcDbEntity
  8
AM_6
100
AcDbText
 10
6.836875
 20
-8.63795
 30
0.0
 40
0.5
  1
0.8000
100
AcDbAttributeDefinition
  3

  2
LL
 70
     8
280
     0
  0
ATTDEF
  5
1B8
330
19D
100
AcDbEntity
  8
AM_6
100
AcDbText
 10
6.836875
 20
-9.13795
 30
0.0
 40
0.5
  1
0.025
100
AcDbAttributeDefinition
  3

  2
Y
 70
     8
280
     0
  0
ATTDEF
  5
1B9
330
19D
100
AcDbEntity
  8
AM_6
100
AcDbText
 10
6.836875
 20
-9.63795
 30
0.0
 40
0.5
  1
0.025000
100
AcDbAttributeDefinition
  3

  2
Y1
 70
     8
280
     0
  0
ATTDEF
  5
1BA
330
19D
100
AcDbEntity
  8
AM_6
100
AcDbText
 10
6.836875
 20
-10.13795
 30
0.0
 40
0.5
  1
2-15/16
100
AcDbAttributeDefinition
  3

  2
Z
 70
     8
280
     0
  0
ATTDEF
  5
1BB
330
19D
100
AcDbEntity
  8
AM_6
100
AcDbText
 10
6.836875
 20
-10.63795
 30
0.0
 40
0.5
  1
2.937500
100
AcDbAttributeDefinition
  3

  2
Z1
 70
     8
280
     0
  0
ATTDEF
  5
1BC
330
19D
100
AcDbEntity
  8
AM_6
100
AcDbText
 10
6.836875
 20
-11.13795
 30
0.0
 40
0.5
  1
baldor
100
AcDbAttributeDefinition
  3

  2
COMPANY
 70
     8
280
     0
  0
LINE
  5
1BD
330
19D
100
AcDbEntity
  8
AM_9
100
AcDbLine
 10
1.2445
 20
1.230578206704595
 30
0.0
 11
-1.338666666666667
 21
1.230578206704595
 31
0.0
  0
LINE
  5
1BE
330
19D
100
AcDbEntity
  8
AM_9
100
AcDbLine
 10
1.2445
 20
1.134907348613322
 30
0.0
 11
-1.338666666666667
 21
1.134907348613322
 31
0.0
  0
LINE
  5
1BF
330
19D
100
AcDbEntity
  8
AM_9
100
AcDbLine
 10
-0.4986666666666663
 20
1.645833333333333
 30
0.0
 11
-0.5324506564999957
 21
1.718283333333333
 31
0.0
  0
LINE
  5
1C0
330
19D
100
AcDbEntity
  8
AM_9
100
AcDbLine
 10
-0.5324506564999957
 20
1.573383333333334
 30
0.0
 11
-0.4986666666666663
 21
1.645833333333333
 31
0.0
  0
LINE
  5
1C1
330
19D
100
AcDbEntity
  8
AM_9
100
AcDbLine
 10
-0.4986666666666681
 20
-1.645833333333333
 30
0.0
 11
-0.532450656500016
 21
-1.573383333333334
 31
0.0
  0
LINE
  5
1C2
330
19D
100
AcDbEntity
  8
AM_9
100
AcDbLine
 10
-0.532450656500016
 20
-1.718283333333333
 30
0.0
 11
-0.4986666666666681
 21
-1.645833333333333
 31
0.0
  0
LINE
  5
1C3
330
19D
100
AcDbEntity
  8
AM_9
100
AcDbLine
 10
-0.5324506564999957
 20
1.573383333333334
 30
0.0
 11
-0.5324506564999957
 21
1.718283333333333
 31
0.0
  0
LINE
  5
1C4
330
19D
100
AcDbEntity
  8
AM_9
100
AcDbLine
 10
-0.5324506564999957
 20
1.718283333333333
 30
0.0
 11
-1.316116666666667
 21
1.718283333333333
 31
0.0
  0
LINE
  5
1C5
330
19D
100
AcDbEntity
  8
AM_9
100
AcDbLine
 10
-1.316116666666667
 20
1.573383333333334
 30
0.0
 11
-0.5324506564999957
 21
1.573383333333334
 31
0.0
  0
LINE
  5
1C6
330
19D
100
AcDbEntity
  8
AM_9
100
AcDbLine
 10
-1.316116666666656
 20
-1.718283333333333
 30
0.0
 11
-0.532450656500016
 21
-1.718283333333333
 31
0.0
  0
LINE
  5
1C7
330
19D
100
AcDbEntity
  8
AM_9
100
AcDbLine
 10
-0.532450656500016
 20
-1.573383333333334
 30
0.0
 11
-1.316116666666656
 21
-1.573383333333334
 31
0.0
  0
LINE
  5
1C8
330
19D
100
AcDbEntity
  8
AM_9
100
AcDbLine
 10
-0.532450656500016
 20
-1.573383333333334
 30
0.0
 11
-0.532450656500016
 21
-1.718283333333333
 31
0.0
  0
LINE
  5
1C9
330
19D
100
AcDbEntity
  8
AM_9
100
AcDbLine
 10
-1.316116666666667
 20
1.573383333333334
 30
0.0
 11
-1.316116666666667
 21
1.718283333333333
 31
0.0
  0
LINE
  5
1CA
330
19D
100
AcDbEntity
  8
AM_9
100
AcDbLine
 10
-1.316116666666667
 20
1.718283333333333
 30
0.0
 11
-1.338666666666667
 21
1.740833333333333
 31
0.0
  0
LINE
  5
1CB
330
19D
100
AcDbEntity
  8
AM_9
100
AcDbLine
 10
-1.338666666666667
 20
1.550833333333334
 30
0.0
 11
-1.316116666666667
 21
1.573383333333334
 31
0.0
  0
LINE
  5
1CC
330
19D
100
AcDbEntity
  8
AM_9
100
AcDbLine
 10
-1.316116666666656
 20
-1.573383333333334
 30
0.0
 11
-1.338666666666675
 21
-1.550833333333334
 31
0.0
  0
LINE
  5
1CD
330
19D
100
AcDbEntity
  8
AM_9
100
AcDbLine
 10
-1.338666666666675
 20
-1.740833333333333
 30
0.0
 11
-1.316116666666656
 21
-1.718283333333333
 31
0.0
  0
LINE
  5
1CE
330
19D
100
AcDbEntity
  8
AM_9
100
AcDbLine
 10
-1.316116666666656
 20
-1.573383333333334
 30
0.0
 11
-1.316116666666656
 21
-1.718283333333333
 31
0.0
  0
LINE
  5
1CF
330
19D
100
AcDbEntity
  8
AM_9
100
AcDbLine
 10
1.2445
 20
1.167875647371243
 30
0.0
 11
-1.61
 21
1.167875647371243
 31
0.0
  0
LINE
  5
1D0
330
19D
100
AcDbEntity
  8
AM_9
100
AcDbLine
 10
-1.61
 20
1.07220478927997
 30
0.0
 11
1.2445
 21
1.07220478927997
 31
0.0
  0
LINE
  5
1D1
330
19D
100
AcDbEntity
  8
AM_9
100
AcDbLine
 10
1.2445
 20
1.21875
 30
0.0
 11
-1.61
 21
1.21875
 31
0.0
  0
LINE
  5
1D2
330
19D
100
AcDbEntity
  8
AM_9
100
AcDbLine
 10
-1.61
 20
-1.21875
 30
0.0
 11
1.2445
 21
-1.21875
 31
0.0
  0
LINE
  5
1D3
330
19D
100
AcDbEntity
  8
AM_9
100
AcDbLine
 10
-1.61
 20
1.227436012139228
 30
0.0
 11
-1.338666666666667
 21
1.227436012139228
 31
0.0
  0
LINE
  5
1D4
330
19D
100
AcDbEntity
  8
AM_9
100
AcDbLine
 10
-1.338666666666667
 20
1.131765154047955
 30
0.0
 11
-1.61
 21
1.131765154047955
 31
0.0
  0
LINE
  5
1D5
330
19D
100
AcDbEntity
  8
AM_9
100
AcDbLine
 10
-1.338666666666667
 20
1.282894736842105
 30
0.0
 11
-1.408666666666666
 21
1.282894736842105
 31
0.0
  0
LINE
  5
1D6
330
19D
100
AcDbEntity
  8
AM_9
100
AcDbLine
 10
-1.408666666666666
 20
-1.282894736842105
 30
0.0
 11
-1.338666666666667
 21
-1.282894736842105
 31
0.0
  0
LINE
  5
1D7
330
19D
100
AcDbEntity
  8
AM_9
100
AcDbLine
 10
1.811875
 20
1.282894736842105
 30
0.0
 11
1.2445
 21
1.282894736842105
 31
0.0
  0
LINE
  5
1D8
330
19D
100
AcDbEntity
  8
AM_9
100
AcDbLine
 10
1.2445
 20
-1.282894736842105
 30
0.0
 11
1.811875
 21
-1.282894736842105
 31
0.0
  0
LINE
  5
1D9
330
19D
100
AcDbEntity
  8
AM_9
100
AcDbLine
 10
-0.8986666666666666
 20
1.00762716319083
 30
0.0
 11
-1.338666666666667
 21
1.00762716319083
 31
0.0
  0
LINE
  5
1DA
330
19D
100
AcDbEntity
  8
AM_9
100
AcDbLine
 10
-0.8986666666666666
 20
1.361180553784104
 30
0.0
 11
-0.91
 21
1.361180553784104
 31
0.0
  0
LINE
  5
1DB
330
19D
100
AcDbEntity
  8
AM_9
100
AcDbLine
 10
-0.8986666666666666
 20
-1.00762716319083
 30
0.0
 11
-1.338666666666667
 21
-1.00762716319083
 31
0.0
  0
LINE
  5
1DC
330
19D
100
AcDbEntity
  8
AM_9
100
AcDbLine
 10
-0.8986666666666666
 20
-1.361180553784104
 30
0.0
 11
-0.91
 21
-1.361180553784104
 31
0.0
  0
LINE
  5
1DD
330
19D
100
AcDbEntity
  8
AM_9
100
AcDbLine
 10
1.811875
 20
-1.46875
 30
0.0
 11
1.811875
 21
1.46875
 31
0.0
  0
LINE
  5
1DE
330
19D
100
AcDbEntity
  8
AM_9
100
AcDbLine
 10
1.836875
 20
1.46875
 30
0.0
 11
1.811875
 21
1.46875
 31
0.0
  0
LINE
  5
1DF
330
19D
100
AcDbEntity
  8
AM_9
100
AcDbLine
 10
1.811875
 20
-1.46875
 30
0.0
 11
1.836875
 21
-1.46875
 31
0.0
  0
LINE
  5
1E0
330
19D
100
AcDbEntity
  8
AM_9
100
AcDbLine
 10
-0.8986666666666666
 20
-1.00762716319083
 30
0.0
 11
-0.8986666666666666
 21
-1.546298920283676
 31
0.0
  0
LINE
  5
1E1
330
19D
100
AcDbEntity
  8
AM_9
100
AcDbLine
 10
-0.8986666666666666
 20
1.546298920283676
 30
0.0
 11
-0.8986666666666666
 21
1.00762716319083
 31
0.0
  0
LINE
  5
1E2
330
19D
100
AcDbEntity
  8
AM_9
100
AcDbLine
 10
1.75
 20
1.631944444444444
 30
0.0
 11
1.50075
 21
1.631944444444444
 31
0.0
  0
LINE
  5
1E3
330
19D
100
AcDbEntity
  8
AM_9
100
AcDbLine
 10
1.50075
 20
-1.631944444444444
 30
0.0
 11
1.75
 21
-1.631944444444444
 31
0.0
  0
LINE
  5
1E4
330
19D
100
AcDbEntity
  8
AM_9
100
AcDbLine
 10
-0.9100000008011353
 20
-1.192463356723924
 30
0.0
 11
-0.8986666666666666
 21
-1.192745529690402
 31
0.0
  0
LINE
  5
1E5
330
19D
100
AcDbEntity
  8
AM_9
100
AcDbLine
 10
-0.8986666666666666
 20
-1.546298920283676
 30
0.0
 11
-0.9100000008011353
 21
-1.546016747317198
 31
0.0
  0
LINE
  5
1E6
330
19D
100
AcDbEntity
  8
AM_9
100
AcDbLine
 10
-0.9100000008011353
 20
1.546016747317198
 30
0.0
 11
-0.8986666666666666
 21
1.546298920283676
 31
0.0
  0
LINE
  5
1E7
330
19D
100
AcDbEntity
  8
AM_9
100
AcDbLine
 10
-0.8986666666666666
 20
1.192745529690402
 30
0.0
 11
-0.9100000008011353
 21
1.192463356723924
 31
0.0
  0
LINE
  5
1E8
330
19D
100
AcDbEntity
  8
AM_9
100
AcDbLine
 10
-0.91
 20
-1.952469369855462
 30
0.0
 11
-0.03675
 21
-1.982963931814131
 31
0.0
  0
LINE
  5
1E9
330
19D
100
AcDbEntity
  8
AM_9
100
AcDbLine
 10
-0.03675
 20
1.982963931814131
 30
0.0
 11
-0.91
 21
1.952469369855462
 31
0.0
  0
LINE
  5
1EA
330
19D
100
AcDbEntity
  8
AM_9
100
AcDbLine
 10
1.50075
 20
-1.956368966601195
 30
0.0
 11
1.50075
 21
1.956368966601195
 31
0.0
  0
ARC
  5
1EB
330
19D
100
AcDbEntity
  8
AM_9
100
AcDbCircle
 10
1.400749999999999
 20
1.956368966601195
 30
0.0
 40
0.1000000000000005
100
AcDbArc
 50
0.0
 51
59.99999999999971
  0
ARC
  5
1EC
330
19D
100
AcDbEntity
  8
AM_9
100
AcDbCircle
 10
1.400749999999999
 20
-1.956368966601195
 30
0.0
 40
0.1000000000000001
100
AcDbArc
 50
300.0000000000001
 51
0.0
  0
LINE
  5
1ED
330
19D
100
AcDbEntity
  8
AM_9
100
AcDbLine
 10
1.45075
 20
-2.042971506979639
 30
0.0
 11
1.45075
 21
2.042971506979639
 31
0.0
  0
LINE
  5
1EE
330
19D
100
AcDbEntity
  8
AM_9
100
AcDbLine
 10
1.45075
 20
2.042971506979639
 30
0.0
 11
1.2445
 21
2.16205
 31
0.0
  0
LINE
  5
1EF
330
19D
100
AcDbEntity
  8
AM_9
100
AcDbLine
 10
1.2445
 20
-2.16205
 30
0.0
 11
1.45075
 21
-2.042971506979639
 31
0.0
  0
LINE
  5
1F0
330
19D
100
AcDbEntity
  8
AM_9
100
AcDbLine
 10
0.6408615016199602
 20
2.2979875
 30
0.0
 11
0.5668884983800395
 21
2.2979875
 31
0.0
  0
LINE
  5
1F1
330
19D
100
AcDbEntity
  8
AM_9
100
AcDbLine
 10
0.5668884983800395
 20
-2.2979875
 30
0.0
 11
0.6408615016199602
 21
-2.2979875
 31
0.0
  0
LINE
  5
1F2
330
19D
100
AcDbEntity
  8
AM_9
100
AcDbLine
 10
0.6408615016199602
 20
-2.2979875
 30
0.0
 11
0.6408615016199602
 21
2.2979875
 31
0.0
  0
LINE
  5
1F3
330
19D
100
AcDbEntity
  8
AM_9
100
AcDbLine
 10
0.6408615016199602
 20
-2.2979875
 30
0.0
 11
0.6778480032399207
 21
-2.36205
 31
0.0
  0
LINE
  5
1F4
330
19D
100
AcDbEntity
  8
AM_9
100
AcDbLine
 10
0.6778480032399207
 20
2.36205
 30
0.0
 11
0.6408615016199602
 21
2.2979875
 31
0.0
  0
LINE
  5
1F5
330
19D
100
AcDbEntity
  8
AM_9
100
AcDbLine
 10
0.5668884983800395
 20
-2.2979875
 30
0.0
 11
0.5668884983800395
 21
2.2979875
 31
0.0
  0
LINE
  5
1F6
330
19D
100
AcDbEntity
  8
AM_9
100
AcDbLine
 10
0.5668884983800395
 20
2.2979875
 30
0.0
 11
0.5299019967600788
 21
2.36205
 31
0.0
  0
LINE
  5
1F7
330
19D
100
AcDbEntity
  8
AM_9
100
AcDbLine
 10
0.5299019967600788
 20
-2.36205
 30
0.0
 11
0.5668884983800395
 21
-2.2979875
 31
0.0
  0
LINE
  5
1F8
330
19D
100
AcDbEntity
  8
AM_9
100
AcDbLine
 10
1.2445
 20
-2.31205
 30
0.0
 11
1.2445
 21
2.31205
 31
0.0
  0
ARC
  5
1F9
330
19D
100
AcDbEntity
  8
AM_9
100
AcDbCircle
 10
1.1945
 20
2.31205
 30
0.0
 40
0.0499999999999996
100
AcDbArc
 50
0.0
 51
90.0
  0
ARC
  5
1FA
330
19D
100
AcDbEntity
  8
AM_9
100
AcDbCircle
 10
1.1945
 20
-2.31205
 30
0.0
 40
0.0499999999999998
100
AcDbArc
 50
270.0
 51
0.0
  0
LINE
  5
1FB
330
19D
100
AcDbEntity
  8
AM_9
100
AcDbLine
 10
1.1945
 20
-2.36205
 30
0.0
 11
1.1945
 21
2.36205
 31
0.0
  0
LINE
  5
1FC
330
19D
100
AcDbEntity
  8
AM_9
100
AcDbLine
 10
0.6778480032399207
 20
-2.36205
 30
0.0
 11
0.6778480032399207
 21
2.36205
 31
0.0
  0
LINE
  5
1FD
330
19D
100
AcDbEntity
  8
AM_9
100
AcDbLine
 10
1.1945
 20
2.36205
 30
0.0
 11
0.6778480032399207
 21
2.36205
 31
0.0
  0
LINE
  5
1FE
330
19D
100
AcDbEntity
  8
AM_9
100
AcDbLine
 10
0.6778480032399207
 20
-2.36205
 30
0.0
 11
1.1945
 21
-2.36205
 31
0.0
  0
LINE
  5
1FF
330
19D
100
AcDbEntity
  8
AM_9
100
AcDbLine
 10
-0.03675
 20
-2.31205
 30
0.0
 11
-0.03675
 21
2.31205
 31
0.0
  0
ARC
  5
200
330
19D
100
AcDbEntity
  8
AM_9
100
AcDbCircle
 10
0.0132499999999998
 20
2.312050000000001
 30
0.0
 40
0.0499999999999998
100
AcDbArc
 50
90.0
 51
180.0
  0
ARC
  5
201
330
19D
100
AcDbEntity
  8
AM_9
100
AcDbCircle
 10
0.0132500000000079
 20
-2.312049999999993
 30
0.0
 40
0.0500000000000079
100
AcDbArc
 50
180.0
 51
270.0
  0
LINE
  5
202
330
19D
100
AcDbEntity
  8
AM_9
100
AcDbLine
 10
0.5299019967600788
 20
-2.36205
 30
0.0
 11
0.5299019967600788
 21
2.36205
 31
0.0
  0
LINE
  5
203
330
19D
100
AcDbEntity
  8
AM_9
100
AcDbLine
 10
0.0132499999999994
 20
-2.36205
 30
0.0
 11
0.0132499999999994
 21
2.36205
 31
0.0
  0
LINE
  5
204
330
19D
100
AcDbEntity
  8
AM_9
100
AcDbLine
 10
0.5299019967600788
 20
2.36205
 30
0.0
 11
0.0132499999999994
 21
2.36205
 31
0.0
  0
LINE
  5
205
330
19D
100
AcDbEntity
  8
AM_9
100
AcDbLine
 10
0.0132499999999994
 20
-2.36205
 30
0.0
 11
0.5299019967600788
 21
-2.36205
 31
0.0
  0
LINE
  5
206
330
19D
100
AcDbEntity
  8
AM_5
100
AcDbLine
 10
-0.5786666666666664
 20
1.718283333333333
 30
0.0
 11
-0.5786666666666664
 21
1.740833333333333
 31
0.0
  0
LINE
  5
207
330
19D
100
AcDbEntity
  8
AM_5
100
AcDbLine
 10
-0.5786666666666664
 20
1.740833333333333
 30
0.0
 11
-0.5656474180964404
 21
1.718283333333333
 31
0.0
  0
LINE
  5
208
330
19D
100
AcDbEntity
  8
AM_5
100
AcDbLine
 10
-0.5786666666666664
 20
1.573383333333334
 30
0.0
 11
-0.5786666666666664
 21
1.550833333333334
 31
0.0
  0
LINE
  5
209
330
19D
100
AcDbEntity
  8
AM_5
100
AcDbLine
 10
-0.5786666666666664
 20
1.550833333333334
 30
0.0
 11
-0.5656474180964404
 21
1.573383333333334
 31
0.0
  0
LINE
  5
20A
330
19D
100
AcDbEntity
  8
AM_5
100
AcDbLine
 10
-0.5786666666666647
 20
-1.718283333333333
 30
0.0
 11
-0.5786666666666647
 21
-1.740833333333333
 31
0.0
  0
LINE
  5
20B
330
19D
100
AcDbEntity
  8
AM_5
100
AcDbLine
 10
-0.5786666666666647
 20
-1.740833333333333
 30
0.0
 11
-0.565647418096443
 21
-1.718283333333333
 31
0.0
  0
LINE
  5
20C
330
19D
100
AcDbEntity
  8
AM_5
100
AcDbLine
 10
-0.5786666666666647
 20
-1.573383333333334
 30
0.0
 11
-0.5786666666666647
 21
-1.550833333333334
 31
0.0
  0
LINE
  5
20D
330
19D
100
AcDbEntity
  8
AM_5
100
AcDbLine
 10
-0.5786666666666647
 20
-1.550833333333334
 30
0.0
 11
-0.565647418096443
 21
-1.573383333333334
 31
0.0
  0
LINE
  5
20E
330
19D
100
AcDbEntity
  8
AM_7
100
AcDbLine
 10
-0.4566666666666663
 20
1.645833333333333
 30
0.0
 11
-1.655049666666667
 21
1.645833333333333
 31
0.0
  0
LINE
  5
20F
330
19D
100
AcDbEntity
  8
AM_7
100
AcDbLine
 10
-0.4566666666666677
 20
-1.645833333333333
 30
0.0
 11
-1.655049666666667
 21
-1.645833333333333
 31
0.0
  0
ARC
  5
210
330
19D
100
AcDbEntity
  8
AM_4
100
AcDbCircle
 10
-1.288666666666666
 20
-1.889215561259644
 30
0.0
 40
0.0500000000000005
100
AcDbArc
 50
180.0
 51
267.9999999999998
  0
ARC
  5
211
330
19D
100
AcDbEntity
  8
AM_4
100
AcDbCircle
 10
-1.288666666666666
 20
1.889215561259644
 30
0.0
 40
0.0500000000000003
100
AcDbArc
 50
92.00000000000023
 51
180.0
  0
LWPOLYLINE
  5
212
330
19D
100
AcDbEntity
  8
AM_4
100
AcDbPolyline
 90
        6
 70
     0
 43
0.0
 10
-1.338666666666667
 20
1.500905736762308
 10
-1.33814519195521
 20
1.506043662286855
 10
-1.332895342911153
 20
1.517539989191865
 10
-1.322565153523579
 20
1.52712121451395
 10
-1.308407780662395
 20
1.533669989616411
 10
-1.290411641501791
 20
1.536544848730685
  0
LWPOLYLINE
  5
213
330
19D
100
AcDbEntity
  8
AM_4
100
AcDbPolyline
 90
        6
 70
     0
 43
0.0
 10
-1.290411641501791
 20
-1.536544848730685
 10
-1.306748431399264
 20
-1.534153533934661
 10
-1.321053446599457
 20
-1.528075939344721
 10
-1.331776718338504
 20
-1.518972330603809
 10
-1.337725489563237
 20
-1.507793588446512
 10
-1.338666666666667
 20
-1.500905736762308
  0
LINE
  5
214
330
19D
100
AcDbEntity
  8
AM_4
100
AcDbLine
 10
-1.408666666666666
 20
1.282894736842105
 30
0.0
 11
-1.61
 21
1.282894736842105
 31
0.0
  0
LINE
  5
215
330
19D
100
AcDbEntity
  8
AM_4
100
AcDbLine
 10
-1.61
 20
-1.282894736842105
 30
0.0
 11
-1.408666666666666
 21
-1.282894736842105
 31
0.0
  0
LINE
  5
216
330
19D
100
AcDbEntity
  8
AM_4
100
AcDbLine
 10
-1.61
 20
-1.282894736842105
 30
0.0
 11
-1.61
 21
1.282894736842105
 31
0.0
  0
LINE
  5
217
330
19D
100
AcDbEntity
  8
AM_4
100
AcDbLine
 10
-0.91
 20
1.361180553784104
 30
0.0
 11
-1.338666666666667
 21
1.361180553784104
 31
0.0
  0
LINE
  5
218
330
19D
100
AcDbEntity
  8
AM_4
100
AcDbLine
 10
-0.91
 20
-1.361180553784104
 30
0.0
 11
-1.338666666666667
 21
-1.361180553784104
 31
0.0
  0
LINE
  5
219
330
19D
100
AcDbEntity
  8
AM_4
100
AcDbLine
 10
1.836875
 20
-1.594284188595369
 30
0.0
 11
1.836875
 21
1.594284188595369
 31
0.0
  0
ARC
  5
21A
330
19D
100
AcDbEntity
  8
AM_4
100
AcDbCircle
 10
1.799214743589743
 20
1.594284188034188
 30
0.0
 40
0.0376602564102564
100
AcDbArc
 50
0.0
 51
90.0
  0
ARC
  5
21B
330
19D
100
AcDbEntity
  8
AM_4
100
AcDbCircle
 10
1.799214743589743
 20
-1.594284188034188
 30
0.0
 40
0.0376602564102564
100
AcDbArc
 50
270.0
 51
0.0
  0
LINE
  5
21C
330
19D
100
AcDbEntity
  8
AM_4
100
AcDbLine
 10
1.799214743589743
 20
-1.631944444444444
 30
0.0
 11
1.799214743589743
 21
1.631944444444444
 31
0.0
  0
LINE
  5
21D
330
19D
100
AcDbEntity
  8
AM_4
100
AcDbLine
 10
1.799214743589743
 20
1.631944444444444
 30
0.0
 11
1.75
 21
1.631944444444444
 31
0.0
  0
LINE
  5
21E
330
19D
100
AcDbEntity
  8
AM_4
100
AcDbLine
 10
1.75
 20
-1.631944444444444
 30
0.0
 11
1.799214743589743
 21
-1.631944444444444
 31
0.0
  0
LWPOLYLINE
  5
21F
330
19D
100
AcDbEntity
  8
AM_4
100
AcDbPolyline
 90
        6
 70
     0
 43
0.0
 10
-1.290411641501791
 20
1.182991458137411
 10
-1.306748431399271
 20
1.180600143341385
 10
-1.321053446599463
 20
1.174522548751443
 10
-1.331776718338507
 20
1.16541894001053
 10
-1.337725489563238
 20
1.154240197853232
 10
-1.338666666666667
 20
1.147352346169034
  0
LWPOLYLINE
  5
220
330
19D
100
AcDbEntity
  8
AM_4
100
AcDbPolyline
 90
        6
 70
     0
 43
0.0
 10
-1.338666666666667
 20
-1.147352346169034
 10
-1.33814519195521
 20
-1.152490271693581
 10
-1.332895342911153
 20
-1.163986598598591
 10
-1.322565153523579
 20
-1.173567823920677
 10
-1.308407780662394
 20
-1.180116599023138
 10
-1.290411641501791
 20
-1.182991458137411
  0
LINE
  5
221
330
19D
100
AcDbEntity
  8
AM_4
100
AcDbLine
 10
-1.290411641501791
 20
-1.182991458137411
 30
0.0
 11
-1.290411641501791
 21
1.182991458137411
 31
0.0
  0
LINE
  5
222
330
19D
100
AcDbEntity
  8
AM_4
100
AcDbLine
 10
-1.290411641501791
 20
-1.182991458137411
 30
0.0
 11
-0.9100000008011353
 21
-1.192463356723924
 31
0.0
  0
LINE
  5
223
330
19D
100
AcDbEntity
  8
AM_4
100
AcDbLine
 10
-0.9100000008011353
 20
-1.546016747317198
 30
0.0
 11
-1.290411641501791
 21
-1.536544848730685
 31
0.0
  0
LINE
  5
224
330
19D
100
AcDbEntity
  8
AM_4
100
AcDbLine
 10
-1.290411641501791
 20
1.536544848730685
 30
0.0
 11
-1.290411641501791
 21
1.9391851026106
 31
0.0
  0
LINE
  5
225
330
19D
100
AcDbEntity
  8
AM_4
100
AcDbLine
 10
-1.290411641501791
 20
1.536544848730685
 30
0.0
 11
-0.9100000008011353
 21
1.546016747317198
 31
0.0
  0
LINE
  5
226
330
19D
100
AcDbEntity
  8
AM_4
100
AcDbLine
 10
-0.9100000008011353
 20
1.192463356723924
 30
0.0
 11
-1.290411641501791
 21
1.182991458137411
 31
0.0
  0
LINE
  5
227
330
19D
100
AcDbEntity
  8
AM_4
100
AcDbLine
 10
-1.290411641501791
 20
-1.9391851026106
 30
0.0
 11
-0.91
 21
-1.952469369855462
 31
0.0
  0
LINE
  5
228
330
19D
100
AcDbEntity
  8
AM_4
100
AcDbLine
 10
-0.91
 20
1.952469369855462
 30
0.0
 11
-1.290411641501791
 21
1.9391851026106
 31
0.0
  0
LINE
  5
229
330
19D
100
AcDbEntity
  8
AM_4
100
AcDbLine
 10
-1.290411641501791
 20
-1.9391851026106
 30
0.0
 11
-1.290411641501791
 21
-1.536544848730685
 31
0.0
  0
ENDBLK
  5
1A0
330
19D
100
AcDbEntity
  8
0
100
AcDbBlockEnd
  0
BLOCK
  5
22C
330
22A
100
AcDbEntity
  8
0
100
AcDbBlockBegin
  2
8_B072321_0_in_072321_2
 70
     2
 10
0.0
 20
0.0
 30
0.0
  3
8_B072321_0_in_072321_2
  1

  0
ATTDEF
  5
22E
330
22A
100
AcDbEntity
  8
AM_6
100
AcDbText
 10
7.926
 20
3.815
 30
0.0
 40
0.5
  1
SFC-207-500-(Contact Seal)-Housing
100
AcDbAttributeDefinition
  3

  2
NN
 70
     8
280
     0
  0
ATTDEF
  5
22F
330
22A
100
AcDbEntity
  8
AM_6
100
AcDbText
 10
7.926
 20
3.315
 30
0.0
 40
0.5
  1
Steal Imperial Piloted Flange Bearing-Inch-207-500
100
AcDbAttributeDefinition
  3

  2
NT
 70
     8
280
     0
  0
ATTDEF
  5
230
330
22A
100
AcDbEntity
  8
AM_6
100
AcDbText
 10
7.926
 20
2.815
 30
0.0
 40
0.5
  1
B072321
100
AcDbAttributeDefinition
  3

  2
NB
 70
     8
280
     0
  0
ATTDEF
  5
231
330
22A
100
AcDbEntity
  8
AM_6
100
AcDbText
 10
7.926
 20
2.315
 30
0.0
 40
0.5
  1
$PN.
100
AcDbAttributeDefinition
  3

  2
NBSYN
 70
     8
280
     0
  0
ATTDEF
  5
232
330
22A
100
AcDbEntity
  8
AM_6
100
AcDbText
 10
7.926
 20
1.815
 30
0.0
 40
0.5
  1
B072321
100
AcDbAttributeDefinition
  3

  2
LINA
 70
     8
280
     0
  0
ATTDEF
  5
233
330
22A
100
AcDbEntity
  8
AM_6
100
AcDbText
 10
7.926
 20
1.315
 30
0.0
 40
0.5
  1
2-7/16
100
AcDbAttributeDefinition
  3

  2
SS
 70
     8
280
     0
  0
ATTDEF
  5
234
330
22A
100
AcDbEntity
  8
AM_6
100
AcDbText
 10
7.926
 20
0.815
 30
0.0
 40
0.5
  1
2.43750
100
AcDbAttributeDefinition
  3

  2
SS1
 70
     8
280
     0
  0
ATTDEF
  5
235
330
22A
100
AcDbEntity
  8
AM_6
100
AcDbText
 10
7.926
 20
0.3149999999999999
 30
0.0
 40
0.5
  1
072290
100
AcDbAttributeDefinition
  3

  2
PN1
 70
     8
280
     0
  0
ATTDEF
  5
236
330
22A
100
AcDbEntity
  8
AM_6
100
AcDbText
 10
7.926
 20
-0.1850000000000001
 30
0.0
 40
0.5
  1
072321
100
AcDbAttributeDefinition
  3

  2
PN2
 70
     8
280
     0
  0
ATTDEF
  5
237
330
22A
100
AcDbEntity
  8
AM_6
100
AcDbText
 10
7.926
 20
-0.685
 30
0.0
 40
0.5
  1
Expansion
100
AcDbAttributeDefinition
  3

  2
TYPE
 70
     8
280
     0
  0
ATTDEF
  5
238
330
22A
100
AcDbEntity
  8
AM_6
100
AcDbText
 10
7.926
 20
-1.185
 30
0.0
 40
0.5
  1
Contact Seal
100
AcDbAttributeDefinition
  3

  2
ST
 70
     8
280
     0
  0
ATTDEF
  5
239
330
22A
100
AcDbEntity
  8
AM_6
100
AcDbText
 10
7.926
 20
-1.685
 30
0.0
 40
0.5
  1
SFC-IP-207R
100
AcDbAttributeDefinition
  3

  2
DESCRIPTIONS
 70
     8
280
     0
  0
ATTDEF
  5
23A
330
22A
100
AcDbEntity
  8
AM_6
100
AcDbText
 10
7.926
 20
-2.185
 30
0.0
 40
0.5
  1
3.43
100
AcDbAttributeDefinition
  3

  2
A
 70
     8
280
     0
  0
ATTDEF
  5
23B
330
22A
100
AcDbEntity
  8
AM_6
100
AcDbText
 10
7.926
 20
-2.685
 30
0.0
 40
0.5
  1
3.430
100
AcDbAttributeDefinition
  3

  2
A1
 70
     8
280
     0
  0
ATTDEF
  5
23C
330
22A
100
AcDbEntity
  8
AM_6
100
AcDbText
 10
7.926
 20
-3.185
 30
0.0
 40
0.5
  1
7.63
100
AcDbAttributeDefinition
  3

  2
B
 70
     8
280
     0
  0
ATTDEF
  5
23D
330
22A
100
AcDbEntity
  8
AM_6
100
AcDbText
 10
7.926
 20
-3.685
 30
0.0
 40
0.5
  1
7.6300
100
AcDbAttributeDefinition
  3

  2
B1
 70
     8
280
     0
  0
ATTDEF
  5
23E
330
22A
100
AcDbEntity
  8
AM_6
100
AcDbText
 10
7.926
 20
-4.185
 30
0.0
 40
0.5
  1
2.66
100
AcDbAttributeDefinition
  3

  2
C
 70
     8
280
     0
  0
ATTDEF
  5
23F
330
22A
100
AcDbEntity
  8
AM_6
100
AcDbText
 10
7.926
 20
-4.685
 30
0.0
 40
0.5
  1
2.6600
100
AcDbAttributeDefinition
  3

  2
C1
 70
     8
280
     0
  0
ATTDEF
  5
240
330
22A
100
AcDbEntity
  8
AM_6
100
AcDbText
 10
7.926
 20
-5.185
 30
0.0
 40
0.5
  1
4.60
100
AcDbAttributeDefinition
  3

  2
D
 70
     8
280
     0
  0
ATTDEF
  5
241
330
22A
100
AcDbEntity
  8
AM_6
100
AcDbText
 10
7.926
 20
-5.685
 30
0.0
 40
0.5
  1
4.6000
100
AcDbAttributeDefinition
  3

  2
D1
 70
     8
280
     0
  0
ATTDEF
  5
242
330
22A
100
AcDbEntity
  8
AM_6
100
AcDbText
 10
7.926
 20
-6.185
 30
0.0
 40
0.5
  1
6.500
100
AcDbAttributeDefinition
  3

  2
DD
 70
     8
280
     0
  0
ATTDEF
  5
243
330
22A
100
AcDbEntity
  8
AM_6
100
AcDbText
 10
7.926
 20
-6.685
 30
0.0
 40
0.5
  1
6.5000
100
AcDbAttributeDefinition
  3

  2
DD1
 70
     8
280
     0
  0
ATTDEF
  5
244
330
22A
100
AcDbEntity
  8
AM_6
100
AcDbText
 10
7.926
 20
-7.185
 30
0.0
 40
0.5
  1
1.2500
100
AcDbAttributeDefinition
  3

  2
E
 70
     8
280
     0
  0
ATTDEF
  5
245
330
22A
100
AcDbEntity
  8
AM_6
100
AcDbText
 10
7.926
 20
-7.685
 30
0.0
 40
0.5
  1
1.2500
100
AcDbAttributeDefinition
  3

  2
E1
 70
     8
280
     0
  0
ATTDEF
  5
246
330
22A
100
AcDbEntity
  8
AM_6
100
AcDbText
 10
7.926
 20
-8.185
 30
0.0
 40
0.5
  1
0.5000
100
AcDbAttributeDefinition
  3

  2
F
 70
     8
280
     0
  0
ATTDEF
  5
247
330
22A
100
AcDbEntity
  8
AM_6
100
AcDbText
 10
7.926
 20
-8.685
 30
0.0
 40
0.5
  1
0.50000
100
AcDbAttributeDefinition
  3

  2
F1
 70
     8
280
     0
  0
ATTDEF
  5
248
330
22A
100
AcDbEntity
  8
AM_6
100
AcDbText
 10
7.926
 20
-9.185
 30
0.0
 40
0.5
  1
1.86
100
AcDbAttributeDefinition
  3

  2
G
 70
     8
280
     0
  0
ATTDEF
  5
249
330
22A
100
AcDbEntity
  8
AM_6
100
AcDbText
 10
7.926
 20
-9.685
 30
0.0
 40
0.5
  1
1.86
100
AcDbAttributeDefinition
  3

  2
G1
 70
     8
280
     0
  0
ATTDEF
  5
24A
330
22A
100
AcDbEntity
  8
AM_6
100
AcDbText
 10
7.926
 20
-10.185
 30
0.0
 40
0.5
  1
0.50
100
AcDbAttributeDefinition
  3

  2
H
 70
     8
280
     0
  0
ATTDEF
  5
24B
330
22A
100
AcDbEntity
  8
AM_6
100
AcDbText
 10
7.926
 20
-10.685
 30
0.0
 40
0.5
  1
0.50
100
AcDbAttributeDefinition
  3

  2
H1
 70
     8
280
     0
  0
ATTDEF
  5
24C
330
22A
100
AcDbEntity
  8
AM_6
100
AcDbText
 10
7.926
 20
-11.185
 30
0.0
 40
0.5
  1
5.500
100
AcDbAttributeDefinition
  3

  2
K
 70
     8
280
     0
  0
ATTDEF
  5
24D
330
22A
100
AcDbEntity
  8
AM_6
100
AcDbText
 10
7.926
 20
-11.685
 30
0.0
 40
0.5
  1
5.500
100
AcDbAttributeDefinition
  3

  2
K1
 70
     8
280
     0
  0
ATTDEF
  5
24E
330
22A
100
AcDbEntity
  8
AM_6
100
AcDbText
 10
7.926
 20
-12.185
 30
0.0
 40
0.5
  1
3.80
100
AcDbAttributeDefinition
  3

  2
L
 70
     8
280
     0
  0
ATTDEF
  5
24F
330
22A
100
AcDbEntity
  8
AM_6
100
AcDbText
 10
7.926
 20
-12.685
 30
0.0
 40
0.5
  1
3.80
100
AcDbAttributeDefinition
  3

  2
L1
 70
     8
280
     0
  0
ATTDEF
  5
250
330
22A
100
AcDbEntity
  8
AM_6
100
AcDbText
 10
7.926
 20
-13.185
 30
0.0
 40
0.5
  1
0.5000
100
AcDbAttributeDefinition
  3

  2
M
 70
     8
280
     0
  0
ATTDEF
  5
251
330
22A
100
AcDbEntity
  8
AM_6
100
AcDbText
 10
7.926
 20
-13.685
 30
0.0
 40
0.5
  1
0.5000
100
AcDbAttributeDefinition
  3

  2
M1
 70
     8
280
     0
  0
ATTDEF
  5
252
330
22A
100
AcDbEntity
  8
AM_6
100
AcDbText
 10
7.926
 20
-14.185
 30
0.0
 40
0.5
  1
3.61
100
AcDbAttributeDefinition
  3

  2
N
 70
     8
280
     0
  0
ATTDEF
  5
253
330
22A
100
AcDbEntity
  8
AM_6
100
AcDbText
 10
7.926
 20
-14.685
 30
0.0
 40
0.5
  1
3.61
100
AcDbAttributeDefinition
  3

  2
N1
 70
     8
280
     0
  0
ATTDEF
  5
254
330
22A
100
AcDbEntity
  8
AM_6
100
AcDbText
 10
7.926
 20
-15.185
 30
0.0
 40
0.5
  1
1.50
100
AcDbAttributeDefinition
  3

  2
P
 70
     8
280
     0
  0
ATTDEF
  5
255
330
22A
100
AcDbEntity
  8
AM_6
100
AcDbText
 10
7.926
 20
-15.685
 30
0.0
 40
0.5
  1
1.50
100
AcDbAttributeDefinition
  3

  2
P1
 70
     8
280
     0
  0
ATTDEF
  5
256
330
22A
100
AcDbEntity
  8
AM_6
100
AcDbText
 10
7.926
 20
-16.185
 30
0.0
 40
0.5
  1
1.75
100
AcDbAttributeDefinition
  3

  2
Q
 70
     8
280
     0
  0
ATTDEF
  5
257
330
22A
100
AcDbEntity
  8
AM_6
100
AcDbText
 10
7.926
 20
-16.685
 30
0.0
 40
0.5
  1
1.75
100
AcDbAttributeDefinition
  3

  2
Q1
 70
     8
280
     0
  0
ATTDEF
  5
258
330
22A
100
AcDbEntity
  8
AM_6
100
AcDbText
 10
7.926
 20
-17.185
 30
0.0
 40
0.5
  1
0.25
100
AcDbAttributeDefinition
  3

  2
X
 70
     8
280
     0
  0
ATTDEF
  5
259
330
22A
100
AcDbEntity
  8
AM_6
100
AcDbText
 10
7.926
 20
-17.685
 30
0.0
 40
0.5
  1
0.25
100
AcDbAttributeDefinition
  3

  2
X1
 70
     8
280
     0
  0
ATTDEF
  5
25A
330
22A
100
AcDbEntity
  8
AM_6
100
AcDbText
 10
7.926
 20
-18.185
 30
0.0
 40
0.5
  1
0.025
100
AcDbAttributeDefinition
  3

  2
Y
 70
     8
280
     0
  0
ATTDEF
  5
25B
330
22A
100
AcDbEntity
  8
AM_6
100
AcDbText
 10
7.926
 20
-18.685
 30
0.0
 40
0.5
  1
0.025
100
AcDbAttributeDefinition
  3

  2
Y1
 70
     8
280
     0
  0
ATTDEF
  5
25C
330
22A
100
AcDbEntity
  8
AM_6
100
AcDbText
 10
7.926
 20
-19.185
 30
0.0
 40
0.5
  1
2.94
100
AcDbAttributeDefinition
  3

  2
Z
 70
     8
280
     0
  0
ATTDEF
  5
25D
330
22A
100
AcDbEntity
  8
AM_6
100
AcDbText
 10
7.926
 20
-19.685
 30
0.0
 40
0.5
  1
2.94
100
AcDbAttributeDefinition
  3

  2
Z1
 70
     8
280
     0
  0
ATTDEF
  5
25E
330
22A
100
AcDbEntity
  8
AM_6
100
AcDbText
 10
7.926
 20
-20.185
 30
0.0
 40
0.5
  1
4.7241
100
AcDbAttributeDefinition
  3

  2
BORE
 70
     8
280
     0
  0
ATTDEF
  5
25F
330
22A
100
AcDbEntity
  8
AM_6
100
AcDbText
 10
7.926
 20
-20.685
 30
0.0
 40
0.5
  1
0.1003330
100
AcDbAttributeDefinition
  3

  2
O
 70
     8
280
     0
  0
ATTDEF
  5
260
330
22A
100
AcDbEntity
  8
AM_6
100
AcDbText
 10
7.926
 20
-21.185
 30
0.0
 40
0.5
  1
baldor
100
AcDbAttributeDefinition
  3

  2
COMPANY
 70
     8
280
     0
  0
LINE
  5
261
330
22A
100
AcDbEntity
  8
AM_9
100
AcDbLine
 10
-0.4999999999999999
 20
2.564582562299425
 30
0.0
 11
0.0000000000000001
 21
2.564582562299425
 31
0.0
  0
LINE
  5
262
330
22A
100
AcDbEntity
  8
AM_9
100
AcDbLine
 10
0.0000000000000001
 20
3.064582562299425
 30
0.0
 11
-0.4999999999999999
 21
3.064582562299425
 31
0.0
  0
LINE
  5
263
330
22A
100
AcDbEntity
  8
AM_9
100
AcDbLine
 10
-0.4999999999999999
 20
-3.064582562299425
 30
0.0
 11
0.0000000000000001
 21
-3.064582562299425
 31
0.0
  0
LINE
  5
264
330
22A
100
AcDbEntity
  8
AM_9
100
AcDbLine
 10
0.0000000000000001
 20
-2.564582562299425
 30
0.0
 11
-0.4999999999999999
 21
-2.564582562299425
 31
0.0
  0
LINE
  5
265
330
22A
100
AcDbEntity
  8
AM_9
100
AcDbLine
 10
-0.9100000000000001
 20
-2.36205
 30
0.0
 11
1.75
 21
-2.36205
 31
0.0
  0
LINE
  5
266
330
22A
100
AcDbEntity
  8
AM_9
100
AcDbLine
 10
1.75
 20
2.36205
 30
0.0
 11
-0.9100000000000001
 21
2.36205
 31
0.0
  0
LINE
  5
267
330
22A
100
AcDbEntity
  8
AM_9
100
AcDbLine
 10
0.0000000000000002
 20
0.20835
 30
0.0
 11
-0.4583499999999996
 21
0.20835
 31
0.0
  0
LINE
  5
268
330
22A
100
AcDbEntity
  8
AM_9
100
AcDbLine
 10
-0.4583499999999996
 20
-0.20835
 30
0.0
 11
0.0000000000000002
 21
-0.20835
 31
0.0
  0
LINE
  5
269
330
22A
100
AcDbEntity
  8
AM_9
100
AcDbLine
 10
-0.4583499999999996
 20
-0.20835
 30
0.0
 11
-0.4583499999999996
 21
0.20835
 31
0.0
  0
LINE
  5
26A
330
22A
100
AcDbEntity
  8
AM_9
100
AcDbLine
 10
-0.4583499999999996
 20
0.20835
 30
0.0
 11
-0.4999999999999998
 21
0.2499999999999998
 31
0.0
  0
LINE
  5
26B
330
22A
100
AcDbEntity
  8
AM_9
100
AcDbLine
 10
-0.4999999999999998
 20
-0.2499999999999998
 30
0.0
 11
-0.4583499999999996
 21
-0.20835
 31
0.0
  0
LINE
  5
26C
330
22A
100
AcDbEntity
  8
AM_5
100
AcDbLine
 10
0.0000000000000001
 20
0.2500000000000003
 30
0.0
 11
-0.4999999999999998
 21
0.2500000000000003
 31
0.0
  0
LINE
  5
26D
330
22A
100
AcDbEntity
  8
AM_5
100
AcDbLine
 10
-0.0000000000000003
 20
-0.2500000000000003
 30
0.0
 11
-0.5000000000000002
 21
-0.2500000000000003
 31
0.0
  0
LINE
  5
26E
330
22A
100
AcDbEntity
  8
AM_7
100
AcDbLine
 10
0.0249999999999999
 20
-2.814582562299425
 30
0.0
 11
-0.5250000000000001
 21
-2.814582562299425
 31
0.0
  0
LINE
  5
26F
330
22A
100
AcDbEntity
  8
AM_7
100
AcDbLine
 10
0.0249999999999999
 20
2.814582562299425
 30
0.0
 11
-0.5250000000000001
 21
2.814582562299425
 31
0.0
  0
LINE
  5
270
330
22A
100
AcDbEntity
  8
AM_7
100
AcDbLine
 10
2.926
 20
0.0
 30
0.0
 11
-2.926
 21
0.0
 31
0.0
  0
LINE
  5
271
330
22A
100
AcDbEntity
  8
AM_4
100
AcDbLine
 10
-0.9099999999999993
 20
-2.750000000000001
 30
0.0
 11
-0.5
 21
-3.300000000000002
 31
0.0
  0
LINE
  5
272
330
22A
100
AcDbEntity
  8
AM_4
100
AcDbLine
 10
-0.9099999999999993
 20
2.750000000000001
 30
0.0
 11
-0.9099999999999993
 21
-2.750000000000001
 31
0.0
  0
LINE
  5
273
330
22A
100
AcDbEntity
  8
AM_4
100
AcDbLine
 10
-0.5
 20
3.300000000000002
 30
0.0
 11
-0.9099999999999993
 21
2.750000000000001
 31
0.0
  0
LINE
  5
274
330
22A
100
AcDbEntity
  8
AM_4
100
AcDbLine
 10
1.75
 20
2.612499999999999
 30
0.0
 11
1.25
 21
2.629960384745874
 31
0.0
  0
LINE
  5
275
330
22A
100
AcDbEntity
  8
AM_4
100
AcDbLine
 10
1.25
 20
-2.629960384745874
 30
0.0
 11
1.75
 21
-2.612499999999999
 31
0.0
  0
LINE
  5
276
330
22A
100
AcDbEntity
  8
AM_4
100
AcDbLine
 10
1.75
 20
2.612499999999999
 30
0.0
 11
1.75
 21
-2.612499999999999
 31
0.0
  0
LINE
  5
277
330
22A
100
AcDbEntity
  8
AM_4
100
AcDbLine
 10
-0.9100000000000001
 20
-2.704163456597992
 30
0.0
 11
-0.4999999999999998
 21
-2.704163456597992
 31
0.0
  0
LINE
  5
278
330
22A
100
AcDbEntity
  8
AM_4
100
AcDbLine
 10
-0.4999999999999998
 20
2.704163456597992
 30
0.0
 11
-0.9100000000000001
 21
2.704163456597992
 31
0.0
  0
LINE
  5
279
330
22A
100
AcDbEntity
  8
AM_4
100
AcDbLine
 10
0.0
 20
-2.75
 30
0.0
 11
1.25
 21
-2.75
 31
0.0
  0
LINE
  5
27A
330
22A
100
AcDbEntity
  8
AM_4
100
AcDbLine
 10
1.25
 20
2.75
 30
0.0
 11
0.0
 21
2.75
 31
0.0
  0
LINE
  5
27B
330
22A
100
AcDbEntity
  8
AM_4
100
AcDbLine
 10
1.25
 20
2.75
 30
0.0
 11
1.25
 21
-2.75
 31
0.0
  0
LINE
  5
27C
330
22A
100
AcDbEntity
  8
AM_4
100
AcDbLine
 10
-0.4999999999999998
 20
-3.815
 30
0.0
 11
0.0
 21
-3.815
 31
0.0
  0
LINE
  5
27D
330
22A
100
AcDbEntity
  8
AM_4
100
AcDbLine
 10
0.0
 20
3.815
 30
0.0
 11
-0.4999999999999998
 21
3.815
 31
0.0
  0
LINE
  5
27E
330
22A
100
AcDbEntity
  8
AM_4
100
AcDbLine
 10
0.0
 20
3.815
 30
0.0
 11
0.0
 21
-3.815
 31
0.0
  0
LINE
  5
27F
330
22A
100
AcDbEntity
  8
AM_4
100
AcDbLine
 10
-0.4999999999999998
 20
3.815
 30
0.0
 11
-0.4999999999999998
 21
-3.815
 31
0.0
  0
ENDBLK
  5
22D
330
22A
100
AcDbEntity
  8
0
100
AcDbBlockEnd
  0
ENDSEC
  0
SECTION
  2
ENTITIES
  0
INSERT
  5
6F
330
1F
100
AcDbEntity
  8
0
100
AcDbBlockReference
  2
1_072321_2
 10
0.0
 20
0.0
 30
0.0
  0
POINT
  5
281
330
1F
100
AcDbEntity
  8
ConnectionPoints
100
AcDbPoint
 10
-0.7050000000000001
 20
3.025000000000001
 30
0.0
  0
POINT
  5
282
330
1F
100
AcDbEntity
  8
ConnectionPoints
100
AcDbPoint
 10
-1.508999666666667
 20
-1.645833333333333
 30
0.0000000000000001
  0
POINT
  5
283
330
1F
100
AcDbEntity
  8
ConnectionPoints
100
AcDbPoint
 10
-1.508999666666667
 20
1.645833333333333
 30
0.0000000000000001
  0
POINT
  5
284
330
1F
100
AcDbEntity
  8
ConnectionPoints
100
AcDbPoint
 10
-1.338666666666666
 20
0.0
 30
0.0000000000000001
  0
POINT
  5
285
330
1F
100
AcDbEntity
  8
ConnectionPoints
100
AcDbPoint
 10
-1.61
 20
0.0
 30
0.0000000000000001
  0
POINT
  5
286
330
1F
100
AcDbEntity
  8
ConnectionPoints
100
AcDbPoint
 10
-1.537666666666667
 20
0.0
 30
0.0000000000000001
  0
POINT
  5
287
330
1F
100
AcDbEntity
  8
ConnectionPoints
100
AcDbPoint
 10
-1.338666666666666
 20
1.645833333333333
 30
0.0000000000000001
  0
POINT
  5
288
330
1F
100
AcDbEntity
  8
ConnectionPoints
100
AcDbPoint
 10
-1.509
 20
1.645833333333333
 30
0.0000000000000001
  0
POINT
  5
289
330
1F
100
AcDbEntity
  8
ConnectionPoints
100
AcDbPoint
 10
-1.338666666666666
 20
-1.645833333333333
 30
0.0000000000000001
  0
POINT
  5
28A
330
1F
100
AcDbEntity
  8
ConnectionPoints
100
AcDbPoint
 10
-1.509
 20
-1.645833333333333
 30
0.0000000000000001
  0
POINT
  5
28B
330
1F
100
AcDbEntity
  8
ConnectionPoints
100
AcDbPoint
 10
-1.338666666666666
 20
0.0
 30
0.0000000000000001
  0
POINT
  5
28C
330
1F
100
AcDbEntity
  8
ConnectionPoints
100
AcDbPoint
 10
-0.7050000000000001
 20
3.025000000000001
 30
0.0
  0
POINT
  5
28D
330
1F
100
AcDbEntity
  8
ConnectionPoints
100
AcDbPoint
 10
-0.7050000000000004
 20
-3.025000000000001
 30
0.0
  0
POINT
  5
28E
330
1F
100
AcDbEntity
  8
ConnectionPoints
100
AcDbPoint
 10
-1.61
 20
0.0
 30
0.0000000000000001
  0
POINT
  5
28F
330
1F
100
AcDbEntity
  8
ConnectionPoints
100
AcDbPoint
 10
-1.86
 20
0.0
 30
0.0000000000000001
  0
ENDSEC
  0
SECTION
  2
OBJECTS
  0
DICTIONARY
  5
C
330
0
100
AcDbDictionary
281
     1
  3
ACAD_DETAILVIEWSTYLE
350
297
  3
ACAD_GROUP
350
D
  3
ACAD_LAYOUT
350
1A
  3
ACAD_MATERIAL
350
43
  3
ACAD_MLEADERSTYLE
350
6B
  3
ACAD_MLINESTYLE
350
17
  3
ACAD_PLOTSETTINGS
350
19
  3
ACAD_PLOTSTYLENAME
350
E
  3
ACAD_SCALELIST
350
47
  3
ACAD_SECTIONVIEWSTYLE
350
298
  3
ACAD_TABLESTYLE
350
69
  3
ACAD_VISUALSTYLE
350
2A
  3
ACDB_RECOMPOSE_DATA
350
294
  3
AcDbVariableDictionary
350
290
  0
SUN
  5
6D
330
29
100
AcDbSun
 90
        1
290
     0
 63
     7
421
 16777215
 40
1.0
291
     1
 91
  2455826
 92
 54000000
292
     0
 70
     2
 71
   256
280
     1
  0
DICTIONARY
  5
297
102
{ACAD_REACTORS
330
C
102
}
330
C
100
AcDbDictionary
281
     1
  0
DICTIONARY
  5
D
102
{ACAD_REACTORS
330
C
102
}
330
C
100
AcDbDictionary
281
     1
  0
DICTIONARY
  5
1A
102
{ACAD_REACTORS
330
C
102
}
330
C
100
AcDbDictionary
281
     1
  3
Layout1
350
1E
  3
Layout2
350
26
  3
Model
350
22
  0
DICTIONARY
  5
43
102
{ACAD_REACTORS
330
C
102
}
330
C
100
AcDbDictionary
281
     1
  3
ByBlock
350
45
  3
ByLayer
350
44
  3
Global
350
46
  0
DICTIONARY
  5
6B
102
{ACAD_REACTORS
330
C
102
}
330
C
100
AcDbDictionary
281
     1
  3
Standard
350
6C
  0
DICTIONARY
  5
17
102
{ACAD_REACTORS
330
C
102
}
330
C
100
AcDbDictionary
281
     1
  3
Standard
350
18
  0
DICTIONARY
  5
19
102
{ACAD_REACTORS
330
C
102
}
330
C
100
AcDbDictionary
281
     1
  0
ACDBDICTIONARYWDFLT
  5
E
102
{ACAD_REACTORS
330
C
102
}
330
C
100
AcDbDictionary
281
     1
  3
Normal
350
F
100
AcDbDictionaryWithDefault
340
F
  0
DICTIONARY
  5
47
102
{ACAD_REACTORS
330
C
102
}
330
C
100
AcDbDictionary
281
     1
  3
A0
350
48
  3
A1
350
49
  3
A2
350
4A
  3
A3
350
4B
  3
A4
350
4C
  3
A5
350
4D
  3
A6
350
4E
  3
A7
350
4F
  3
A8
350
50
  3
A9
350
51
  3
B0
350
52
  3
B1
350
53
  3
B2
350
54
  3
B3
350
55
  3
B4
350
56
  3
B5
350
57
  3
B6
350
58
  3
B7
350
59
  3
B8
350
5A
  3
B9
350
5B
  3
C0
350
5C
  3
C1
350
5D
  3
C2
350
5E
  3
C3
350
5F
  3
C4
350
60
  3
C5
350
61
  3
C6
350
62
  3
C7
350
63
  3
C8
350
64
  3
C9
350
65
  3
D0
350
66
  3
D1
350
67
  3
D2
350
68
  0
DICTIONARY
  5
298
102
{ACAD_REACTORS
330
C
102
}
330
C
100
AcDbDictionary
281
     1
  0
DICTIONARY
  5
69
102
{ACAD_REACTORS
330
C
102
}
330
C
100
AcDbDictionary
281
     1
  3
Standard
350
6A
  0
DICTIONARY
  5
2A
102
{ACAD_REACTORS
330
C
102
}
330
C
100
AcDbDictionary
281
     1
  3
2dWireframe
350
2F
  3
Basic
350
32
  3
Brighten
350
36
  3
ColorChange
350
3A
  3
Conceptual
350
34
  3
Dim
350
35
  3
EdgeColorOff
350
3D
  3
Facepattern
350
39
  3
Flat
350
2B
  3
FlatWithEdges
350
2C
  3
Gouraud
350
2D
  3
GouraudWithEdges
350
2E
  3
Hidden
350
31
  3
JitterOff
350
3B
  3
Linepattern
350
38
  3
OverhangOff
350
3C
  3
Realistic
350
33
  3
Shaded
350
42
  3
Shaded with edges
350
41
  3
Shades of Gray
350
3E
  3
Sketchy
350
3F
  3
Thicken
350
37
  3
Wireframe
350
30
  3
X-Ray
350
40
  0
XRECORD
  5
294
102
{ACAD_REACTORS
330
C
102
}
330
C
100
AcDbXrecord
280
     1
 90
        1
330
6A
  0
DICTIONARY
  5
290
102
{ACAD_REACTORS
330
C
102
}
330
C
100
AcDbDictionary
281
     1
  3
CANNOSCALE
350
291
  3
CMLEADERSTYLE
350
296
  3
CTABLESTYLE
350
295
  0
LAYOUT
  5
1E
102
{ACAD_REACTORS
330
1A
102
}
330
1A
100
AcDbPlotSettings
  1

  2
none_device
  4

  6

 40
0.0
 41
0.0
 42
0.0
 43
0.0
 44
0.0
 45
0.0
 46
0.0
 47
0.0
 48
0.0
 49
0.0
140
0.0
141
0.0
142
1.0
143
1.0
 70
   688
 72
     0
 73
     0
 74
     5
  7

 75
    16
 76
     0
 77
     2
 78
   300
147
1.0
148
0.0
149
0.0
100
AcDbLayout
  1
Layout1
 70
     1
 71
     1
 10
0.0
 20
0.0
 11
12.0
 21
9.0
 12
0.0
 22
0.0
 32
0.0
 14
1.000000000000000E+20
 24
1.000000000000000E+20
 34
1.000000000000000E+20
 15
-1.000000000000000E+20
 25
-1.000000000000000E+20
 35
-1.000000000000000E+20
146
0.0
 13
0.0
 23
0.0
 33
0.0
 16
1.0
 26
0.0
 36
0.0
 17
0.0
 27
1.0
 37
0.0
 76
     0
330
1B
  0
LAYOUT
  5
26
102
{ACAD_REACTORS
330
1A
102
}
330
1A
100
AcDbPlotSettings
  1

  2
none_device
  4

  6

 40
0.0
 41
0.0
 42
0.0
 43
0.0
 44
0.0
 45
0.0
 46
0.0
 47
0.0
 48
0.0
 49
0.0
140
0.0
141
0.0
142
1.0
143
1.0
 70
   688
 72
     0
 73
     0
 74
     5
  7

 75
    16
 76
     0
 77
     2
 78
   300
147
1.0
148
0.0
149
0.0
100
AcDbLayout
  1
Layout2
 70
     1
 71
     2
 10
0.0
 20
0.0
 11
0.0
 21
0.0
 12
0.0
 22
0.0
 32
0.0
 14
0.0
 24
0.0
 34
0.0
 15
0.0
 25
0.0
 35
0.0
146
0.0
 13
0.0
 23
0.0
 33
0.0
 16
1.0
 26
0.0
 36
0.0
 17
0.0
 27
1.0
 37
0.0
 76
     0
330
23
  0
LAYOUT
  5
22
102
{ACAD_REACTORS
330
1A
102
}
330
1A
100
AcDbPlotSettings
  1

  2
none_device
  4
Letter_(8.50_x_11.00_Inches)
  6

 40
6.35
 41
6.35
 42
6.35000508
 43
6.35000508
 44
215.9
 45
279.4
 46
0.0
 47
0.0
 48
0.0
 49
0.0
140
0.0
141
0.0
142
1.0
143
1.0
 70
  1712
 72
     0
 73
     0
 74
     0
  7

 75
     0
 76
     0
 77
     2
 78
   300
147
1.0
148
0.0
149
0.0
100
AcDbLayout
  1
Model
 70
     1
 71
     0
 10
0.0
 20
0.0
 11
12.0
 21
9.0
 12
0.0
 22
0.0
 32
0.0
 14
1.000000000000000E+20
 24
1.000000000000000E+20
 34
1.000000000000000E+20
 15
-1.000000000000000E+20
 25
-1.000000000000000E+20
 35
-1.000000000000000E+20
146
0.0
 13
0.0
 23
0.0
 33
0.0
 16
1.0
 26
0.0
 36
0.0
 17
0.0
 27
1.0
 37
0.0
 76
     0
330
1F
331
29
  0
MATERIAL
  5
45
102
{ACAD_REACTORS
330
43
102
}
330
43
100
AcDbMaterial
  1
ByBlock
 72
     1
 94
      127
  0
MATERIAL
  5
44
102
{ACAD_REACTORS
330
43
102
}
330
43
100
AcDbMaterial
  1
ByLayer
 72
     1
 94
      127
  0
MATERIAL
  5
46
102
{ACAD_REACTORS
330
43
102
}
330
43
100
AcDbMaterial
  1
Global
 72
     1
 94
      127
  0
MLEADERSTYLE
  5
6C
102
{ACAD_REACTORS
330
6B
102
}
330
6B
100
AcDbMLeaderStyle
179
     2
170
     2
171
     1
172
     0
 90
        2
 40
0.0
 41
0.0
173
     1
 91
-1056964608
340
14
 92
       -2
290
     1
 42
0.09
291
     1
 43
0.36
  3
Standard
341
0
 44
0.18
300

342
11
174
     1
178
     6
175
     1
176
     0
 93
-1056964608
 45
0.18
292
     0
297
     0
 46
0.18
343
0
 94
-1056964608
 47
1.0
 49
1.0
140
1.0
293
     1
141
0.0
294
     1
177
     0
142
1.0
295
     0
296
     0
143
0.125
271
     0
272
     9
273
     9
298
     0
  0
MLINESTYLE
  5
18
102
{ACAD_REACTORS
330
17
102
}
330
17
100
AcDbMlineStyle
  2
Standard
 70
     0
  3

 62
   256
 51
90.0
 52
90.0
 71
     2
 49
0.5
 62
   256
  6
BYLAYER
 49
-0.5
 62
   256
  6
BYLAYER
  0
ACDBPLACEHOLDER
  5
F
102
{ACAD_REACTORS
330
E
102
}
330
E
  0
SCALE
  5
48
102
{ACAD_REACTORS
330
47
102
}
330
47
100
AcDbScale
 70
     0
300
1:1
140
1.0
141
1.0
290
     1
  0
SCALE
  5
49
102
{ACAD_REACTORS
330
47
102
}
330
47
100
AcDbScale
 70
     0
300
1:2
140
1.0
141
2.0
290
     0
  0
SCALE
  5
4A
102
{ACAD_REACTORS
330
47
102
}
330
47
100
AcDbScale
 70
     0
300
1:4
140
1.0
141
4.0
290
     0
  0
SCALE
  5
4B
102
{ACAD_REACTORS
330
47
102
}
330
47
100
AcDbScale
 70
     0
300
1:5
140
1.0
141
5.0
290
     0
  0
SCALE
  5
4C
102
{ACAD_REACTORS
330
47
102
}
330
47
100
AcDbScale
 70
     0
300
1:8
140
1.0
141
8.0
290
     0
  0
SCALE
  5
4D
102
{ACAD_REACTORS
330
47
102
}
330
47
100
AcDbScale
 70
     0
300
1:10
140
1.0
141
10.0
290
     0
  0
SCALE
  5
4E
102
{ACAD_REACTORS
330
47
102
}
330
47
100
AcDbScale
 70
     0
300
1:16
140
1.0
141
16.0
290
     0
  0
SCALE
  5
4F
102
{ACAD_REACTORS
330
47
102
}
330
47
100
AcDbScale
 70
     0
300
1:20
140
1.0
141
20.0
290
     0
  0
SCALE
  5
50
102
{ACAD_REACTORS
330
47
102
}
330
47
100
AcDbScale
 70
     0
300
1:30
140
1.0
141
30.0
290
     0
  0
SCALE
  5
51
102
{ACAD_REACTORS
330
47
102
}
330
47
100
AcDbScale
 70
     0
300
1:40
140
1.0
141
40.0
290
     0
  0
SCALE
  5
52
102
{ACAD_REACTORS
330
47
102
}
330
47
100
AcDbScale
 70
     0
300
1:50
140
1.0
141
50.0
290
     0
  0
SCALE
  5
53
102
{ACAD_REACTORS
330
47
102
}
330
47
100
AcDbScale
 70
     0
300
1:100
140
1.0
141
100.0
290
     0
  0
SCALE
  5
54
102
{ACAD_REACTORS
330
47
102
}
330
47
100
AcDbScale
 70
     0
300
2:1
140
2.0
141
1.0
290
     0
  0
SCALE
  5
55
102
{ACAD_REACTORS
330
47
102
}
330
47
100
AcDbScale
 70
     0
300
4:1
140
4.0
141
1.0
290
     0
  0
SCALE
  5
56
102
{ACAD_REACTORS
330
47
102
}
330
47
100
AcDbScale
 70
     0
300
8:1
140
8.0
141
1.0
290
     0
  0
SCALE
  5
57
102
{ACAD_REACTORS
330
47
102
}
330
47
100
AcDbScale
 70
     0
300
10:1
140
10.0
141
1.0
290
     0
  0
SCALE
  5
58
102
{ACAD_REACTORS
330
47
102
}
330
47
100
AcDbScale
 70
     0
300
100:1
140
100.0
141
1.0
290
     0
  0
SCALE
  5
59
102
{ACAD_REACTORS
330
47
102
}
330
47
100
AcDbScale
 70
     0
300
1/128" = 1'-0"
140
0.0078125
141
12.0
290
     0
  0
SCALE
  5
5A
102
{ACAD_REACTORS
330
47
102
}
330
47
100
AcDbScale
 70
     0
300
1/64" = 1'-0"
140
0.015625
141
12.0
290
     0
  0
SCALE
  5
5B
102
{ACAD_REACTORS
330
47
102
}
330
47
100
AcDbScale
 70
     0
300
1/32" = 1'-0"
140
0.03125
141
12.0
290
     0
  0
SCALE
  5
5C
102
{ACAD_REACTORS
330
47
102
}
330
47
100
AcDbScale
 70
     0
300
1/16" = 1'-0"
140
0.0625
141
12.0
290
     0
  0
SCALE
  5
5D
102
{ACAD_REACTORS
330
47
102
}
330
47
100
AcDbScale
 70
     0
300
3/32" = 1'-0"
140
0.09375
141
12.0
290
     0
  0
SCALE
  5
5E
102
{ACAD_REACTORS
330
47
102
}
330
47
100
AcDbScale
 70
     0
300
1/8" = 1'-0"
140
0.125
141
12.0
290
     0
  0
SCALE
  5
5F
102
{ACAD_REACTORS
330
47
102
}
330
47
100
AcDbScale
 70
     0
300
3/16" = 1'-0"
140
0.1875
141
12.0
290
     0
  0
SCALE
  5
60
102
{ACAD_REACTORS
330
47
102
}
330
47
100
AcDbScale
 70
     0
300
1/4" = 1'-0"
140
0.25
141
12.0
290
     0
  0
SCALE
  5
61
102
{ACAD_REACTORS
330
47
102
}
330
47
100
AcDbScale
 70
     0
300
3/8" = 1'-0"
140
0.375
141
12.0
290
     0
  0
SCALE
  5
62
102
{ACAD_REACTORS
330
47
102
}
330
47
100
AcDbScale
 70
     0
300
1/2" = 1'-0"
140
0.5
141
12.0
290
     0
  0
SCALE
  5
63
102
{ACAD_REACTORS
330
47
102
}
330
47
100
AcDbScale
 70
     0
300
3/4" = 1'-0"
140
0.75
141
12.0
290
     0
  0
SCALE
  5
64
102
{ACAD_REACTORS
330
47
102
}
330
47
100
AcDbScale
 70
     0
300
1" = 1'-0"
140
1.0
141
12.0
290
     0
  0
SCALE
  5
65
102
{ACAD_REACTORS
330
47
102
}
330
47
100
AcDbScale
 70
     0
300
1-1/2" = 1'-0"
140
1.5
141
12.0
290
     0
  0
SCALE
  5
66
102
{ACAD_REACTORS
330
47
102
}
330
47
100
AcDbScale
 70
     0
300
3" = 1'-0"
140
3.0
141
12.0
290
     0
  0
SCALE
  5
67
102
{ACAD_REACTORS
330
47
102
}
330
47
100
AcDbScale
 70
     0
300
6" = 1'-0"
140
6.0
141
12.0
290
     0
  0
SCALE
  5
68
102
{ACAD_REACTORS
330
47
102
}
330
47
100
AcDbScale
 70
     0
300
1'-0" = 1'-0"
140
12.0
141
12.0
290
     0
  0
TABLESTYLE
  5
6A
102
{ACAD_REACTORS
330
69
102
}
102
{ACAD_XDICTIONARY
360
292
102
}
330
69
100
AcDbTableStyle
  3
Standard
 70
     0
 71
     0
 40
0.06
 41
0.06
280
     0
281
     0
  7
Standard
140
0.18
170
     2
 62
     0
 63
   257
283
     0
 90
        4
 91
        0
  1

274
    -2
284
     1
 64
     0
275
    -2
285
     1
 65
     0
276
    -2
286
     1
 66
     0
277
    -2
287
     1
 67
     0
278
    -2
288
     1
 68
     0
279
    -2
289
     1
 69
     0
  7
Standard
140
0.25
170
     5
 62
     0
 63
   257
283
     0
 90
        4
 91
        0
  1

274
    -2
284
     1
 64
     0
275
    -2
285
     1
 65
     0
276
    -2
286
     1
 66
     0
277
    -2
287
     1
 67
     0
278
    -2
288
     1
 68
     0
279
    -2
289
     1
 69
     0
  7
Standard
140
0.18
170
     5
 62
     0
 63
   257
283
     0
 90
        4
 91
        0
  1

274
    -2
284
     1
 64
     0
275
    -2
285
     1
 65
     0
276
    -2
286
     1
 66
     0
277
    -2
287
     1
 67
     0
278
    -2
288
     1
 68
     0
279
    -2
289
     1
 69
     0
  0
VISUALSTYLE
  5
2F
102
{ACAD_REACTORS
330
2A
102
}
330
2A
100
AcDbVisualStyle
  2
2dWireframe
 70
     4
177
     3
291
     0
 70
    58
 90
        0
176
     1
 90
        2
176
     1
 90
        0
176
     1
 90
        0
176
     1
 40
0.6
176
     1
 40
30.0
176
     1
 62
     7
420
 16777215
176
     1
 90
        1
176
     1
 90
        4
176
     1
 62
     7
176
     1
 62
   257
176
     1
 90
        1
176
     1
 90
        1
176
     1
 40
1.0
176
     1
 90
        0
176
     1
 62
   257
176
     1
 40
1.0
176
     1
 90
        1
176
     1
 90
        6
176
     1
 90
        2
176
     1
 62
     7
176
     1
 90
        5
176
     1
 90
        0
176
     1
 90
        0
176
     1
290
     0
176
     1
 90
        1
176
     1
 40
0.0
176
     1
 90
        0
176
     1
290
     1
176
     1
290
     1
176
     1
290
     0
176
     1
290
     0
176
     1
290
     0
176
     1
290
     0
176
     1
290
     0
176
     1
290
     0
176
     1
290
     0
176
     1
 90
       50
176
     1
 40
0.0
176
     1
 40
1.0
176
     1
 90
        0
176
     1
 62
    18
420
        0
176
     1
 90
       50
176
     1
 90
        3
176
     1
 62
     5
420
      255
176
     1
290
     0
176
     1
 90
       50
176
     1
 90
       50
176
     1
 90
       50
176
     1
290
     0
176
     1
 90
       50
176
     1
 62
   256
176
     0
 40
1.0
176
     0
 90
        2
176
     1
  1
strokes_ogs.tif
176
     1
290
     0
176
     1
 40
1.0
176
     1
 40
1.0
176
     1
  0
VISUALSTYLE
  5
32
102
{ACAD_REACTORS
330
2A
102
}
330
2A
100
AcDbVisualStyle
  2
Basic
 70
     7
177
     3
291
     1
 70
    58
 90
        1
176
     1
 90
        0
176
     1
 90
        1
176
     1
 90
        0
176
     1
 40
0.6
176
     1
 40
30.0
176
     1
 62
     7
420
 16777215
176
     1
 90
        0
176
     1
 90
        4
176
     1
 62
     7
176
     1
 62
   257
176
     1
 90
        1
176
     1
 90
        1
176
     1
 40
1.0
176
     1
 90
        8
176
     1
 62
     7
176
     1
 40
1.0
176
     1
 90
        1
176
     1
 90
        6
176
     1
 90
        2
176
     1
 62
     7
176
     1
 90
        5
176
     1
 90
        0
176
     1
 90
        0
176
     1
290
     0
176
     1
 90
        1
176
     1
 40
0.0
176
     1
 90
        0
176
     1
290
     0
176
     1
290
     1
176
     1
290
     1
176
     1
290
     0
176
     1
290
     0
176
     1
290
     0
176
     1
290
     0
176
     1
290
     0
176
     1
290
     0
176
     1
 90
       50
176
     1
 40
0.0
176
     1
 40
1.0
176
     1
 90
        0
176
     1
 62
    18
420
        0
176
     1
 90
       50
176
     1
 90
        3
176
     1
 62
     5
420
      255
176
     1
290
     0
176
     1
 90
       50
176
     1
 90
       50
176
     1
 90
       50
176
     1
290
     0
176
     1
 90
       50
176
     1
 62
   256
176
     0
 40
1.0
176
     0
 90
        2
176
     1
  1
strokes_ogs.tif
176
     1
290
     0
176
     1
 40
1.0
176
     1
 40
1.0
176
     1
  0
VISUALSTYLE
  5
36
102
{ACAD_REACTORS
330
2A
102
}
330
2A
100
AcDbVisualStyle
  2
Brighten
 70
    12
177
     3
291
     1
 70
    58
 90
        2
176
     1
 90
        2
176
     1
 90
        0
176
     1
 90
        0
176
     1
 40
0.6
176
     1
 40
30.0
176
     1
 62
     7
420
 16777215
176
     1
 90
        1
176
     1
 90
        4
176
     1
 62
     7
176
     1
 62
   257
176
     1
 90
        1
176
     1
 90
        1
176
     1
 40
1.0
176
     1
 90
        8
176
     1
 62
     7
176
     1
 40
1.0
176
     1
 90
        1
176
     1
 90
        6
176
     1
 90
        2
176
     1
 62
     7
176
     1
 90
        5
176
     1
 90
        0
176
     1
 90
        0
176
     1
290
     0
176
     1
 90
        1
176
     1
 40
50.0
176
     1
 90
        0
176
     1
290
     0
176
     1
290
     1
176
     1
290
     1
176
     1
290
     0
176
     1
290
     0
176
     1
290
     0
176
     1
290
     0
176
     1
290
     0
176
     1
290
     0
176
     1
 90
       50
176
     1
 40
0.0
176
     1
 40
1.0
176
     1
 90
        0
176
     1
 62
    18
420
        0
176
     1
 90
       50
176
     1
 90
        3
176
     1
 62
     5
420
      255
176
     1
290
     0
176
     1
 90
       50
176
     1
 90
       50
176
     1
 90
       50
176
     1
290
     0
176
     1
 90
       50
176
     1
 62
   256
176
     0
 40
1.0
176
     0
 90
        2
176
     1
  1
strokes_ogs.tif
176
     1
290
     0
176
     1
 40
1.0
176
     1
 40
1.0
176
     1
  0
VISUALSTYLE
  5
3A
102
{ACAD_REACTORS
330
2A
102
}
330
2A
100
AcDbVisualStyle
  2
ColorChange
 70
    16
177
     3
291
     1
 70
    58
 90
        2
176
     1
 90
        2
176
     1
 90
        3
176
     1
 90
        0
176
     1
 40
0.6
176
     1
 40
30.0
176
     1
 62
     8
420
  8421504
176
     1
 90
        1
176
     1
 90
        4
176
     1
 62
     7
176
     1
 62
   257
176
     1
 90
        1
176
     1
 90
        1
176
     1
 40
1.0
176
     1
 90
        8
176
     1
 62
     8
420
  8421504
176
     1
 40
1.0
176
     1
 90
        1
176
     1
 90
        6
176
     1
 90
        2
176
     1
 62
     7
176
     1
 90
        5
176
     1
 90
        0
176
     1
 90
        0
176
     1
290
     0
176
     1
 90
        1
176
     1
 40
0.0
176
     1
 90
        0
176
     1
290
     0
176
     1
290
     1
176
     1
290
     1
176
     1
290
     0
176
     1
290
     0
176
     1
290
     0
176
     1
290
     0
176
     1
290
     0
176
     1
290
     0
176
     1
 90
       50
176
     1
 40
0.0
176
     1
 40
1.0
176
     1
 90
        0
176
     1
 62
    18
420
        0
176
     1
 90
       50
176
     1
 90
        3
176
     1
 62
     5
420
      255
176
     1
290
     0
176
     1
 90
       50
176
     1
 90
       50
176
     1
 90
       50
176
     1
290
     0
176
     1
 90
       50
176
     1
 62
   256
176
     0
 40
1.0
176
     0
 90
        2
176
     1
  1
strokes_ogs.tif
176
     1
290
     0
176
     1
 40
1.0
176
     1
 40
1.0
176
     1
  0
VISUALSTYLE
  5
34
102
{ACAD_REACTORS
330
2A
102
}
330
2A
100
AcDbVisualStyle
  2
Conceptual
 70
     9
177
     3
291
     0
 70
    58
 90
        3
176
     1
 90
        2
176
     1
 90
        0
176
     1
 90
        0
176
     1
 40
0.6
176
     1
 40
30.0
176
     1
 62
     7
420
 16777215
176
     1
 90
        2
176
     1
 90
        2
176
     1
 62
     7
176
     1
 62
   257
176
     1
 90
        1
176
     1
 90
        1
176
     1
 40
179.0
176
     1
 90
        8
176
     1
 62
     7
176
     1
 40
1.0
176
     1
 90
        1
176
     1
 90
        6
176
     1
 90
        2
176
     1
 62
     7
176
     1
 90
        3
176
     1
 90
        0
176
     1
 90
        0
176
     1
290
     0
176
     1
 90
        1
176
     1
 40
0.0
176
     1
 90
        0
176
     1
290
     0
176
     1
290
     1
176
     1
290
     1
176
     1
290
     0
176
     1
290
     0
176
     1
290
     0
176
     1
290
     0
176
     1
290
     0
176
     1
290
     0
176
     1
 90
       50
176
     1
 40
0.0
176
     1
 40
1.0
176
     1
 90
        0
176
     1
 62
    18
420
        0
176
     1
 90
       50
176
     1
 90
        3
176
     1
 62
     5
420
      255
176
     1
290
     0
176
     1
 90
       50
176
     1
 90
       50
176
     1
 90
       50
176
     1
290
     0
176
     1
 90
       50
176
     1
 62
   256
176
     0
 40
1.0
176
     0
 90
        2
176
     1
  1
strokes_ogs.tif
176
     1
290
     0
176
     1
 40
1.0
176
     1
 40
1.0
176
     1
  0
VISUALSTYLE
  5
35
102
{ACAD_REACTORS
330
2A
102
}
330
2A
100
AcDbVisualStyle
  2
Dim
 70
    11
177
     3
291
     1
 70
    58
 90
        2
176
     1
 90
        2
176
     1
 90
        0
176
     1
 90
        0
176
     1
 40
0.6
176
     1
 40
30.0
176
     1
 62
     7
420
 16777215
176
     1
 90
        1
176
     1
 90
        4
176
     1
 62
     7
176
     1
 62
   257
176
     1
 90
        1
176
     1
 90
        1
176
     1
 40
1.0
176
     1
 90
        8
176
     1
 62
     7
176
     1
 40
1.0
176
     1
 90
        1
176
     1
 90
        6
176
     1
 90
        2
176
     1
 62
     7
176
     1
 90
        5
176
     1
 90
        0
176
     1
 90
        0
176
     1
290
     0
176
     1
 90
        1
176
     1
 40
-50.0
176
     1
 90
        0
176
     1
290
     0
176
     1
290
     1
176
     1
290
     1
176
     1
290
     0
176
     1
290
     0
176
     1
290
     0
176
     1
290
     0
176
     1
290
     0
176
     1
290
     0
176
     1
 90
       50
176
     1
 40
0.0
176
     1
 40
1.0
176
     1
 90
        0
176
     1
 62
    18
420
        0
176
     1
 90
       50
176
     1
 90
        3
176
     1
 62
     5
420
      255
176
     1
290
     0
176
     1
 90
       50
176
     1
 90
       50
176
     1
 90
       50
176
     1
290
     0
176
     1
 90
       50
176
     1
 62
   256
176
     0
 40
1.0
176
     0
 90
        2
176
     1
  1
strokes_ogs.tif
176
     1
290
     0
176
     1
 40
1.0
176
     1
 40
1.0
176
     1
  0
VISUALSTYLE
  5
3D
102
{ACAD_REACTORS
330
2A
102
}
330
2A
100
AcDbVisualStyle
  2
EdgeColorOff
 70
    22
177
     3
291
     1
 70
    58
 90
        2
176
     0
 90
        2
176
     0
 90
        0
176
     0
 90
        0
176
     0
 40
0.6
176
     0
 40
30.0
176
     0
 62
     7
420
 16777215
176
     0
 90
        1
176
     0
 90
        4
176
     0
 62
     7
176
     0
 62
   257
176
     0
 90
        1
176
     0
 90
        1
176
     0
 40
1.0
176
     0
 90
        8
176
     2
 62
     7
176
     0
 40
1.0
176
     0
 90
        1
176
     0
 90
        6
176
     0
 90
        2
176
     0
 62
     7
176
     0
 90
        5
176
     0
 90
        0
176
     0
 90
        0
176
     0
290
     0
176
     0
 90
        1
176
     0
 40
0.0
176
     0
 90
        0
176
     0
290
     0
176
     0
290
     1
176
     0
290
     1
176
     0
290
     0
176
     0
290
     0
176
     0
290
     0
176
     0
290
     0
176
     0
290
     0
176
     0
290
     0
176
     0
 90
       50
176
     0
 40
0.0
176
     0
 40
1.0
176
     0
 90
        0
176
     0
 62
    18
420
        0
176
     0
 90
       50
176
     0
 90
        3
176
     0
 62
     5
420
      255
176
     0
290
     0
176
     0
 90
       50
176
     0
 90
       50
176
     0
 90
       50
176
     0
290
     0
176
     0
 90
       50
176
     0
 62
   256
176
     0
 40
1.0
176
     0
 90
        2
176
     0
  1
strokes_ogs.tif
176
     0
290
     0
176
     0
 40
1.0
176
     0
 40
1.0
176
     0
  0
VISUALSTYLE
  5
39
102
{ACAD_REACTORS
330
2A
102
}
330
2A
100
AcDbVisualStyle
  2
Facepattern
 70
    15
177
     3
291
     1
 70
    58
 90
        2
176
     1
 90
        2
176
     1
 90
        0
176
     1
 90
        0
176
     1
 40
0.6
176
     1
 40
30.0
176
     1
 62
     7
420
 16777215
176
     1
 90
        1
176
     1
 90
        4
176
     1
 62
     7
176
     1
 62
   257
176
     1
 90
        1
176
     1
 90
        1
176
     1
 40
1.0
176
     1
 90
        8
176
     1
 62
     7
176
     1
 40
1.0
176
     1
 90
        1
176
     1
 90
        6
176
     1
 90
        2
176
     1
 62
     7
176
     1
 90
        5
176
     1
 90
        0
176
     1
 90
        0
176
     1
290
     0
176
     1
 90
        1
176
     1
 40
0.0
176
     1
 90
        0
176
     1
290
     0
176
     1
290
     1
176
     1
290
     1
176
     1
290
     0
176
     1
290
     0
176
     1
290
     0
176
     1
290
     0
176
     1
290
     0
176
     1
290
     0
176
     1
 90
       50
176
     1
 40
0.0
176
     1
 40
1.0
176
     1
 90
        0
176
     1
 62
    18
420
        0
176
     1
 90
       50
176
     1
 90
        3
176
     1
 62
     5
420
      255
176
     1
290
     0
176
     1
 90
       50
176
     1
 90
       50
176
     1
 90
       50
176
     1
290
     0
176
     1
 90
       50
176
     1
 62
   256
176
     0
 40
1.0
176
     0
 90
        2
176
     1
  1
strokes_ogs.tif
176
     1
290
     0
176
     1
 40
1.0
176
     1
 40
1.0
176
     1
  0
VISUALSTYLE
  5
2B
102
{ACAD_REACTORS
330
2A
102
}
330
2A
100
AcDbVisualStyle
  2
Flat
 70
     0
177
     3
291
     1
 70
    58
 90
        2
176
     1
 90
        1
176
     1
 90
        1
176
     1
 90
        2
176
     1
 40
0.6
176
     1
 40
30.0
176
     1
 62
     7
420
 16777215
176
     1
 90
        0
176
     1
 90
        0
176
     1
 62
     7
176
     1
 62
   257
176
     1
 90
        1
176
     1
 90
        1
176
     1
 40
1.0
176
     1
 90
        8
176
     1
 62
     7
176
     1
 40
1.0
176
     1
 90
        1
176
     1
 90
        6
176
     1
 90
        2
176
     1
 62
     7
176
     1
 90
        5
176
     1
 90
        0
176
     1
 90
        0
176
     1
290
     0
176
     1
 90
       13
176
     1
 40
0.0
176
     1
 90
        0
176
     1
290
     0
176
     1
290
     1
176
     1
290
     1
176
     1
290
     0
176
     1
290
     0
176
     1
290
     0
176
     1
290
     0
176
     1
290
     0
176
     1
290
     0
176
     1
 90
       50
176
     1
 40
0.0
176
     1
 40
1.0
176
     1
 90
        0
176
     1
 62
    18
420
        0
176
     1
 90
       50
176
     1
 90
        3
176
     1
 62
     5
420
      255
176
     1
290
     0
176
     1
 90
       50
176
     1
 90
       50
176
     1
 90
       50
176
     1
290
     0
176
     1
 90
       50
176
     1
 62
   256
176
     0
 40
1.0
176
     0
 90
        2
176
     1
  1
strokes_ogs.tif
176
     1
290
     0
176
     1
 40
1.0
176
     1
 40
1.0
176
     1
  0
VISUALSTYLE
  5
2C
102
{ACAD_REACTORS
330
2A
102
}
330
2A
100
AcDbVisualStyle
  2
FlatWithEdges
 70
     1
177
     3
291
     1
 70
    58
 90
        2
176
     1
 90
        1
176
     1
 90
        1
176
     1
 90
        2
176
     1
 40
0.6
176
     1
 40
30.0
176
     1
 62
     7
420
 16777215
176
     1
 90
        1
176
     1
 90
        0
176
     1
 62
     7
176
     1
 62
   257
176
     1
 90
        1
176
     1
 90
        1
176
     1
 40
1.0
176
     1
 90
        0
176
     1
 62
   257
176
     1
 40
1.0
176
     1
 90
        1
176
     1
 90
        6
176
     1
 90
        2
176
     1
 62
     7
176
     1
 90
        5
176
     1
 90
        0
176
     1
 90
        0
176
     1
290
     0
176
     1
 90
       13
176
     1
 40
0.0
176
     1
 90
        0
176
     1
290
     0
176
     1
290
     1
176
     1
290
     1
176
     1
290
     0
176
     1
290
     0
176
     1
290
     0
176
     1
290
     0
176
     1
290
     0
176
     1
290
     0
176
     1
 90
       50
176
     1
 40
0.0
176
     1
 40
1.0
176
     1
 90
        0
176
     1
 62
    18
420
        0
176
     1
 90
       50
176
     1
 90
        3
176
     1
 62
     5
420
      255
176
     1
290
     0
176
     1
 90
       50
176
     1
 90
       50
176
     1
 90
       50
176
     1
290
     0
176
     1
 90
       50
176
     1
 62
   256
176
     0
 40
1.0
176
     0
 90
        2
176
     1
  1
strokes_ogs.tif
176
     1
290
     0
176
     1
 40
1.0
176
     1
 40
1.0
176
     1
  0
VISUALSTYLE
  5
2D
102
{ACAD_REACTORS
330
2A
102
}
330
2A
100
AcDbVisualStyle
  2
Gouraud
 70
     2
177
     3
291
     1
 70
    58
 90
        2
176
     1
 90
        2
176
     1
 90
        1
176
     1
 90
        2
176
     1
 40
0.6
176
     1
 40
30.0
176
     1
 62
     7
420
 16777215
176
     1
 90
        0
176
     1
 90
        0
176
     1
 62
     7
176
     1
 62
   257
176
     1
 90
        1
176
     1
 90
        1
176
     1
 40
1.0
176
     1
 90
        0
176
     1
 62
     7
176
     1
 40
1.0
176
     1
 90
        1
176
     1
 90
        6
176
     1
 90
        2
176
     1
 62
     7
176
     1
 90
        5
176
     1
 90
        0
176
     1
 90
        0
176
     1
290
     0
176
     1
 90
       13
176
     1
 40
0.0
176
     1
 90
        0
176
     1
290
     0
176
     1
290
     1
176
     1
290
     1
176
     1
290
     0
176
     1
290
     0
176
     1
290
     0
176
     1
290
     0
176
     1
290
     0
176
     1
290
     0
176
     1
 90
       50
176
     1
 40
0.0
176
     1
 40
1.0
176
     1
 90
        0
176
     1
 62
    18
420
        0
176
     1
 90
       50
176
     1
 90
        3
176
     1
 62
     5
420
      255
176
     1
290
     0
176
     1
 90
       50
176
     1
 90
       50
176
     1
 90
       50
176
     1
290
     0
176
     1
 90
       50
176
     1
 62
   256
176
     0
 40
1.0
176
     0
 90
        2
176
     1
  1
strokes_ogs.tif
176
     1
290
     0
176
     1
 40
1.0
176
     1
 40
1.0
176
     1
  0
VISUALSTYLE
  5
2E
102
{ACAD_REACTORS
330
2A
102
}
330
2A
100
AcDbVisualStyle
  2
GouraudWithEdges
 70
     3
177
     3
291
     1
 70
    58
 90
        2
176
     1
 90
        2
176
     1
 90
        1
176
     1
 90
        2
176
     1
 40
0.6
176
     1
 40
30.0
176
     1
 62
     7
420
 16777215
176
     1
 90
        1
176
     1
 90
        0
176
     1
 62
     7
176
     1
 62
   257
176
     1
 90
        1
176
     1
 90
        1
176
     1
 40
1.0
176
     1
 90
        0
176
     1
 62
   257
176
     1
 40
1.0
176
     1
 90
        1
176
     1
 90
        6
176
     1
 90
        2
176
     1
 62
     7
176
     1
 90
        5
176
     1
 90
        0
176
     1
 90
        0
176
     1
290
     0
176
     1
 90
       13
176
     1
 40
0.0
176
     1
 90
        0
176
     1
290
     0
176
     1
290
     1
176
     1
290
     1
176
     1
290
     0
176
     1
290
     0
176
     1
290
     0
176
     1
290
     0
176
     1
290
     0
176
     1
290
     0
176
     1
 90
       50
176
     1
 40
0.0
176
     1
 40
1.0
176
     1
 90
        0
176
     1
 62
    18
420
        0
176
     1
 90
       50
176
     1
 90
        3
176
     1
 62
     5
420
      255
176
     1
290
     0
176
     1
 90
       50
176
     1
 90
       50
176
     1
 90
       50
176
     1
290
     0
176
     1
 90
       50
176
     1
 62
   256
176
     0
 40
1.0
176
     0
 90
        2
176
     1
  1
strokes_ogs.tif
176
     1
290
     0
176
     1
 40
1.0
176
     1
 40
1.0
176
     1
  0
VISUALSTYLE
  5
31
102
{ACAD_REACTORS
330
2A
102
}
330
2A
100
AcDbVisualStyle
  2
Hidden
 70
     6
177
     3
291
     0
 70
    58
 90
        1
176
     1
 90
        2
176
     1
 90
        2
176
     1
 90
        0
176
     1
 40
0.6
176
     1
 40
30.0
176
     1
 62
     7
420
 16777215
176
     1
 90
        2
176
     1
 90
        2
176
     1
 62
     7
176
     1
 62
   257
176
     1
 90
        2
176
     1
 90
        1
176
     1
 40
40.0
176
     1
 90
        0
176
     1
 62
   257
176
     1
 40
1.0
176
     1
 90
        1
176
     1
 90
        6
176
     1
 90
        2
176
     1
 62
     7
176
     1
 90
        3
176
     1
 90
        0
176
     1
 90
        0
176
     1
290
     0
176
     1
 90
        1
176
     1
 40
0.0
176
     1
 90
        0
176
     1
290
     0
176
     1
290
     1
176
     1
290
     1
176
     1
290
     0
176
     1
290
     0
176
     1
290
     0
176
     1
290
     0
176
     1
290
     0
176
     1
290
     0
176
     1
 90
       50
176
     1
 40
0.0
176
     1
 40
1.0
176
     1
 90
        0
176
     1
 62
    18
420
        0
176
     1
 90
       50
176
     1
 90
        3
176
     1
 62
     5
420
      255
176
     1
290
     0
176
     1
 90
       50
176
     1
 90
       50
176
     1
 90
       50
176
     1
290
     0
176
     1
 90
       50
176
     1
 62
   256
176
     0
 40
1.0
176
     0
 90
        2
176
     1
  1
strokes_ogs.tif
176
     1
290
     0
176
     1
 40
1.0
176
     1
 40
1.0
176
     1
  0
VISUALSTYLE
  5
3B
102
{ACAD_REACTORS
330
2A
102
}
330
2A
100
AcDbVisualStyle
  2
JitterOff
 70
    20
177
     3
291
     1
 70
    58
 90
        2
176
     0
 90
        2
176
     0
 90
        0
176
     0
 90
        0
176
     0
 40
0.6
176
     0
 40
30.0
176
     0
 62
     7
420
 16777215
176
     0
 90
        1
176
     0
 90
        4
176
     0
 62
     7
176
     0
 62
   257
176
     0
 90
        1
176
     0
 90
        1
176
     0
 40
1.0
176
     0
 90
       10
176
     2
 62
     7
176
     0
 40
1.0
176
     0
 90
        1
176
     0
 90
        6
176
     0
 90
        2
176
     0
 62
     7
176
     0
 90
        5
176
     0
 90
        0
176
     0
 90
        0
176
     0
290
     0
176
     0
 90
        1
176
     0
 40
0.0
176
     0
 90
        0
176
     0
290
     0
176
     0
290
     1
176
     0
290
     1
176
     0
290
     0
176
     0
290
     0
176
     0
290
     0
176
     0
290
     0
176
     0
290
     0
176
     0
290
     0
176
     0
 90
       50
176
     0
 40
0.0
176
     0
 40
1.0
176
     0
 90
        0
176
     0
 62
    18
420
        0
176
     0
 90
       50
176
     0
 90
        3
176
     0
 62
     5
420
      255
176
     0
290
     0
176
     0
 90
       50
176
     0
 90
       50
176
     0
 90
       50
176
     0
290
     0
176
     0
 90
       50
176
     0
 62
   256
176
     0
 40
1.0
176
     0
 90
        2
176
     0
  1
strokes_ogs.tif
176
     0
290
     0
176
     0
 40
1.0
176
     0
 40
1.0
176
     0
  0
VISUALSTYLE
  5
38
102
{ACAD_REACTORS
330
2A
102
}
330
2A
100
AcDbVisualStyle
  2
Linepattern
 70
    14
177
     3
291
     1
 70
    58
 90
        2
176
     1
 90
        2
176
     1
 90
        0
176
     1
 90
        0
176
     1
 40
0.6
176
     1
 40
30.0
176
     1
 62
     7
420
 16777215
176
     1
 90
        1
176
     1
 90
        4
176
     1
 62
     7
176
     1
 62
   257
176
     1
 90
        7
176
     1
 90
        7
176
     1
 40
1.0
176
     1
 90
        8
176
     1
 62
     7
176
     1
 40
1.0
176
     1
 90
        1
176
     1
 90
        6
176
     1
 90
        2
176
     1
 62
     7
176
     1
 90
        5
176
     1
 90
        0
176
     1
 90
        0
176
     1
290
     0
176
     1
 90
        1
176
     1
 40
0.0
176
     1
 90
        0
176
     1
290
     0
176
     1
290
     1
176
     1
290
     1
176
     1
290
     0
176
     1
290
     0
176
     1
290
     0
176
     1
290
     0
176
     1
290
     0
176
     1
290
     0
176
     1
 90
       50
176
     1
 40
0.0
176
     1
 40
1.0
176
     1
 90
        0
176
     1
 62
    18
420
        0
176
     1
 90
       50
176
     1
 90
        3
176
     1
 62
     5
420
      255
176
     1
290
     0
176
     1
 90
       50
176
     1
 90
       50
176
     1
 90
       50
176
     1
290
     0
176
     1
 90
       50
176
     1
 62
   256
176
     0
 40
1.0
176
     0
 90
        2
176
     1
  1
strokes_ogs.tif
176
     1
290
     0
176
     1
 40
1.0
176
     1
 40
1.0
176
     1
  0
VISUALSTYLE
  5
3C
102
{ACAD_REACTORS
330
2A
102
}
330
2A
100
AcDbVisualStyle
  2
OverhangOff
 70
    21
177
     3
291
     1
 70
    58
 90
        2
176
     0
 90
        2
176
     0
 90
        0
176
     0
 90
        0
176
     0
 40
0.6
176
     0
 40
30.0
176
     0
 62
     7
420
 16777215
176
     0
 90
        1
176
     0
 90
        4
176
     0
 62
     7
176
     0
 62
   257
176
     0
 90
        1
176
     0
 90
        1
176
     0
 40
1.0
176
     0
 90
        9
176
     2
 62
     7
176
     0
 40
1.0
176
     0
 90
        1
176
     0
 90
        6
176
     0
 90
        2
176
     0
 62
     7
176
     0
 90
        5
176
     0
 90
        0
176
     0
 90
        0
176
     0
290
     0
176
     0
 90
        1
176
     0
 40
0.0
176
     0
 90
        0
176
     0
290
     0
176
     0
290
     1
176
     0
290
     1
176
     0
290
     0
176
     0
290
     0
176
     0
290
     0
176
     0
290
     0
176
     0
290
     0
176
     0
290
     0
176
     0
 90
       50
176
     0
 40
0.0
176
     0
 40
1.0
176
     0
 90
        0
176
     0
 62
    18
420
        0
176
     0
 90
       50
176
     0
 90
        3
176
     0
 62
     5
420
      255
176
     0
290
     0
176
     0
 90
       50
176
     0
 90
       50
176
     0
 90
       50
176
     0
290
     0
176
     0
 90
       50
176
     0
 62
   256
176
     0
 40
1.0
176
     0
 90
        2
176
     0
  1
strokes_ogs.tif
176
     0
290
     0
176
     0
 40
1.0
176
     0
 40
1.0
176
     0
  0
VISUALSTYLE
  5
33
102
{ACAD_REACTORS
330
2A
102
}
330
2A
100
AcDbVisualStyle
  2
Realistic
 70
     8
177
     3
291
     0
 70
    58
 90
        2
176
     1
 90
        3
176
     1
 90
        0
176
     1
 90
        2
176
     1
 40
0.6
176
     1
 40
30.0
176
     1
 62
     7
420
 16777215
176
     1
 90
        0
176
     1
 90
        0
176
     1
 62
     7
176
     1
 62
   257
176
     1
 90
        1
176
     1
 90
        1
176
     1
 40
1.0
176
     1
 90
        8
176
     1
 62
   257
176
     1
 40
1.0
176
     1
 90
        1
176
     1
 90
        6
176
     1
 90
        2
176
     1
 62
     7
176
     1
 90
        3
176
     1
 90
        0
176
     1
 90
        0
176
     1
290
     0
176
     1
 90
       13
176
     1
 40
0.0
176
     1
 90
        0
176
     1
290
     0
176
     1
290
     1
176
     1
290
     1
176
     1
290
     0
176
     1
290
     0
176
     1
290
     0
176
     1
290
     0
176
     1
290
     0
176
     1
290
     0
176
     1
 90
       50
176
     1
 40
0.0
176
     1
 40
1.0
176
     1
 90
        0
176
     1
 62
    18
420
        0
176
     1
 90
       50
176
     1
 90
        3
176
     1
 62
     5
420
      255
176
     1
290
     0
176
     1
 90
       50
176
     1
 90
       50
176
     1
 90
       50
176
     1
290
     0
176
     1
 90
       50
176
     1
 62
   256
176
     0
 40
1.0
176
     0
 90
        2
176
     1
  1
strokes_ogs.tif
176
     1
290
     0
176
     1
 40
1.0
176
     1
 40
1.0
176
     1
  0
VISUALSTYLE
  5
42
102
{ACAD_REACTORS
330
2A
102
}
330
2A
100
AcDbVisualStyle
  2
Shaded
 70
    27
177
     3
291
     0
 70
    58
 90
        2
176
     1
 90
        2
176
     1
 90
        1
176
     1
 90
        2
176
     1
 40
0.6
176
     1
 40
30.0
176
     1
 62
     7
420
 16777215
176
     1
 90
        0
176
     1
 90
        4
176
     1
 62
     7
176
     1
 62
   257
176
     1
 90
        1
176
     1
 90
        1
176
     1
 40
1.0
176
     1
 90
        8
176
     1
 62
   257
176
     1
 40
1.0
176
     1
 90
        1
176
     1
 90
        6
176
     1
 90
        2
176
     1
 62
     8
420
  7895160
176
     1
 90
        3
176
     1
 90
        0
176
     1
 90
        0
176
     1
290
     0
176
     1
 90
        5
176
     1
 40
0.0
176
     1
 90
        0
176
     1
290
     0
176
     1
290
     1
176
     1
290
     1
176
     1
290
     0
176
     1
290
     0
176
     1
290
     0
176
     1
290
     0
176
     1
290
     0
176
     1
290
     0
176
     1
 90
       50
176
     1
 40
0.0
176
     1
 40
1.0
176
     1
 90
        0
176
     1
 62
    18
420
        0
176
     1
 90
       50
176
     1
 90
        3
176
     1
 62
     5
420
      255
176
     1
290
     0
176
     1
 90
       50
176
     1
 90
       50
176
     1
 90
       50
176
     1
290
     0
176
     1
 90
       50
176
     1
 62
   256
176
     0
 40
1.0
176
     0
 90
        2
176
     1
  1
strokes_ogs.tif
176
     1
290
     0
176
     1
 40
1.0
176
     1
 40
1.0
176
     1
  0
VISUALSTYLE
  5
41
102
{ACAD_REACTORS
330
2A
102
}
330
2A
100
AcDbVisualStyle
  2
Shaded with edges
 70
    26
177
     3
291
     0
 70
    58
 90
        2
176
     1
 90
        2
176
     1
 90
        1
176
     1
 90
        2
176
     1
 40
0.6
176
     1
 40
30.0
176
     1
 62
     7
420
 16777215
176
     1
 90
        1
176
     1
 90
       10
176
     1
 62
     7
176
     1
 62
   257
176
     1
 90
        2
176
     1
 90
        1
176
     1
 40
1.0
176
     1
 90
        8
176
     1
 62
   257
176
     1
 40
1.0
176
     1
 90
        1
176
     1
 90
        6
176
     1
 90
        2
176
     1
 62
     7
176
     1
 90
        3
176
     1
 90
        0
176
     1
 90
        0
176
     1
290
     0
176
     1
 90
        5
176
     1
 40
0.0
176
     1
 90
        0
176
     1
290
     0
176
     1
290
     1
176
     1
290
     1
176
     1
290
     0
176
     1
290
     0
176
     1
290
     0
176
     1
290
     0
176
     1
290
     0
176
     1
290
     0
176
     1
 90
       50
176
     1
 40
0.0
176
     1
 40
1.0
176
     1
 90
        0
176
     1
 62
    18
420
        0
176
     1
 90
       50
176
     1
 90
        3
176
     1
 62
     5
420
      255
176
     1
290
     0
176
     1
 90
       50
176
     1
 90
       50
176
     1
 90
       50
176
     1
290
     0
176
     1
 90
       50
176
     1
 62
   256
176
     0
 40
1.0
176
     0
 90
        2
176
     1
  1
strokes_ogs.tif
176
     1
290
     0
176
     1
 40
1.0
176
     1
 40
1.0
176
     1
  0
VISUALSTYLE
  5
3E
102
{ACAD_REACTORS
330
2A
102
}
330
2A
100
AcDbVisualStyle
  2
Shades of Gray
 70
    23
177
     3
291
     0
 70
    58
 90
        2
176
     1
 90
        2
176
     1
 90
        3
176
     1
 90
        0
176
     1
 40
0.6
176
     1
 40
30.0
176
     1
 62
     7
420
 16777215
176
     1
 90
        2
176
     1
 90
        2
176
     1
 62
     7
176
     1
 62
     7
176
     1
 90
        1
176
     1
 90
        1
176
     1
 40
40.0
176
     1
 90
        8
176
     1
 62
     7
176
     1
 40
1.0
176
     1
 90
        1
176
     1
 90
        6
176
     1
 90
        2
176
     1
 62
     7
176
     1
 90
        3
176
     1
 90
        0
176
     1
 90
        0
176
     1
290
     0
176
     1
 90
        1
176
     1
 40
0.0
176
     1
 90
        0
176
     1
290
     0
176
     1
290
     1
176
     1
290
     1
176
     1
290
     0
176
     1
290
     0
176
     1
290
     0
176
     1
290
     0
176
     1
290
     0
176
     1
290
     0
176
     1
 90
       50
176
     1
 40
0.0
176
     1
 40
1.0
176
     1
 90
        0
176
     1
 62
    18
420
        0
176
     1
 90
       50
176
     1
 90
        3
176
     1
 62
     5
420
      255
176
     1
290
     0
176
     1
 90
       50
176
     1
 90
       50
176
     1
 90
       50
176
     1
290
     0
176
     1
 90
       50
176
     1
 62
   256
176
     0
 40
1.0
176
     0
 90
        2
176
     1
  1
strokes_ogs.tif
176
     1
290
     0
176
     1
 40
1.0
176
     1
 40
1.0
176
     1
  0
VISUALSTYLE
  5
3F
102
{ACAD_REACTORS
330
2A
102
}
330
2A
100
AcDbVisualStyle
  2
Sketchy
 70
    24
177
     3
291
     0
 70
    58
 90
        1
176
     1
 90
        2
176
     1
 90
        2
176
     1
 90
        0
176
     1
 40
0.6
176
     1
 40
30.0
176
     1
 62
     7
420
 16777215
176
     1
 90
        2
176
     1
 90
        2
176
     1
 62
     7
176
     1
 62
     7
176
     1
 90
        1
176
     1
 90
        1
176
     1
 40
40.0
176
     1
 90
       11
176
     1
 62
     7
176
     1
 40
1.0
176
     1
 90
        1
176
     1
 90
        6
176
     1
 90
        2
176
     1
 62
     7
176
     1
 90
        6
176
     1
 90
        0
176
     1
 90
        0
176
     1
290
     0
176
     1
 90
        1
176
     1
 40
0.0
176
     1
 90
        0
176
     1
290
     0
176
     1
290
     1
176
     1
290
     1
176
     1
290
     0
176
     1
290
     0
176
     1
290
     0
176
     1
290
     0
176
     1
290
     0
176
     1
290
     0
176
     1
 90
       50
176
     1
 40
0.0
176
     1
 40
1.0
176
     1
 90
        0
176
     1
 62
    18
420
        0
176
     1
 90
       50
176
     1
 90
        3
176
     1
 62
     5
420
      255
176
     1
290
     0
176
     1
 90
       50
176
     1
 90
       50
176
     1
 90
       50
176
     1
290
     0
176
     1
 90
       50
176
     1
 62
   256
176
     0
 40
1.0
176
     0
 90
        2
176
     1
  1
strokes_ogs.tif
176
     1
290
     0
176
     1
 40
1.0
176
     1
 40
1.0
176
     1
  0
VISUALSTYLE
  5
37
102
{ACAD_REACTORS
330
2A
102
}
330
2A
100
AcDbVisualStyle
  2
Thicken
 70
    13
177
     3
291
     1
 70
    58
 90
        2
176
     1
 90
        2
176
     1
 90
        0
176
     1
 90
        0
176
     1
 40
0.6
176
     1
 40
30.0
176
     1
 62
     7
420
 16777215
176
     1
 90
        1
176
     1
 90
        4
176
     1
 62
     7
176
     1
 62
   257
176
     1
 90
        1
176
     1
 90
        1
176
     1
 40
1.0
176
     1
 90
       12
176
     1
 62
     7
176
     1
 40
1.0
176
     1
 90
        1
176
     1
 90
        6
176
     1
 90
        2
176
     1
 62
     7
176
     1
 90
        5
176
     1
 90
        0
176
     1
 90
        0
176
     1
290
     0
176
     1
 90
        1
176
     1
 40
0.0
176
     1
 90
        0
176
     1
290
     0
176
     1
290
     1
176
     1
290
     1
176
     1
290
     0
176
     1
290
     0
176
     1
290
     0
176
     1
290
     0
176
     1
290
     0
176
     1
290
     0
176
     1
 90
       50
176
     1
 40
0.0
176
     1
 40
1.0
176
     1
 90
        0
176
     1
 62
    18
420
        0
176
     1
 90
       50
176
     1
 90
        3
176
     1
 62
     5
420
      255
176
     1
290
     0
176
     1
 90
       50
176
     1
 90
       50
176
     1
 90
       50
176
     1
290
     0
176
     1
 90
       50
176
     1
 62
   256
176
     0
 40
1.0
176
     0
 90
        2
176
     1
  1
strokes_ogs.tif
176
     1
290
     0
176
     1
 40
1.0
176
     1
 40
1.0
176
     1
  0
VISUALSTYLE
  5
30
102
{ACAD_REACTORS
330
2A
102
}
330
2A
100
AcDbVisualStyle
  2
Wireframe
 70
     5
177
     3
291
     0
 70
    58
 90
        0
176
     1
 90
        2
176
     1
 90
        0
176
     1
 90
        0
176
     1
 40
0.6
176
     1
 40
30.0
176
     1
 62
     7
420
 16777215
176
     1
 90
        1
176
     1
 90
        4
176
     1
 62
     7
176
     1
 62
   257
176
     1
 90
        1
176
     1
 90
        1
176
     1
 40
1.0
176
     1
 90
        0
176
     1
 62
   257
176
     1
 40
1.0
176
     1
 90
        1
176
     1
 90
        6
176
     1
 90
        2
176
     1
 62
     7
176
     1
 90
        3
176
     1
 90
        0
176
     1
 90
        0
176
     1
290
     0
176
     1
 90
        1
176
     1
 40
0.0
176
     1
 90
        0
176
     1
290
     0
176
     1
290
     1
176
     1
290
     1
176
     1
290
     0
176
     1
290
     0
176
     1
290
     0
176
     1
290
     0
176
     1
290
     0
176
     1
290
     0
176
     1
 90
       50
176
     1
 40
0.0
176
     1
 40
1.0
176
     1
 90
        0
176
     1
 62
    18
420
        0
176
     1
 90
       50
176
     1
 90
        3
176
     1
 62
     5
420
      255
176
     1
290
     0
176
     1
 90
       50
176
     1
 90
       50
176
     1
 90
       50
176
     1
290
     0
176
     1
 90
       50
176
     1
 62
   256
176
     0
 40
1.0
176
     0
 90
        2
176
     1
  1
strokes_ogs.tif
176
     1
290
     0
176
     1
 40
1.0
176
     1
 40
1.0
176
     1
  0
VISUALSTYLE
  5
40
102
{ACAD_REACTORS
330
2A
102
}
330
2A
100
AcDbVisualStyle
  2
X-Ray
 70
    25
177
     3
291
     0
 70
    58
 90
        2
176
     1
 90
        2
176
     1
 90
        1
176
     1
 90
        1
176
     1
 40
0.5
176
     1
 40
30.0
176
     1
 62
     7
420
 16777215
176
     1
 90
        1
176
     1
 90
        0
176
     1
 62
     7
176
     1
 62
   257
176
     1
 90
        1
176
     1
 90
        1
176
     1
 40
1.0
176
     1
 90
        8
176
     1
 62
     7
176
     1
 40
1.0
176
     1
 90
        1
176
     1
 90
        6
176
     1
 90
        2
176
     1
 62
     7
176
     1
 90
        3
176
     1
 90
        0
176
     1
 90
        0
176
     1
290
     0
176
     1
 90
       13
176
     1
 40
0.0
176
     1
 90
        0
176
     1
290
     0
176
     1
290
     1
176
     1
290
     1
176
     1
290
     0
176
     1
290
     0
176
     1
290
     0
176
     1
290
     0
176
     1
290
     0
176
     1
290
     0
176
     1
 90
       50
176
     1
 40
0.0
176
     1
 40
1.0
176
     1
 90
        0
176
     1
 62
    18
420
        0
176
     1
 90
       50
176
     1
 90
        3
176
     1
 62
     5
420
      255
176
     1
290
     0
176
     1
 90
       50
176
     1
 90
       50
176
     1
 90
       50
176
     1
290
     0
176
     1
 90
       50
176
     1
 62
   256
176
     0
 40
1.0
176
     0
 90
        2
176
     1
  1
strokes_ogs.tif
176
     1
290
     0
176
     1
 40
1.0
176
     1
 40
1.0
176
     1
  0
DICTIONARYVAR
  5
291
102
{ACAD_REACTORS
330
290
102
}
330
290
100
DictionaryVariables
280
     0
  1
1:1
  0
DICTIONARYVAR
  5
296
102
{ACAD_REACTORS
330
290
102
}
330
290
100
DictionaryVariables
280
     0
  1
Standard
  0
DICTIONARYVAR
  5
295
102
{ACAD_REACTORS
330
290
102
}
330
290
100
DictionaryVariables
280
     0
  1
Standard
  0
DICTIONARY
  5
292
330
6A
100
AcDbDictionary
280
     1
281
     1
  3
ACAD_ROUNDTRIP_2008_TABLESTYLE_CELLSTYLEMAP
360
293
  0
CELLSTYLEMAP
  5
293
102
{ACAD_REACTORS
330
292
102
}
330
292
100
AcDbCellStyleMap
 90
        3
300
CELLSTYLE
  1
TABLEFORMAT_BEGIN
 90
        5
170
     1
 91
        0
 92
    32768
 62
   257
 93
        1
300
CONTENTFORMAT
  1
CONTENTFORMAT_BEGIN
 90
        0
 91
        0
 92
        4
 93
        0
300

 40
0.0
140
1.0
 94
        5
 62
     0
340
11
144
0.25
309
CONTENTFORMAT_END
171
     1
301
MARGIN
  1
CELLMARGIN_BEGIN
 40
0.06
 40
0.06
 40
0.06
 40
0.06
 40
0.06
 40
0.06
309
CELLMARGIN_END
 94
        6
 95
        1
302
GRIDFORMAT
  1
GRIDFORMAT_BEGIN
 90
        0
 91
        1
 62
     0
 92
       -2
340
14
 93
        0
 40
0.045
309
GRIDFORMAT_END
 95
        2
302
GRIDFORMAT
  1
GRIDFORMAT_BEGIN
 90
        0
 91
        1
 62
     0
 92
       -2
340
14
 93
        0
 40
0.045
309
GRIDFORMAT_END
 95
        4
302
GRIDFORMAT
  1
GRIDFORMAT_BEGIN
 90
        0
 91
        1
 62
     0
 92
       -2
340
14
 93
        0
 40
0.045
309
GRIDFORMAT_END
 95
        8
302
GRIDFORMAT
  1
GRIDFORMAT_BEGIN
 90
        0
 91
        1
 62
     0
 92
       -2
340
14
 93
        0
 40
0.045
309
GRIDFORMAT_END
 95
       16
302
GRIDFORMAT
  1
GRIDFORMAT_BEGIN
 90
        0
 91
        1
 62
     0
 92
       -2
340
14
 93
        0
 40
0.045
309
GRIDFORMAT_END
 95
       32
302
GRIDFORMAT
  1
GRIDFORMAT_BEGIN
 90
        0
 91
        1
 62
     0
 92
       -2
340
14
 93
        0
 40
0.045
309
GRIDFORMAT_END
309
TABLEFORMAT_END
  1
CELLSTYLE_BEGIN
 90
        1
 91
        1
300
_TITLE
309
CELLSTYLE_END
300
CELLSTYLE
  1
TABLEFORMAT_BEGIN
 90
        5
170
     1
 91
        0
 92
        0
 62
   257
 93
        1
300
CONTENTFORMAT
  1
CONTENTFORMAT_BEGIN
 90
        0
 91
        0
 92
        4
 93
        0
300

 40
0.0
140
1.0
 94
        5
 62
     0
340
11
144
0.18
309
CONTENTFORMAT_END
171
     1
301
MARGIN
  1
CELLMARGIN_BEGIN
 40
0.06
 40
0.06
 40
0.06
 40
0.06
 40
0.06
 40
0.06
309
CELLMARGIN_END
 94
        6
 95
        1
302
GRIDFORMAT
  1
GRIDFORMAT_BEGIN
 90
        0
 91
        1
 62
     0
 92
       -2
340
14
 93
        0
 40
0.045
309
GRIDFORMAT_END
 95
        2
302
GRIDFORMAT
  1
GRIDFORMAT_BEGIN
 90
        0
 91
        1
 62
     0
 92
       -2
340
14
 93
        0
 40
0.045
309
GRIDFORMAT_END
 95
        4
302
GRIDFORMAT
  1
GRIDFORMAT_BEGIN
 90
        0
 91
        1
 62
     0
 92
       -2
340
14
 93
        0
 40
0.045
309
GRIDFORMAT_END
 95
        8
302
GRIDFORMAT
  1
GRIDFORMAT_BEGIN
 90
        0
 91
        1
 62
     0
 92
       -2
340
14
 93
        0
 40
0.045
309
GRIDFORMAT_END
 95
       16
302
GRIDFORMAT
  1
GRIDFORMAT_BEGIN
 90
        0
 91
        1
 62
     0
 92
       -2
340
14
 93
        0
 40
0.045
309
GRIDFORMAT_END
 95
       32
302
GRIDFORMAT
  1
GRIDFORMAT_BEGIN
 90
        0
 91
        1
 62
     0
 92
       -2
340
14
 93
        0
 40
0.045
309
GRIDFORMAT_END
309
TABLEFORMAT_END
  1
CELLSTYLE_BEGIN
 90
        2
 91
        1
300
_HEADER
309
CELLSTYLE_END
300
CELLSTYLE
  1
TABLEFORMAT_BEGIN
 90
        5
170
     1
 91
        0
 92
        0
 62
   257
 93
        1
300
CONTENTFORMAT
  1
CONTENTFORMAT_BEGIN
 90
        0
 91
        0
 92
        4
 93
        0
300

 40
0.0
140
1.0
 94
        2
 62
     0
340
11
144
0.18
309
CONTENTFORMAT_END
171
     1
301
MARGIN
  1
CELLMARGIN_BEGIN
 40
0.06
 40
0.06
 40
0.06
 40
0.06
 40
0.06
 40
0.06
309
CELLMARGIN_END
 94
        6
 95
        1
302
GRIDFORMAT
  1
GRIDFORMAT_BEGIN
 90
        0
 91
        1
 62
     0
 92
       -2
340
14
 93
        0
 40
0.045
309
GRIDFORMAT_END
 95
        2
302
GRIDFORMAT
  1
GRIDFORMAT_BEGIN
 90
        0
 91
        1
 62
     0
 92
       -2
340
14
 93
        0
 40
0.045
309
GRIDFORMAT_END
 95
        4
302
GRIDFORMAT
  1
GRIDFORMAT_BEGIN
 90
        0
 91
        1
 62
     0
 92
       -2
340
14
 93
        0
 40
0.045
309
GRIDFORMAT_END
 95
        8
302
GRIDFORMAT
  1
GRIDFORMAT_BEGIN
 90
        0
 91
        1
 62
     0
 92
       -2
340
14
 93
        0
 40
0.045
309
GRIDFORMAT_END
 95
       16
302
GRIDFORMAT
  1
GRIDFORMAT_BEGIN
 90
        0
 91
        1
 62
     0
 92
       -2
340
14
 93
        0
 40
0.045
309
GRIDFORMAT_END
 95
       32
302
GRIDFORMAT
  1
GRIDFORMAT_BEGIN
 90
        0
 91
        1
 62
     0
 92
       -2
340
14
 93
        0
 40
0.045
309
GRIDFORMAT_END
309
TABLEFORMAT_END
  1
CELLSTYLE_BEGIN
 90
        3
 91
        2
300
_DATA
309
CELLSTYLE_END
  0
ENDSEC
  0
EOF