0
SECTION
  2
HEADER
  9
$ACADVER
  1
AC1027
  9
$ACADMAINTVER
 70
     8
  9
$DWGCODEPAGE
  3
ANSI_1252
  9
$REQUIREDVERSIONS
160
                 0
  9
$COMMENTS
  1
File was created by Cadenas
  9
$CUSTOMPROPERTYTAG
  1
NN
  9
$CUSTOMPROPERTY
  1
Steel IMPERIAL-HD Piloted Flange 1-1/8 thru 2-1/4 Inch Bore
  9
$CUSTOMPROPERTYTAG
  1
NT
  9
$CUSTOMPROPERTY
  1
Steal Imperial Piloted Flange Bearingsi- Inch - 102-204
  9
$CUSTOMPROPERTYTAG
  1
NB
  9
$CUSTOMPROPERTY
  1
072320
  9
$CUSTOMPROPERTYTAG
  1
NBSYN
  9
$CUSTOMPROPERTY
  1
$PN.
  9
$CUSTOMPROPERTYTAG
  1
LINA
  9
$CUSTOMPROPERTY
  1
072320
  9
$CUSTOMPROPERTYTAG
  1
SS
  9
$CUSTOMPROPERTY
  1
2-1/4
  9
$CUSTOMPROPERTYTAG
  1
PN
  9
$CUSTOMPROPERTY
  1
072320
  9
$CUSTOMPROPERTYTAG
  1
TYPE
  9
$CUSTOMPROPERTY
  1
Expansion
  9
$CUSTOMPROPERTYTAG
  1
EF
  9
$CUSTOMPROPERTY
  1
Expansion
  9
$CUSTOMPROPERTYTAG
  1
DESCRIPTION
  9
$CUSTOMPROPERTY
  1
SFC-IP-204RE
  9
$CUSTOMPROPERTYTAG
  1
ST
  9
$CUSTOMPROPERTY
  1
Contact Seal
  9
$CUSTOMPROPERTYTAG
  1
A
  9
$CUSTOMPROPERTY
  1
3.03
  9
$CUSTOMPROPERTYTAG
  1
B
  9
$CUSTOMPROPERTY
  1
7.13
  9
$CUSTOMPROPERTYTAG
  1
C
  9
$CUSTOMPROPERTY
  1
2.42
  9
$CUSTOMPROPERTYTAG
  1
D
  9
$CUSTOMPROPERTY
  1
4.25
  9
$CUSTOMPROPERTYTAG
  1
DD
  9
$CUSTOMPROPERTY
  1
6.0000
  9
$CUSTOMPROPERTYTAG
  1
E
  9
$CUSTOMPROPERTY
  1
1.02
  9
$CUSTOMPROPERTYTAG
  1
F
  9
$CUSTOMPROPERTY
  1
0.5000
  9
$CUSTOMPROPERTYTAG
  1
G
  9
$CUSTOMPROPERTY
  1
1.80
  9
$CUSTOMPROPERTYTAG
  1
H
  9
$CUSTOMPROPERTY
  1
0.56
  9
$CUSTOMPROPERTYTAG
  1
K
  9
$CUSTOMPROPERTY
  1
5.000
  9
$CUSTOMPROPERTYTAG
  1
L
  9
$CUSTOMPROPERTY
  1
3.50
  9
$CUSTOMPROPERTYTAG
  1
M
  9
$CUSTOMPROPERTY
  1
0.5000
  9
$CUSTOMPROPERTYTAG
  1
N
  9
$CUSTOMPROPERTY
  1
3.34
  9
$CUSTOMPROPERTYTAG
  1
P
  9
$CUSTOMPROPERTY
  1
1.23
  9
$CUSTOMPROPERTYTAG
  1
Q
  9
$CUSTOMPROPERTY
  1
1.55
  9
$CUSTOMPROPERTYTAG
  1
X
  9
$CUSTOMPROPERTY
  1
0.25
  9
$CUSTOMPROPERTYTAG
  1
Y
  9
$CUSTOMPROPERTY
  1
0.025
  9
$CUSTOMPROPERTYTAG
  1
Z
  9
$CUSTOMPROPERTY
  1
2.59
  9
$CUSTOMPROPERTYTAG
  1
COMPANY
  9
$CUSTOMPROPERTY
  1
baldor
  9
$INSBASE
 10
0.0
 20
0.0
 30
0.0
  9
$EXTMIN
 10
1.000000000000000E+20
 20
1.000000000000000E+20
 30
1.000000000000000E+20
  9
$EXTMAX
 10
-1.000000000000000E+20
 20
-1.000000000000000E+20
 30
-1.000000000000000E+20
  9
$LIMMIN
 10
0.0
 20
0.0
  9
$LIMMAX
 10
12.0
 20
9.0
  9
$ORTHOMODE
 70
     0
  9
$REGENMODE
 70
     1
  9
$FILLMODE
 70
     1
  9
$QTEXTMODE
 70
     0
  9
$MIRRTEXT
 70
     1
  9
$LTSCALE
 40
1.0
  9
$ATTMODE
 70
     1
  9
$TEXTSIZE
 40
0.2
  9
$TRACEWID
 40
0.05
  9
$TEXTSTYLE
  7
Standard
  9
$CLAYER
  8
0
  9
$CELTYPE
  6
ByLayer
  9
$CECOLOR
 62
   256
  9
$CELTSCALE
 40
1.0
  9
$DISPSILH
 70
     0
  9
$DIMSCALE
 40
1.0
  9
$DIMASZ
 40
0.18
  9
$DIMEXO
 40
0.0625
  9
$DIMDLI
 40
0.38
  9
$DIMRND
 40
0.0
  9
$DIMDLE
 40
0.0
  9
$DIMEXE
 40
0.18
  9
$DIMTP
 40
0.0
  9
$DIMTM
 40
0.0
  9
$DIMTXT
 40
0.18
  9
$DIMCEN
 40
0.09
  9
$DIMTSZ
 40
0.0
  9
$DIMTOL
 70
     0
  9
$DIMLIM
 70
     0
  9
$DIMTIH
 70
     1
  9
$DIMTOH
 70
     1
  9
$DIMSE1
 70
     0
  9
$DIMSE2
 70
     0
  9
$DIMTAD
 70
     0
  9
$DIMZIN
 70
     0
  9
$DIMBLK
  1

  9
$DIMASO
 70
     1
  9
$DIMSHO
 70
     1
  9
$DIMPOST
  1

  9
$DIMAPOST
  1

  9
$DIMALT
 70
     0
  9
$DIMALTD
 70
     2
  9
$DIMALTF
 40
25.4
  9
$DIMLFAC
 40
1.0
  9
$DIMTOFL
 70
     0
  9
$DIMTVP
 40
0.0
  9
$DIMTIX
 70
     0
  9
$DIMSOXD
 70
     0
  9
$DIMSAH
 70
     0
  9
$DIMBLK1
  1

  9
$DIMBLK2
  1

  9
$DIMSTYLE
  2
Standard
  9
$DIMCLRD
 70
     0
  9
$DIMCLRE
 70
     0
  9
$DIMCLRT
 70
     0
  9
$DIMTFAC
 40
1.0
  9
$DIMGAP
 40
0.09
  9
$DIMJUST
 70
     0
  9
$DIMSD1
 70
     0
  9
$DIMSD2
 70
     0
  9
$DIMTOLJ
 70
     1
  9
$DIMTZIN
 70
     0
  9
$DIMALTZ
 70
     0
  9
$DIMALTTZ
 70
     0
  9
$DIMUPT
 70
     0
  9
$DIMDEC
 70
     4
  9
$DIMTDEC
 70
     4
  9
$DIMALTU
 70
     2
  9
$DIMALTTD
 70
     2
  9
$DIMTXSTY
  7
Standard
  9
$DIMAUNIT
 70
     0
  9
$DIMADEC
 70
     0
  9
$DIMALTRND
 40
0.0
  9
$DIMAZIN
 70
     0
  9
$DIMDSEP
 70
    46
  9
$DIMATFIT
 70
     3
  9
$DIMFRAC
 70
     0
  9
$DIMLDRBLK
  1

  9
$DIMLUNIT
 70
     2
  9
$DIMLWD
 70
    -2
  9
$DIMLWE
 70
    -2
  9
$DIMTMOVE
 70
     0
  9
$DIMFXL
 40
1.0
  9
$DIMFXLON
 70
     0
  9
$DIMJOGANG
 40
0.7853981633974483
  9
$DIMTFILL
 70
     0
  9
$DIMTFILLCLR
 70
     0
  9
$DIMARCSYM
 70
     0
  9
$DIMLTYPE
  6

  9
$DIMLTEX1
  6

  9
$DIMLTEX2
  6

  9
$DIMTXTDIRECTION
 70
     0
  9
$LUNITS
 70
     2
  9
$LUPREC
 70
     4
  9
$SKETCHINC
 40
0.1
  9
$FILLETRAD
 40
0.5
  9
$AUNITS
 70
     0
  9
$AUPREC
 70
     0
  9
$MENU
  1
.
  9
$ELEVATION
 40
0.0
  9
$PELEVATION
 40
0.0
  9
$THICKNESS
 40
0.0
  9
$LIMCHECK
 70
     0
  9
$CHAMFERA
 40
0.0
  9
$CHAMFERB
 40
0.0
  9
$CHAMFERC
 40
0.0
  9
$CHAMFERD
 40
0.0
  9
$SKPOLY
 70
     0
  9
$TDCREATE
 40
2458168.897402292
  9
$TDUCREATE
 40
2458168.855735625
  9
$TDUPDATE
 40
2458168.897402651
  9
$TDUUPDATE
 40
2458168.855735984
  9
$TDINDWG
 40
0.0000000116
  9
$TDUSRTIMER
 40
0.0000000116
  9
$USRTIMER
 70
     1
  9
$ANGBASE
 50
0.0
  9
$ANGDIR
 70
     0
  9
$PDMODE
 70
     0
  9
$PDSIZE
 40
0.0
  9
$PLINEWID
 40
0.0
  9
$SPLFRAME
 70
     0
  9
$SPLINETYPE
 70
     6
  9
$SPLINESEGS
 70
     8
  9
$HANDSEED
  5
27A
  9
$SURFTAB1
 70
     6
  9
$SURFTAB2
 70
     6
  9
$SURFTYPE
 70
     6
  9
$SURFU
 70
     6
  9
$SURFV
 70
     6
  9
$UCSBASE
  2

  9
$UCSNAME
  2

  9
$UCSORG
 10
0.0
 20
0.0
 30
0.0
  9
$UCSXDIR
 10
1.0
 20
0.0
 30
0.0
  9
$UCSYDIR
 10
0.0
 20
1.0
 30
0.0
  9
$UCSORTHOREF
  2

  9
$UCSORTHOVIEW
 70
     0
  9
$UCSORGTOP
 10
0.0
 20
0.0
 30
0.0
  9
$UCSORGBOTTOM
 10
0.0
 20
0.0
 30
0.0
  9
$UCSORGLEFT
 10
0.0
 20
0.0
 30
0.0
  9
$UCSORGRIGHT
 10
0.0
 20
0.0
 30
0.0
  9
$UCSORGFRONT
 10
0.0
 20
0.0
 30
0.0
  9
$UCSORGBACK
 10
0.0
 20
0.0
 30
0.0
  9
$PUCSBASE
  2

  9
$PUCSNAME
  2

  9
$PUCSORG
 10
0.0
 20
0.0
 30
0.0
  9
$PUCSXDIR
 10
1.0
 20
0.0
 30
0.0
  9
$PUCSYDIR
 10
0.0
 20
1.0
 30
0.0
  9
$PUCSORTHOREF
  2

  9
$PUCSORTHOVIEW
 70
     0
  9
$PUCSORGTOP
 10
0.0
 20
0.0
 30
0.0
  9
$PUCSORGBOTTOM
 10
0.0
 20
0.0
 30
0.0
  9
$PUCSORGLEFT
 10
0.0
 20
0.0
 30
0.0
  9
$PUCSORGRIGHT
 10
0.0
 20
0.0
 30
0.0
  9
$PUCSORGFRONT
 10
0.0
 20
0.0
 30
0.0
  9
$PUCSORGBACK
 10
0.0
 20
0.0
 30
0.0
  9
$USERI1
 70
     0
  9
$USERI2
 70
     0
  9
$USERI3
 70
     0
  9
$USERI4
 70
     0
  9
$USERI5
 70
     0
  9
$USERR1
 40
0.0
  9
$USERR2
 40
0.0
  9
$USERR3
 40
0.0
  9
$USERR4
 40
0.0
  9
$USERR5
 40
0.0
  9
$WORLDVIEW
 70
     1
  9
$SHADEDGE
 70
     3
  9
$SHADEDIF
 70
    70
  9
$TILEMODE
 70
     1
  9
$MAXACTVP
 70
    64
  9
$PINSBASE
 10
0.0
 20
0.0
 30
0.0
  9
$PLIMCHECK
 70
     0
  9
$PEXTMIN
 10
1.000000000000000E+20
 20
1.000000000000000E+20
 30
1.000000000000000E+20
  9
$PEXTMAX
 10
-1.000000000000000E+20
 20
-1.000000000000000E+20
 30
-1.000000000000000E+20
  9
$PLIMMIN
 10
0.0
 20
0.0
  9
$PLIMMAX
 10
12.0
 20
9.0
  9
$UNITMODE
 70
     0
  9
$VISRETAIN
 70
     1
  9
$PLINEGEN
 70
     0
  9
$PSLTSCALE
 70
     1
  9
$TREEDEPTH
 70
  3020
  9
$CMLSTYLE
  2
Standard
  9
$CMLJUST
 70
     0
  9
$CMLSCALE
 40
1.0
  9
$PROXYGRAPHICS
 70
     1
  9
$MEASUREMENT
 70
     0
  9
$CELWEIGHT
370
    -1
  9
$ENDCAPS
280
     0
  9
$JOINSTYLE
280
     0
  9
$LWDISPLAY
290
     0
  9
$INSUNITS
 70
     1
  9
$HYPERLINKBASE
  1

  9
$STYLESHEET
  1

  9
$XEDIT
290
     1
  9
$CEPSNTYPE
380
     0
  9
$PSTYLEMODE
290
     1
  9
$FINGERPRINTGUID
  2
{6D6CCB3A-9459-4E8D-8584-7AC5E647F028}
  9
$VERSIONGUID
  2
{FAEB1C32-E019-11D5-929B-00C0DF256EC4}
  9
$EXTNAMES
290
     1
  9
$PSVPSCALE
 40
0.0
  9
$OLESTARTUP
290
     0
  9
$SORTENTS
280
   127
  9
$INDEXCTL
280
     0
  9
$HIDETEXT
280
     1
  9
$XCLIPFRAME
280
     2
  9
$HALOGAP
280
     0
  9
$OBSCOLOR
 70
   257
  9
$OBSLTYPE
280
     0
  9
$INTERSECTIONDISPLAY
280
     0
  9
$INTERSECTIONCOLOR
 70
   257
  9
$DIMASSOC
280
     2
  9
$PROJECTNAME
  1

  9
$CAMERADISPLAY
290
     0
  9
$LENSLENGTH
 40
50.0
  9
$CAMERAHEIGHT
 40
0.0
  9
$STEPSPERSEC
 40
2.0
  9
$STEPSIZE
 40
6.0
  9
$3DDWFPREC
 40
2.0
  9
$PSOLWIDTH
 40
0.25
  9
$PSOLHEIGHT
 40
4.0
  9
$LOFTANG1
 40
1.570796326794897
  9
$LOFTANG2
 40
1.570796326794897
  9
$LOFTMAG1
 40
0.0
  9
$LOFTMAG2
 40
0.0
  9
$LOFTPARAM
 70
     7
  9
$LOFTNORMALS
280
     1
  9
$LATITUDE
 40
37.795
  9
$LONGITUDE
 40
-122.394
  9
$NORTHDIRECTION
 40
0.0
  9
$TIMEZONE
 70
 -8000
  9
$LIGHTGLYPHDISPLAY
280
     1
  9
$TILEMODELIGHTSYNCH
280
     1
  9
$CMATERIAL
347
44
  9
$SOLIDHIST
280
     0
  9
$SHOWHIST
280
     1
  9
$DWFFRAME
280
     2
  9
$DGNFRAME
280
     2
  9
$REALWORLDSCALE
290
     1
  9
$INTERFERECOLOR
 62
   256
  9
$CSHADOW
280
     0
  9
$SHADOWPLANELOCATION
 40
0.0
  0
ENDSEC
  0
SECTION
  2
CLASSES
  0
CLASS
  1
ACDBDICTIONARYWDFLT
  2
AcDbDictionaryWithDefault
  3
ObjectDBX Classes
 90
        0
 91
        4
280
     0
281
     0
  0
CLASS
  1
VISUALSTYLE
  2
AcDbVisualStyle
  3
ObjectDBX Classes
 90
     4095
 91
        4
280
     0
281
     0
  0
CLASS
  1
MATERIAL
  2
AcDbMaterial
  3
ObjectDBX Classes
 90
     1153
 91
        4
280
     0
281
     0
  0
CLASS
  1
SCALE
  2
AcDbScale
  3
ObjectDBX Classes
 90
     1153
 91
        4
280
     0
281
     0
  0
CLASS
  1
TABLESTYLE
  2
AcDbTableStyle
  3
ObjectDBX Classes
 90
     4095
 91
        4
280
     0
281
     0
  0
CLASS
  1
MLEADERSTYLE
  2
AcDbMLeaderStyle
  3
ACDB_MLEADERSTYLE_CLASS
 90
     4095
 91
        4
280
     0
281
     0
  0
CLASS
  1
SUN
  2
AcDbSun
  3
SCENEOE
 90
     1153
 91
        4
280
     0
281
     0
  0
CLASS
  1
DICTIONARYVAR
  2
AcDbDictionaryVar
  3
ObjectDBX Classes
 90
        0
 91
        4
280
     0
281
     0
  0
CLASS
  1
CELLSTYLEMAP
  2
AcDbCellStyleMap
  3
ObjectDBX Classes
 90
     1152
 91
        4
280
     0
281
     0
  0
ENDSEC
  0
SECTION
  2
TABLES
  0
TABLE
  2
VPORT
  5
8
330
0
100
AcDbSymbolTable
 70
     1
  0
VPORT
  5
29
330
8
100
AcDbSymbolTableRecord
100
AcDbViewportTableRecord
  2
*Active
 70
     0
 10
0.0
 20
0.0
 11
1.0
 21
1.0
 12
0.0
 22
0.0
 13
0.0
 23
0.0
 14
0.5
 24
0.5
 15
0.5
 25
0.5
 16
0.0
 26
0.0
 36
1.0
 17
0.0
 27
0.0
 37
0.0
 40
7.636229999999999
 41
1.0
 42
50.0
 43
0.0
 44
0.0
 50
0.0
 51
0.0
 71
     0
 72
   100
 73
     1
 74
     3
 75
     0
 76
     0
 77
     0
 78
     0
281
     0
 65
     1
110
0.0
120
0.0
130
0.0
111
1.0
121
0.0
131
0.0
112
0.0
122
1.0
132
0.0
 79
     0
146
0.0
348
2F
 60
     3
 61
     5
292
     1
282
     1
141
0.0
142
0.0
 63
   250
361
6D
  0
ENDTAB
  0
TABLE
  2
LTYPE
  5
5
330
0
100
AcDbSymbolTable
 70
     3
  0
LTYPE
  5
14
330
5
100
AcDbSymbolTableRecord
100
AcDbLinetypeTableRecord
  2
ByBlock
 70
     0
  3

 72
    65
 73
     0
 40
0.0
  0
LTYPE
  5
15
330
5
100
AcDbSymbolTableRecord
100
AcDbLinetypeTableRecord
  2
ByLayer
 70
     0
  3

 72
    65
 73
     0
 40
0.0
  0
LTYPE
  5
16
330
5
100
AcDbSymbolTableRecord
100
AcDbLinetypeTableRecord
  2
Continuous
 70
     0
  3
Solid line
 72
    65
 73
     0
 40
0.0
  0
LTYPE
  5
9D
330
5
100
AcDbSymbolTableRecord
100
AcDbLinetypeTableRecord
  2
Dashed
 70
     0
  3

 72
    65
 73
     2
 40
2.0
 49
1.0
 74
     0
 49
-1.0
 74
     0
  0
LTYPE
  5
139
330
5
100
AcDbSymbolTableRecord
100
AcDbLinetypeTableRecord
  2
Center
 70
     0
  3

 72
    65
 73
     4
 40
1.5
 49
0.45
 74
     0
 49
-0.5
 74
     0
 49
0.05
 74
     0
 49
-0.5
 74
     0
  0
ENDTAB
  0
TABLE
  2
LAYER
  5
2
330
0
100
AcDbSymbolTable
 70
     7
  0
LAYER
  5
10
330
2
100
AcDbSymbolTableRecord
100
AcDbLayerTableRecord
  2
0
 70
     0
 62
     7
  6
Continuous
370
    -3
390
F
347
46
348
0
  0
LAYER
  5
72
330
2
100
AcDbSymbolTableRecord
100
AcDbLayerTableRecord
  2
AM_6
 70
     0
 62
    -2
  6
Continuous
370
    35
390
F
347
46
348
0
  0
LAYER
  5
9E
330
2
100
AcDbSymbolTableRecord
100
AcDbLayerTableRecord
  2
AM_9
 70
     0
 62
     6
  6
Dashed
370
    25
390
F
347
46
348
0
  0
LAYER
  5
B9
330
2
100
AcDbSymbolTableRecord
100
AcDbLayerTableRecord
  2
AM_4
 70
     0
 62
     7
  6
Continuous
370
    50
390
F
347
46
348
0
  0
LAYER
  5
137
330
2
100
AcDbSymbolTableRecord
100
AcDbLayerTableRecord
  2
AM_5
 70
     0
 62
     3
  6
Continuous
370
    25
390
F
347
46
348
0
  0
LAYER
  5
13A
330
2
100
AcDbSymbolTableRecord
100
AcDbLayerTableRecord
  2
AM_7
 70
     0
 62
     7
  6
Center
370
    25
390
F
347
46
348
0
  0
LAYER
  5
261
330
2
100
AcDbSymbolTableRecord
100
AcDbLayerTableRecord
  2
ConnectionPoints
 70
     0
 62
     7
  6
Continuous
370
    50
390
F
347
46
348
0
  0
ENDTAB
  0
TABLE
  2
STYLE
  5
3
330
0
100
AcDbSymbolTable
 70
     1
  0
STYLE
  5
11
330
3
100
AcDbSymbolTableRecord
100
AcDbTextStyleTableRecord
  2
Standard
 70
     0
 40
0.0
 41
1.0
 50
0.0
 71
     0
 42
0.2
  3
txt
  4

  0
ENDTAB
  0
TABLE
  2
VIEW
  5
6
330
0
100
AcDbSymbolTable
 70
     0
  0
ENDTAB
  0
TABLE
  2
UCS
  5
7
330
0
100
AcDbSymbolTable
 70
     0
  0
ENDTAB
  0
TABLE
  2
APPID
  5
9
330
0
100
AcDbSymbolTable
 70
     1
  0
APPID
  5
12
330
9
100
AcDbSymbolTableRecord
100
AcDbRegAppTableRecord
  2
ACAD
 70
     0
  0
ENDTAB
  0
TABLE
  2
DIMSTYLE
  5
A
330
0
100
AcDbSymbolTable
 70
     1
100
AcDbDimStyleTable
  0
DIMSTYLE
105
27
330
A
100
AcDbSymbolTableRecord
100
AcDbDimStyleTableRecord
  2
Standard
 70
     0
178
     0
340
11
  0
ENDTAB
  0
TABLE
  2
BLOCK_RECORD
  5
1
330
0
100
AcDbSymbolTable
 70
     9
  0
BLOCK_RECORD
  5
1F
330
1
100
AcDbSymbolTableRecord
100
AcDbBlockTableRecord
  2
*Model_Space
340
22
 70
     0
280
     1
281
     0
  0
BLOCK_RECORD
  5
1B
330
1
100
AcDbSymbolTableRecord
100
AcDbBlockTableRecord
  2
*Paper_Space
340
1E
 70
     0
280
     1
281
     0
  0
BLOCK_RECORD
  5
23
330
1
100
AcDbSymbolTableRecord
100
AcDbBlockTableRecord
  2
*Paper_Space0
340
26
 70
     0
280
     1
281
     0
  0
BLOCK_RECORD
  5
6E
330
1
100
AcDbSymbolTableRecord
100
AcDbBlockTableRecord
  2
1_072320_0
340
0
102
{BLKREFS
331
6F
102
}
 70
     0
280
     1
281
     0
  0
BLOCK_RECORD
  5
91
330
1
100
AcDbSymbolTableRecord
100
AcDbBlockTableRecord
  2
2_405015E_Inch_1_0_in_072320_0
340
0
102
{BLKREFS
331
92
102
}
 70
     0
280
     1
281
     0
  0
BLOCK_RECORD
  5
D3
330
1
100
AcDbSymbolTableRecord
100
AcDbBlockTableRecord
  2
3_405015E_Inch_2_0_in_072320_0
340
0
102
{BLKREFS
331
D4
102
}
 70
     0
280
     1
281
     0
  0
BLOCK_RECORD
  5
127
330
1
100
AcDbSymbolTableRecord
100
AcDbBlockTableRecord
  2
4_ASME_B18_3_10_1_0_in_072320_0
340
0
102
{BLKREFS
331
128
102
}
 70
     0
280
     1
281
     0
  0
BLOCK_RECORD
  5
146
330
1
100
AcDbSymbolTableRecord
100
AcDbBlockTableRecord
  2
5_ASME_B18_3_10_2_0_in_072320_0
340
0
102
{BLKREFS
331
147
102
}
 70
     0
280
     1
281
     0
  0
BLOCK_RECORD
  5
163
330
1
100
AcDbSymbolTableRecord
100
AcDbBlockTableRecord
  2
6_070893LW_0_in_072320_0
340
0
102
{BLKREFS
331
164
102
}
 70
     0
280
     1
281
     0
  0
BLOCK_RECORD
  5
1AE
330
1
100
AcDbSymbolTableRecord
100
AcDbBlockTableRecord
  2
7_070893I_0_in_072320_0
340
0
102
{BLKREFS
331
1AF
102
}
 70
     0
280
     1
281
     0
  0
BLOCK_RECORD
  5
208
330
1
100
AcDbSymbolTableRecord
100
AcDbBlockTableRecord
  2
8_B072320_0_in_072320_0
340
0
102
{BLKREFS
331
209
102
}
 70
     0
280
     1
281
     0
  0
ENDTAB
  0
ENDSEC
  0
SECTION
  2
BLOCKS
  0
BLOCK
  5
20
330
1F
100
AcDbEntity
  8
0
100
AcDbBlockBegin
  2
*Model_Space
 70
     0
 10
0.0
 20
0.0
 30
0.0
  3
*Model_Space
  1

  0
ENDBLK
  5
21
330
1F
100
AcDbEntity
  8
0
100
AcDbBlockEnd
  0
BLOCK
  5
1C
330
1B
100
AcDbEntity
 67
     1
  8
0
100
AcDbBlockBegin
  2
*Paper_Space
 70
     0
 10
0.0
 20
0.0
 30
0.0
  3
*Paper_Space
  1

  0
ENDBLK
  5
1D
330
1B
100
AcDbEntity
 67
     1
  8
0
100
AcDbBlockEnd
  0
BLOCK
  5
24
330
23
100
AcDbEntity
  8
0
100
AcDbBlockBegin
  2
*Paper_Space0
 70
     0
 10
0.0
 20
0.0
 30
0.0
  3
*Paper_Space0
  1

  0
ENDBLK
  5
25
330
23
100
AcDbEntity
  8
0
100
AcDbBlockEnd
  0
BLOCK
  5
70
330
6E
100
AcDbEntity
  8
0
100
AcDbBlockBegin
  2
1_072320_0
 70
     2
 10
0.0
 20
0.0
 30
0.0
  3
1_072320_0
  1

  0
ATTDEF
  5
73
330
6E
100
AcDbEntity
  8
AM_6
100
AcDbText
 10
8.74325
 20
3.74325
 30
0.0
 40
0.5
  1
Steel IMPERIAL-HD Piloted Flange 1-1/8 thru 2-1/4 Inch Bore
100
AcDbAttributeDefinition
  3

  2
NN
 70
     8
280
     0
  0
ATTDEF
  5
74
330
6E
100
AcDbEntity
  8
AM_6
100
AcDbText
 10
8.74325
 20
3.24325
 30
0.0
 40
0.5
  1
Steal Imperial Piloted Flange Bearingsi- Inch - 102-204
100
AcDbAttributeDefinition
  3

  2
NT
 70
     8
280
     0
  0
ATTDEF
  5
75
330
6E
100
AcDbEntity
  8
AM_6
100
AcDbText
 10
8.74325
 20
2.74325
 30
0.0
 40
0.5
  1
072320
100
AcDbAttributeDefinition
  3

  2
NB
 70
     8
280
     0
  0
ATTDEF
  5
76
330
6E
100
AcDbEntity
  8
AM_6
100
AcDbText
 10
8.74325
 20
2.24325
 30
0.0
 40
0.5
  1
$PN.
100
AcDbAttributeDefinition
  3

  2
NBSYN
 70
     8
280
     0
  0
ATTDEF
  5
77
330
6E
100
AcDbEntity
  8
AM_6
100
AcDbText
 10
8.74325
 20
1.74325
 30
0.0
 40
0.5
  1
072320
100
AcDbAttributeDefinition
  3

  2
LINA
 70
     8
280
     0
  0
ATTDEF
  5
78
330
6E
100
AcDbEntity
  8
AM_6
100
AcDbText
 10
8.74325
 20
1.24325
 30
0.0
 40
0.5
  1
2-1/4
100
AcDbAttributeDefinition
  3

  2
SS
 70
     8
280
     0
  0
ATTDEF
  5
79
330
6E
100
AcDbEntity
  8
AM_6
100
AcDbText
 10
8.74325
 20
0.7432500000000002
 30
0.0
 40
0.5
  1
072320
100
AcDbAttributeDefinition
  3

  2
PN
 70
     8
280
     0
  0
ATTDEF
  5
7A
330
6E
100
AcDbEntity
  8
AM_6
100
AcDbText
 10
8.74325
 20
0.2432500000000002
 30
0.0
 40
0.5
  1
Expansion
100
AcDbAttributeDefinition
  3

  2
TYPE
 70
     8
280
     0
  0
ATTDEF
  5
7B
330
6E
100
AcDbEntity
  8
AM_6
100
AcDbText
 10
8.74325
 20
-0.2567499999999998
 30
0.0
 40
0.5
  1
Expansion
100
AcDbAttributeDefinition
  3

  2
EF
 70
     8
280
     0
  0
ATTDEF
  5
7C
330
6E
100
AcDbEntity
  8
AM_6
100
AcDbText
 10
8.74325
 20
-0.7567499999999998
 30
0.0
 40
0.5
  1
SFC-IP-204RE
100
AcDbAttributeDefinition
  3

  2
DESCRIPTION
 70
     8
280
     0
  0
ATTDEF
  5
7D
330
6E
100
AcDbEntity
  8
AM_6
100
AcDbText
 10
8.74325
 20
-1.25675
 30
0.0
 40
0.5
  1
Contact Seal
100
AcDbAttributeDefinition
  3

  2
ST
 70
     8
280
     0
  0
ATTDEF
  5
7E
330
6E
100
AcDbEntity
  8
AM_6
100
AcDbText
 10
8.74325
 20
-1.75675
 30
0.0
 40
0.5
  1
3.03
100
AcDbAttributeDefinition
  3

  2
A
 70
     8
280
     0
  0
ATTDEF
  5
7F
330
6E
100
AcDbEntity
  8
AM_6
100
AcDbText
 10
8.74325
 20
-2.25675
 30
0.0
 40
0.5
  1
7.13
100
AcDbAttributeDefinition
  3

  2
B
 70
     8
280
     0
  0
ATTDEF
  5
80
330
6E
100
AcDbEntity
  8
AM_6
100
AcDbText
 10
8.74325
 20
-2.75675
 30
0.0
 40
0.5
  1
2.42
100
AcDbAttributeDefinition
  3

  2
C
 70
     8
280
     0
  0
ATTDEF
  5
81
330
6E
100
AcDbEntity
  8
AM_6
100
AcDbText
 10
8.74325
 20
-3.25675
 30
0.0
 40
0.5
  1
4.25
100
AcDbAttributeDefinition
  3

  2
D
 70
     8
280
     0
  0
ATTDEF
  5
82
330
6E
100
AcDbEntity
  8
AM_6
100
AcDbText
 10
8.74325
 20
-3.75675
 30
0.0
 40
0.5
  1
6.0000
100
AcDbAttributeDefinition
  3

  2
DD
 70
     8
280
     0
  0
ATTDEF
  5
83
330
6E
100
AcDbEntity
  8
AM_6
100
AcDbText
 10
8.74325
 20
-4.25675
 30
0.0
 40
0.5
  1
1.02
100
AcDbAttributeDefinition
  3

  2
E
 70
     8
280
     0
  0
ATTDEF
  5
84
330
6E
100
AcDbEntity
  8
AM_6
100
AcDbText
 10
8.74325
 20
-4.75675
 30
0.0
 40
0.5
  1
0.5000
100
AcDbAttributeDefinition
  3

  2
F
 70
     8
280
     0
  0
ATTDEF
  5
85
330
6E
100
AcDbEntity
  8
AM_6
100
AcDbText
 10
8.74325
 20
-5.25675
 30
0.0
 40
0.5
  1
1.80
100
AcDbAttributeDefinition
  3

  2
G
 70
     8
280
     0
  0
ATTDEF
  5
86
330
6E
100
AcDbEntity
  8
AM_6
100
AcDbText
 10
8.74325
 20
-5.75675
 30
0.0
 40
0.5
  1
0.56
100
AcDbAttributeDefinition
  3

  2
H
 70
     8
280
     0
  0
ATTDEF
  5
87
330
6E
100
AcDbEntity
  8
AM_6
100
AcDbText
 10
8.74325
 20
-6.25675
 30
0.0
 40
0.5
  1
5.000
100
AcDbAttributeDefinition
  3

  2
K
 70
     8
280
     0
  0
ATTDEF
  5
88
330
6E
100
AcDbEntity
  8
AM_6
100
AcDbText
 10
8.74325
 20
-6.75675
 30
0.0
 40
0.5
  1
3.50
100
AcDbAttributeDefinition
  3

  2
L
 70
     8
280
     0
  0
ATTDEF
  5
89
330
6E
100
AcDbEntity
  8
AM_6
100
AcDbText
 10
8.74325
 20
-7.25675
 30
0.0
 40
0.5
  1
0.5000
100
AcDbAttributeDefinition
  3

  2
M
 70
     8
280
     0
  0
ATTDEF
  5
8A
330
6E
100
AcDbEntity
  8
AM_6
100
AcDbText
 10
8.74325
 20
-7.75675
 30
0.0
 40
0.5
  1
3.34
100
AcDbAttributeDefinition
  3

  2
N
 70
     8
280
     0
  0
ATTDEF
  5
8B
330
6E
100
AcDbEntity
  8
AM_6
100
AcDbText
 10
8.74325
 20
-8.25675
 30
0.0
 40
0.5
  1
1.23
100
AcDbAttributeDefinition
  3

  2
P
 70
     8
280
     0
  0
ATTDEF
  5
8C
330
6E
100
AcDbEntity
  8
AM_6
100
AcDbText
 10
8.74325
 20
-8.75675
 30
0.0
 40
0.5
  1
1.55
100
AcDbAttributeDefinition
  3

  2
Q
 70
     8
280
     0
  0
ATTDEF
  5
8D
330
6E
100
AcDbEntity
  8
AM_6
100
AcDbText
 10
8.74325
 20
-9.25675
 30
0.0
 40
0.5
  1
0.25
100
AcDbAttributeDefinition
  3

  2
X
 70
     8
280
     0
  0
ATTDEF
  5
8E
330
6E
100
AcDbEntity
  8
AM_6
100
AcDbText
 10
8.74325
 20
-9.75675
 30
0.0
 40
0.5
  1
0.025
100
AcDbAttributeDefinition
  3

  2
Y
 70
     8
280
     0
  0
ATTDEF
  5
8F
330
6E
100
AcDbEntity
  8
AM_6
100
AcDbText
 10
8.74325
 20
-10.25675
 30
0.0
 40
0.5
  1
2.59
100
AcDbAttributeDefinition
  3

  2
Z
 70
     8
280
     0
  0
ATTDEF
  5
90
330
6E
100
AcDbEntity
  8
AM_6
100
AcDbText
 10
8.74325
 20
-10.75675
 30
0.0
 40
0.5
  1
baldor
100
AcDbAttributeDefinition
  3

  2
COMPANY
 70
     8
280
     0
  0
INSERT
  5
92
330
6E
100
AcDbEntity
  8
0
100
AcDbBlockReference
  2
2_405015E_Inch_1_0_in_072320_0
 10
0.0
 20
0.0
 30
0.0
  0
INSERT
  5
D4
330
6E
100
AcDbEntity
  8
0
100
AcDbBlockReference
  2
3_405015E_Inch_2_0_in_072320_0
 10
0.0
 20
0.0
 30
0.0
  0
INSERT
  5
128
330
6E
100
AcDbEntity
  8
0
100
AcDbBlockReference
  2
4_ASME_B18_3_10_1_0_in_072320_0
 10
0.0
 20
0.0
 30
0.0
  0
INSERT
  5
147
330
6E
100
AcDbEntity
  8
0
100
AcDbBlockReference
  2
5_ASME_B18_3_10_2_0_in_072320_0
 10
0.0
 20
0.0
 30
0.0
  0
INSERT
  5
164
330
6E
100
AcDbEntity
  8
0
100
AcDbBlockReference
  2
6_070893LW_0_in_072320_0
 10
0.0
 20
0.0
 30
0.0
  0
INSERT
  5
1AF
330
6E
100
AcDbEntity
  8
0
100
AcDbBlockReference
  2
7_070893I_0_in_072320_0
 10
0.0
 20
0.0
 30
0.0
  0
INSERT
  5
209
330
6E
100
AcDbEntity
  8
0
100
AcDbBlockReference
  2
8_B072320_0_in_072320_0
 10
0.0
 20
0.0
 30
0.0
  0
ENDBLK
  5
71
330
6E
100
AcDbEntity
  8
0
100
AcDbBlockEnd
  0
BLOCK
  5
93
330
91
100
AcDbEntity
  8
0
100
AcDbBlockBegin
  2
2_405015E_Inch_1_0_in_072320_0
 70
     2
 10
0.0
 20
0.0
 30
0.0
  3
2_405015E_Inch_1_0_in_072320_0
  1

  0
ATTDEF
  5
95
330
91
100
AcDbEntity
  8
AM_6
100
AcDbText
 10
5.21875
 20
-2.46090179260667
 30
0.0
 40
0.5
  1
405015E -Inch
100
AcDbAttributeDefinition
  3

  2
NN
 70
     8
280
     0
  0
ATTDEF
  5
96
330
91
100
AcDbEntity
  8
AM_6
100
AcDbText
 10
5.21875
 20
-2.96090179260667
 30
0.0
 40
0.5
  1
Grease Fitting
100
AcDbAttributeDefinition
  3

  2
NT
 70
     8
280
     0
  0
ATTDEF
  5
97
330
91
100
AcDbEntity
  8
AM_6
100
AcDbText
 10
5.21875
 20
-3.46090179260667
 30
0.0
 40
0.5
  1
405015E-Inch
100
AcDbAttributeDefinition
  3

  2
NB
 70
     8
280
     0
  0
ATTDEF
  5
98
330
91
100
AcDbEntity
  8
AM_6
100
AcDbText
 10
5.21875
 20
-3.96090179260667
 30
0.0
 40
0.5
  1
$MN.-Inch
100
AcDbAttributeDefinition
  3

  2
NBSYN
 70
     8
280
     0
  0
ATTDEF
  5
99
330
91
100
AcDbEntity
  8
AM_6
100
AcDbText
 10
5.21875
 20
-4.46090179260667
 30
0.0
 40
0.5
  1
405015E
100
AcDbAttributeDefinition
  3

  2
LINA
 70
     8
280
     0
  0
ATTDEF
  5
9A
330
91
100
AcDbEntity
  8
AM_6
100
AcDbText
 10
5.21875
 20
-4.96090179260667
 30
0.0
 40
0.5
  1
405015E
100
AcDbAttributeDefinition
  3

  2
MN
 70
     8
280
     0
  0
ATTDEF
  5
9B
330
91
100
AcDbEntity
  8
AM_6
100
AcDbText
 10
5.21875
 20
-5.46090179260667
 30
0.0
 40
0.5
  1
1/8 x 27PTF
100
AcDbAttributeDefinition
  3

  2
T
 70
     8
280
     0
  0
ATTDEF
  5
9C
330
91
100
AcDbEntity
  8
AM_6
100
AcDbText
 10
5.21875
 20
-5.96090179260667
 30
0.0
 40
0.5
  1
baldor
100
AcDbAttributeDefinition
  3

  2
COMPANY
 70
     8
280
     0
  0
ELLIPSE
  5
9F
330
91
100
AcDbEntity
  8
AM_9
100
AcDbEllipse
 10
0.0
 20
-2.610360987751656
 30
0.0
 11
0.161902872472269
 21
0.0
 31
0.0
210
0.0
220
0.0
230
1.0
 40
0.8499026917123769
 41
0.0
 42
6.283185307179586
  0
LWPOLYLINE
  5
A0
330
91
100
AcDbEntity
  8
AM_9
100
AcDbPolyline
 90
        4
 70
     0
 43
0.0
 10
0.0
 20
-2.969455630163749
 10
-0.0544416102741496
 20
-2.939235823147052
 10
-0.0818700010907651
 20
-2.924828471623818
 10
-0.109375
 20
-2.911008164136683
  0
LWPOLYLINE
  5
A1
330
91
100
AcDbEntity
  8
AM_9
100
AcDbPolyline
 90
        4
 70
     0
 43
0.0
 10
0.109375
 20
-2.911008164136683
 10
0.08203125
 20
-2.924745581682203
 10
0.0546875
 20
-2.93910402543779
 10
0.0
 20
-2.969455630163749
  0
LWPOLYLINE
  5
A2
330
91
100
AcDbEntity
  8
AM_9
100
AcDbPolyline
 90
        4
 70
     0
 43
0.0
 10
-0.1093749999999999
 20
-2.963702131022851
 10
-0.0820312499999999
 20
-2.976799407500112
 10
-0.0546874999999999
 20
-2.989275657767306
 10
0.0
 20
-3.012593441086908
  0
LWPOLYLINE
  5
A3
330
91
100
AcDbEntity
  8
AM_9
100
AcDbPolyline
 90
        4
 70
     0
 43
0.0
 10
0.0
 20
-3.012593441086908
 10
0.0544416102741496
 20
-2.989385172078397
 10
0.0818700010907651
 20
-2.976874764512218
 10
0.109375
 20
-2.963702131022851
  0
LWPOLYLINE
  5
A4
330
91
100
AcDbEntity
  8
AM_9
100
AcDbPolyline
 90
        4
 70
     0
 43
0.0
 10
-0.109375
 20
-2.911008164136683
 10
-0.1367187499999999
 20
-2.897910887659422
 10
-0.1640625
 20
-2.885434637392229
 10
-0.21875
 20
-2.862116854072627
  0
LWPOLYLINE
  5
A5
330
91
100
AcDbEntity
  8
AM_9
100
AcDbPolyline
 90
        4
 70
     0
 43
0.0
 10
0.21875
 20
-2.862116854072627
 10
0.1643083897258504
 20
-2.885325123081137
 10
0.1368799989092349
 20
-2.897835530647316
 10
0.109375
 20
-2.911008164136683
  0
LINE
  5
A6
330
91
100
AcDbEntity
  8
AM_9
100
AcDbLine
 10
0.0
 20
-3.012593441086908
 30
0.0
 11
0.0
 21
-2.969455630163749
 31
0.0
  0
LINE
  5
A7
330
91
100
AcDbEntity
  8
AM_9
100
AcDbLine
 10
0.109375
 20
-2.963702131022851
 30
0.0
 11
0.1151730630019822
 21
-2.960842608185501
 31
0.0
  0
LINE
  5
A8
330
91
100
AcDbEntity
  8
AM_9
100
AcDbLine
 10
-0.1171873134275377
 20
-2.95984244367539
 30
0.0
 11
-0.109375
 21
-2.963702131022851
 31
0.0
  0
LINE
  5
A9
330
91
100
AcDbEntity
  8
AM_9
100
AcDbLine
 10
-0.1983651485240026
 20
-2.621198673450997
 30
0.0
 11
-0.2054903500418301
 21
-2.741185593232068
 31
0.0
  0
LINE
  5
AA
330
91
100
AcDbEntity
  8
AM_9
100
AcDbLine
 10
0.2054903500418301
 20
-2.741185593232068
 30
0.0
 11
0.1983651485240026
 21
-2.621198673450997
 31
0.0
  0
ELLIPSE
  5
AB
330
91
100
AcDbEntity
  8
AM_9
100
AcDbEllipse
 10
-0.0000000000002932
 20
-2.802693966885939
 30
0.0
 11
-0.2187500000005655
 21
2.678914873141760E-17
 31
0.0
210
0.0
220
0.0
230
1.0
 40
0.8499026917116679
 41
0.9907868816460796
 42
2.150805771945957
  0
ELLIPSE
  5
AC
330
91
100
AcDbEntity
  8
AM_9
100
AcDbEllipse
 10
0.0000000000000648
 20
-2.802693966886115
 30
0.0
 11
-0.2137500000001227
 21
2.617682533178970E-17
 31
0.0
210
0.0
220
0.0
230
1.0
 40
0.8499026917122373
 41
0.9513215813854465
 42
2.190271072203852
  0
LINE
  5
AD
330
91
100
AcDbEntity
  8
AM_9
100
AcDbLine
 10
0.0758752261806907
 20
-2.919709117805446
 30
0.0
 11
0.0858619167554337
 21
-2.910836128192515
 31
0.0
  0
LINE
  5
AE
330
91
100
AcDbEntity
  8
AM_9
100
AcDbLine
 10
-0.0858619167554337
 20
-2.910836128192515
 30
0.0
 11
-0.0758752261806907
 21
-2.919709117805446
 31
0.0
  0
ELLIPSE
  5
AF
330
91
100
AcDbEntity
  8
AM_9
100
AcDbEllipse
 10
0.0
 20
-2.841030472700512
 30
0.0
 11
-0.1188200907348975
 21
1.455126437928903E-17
 31
0.0
210
0.0
220
0.0
230
1.0
 40
0.8499026917123765
 41
0.0910568301679353
 42
3.050535823421858
  0
ELLIPSE
  5
B0
330
91
100
AcDbEntity
  8
AM_9
100
AcDbEllipse
 10
0.0
 20
-2.812346552359443
 30
0.0
 11
-0.1725340532830151
 21
2.570957760527437E-9
 31
0.0
210
0.0
220
0.0
230
1.0
 40
0.8499026917123783
 41
0.672348737773067
 42
2.4692439471054
  0
ELLIPSE
  5
B1
330
91
100
AcDbEntity
  8
AM_9
100
AcDbEllipse
 10
-0.0000000000000028
 20
-2.858022632116649
 30
0.0
 11
-0.1049999999999972
 21
1.285879139104686E-17
 31
0.0
210
0.0
220
0.0
230
1.0
 40
0.8499026917123884
 41
5.926974906373342
 42
9.780988361575607
  0
LINE
  5
B2
330
91
100
AcDbEntity
  8
AM_9
100
AcDbLine
 10
-0.105
 20
-2.858022632116644
 30
0.0
 11
-0.105
 21
-2.873830822182495
 31
0.0
  0
LINE
  5
B3
330
91
100
AcDbEntity
  8
AM_9
100
AcDbLine
 10
0.105
 20
-2.873830822182495
 30
0.0
 11
0.105
 21
-2.858022632116644
 31
0.0
  0
ELLIPSE
  5
B4
330
91
100
AcDbEntity
  8
AM_9
100
AcDbEllipse
 10
0.0
 20
-2.873830822182494
 30
0.0
 11
-0.1050000000000001
 21
1.564621938212798E-9
 31
0.0
210
0.0
220
0.0
230
1.0
 40
0.8499026917123769
 41
5.34505899576989
 42
10.36290430091238
  0
ELLIPSE
  5
B5
330
91
100
AcDbEntity
  8
AM_9
100
AcDbEllipse
 10
0.0
 20
-2.905447202314195
 30
0.0
 11
-0.1349999999999999
 21
1.653273178848926E-17
 31
0.0
210
0.0
220
0.0
230
1.0
 40
0.8499026917123798
 41
0.709764558316504
 42
2.431828095273289
  0
ELLIPSE
  5
B6
330
91
100
AcDbEntity
  8
AM_9
100
AcDbEllipse
 10
0.0000000000000002
 20
-2.75
 30
0.0
 11
-0.2057518972230698
 21
2.519734023527277E-17
 31
0.0
210
0.0
220
0.0
230
1.0
 40
0.8499026917123772
 41
0.0
 42
6.283185307179586
  0
ELLIPSE
  5
B7
330
91
100
AcDbEntity
  8
AM_9
100
AcDbEllipse
 10
0.0000000000000008
 20
-2.62970744822955
 30
0.0
 11
-0.1986176267812162
 21
2.432364408918600E-17
 31
0.0
210
0.0
220
0.0
230
1.0
 40
0.8499026917123765
 41
0.0
 42
6.283185307179586
  0
ELLIPSE
  5
B8
330
91
100
AcDbEntity
  8
AM_9
100
AcDbEllipse
 10
0.0
 20
-2.750000000000001
 30
0.0
 11
-0.2187500000000001
 21
2.678914873134837E-17
 31
0.0
210
0.0
220
0.0
230
1.0
 40
0.8499026917123784
 41
0.0
 42
6.283185307179586
  0
LWPOLYLINE
  5
BA
330
91
100
AcDbEntity
  8
AM_4
100
AcDbPolyline
 90
        4
 70
     0
 43
0.0
 10
0.1151730630019822
 20
-2.960842608185501
 10
0.13671875
 20
-2.949964713477332
 10
0.1640625
 20
-2.935606269721744
 10
0.21875
 20
-2.905254664995786
  0
LWPOLYLINE
  5
BB
330
91
100
AcDbEntity
  8
AM_4
100
AcDbPolyline
 90
        4
 70
     0
 43
0.0
 10
-0.21875
 20
-2.905254664995786
 10
-0.1643083897258504
 20
-2.935474472012483
 10
-0.1368799989092348
 20
-2.949881823535716
 10
-0.1171873134275377
 20
-2.95984244367539
  0
ELLIPSE
  5
BC
330
91
100
AcDbEntity
  8
AM_4
100
AcDbEllipse
 10
0.0000000000000003
 20
-2.802693966886168
 30
0.0
 11
-0.2187500000000004
 21
2.678914873134840E-17
 31
0.0
210
0.0
220
0.0
230
1.0
 40
0.8499026917123754
 41
2.15080577194589
 42
7.273972188823486
  0
ELLIPSE
  5
BD
330
91
100
AcDbEntity
  8
AM_4
100
AcDbEllipse
 10
0.0000000000000005
 20
-2.802693966886169
 30
0.0
 11
-0.2137500000000005
 21
2.617682533177473E-17
 31
0.0
210
0.0
220
0.0
230
1.0
 40
0.8499026917123763
 41
2.190271072204347
 42
7.23450688856503
  0
LWPOLYLINE
  5
BE
330
91
100
AcDbEntity
  8
AM_4
100
AcDbPolyline
 90
        4
 70
     0
 43
0.0
 10
0.109375
 20
-2.641685802749485
 10
0.08203125
 20
-2.627948385203966
 10
0.0546875
 20
-2.613589941448379
 10
0.0
 20
-2.58323833672242
  0
LWPOLYLINE
  5
BF
330
91
100
AcDbEntity
  8
AM_4
100
AcDbPolyline
 90
        4
 70
     0
 43
0.0
 10
0.21875
 20
-2.690577112813542
 10
0.1643083897258504
 20
-2.667368843805032
 10
0.1368799989092349
 20
-2.654858436238852
 10
0.109375
 20
-2.641685802749485
  0
LINE
  5
C0
330
91
100
AcDbEntity
  8
AM_4
100
AcDbLine
 10
0.21875
 20
-2.905254664995786
 30
0.0
 11
0.21875
 21
-2.647439301890383
 31
0.0
  0
LWPOLYLINE
  5
C1
330
91
100
AcDbEntity
  8
AM_4
100
AcDbPolyline
 90
        4
 70
     0
 43
0.0
 10
0.109375
 20
-2.588991835863318
 10
0.1367187499999999
 20
-2.602729253408837
 10
0.1640625
 20
-2.617087697164424
 10
0.21875
 20
-2.647439301890383
  0
LWPOLYLINE
  5
C2
330
91
100
AcDbEntity
  8
AM_4
100
AcDbPolyline
 90
        4
 70
     0
 43
0.0
 10
0.0
 20
-2.540100525799261
 10
0.0544416102741496
 20
-2.563308794807771
 10
0.0818700010907651
 20
-2.575819202373951
 10
0.109375
 20
-2.588991835863318
  0
LINE
  5
C3
330
91
100
AcDbEntity
  8
AM_4
100
AcDbLine
 10
-0.21875
 20
-2.905254664995786
 30
0.0
 11
-0.21875
 21
-2.647439301890383
 31
0.0
  0
LWPOLYLINE
  5
C4
330
91
100
AcDbEntity
  8
AM_4
100
AcDbPolyline
 90
        4
 70
     0
 43
0.0
 10
-0.1093749999999999
 20
-2.641685802749485
 10
-0.1367187499999999
 20
-2.654783079226747
 10
-0.1640625
 20
-2.66725932949394
 10
-0.21875
 20
-2.690577112813542
  0
LWPOLYLINE
  5
C5
330
91
100
AcDbEntity
  8
AM_4
100
AcDbPolyline
 90
        4
 70
     0
 43
0.0
 10
0.0
 20
-2.58323833672242
 10
-0.0544416102741496
 20
-2.613458143739117
 10
-0.0818700010907651
 20
-2.62786549526235
 10
-0.1093749999999999
 20
-2.641685802749485
  0
LINE
  5
C6
330
91
100
AcDbEntity
  8
AM_4
100
AcDbLine
 10
0.0
 20
-2.58323833672242
 30
0.0
 11
0.0
 21
-2.540100525799261
 31
0.0
  0
LWPOLYLINE
  5
C7
330
91
100
AcDbEntity
  8
AM_4
100
AcDbPolyline
 90
        4
 70
     0
 43
0.0
 10
-0.109375
 20
-2.588991835863318
 10
-0.08203125
 20
-2.575894559386056
 10
-0.0546875
 20
-2.563418309118863
 10
0.0
 20
-2.540100525799261
  0
LWPOLYLINE
  5
C8
330
91
100
AcDbEntity
  8
AM_4
100
AcDbPolyline
 90
        4
 70
     0
 43
0.0
 10
-0.21875
 20
-2.647439301890383
 10
-0.1643083897258504
 20
-2.617219494873686
 10
-0.1368799989092349
 20
-2.602812143350453
 10
-0.109375
 20
-2.588991835863318
  0
ELLIPSE
  5
C9
330
91
100
AcDbEntity
  8
AM_4
100
AcDbEllipse
 10
0.0000000000000002
 20
-2.841030472700512
 30
0.0
 11
-0.1188200907348974
 21
1.455126437928901E-17
 31
0.0
210
0.0
220
0.0
230
1.0
 40
0.8499026917123776
 41
3.050535823421858
 42
6.374242137347521
  0
ELLIPSE
  5
CA
330
91
100
AcDbEntity
  8
AM_4
100
AcDbEllipse
 10
-0.0000000000000002
 20
-2.812346552359443
 30
0.0
 11
-0.1725340532830156
 21
2.112932760969640E-17
 31
0.0
210
0.0
220
0.0
230
1.0
 40
0.8499026917123784
 41
2.469243931461066
 42
6.955534029308317
  0
ELLIPSE
  5
CB
330
91
100
AcDbEntity
  8
AM_4
100
AcDbEllipse
 10
0.0
 20
-2.858022632116644
 30
0.0
 11
-0.1050000000000002
 21
1.285879139104723E-17
 31
0.0
210
0.0
220
0.0
230
1.0
 40
0.8499026917123766
 41
3.49780305439598
 42
5.926974906373397
  0
ELLIPSE
  5
CC
330
91
100
AcDbEntity
  8
AM_4
100
AcDbEllipse
 10
-0.000000000000002
 20
-2.87383082218249
 30
0.0
 11
-0.1049999999999924
 21
1.285879139104627E-17
 31
0.0
210
0.0
220
0.0
230
1.0
 40
0.8499026917123933
 41
4.079718979366087
 42
5.345058981403263
  0
LINE
  5
CD
330
91
100
AcDbEntity
  8
AM_4
100
AcDbLine
 10
-0.0620865094155318
 20
-2.801863255545561
 30
0.0
 11
-0.0798255121056838
 21
-2.812917473780995
 31
0.0
  0
LINE
  5
CE
330
91
100
AcDbEntity
  8
AM_4
100
AcDbLine
 10
0.0798255121056838
 20
-2.812917473780995
 30
0.0
 11
0.0620865094155318
 21
-2.801863255545561
 31
0.0
  0
ELLIPSE
  5
CF
330
91
100
AcDbEntity
  8
AM_4
100
AcDbEllipse
 10
0.000000000000004
 20
-2.905447202314187
 30
0.0
 11
-0.1349999999999877
 21
1.653273178848776E-17
 31
0.0
210
0.0
220
0.0
230
1.0
 40
0.8499026917123875
 41
2.431828095273219
 42
6.992949865496124
  0
LINE
  5
D0
330
91
100
AcDbEntity
  8
AM_4
100
AcDbLine
 10
0.0778827620330286
 20
-3.004469865538493
 30
0.0
 11
0.1023995687144097
 21
-2.980216076307837
 31
0.0
  0
LINE
  5
D1
330
91
100
AcDbEntity
  8
AM_4
100
AcDbLine
 10
-0.1023995687144097
 20
-2.980216076307837
 30
0.0
 11
-0.0778827620330286
 21
-3.004469865538493
 31
0.0
  0
ELLIPSE
  5
D2
330
91
100
AcDbEntity
  8
AM_4
100
AcDbEllipse
 10
0.0000000000000001
 20
-2.94760237582313
 30
0.0
 11
-0.1026779019331875
 21
1.530019980326925E-9
 31
0.0
210
0.0
220
0.0
230
1.0
 40
0.8499026917123763
 41
0.0
 42
6.283185307179586
  0
ENDBLK
  5
94
330
91
100
AcDbEntity
  8
0
100
AcDbBlockEnd
  0
BLOCK
  5
D5
330
D3
100
AcDbEntity
  8
0
100
AcDbBlockBegin
  2
3_405015E_Inch_2_0_in_072320_0
 70
     2
 10
0.0
 20
0.0
 30
0.0
  3
3_405015E_Inch_2_0_in_072320_0
  1

  0
ATTDEF
  5
D7
330
D3
100
AcDbEntity
  8
AM_6
100
AcDbText
 10
5.21875
 20
3.034862696542091
 30
0.0
 40
0.5
  1
405015E -Inch
100
AcDbAttributeDefinition
  3

  2
NN
 70
     8
280
     0
  0
ATTDEF
  5
D8
330
D3
100
AcDbEntity
  8
AM_6
100
AcDbText
 10
5.21875
 20
2.534862696542091
 30
0.0
 40
0.5
  1
Grease Fitting
100
AcDbAttributeDefinition
  3

  2
NT
 70
     8
280
     0
  0
ATTDEF
  5
D9
330
D3
100
AcDbEntity
  8
AM_6
100
AcDbText
 10
5.21875
 20
2.034862696542091
 30
0.0
 40
0.5
  1
405015E-Inch
100
AcDbAttributeDefinition
  3

  2
NB
 70
     8
280
     0
  0
ATTDEF
  5
DA
330
D3
100
AcDbEntity
  8
AM_6
100
AcDbText
 10
5.21875
 20
1.534862696542091
 30
0.0
 40
0.5
  1
$MN.-Inch
100
AcDbAttributeDefinition
  3

  2
NBSYN
 70
     8
280
     0
  0
ATTDEF
  5
DB
330
D3
100
AcDbEntity
  8
AM_6
100
AcDbText
 10
5.21875
 20
1.034862696542091
 30
0.0
 40
0.5
  1
405015E
100
AcDbAttributeDefinition
  3

  2
LINA
 70
     8
280
     0
  0
ATTDEF
  5
DC
330
D3
100
AcDbEntity
  8
AM_6
100
AcDbText
 10
5.21875
 20
0.5348626965420911
 30
0.0
 40
0.5
  1
405015E
100
AcDbAttributeDefinition
  3

  2
MN
 70
     8
280
     0
  0
ATTDEF
  5
DD
330
D3
100
AcDbEntity
  8
AM_6
100
AcDbText
 10
5.21875
 20
0.0348626965420911
 30
0.0
 40
0.5
  1
1/8 x 27PTF
100
AcDbAttributeDefinition
  3

  2
T
 70
     8
280
     0
  0
ATTDEF
  5
DE
330
D3
100
AcDbEntity
  8
AM_6
100
AcDbText
 10
5.21875
 20
-0.4651373034579089
 30
0.0
 40
0.5
  1
baldor
100
AcDbAttributeDefinition
  3

  2
COMPANY
 70
     8
280
     0
  0
ELLIPSE
  5
DF
330
D3
100
AcDbEntity
  8
AM_9
100
AcDbEllipse
 10
0.0
 20
2.610360987751656
 30
0.0
 11
-0.161902872472269
 21
1.982738345459263E-17
 31
0.0
210
0.0
220
0.0
230
1.0
 40
0.8499026917123796
 41
0.0
 42
6.283185307179586
  0
ELLIPSE
  5
E0
330
D3
100
AcDbEntity
  8
AM_9
100
AcDbEllipse
 10
0.0
 20
2.75
 30
0.0
 11
0.2187500000000007
 21
3.259629011154186E-9
 31
0.0
210
0.0
220
0.0
230
1.0
 40
0.8499026917123802
 41
1.047197537315
 42
3.141592638688632
  0
LWPOLYLINE
  5
E1
330
D3
100
AcDbEntity
  8
AM_9
100
AcDbPolyline
 90
        4
 70
     0
 43
0.0
 10
-0.109375
 20
2.911008164136684
 10
-0.08203125
 20
2.924745581682203
 10
-0.0546875
 20
2.93910402543779
 10
0.0
 20
2.969455630163749
  0
LWPOLYLINE
  5
E2
330
D3
100
AcDbEntity
  8
AM_9
100
AcDbPolyline
 90
        4
 70
     0
 43
0.0
 10
0.0
 20
2.969455630163749
 10
0.0544416102741496
 20
2.939235823147052
 10
0.0818700010907651
 20
2.924828471623818
 10
0.109375
 20
2.911008164136684
  0
LWPOLYLINE
  5
E3
330
D3
100
AcDbEntity
  8
AM_9
100
AcDbPolyline
 90
        4
 70
     0
 43
0.0
 10
0.0
 20
3.012593441086908
 10
-0.0544416102741496
 20
2.989385172078397
 10
-0.0818700010907651
 20
2.976874764512218
 10
-0.109375
 20
2.963702131022851
  0
LWPOLYLINE
  5
E4
330
D3
100
AcDbEntity
  8
AM_9
100
AcDbPolyline
 90
        4
 70
     0
 43
0.0
 10
0.1093749999999999
 20
2.963702131022851
 10
0.0820312499999999
 20
2.976799407500112
 10
0.0546874999999999
 20
2.989275657767306
 10
0.0
 20
3.012593441086908
  0
ELLIPSE
  5
E5
330
D3
100
AcDbEntity
  8
AM_9
100
AcDbEllipse
 10
0.0
 20
2.75
 30
0.0
 11
0.2187499999999999
 21
0.0
 31
0.0
210
0.0
220
0.0
230
1.0
 40
0.8499026917123792
 41
0.0
 42
1.047197551196598
  0
LWPOLYLINE
  5
E6
330
D3
100
AcDbEntity
  8
AM_9
100
AcDbPolyline
 90
        4
 70
     0
 43
0.0
 10
0.109375
 20
2.911008164136684
 10
0.1367187499999999
 20
2.897910887659422
 10
0.1640625
 20
2.885434637392229
 10
0.21875
 20
2.862116854072627
  0
LWPOLYLINE
  5
E7
330
D3
100
AcDbEntity
  8
AM_9
100
AcDbPolyline
 90
        4
 70
     0
 43
0.0
 10
-0.21875
 20
2.862116854072627
 10
-0.1643083897258504
 20
2.885325123081137
 10
-0.1368799989092349
 20
2.897835530647316
 10
-0.109375
 20
2.911008164136684
  0
LINE
  5
E8
330
D3
100
AcDbEntity
  8
AM_9
100
AcDbLine
 10
0.0
 20
3.012593441086908
 30
0.0
 11
0.0
 21
2.969455630163749
 31
0.0
  0
LINE
  5
E9
330
D3
100
AcDbEntity
  8
AM_9
100
AcDbLine
 10
-0.109375
 20
2.963702131022851
 30
0.0
 11
-0.1151730630019822
 21
2.960842608185501
 31
0.0
  0
LINE
  5
EA
330
D3
100
AcDbEntity
  8
AM_9
100
AcDbLine
 10
0.1171873134275378
 20
2.95984244367539
 30
0.0
 11
0.109375
 21
2.963702131022851
 31
0.0
  0
ELLIPSE
  5
EB
330
D3
100
AcDbEntity
  8
AM_9
100
AcDbEllipse
 10
0.0000000000000001
 20
2.62970744822955
 30
0.0
 11
0.1986176267812153
 21
0.0
 31
0.0
210
0.0
220
0.0
230
1.0
 40
0.8499026917123782
 41
4.71238898038469
 42
9.475205074535475
  0
LINE
  5
EC
330
D3
100
AcDbEntity
  8
AM_9
100
AcDbLine
 10
0.1983651485240026
 20
2.621198673450997
 30
0.0
 11
0.20549035004183
 21
2.741185593232068
 31
0.0
  0
LINE
  5
ED
330
D3
100
AcDbEntity
  8
AM_9
100
AcDbLine
 10
-0.20549035004183
 20
2.741185593232068
 30
0.0
 11
-0.1983651485240026
 21
2.621198673450997
 31
0.0
  0
ELLIPSE
  5
EE
330
D3
100
AcDbEntity
  8
AM_9
100
AcDbEllipse
 10
0.0
 20
2.62970744822955
 30
0.0
 11
0.1986176267812153
 21
0.0
 31
0.0
210
0.0
220
0.0
230
1.0
 40
0.849902691712378
 41
3.192019767355895
 42
4.71238898038469
  0
ELLIPSE
  5
EF
330
D3
100
AcDbEntity
  8
AM_9
100
AcDbEllipse
 10
-0.0000000000000004
 20
2.750000000000001
 30
0.0
 11
0.2187500000000004
 21
0.0
 31
0.0
210
0.0
220
0.0
230
1.0
 40
0.8499026917123796
 41
5.23598775598299
 42
6.283185307179586
  0
ELLIPSE
  5
F0
330
D3
100
AcDbEntity
  8
AM_9
100
AcDbEllipse
 10
0.0000000000000003
 20
2.750000000000001
 30
0.0
 11
0.2187500000000003
 21
0.0
 31
0.0
210
0.0
220
0.0
230
1.0
 40
0.8499026917123798
 41
3.141592653589793
 42
5.235987755982985
  0
ELLIPSE
  5
F1
330
D3
100
AcDbEntity
  8
AM_9
100
AcDbEllipse
 10
0.0000000000001558
 20
2.802693966886127
 30
0.0
 11
0.2187500000003052
 21
0.0
 31
0.0
210
0.0
220
0.0
230
1.0
 40
0.8499026917116602
 41
1.04719755119769
 42
2.150805771945939
  0
ELLIPSE
  5
F2
330
D3
100
AcDbEntity
  8
AM_9
100
AcDbEllipse
 10
-0.0000000000001332
 20
2.802693966886157
 30
0.0
 11
0.2187500000002631
 21
0.0
 31
0.0
210
0.0
220
0.0
230
1.0
 40
0.8499026917116612
 41
0.9907868816438503
 42
1.047197551196463
  0
ELLIPSE
  5
F3
330
D3
100
AcDbEntity
  8
AM_9
100
AcDbEllipse
 10
-0.0000000000000111
 20
2.802693966886165
 30
0.0
 11
0.2137499999999808
 21
0.0
 31
0.0
210
0.0
220
0.0
230
1.0
 40
0.8499026917124441
 41
2.040072090643688
 42
2.190271072204446
  0
ELLIPSE
  5
F4
330
D3
100
AcDbEntity
  8
AM_9
100
AcDbEllipse
 10
0.0000000000000003
 20
2.802693966886169
 30
0.0
 11
0.2137499999999986
 21
0.0
 31
0.0
210
0.0
220
0.0
230
1.0
 40
0.8499026917123818
 41
1.045772126419736
 42
2.040072090643716
  0
ELLIPSE
  5
F5
330
D3
100
AcDbEntity
  8
AM_9
100
AcDbEllipse
 10
-0.0000000000000935
 20
2.802693966886038
 30
0.0
 11
0.2137500000001719
 21
0.0
 31
0.0
210
0.0
220
0.0
230
1.0
 40
0.8499026917124095
 41
0.9513215813853737
 42
1.045772126419705
  0
LINE
  5
F6
330
D3
100
AcDbEntity
  8
AM_9
100
AcDbLine
 10
-0.0758752261806905
 20
2.919709117805446
 30
0.0
 11
-0.0858619167554334
 21
2.910836128192515
 31
0.0
  0
LINE
  5
F7
330
D3
100
AcDbEntity
  8
AM_9
100
AcDbLine
 10
0.0858619167554334
 20
2.910836128192515
 30
0.0
 11
0.0758752261806905
 21
2.919709117805446
 31
0.0
  0
ELLIPSE
  5
F8
330
D3
100
AcDbEntity
  8
AM_9
100
AcDbEllipse
 10
0.0
 20
2.858022632116644
 30
0.0
 11
0.1050000000000005
 21
1.564621925354011E-9
 31
0.0
210
0.0
220
0.0
230
1.0
 40
0.8499026917123743
 41
0.763209464848317
 42
3.141592638688632
  0
ELLIPSE
  5
F9
330
D3
100
AcDbEntity
  8
AM_9
100
AcDbEllipse
 10
0.0
 20
2.841030472700512
 30
0.0
 11
0.1188200907348976
 21
0.0
 31
0.0
210
0.0
220
0.0
230
1.0
 40
0.8499026917123762
 41
0.76320948005496
 42
3.050535823421745
  0
ELLIPSE
  5
FA
330
D3
100
AcDbEntity
  8
AM_9
100
AcDbEllipse
 10
0.0000000000000002
 20
2.841030472700512
 30
0.0
 11
0.1188200907348974
 21
0.0
 31
0.0
210
0.0
220
0.0
230
1.0
 40
0.8499026917123815
 41
0.0910568301680543
 42
0.7632094800549603
  0
ELLIPSE
  5
FB
330
D3
100
AcDbEntity
  8
AM_9
100
AcDbEllipse
 10
0.0
 20
2.812346552359443
 30
0.0
 11
0.1725340532830157
 21
0.0
 31
0.0
210
0.0
220
0.0
230
1.0
 40
0.8499026917123783
 41
0.6723487221285644
 42
2.469243931461229
  0
ELLIPSE
  5
FC
330
D3
100
AcDbEntity
  8
AM_9
100
AcDbEllipse
 10
-0.0000000000000007
 20
2.858022632116639
 30
0.0
 11
0.1050000000000007
 21
0.0
 31
0.0
210
0.0
220
0.0
230
1.0
 40
0.849902691712368
 41
5.926974906373273
 42
7.046394787234587
  0
LINE
  5
FD
330
D3
100
AcDbEntity
  8
AM_9
100
AcDbLine
 10
0.105
 20
2.858022632116644
 30
0.0
 11
0.105
 21
2.873830822182495
 31
0.0
  0
LINE
  5
FE
330
D3
100
AcDbEntity
  8
AM_9
100
AcDbLine
 10
-0.105
 20
2.873830822182495
 30
0.0
 11
-0.105
 21
2.858022632116644
 31
0.0
  0
ELLIPSE
  5
FF
330
D3
100
AcDbEntity
  8
AM_9
100
AcDbEllipse
 10
0.0
 20
2.873830822182494
 30
0.0
 11
0.1050000000000001
 21
0.0
 31
0.0
210
0.0
220
0.0
230
1.0
 40
0.8499026917123774
 41
0.0
 42
4.079718979366147
  0
ELLIPSE
  5
100
330
D3
100
AcDbEntity
  8
AM_9
100
AcDbEllipse
 10
0.0000000000000007
 20
2.85802263211664
 30
0.0
 11
0.1050000000000008
 21
0.0
 31
0.0
210
0.0
220
0.0
230
1.0
 40
0.8499026917123677
 41
3.141592653589793
 42
3.497803054396112
  0
ELLIPSE
  5
101
330
D3
100
AcDbEntity
  8
AM_9
100
AcDbEllipse
 10
-0.0000000000000011
 20
2.873830822182494
 30
0.0
 11
0.1050000000000012
 21
0.0
 31
0.0
210
0.0
220
0.0
230
1.0
 40
0.849902691712373
 41
5.345058981403239
 42
6.283185307179586
  0
ELLIPSE
  5
102
330
D3
100
AcDbEntity
  8
AM_9
100
AcDbEllipse
 10
0.0
 20
2.905447202314196
 30
0.0
 11
0.1349999999999993
 21
0.0
 31
0.0
210
0.0
220
0.0
230
1.0
 40
0.8499026917123802
 41
0.7097645583165022
 42
2.431828095273291
  0
ELLIPSE
  5
103
330
D3
100
AcDbEntity
  8
AM_9
100
AcDbEllipse
 10
0.0
 20
2.750000000000001
 30
0.0
 11
0.2057518972230694
 21
0.0
 31
0.0
210
0.0
220
0.0
230
1.0
 40
0.8499026917123768
 41
0.0
 42
6.283185307179586
  0
LWPOLYLINE
  5
104
330
D3
100
AcDbEntity
  8
AM_4
100
AcDbPolyline
 90
        4
 70
     0
 43
0.0
 10
-0.1151730630019822
 20
2.960842608185501
 10
-0.13671875
 20
2.949964713477332
 10
-0.1640625
 20
2.935606269721744
 10
-0.21875
 20
2.905254664995786
  0
LWPOLYLINE
  5
105
330
D3
100
AcDbEntity
  8
AM_4
100
AcDbPolyline
 90
        4
 70
     0
 43
0.0
 10
0.21875
 20
2.905254664995786
 10
0.1643083897258504
 20
2.935474472012483
 10
0.1368799989092348
 20
2.949881823535716
 10
0.1171873134275378
 20
2.95984244367539
  0
ELLIPSE
  5
106
330
D3
100
AcDbEntity
  8
AM_4
100
AcDbEllipse
 10
0.000000000000001
 20
2.802693966886168
 30
0.0
 11
0.218750000000001
 21
3.259629011154191E-9
 31
0.0
210
0.0
220
0.0
230
1.0
 40
0.8499026917123769
 41
2.150805757819193
 42
3.141592638688632
  0
ELLIPSE
  5
107
330
D3
100
AcDbEntity
  8
AM_4
100
AcDbEllipse
 10
0.0000000000000013
 20
2.802693966886169
 30
0.0
 11
0.2187500000000016
 21
0.0
 31
0.0
210
0.0
220
0.0
230
1.0
 40
0.849902691712377
 41
3.141592653589793
 42
4.188790204786389
  0
ELLIPSE
  5
108
330
D3
100
AcDbEntity
  8
AM_4
100
AcDbEllipse
 10
-0.0000000000000014
 20
2.802693966886169
 30
0.0
 11
0.2187500000000016
 21
0.0
 31
0.0
210
0.0
220
0.0
230
1.0
 40
0.849902691712377
 41
4.188790204786397
 42
6.283185307179586
  0
ELLIPSE
  5
109
330
D3
100
AcDbEntity
  8
AM_4
100
AcDbEllipse
 10
-0.000000000000001
 20
2.802693966886168
 30
0.0
 11
0.2187500000000011
 21
0.0
 31
0.0
210
0.0
220
0.0
230
1.0
 40
0.8499026917123766
 41
0.0
 42
0.9907868816439395
  0
ELLIPSE
  5
10A
330
D3
100
AcDbEntity
  8
AM_4
100
AcDbEllipse
 10
-0.0000000000000001
 20
2.802693966886168
 30
0.0
 11
0.2137499999999999
 21
0.0
 31
0.0
210
0.0
220
0.0
230
1.0
 40
0.8499026917123786
 41
2.190271072204462
 42
4.71238898038469
  0
ELLIPSE
  5
10B
330
D3
100
AcDbEntity
  8
AM_4
100
AcDbEllipse
 10
-0.0000000000000014
 20
2.802693966886169
 30
0.0
 11
0.2137500000000014
 21
0.0
 31
0.0
210
0.0
220
0.0
230
1.0
 40
0.8499026917123745
 41
0.0611319696044461
 42
0.9513215813853252
  0
ELLIPSE
  5
10C
330
D3
100
AcDbEntity
  8
AM_4
100
AcDbEllipse
 10
-0.0000000000000008
 20
2.802693966886169
 30
0.0
 11
0.2137500000000009
 21
0.0
 31
0.0
210
0.0
220
0.0
230
1.0
 40
0.8499026917123766
 41
4.71238898038469
 42
6.344317276784034
  0
LINE
  5
10D
330
D3
100
AcDbEntity
  8
AM_4
100
AcDbLine
 10
0.21875
 20
2.905254664995786
 30
0.0
 11
0.21875
 21
2.647439301890382
 31
0.0
  0
LWPOLYLINE
  5
10E
330
D3
100
AcDbEntity
  8
AM_4
100
AcDbPolyline
 90
        4
 70
     0
 43
0.0
 10
0.1093749999999999
 20
2.641685802749485
 10
0.1367187499999999
 20
2.654783079226746
 10
0.1640625
 20
2.66725932949394
 10
0.21875
 20
2.690577112813542
  0
LWPOLYLINE
  5
10F
330
D3
100
AcDbEntity
  8
AM_4
100
AcDbPolyline
 90
        4
 70
     0
 43
0.0
 10
0.109375
 20
2.588991835863317
 10
0.08203125
 20
2.575894559386056
 10
0.0546875
 20
2.563418309118863
 10
0.0
 20
2.540100525799261
  0
LWPOLYLINE
  5
110
330
D3
100
AcDbEntity
  8
AM_4
100
AcDbPolyline
 90
        4
 70
     0
 43
0.0
 10
0.21875
 20
2.647439301890382
 10
0.1643083897258504
 20
2.617219494873686
 10
0.1368799989092349
 20
2.602812143350453
 10
0.109375
 20
2.588991835863317
  0
LINE
  5
111
330
D3
100
AcDbEntity
  8
AM_4
100
AcDbLine
 10
0.0
 20
2.58323833672242
 30
0.0
 11
0.0
 21
2.540100525799261
 31
0.0
  0
LWPOLYLINE
  5
112
330
D3
100
AcDbEntity
  8
AM_4
100
AcDbPolyline
 90
        4
 70
     0
 43
0.0
 10
-0.21875
 20
2.690577112813542
 10
-0.1643083897258504
 20
2.667368843805031
 10
-0.1368799989092349
 20
2.654858436238852
 10
-0.109375
 20
2.641685802749485
  0
LINE
  5
113
330
D3
100
AcDbEntity
  8
AM_4
100
AcDbLine
 10
-0.21875
 20
2.905254664995786
 30
0.0
 11
-0.21875
 21
2.647439301890382
 31
0.0
  0
LWPOLYLINE
  5
114
330
D3
100
AcDbEntity
  8
AM_4
100
AcDbPolyline
 90
        4
 70
     0
 43
0.0
 10
-0.109375
 20
2.588991835863317
 10
-0.1367187499999999
 20
2.602729253408837
 10
-0.1640625
 20
2.617087697164424
 10
-0.21875
 20
2.647439301890382
  0
LWPOLYLINE
  5
115
330
D3
100
AcDbEntity
  8
AM_4
100
AcDbPolyline
 90
        4
 70
     0
 43
0.0
 10
0.0
 20
2.540100525799261
 10
-0.0544416102741496
 20
2.563308794807771
 10
-0.0818700010907651
 20
2.575819202373951
 10
-0.109375
 20
2.588991835863317
  0
LWPOLYLINE
  5
116
330
D3
100
AcDbEntity
  8
AM_4
100
AcDbPolyline
 90
        4
 70
     0
 43
0.0
 10
-0.109375
 20
2.641685802749485
 10
-0.08203125
 20
2.627948385203966
 10
-0.0546875
 20
2.613589941448379
 10
0.0
 20
2.58323833672242
  0
LWPOLYLINE
  5
117
330
D3
100
AcDbEntity
  8
AM_4
100
AcDbPolyline
 90
        4
 70
     0
 43
0.0
 10
0.0
 20
2.58323833672242
 10
0.0544416102741496
 20
2.613458143739117
 10
0.0818700010907651
 20
2.62786549526235
 10
0.1093749999999999
 20
2.641685802749485
  0
ELLIPSE
  5
118
330
D3
100
AcDbEntity
  8
AM_4
100
AcDbEllipse
 10
0.0000000000000005
 20
2.841030472700512
 30
0.0
 11
0.1188200907348981
 21
0.0
 31
0.0
210
0.0
220
0.0
230
1.0
 40
0.8499026917123763
 41
3.050535823421744
 42
4.71238898038469
  0
ELLIPSE
  5
119
330
D3
100
AcDbEntity
  8
AM_4
100
AcDbEllipse
 10
-0.0000000000000005
 20
2.841030472700512
 30
0.0
 11
0.1188200907348981
 21
0.0
 31
0.0
210
0.0
220
0.0
230
1.0
 40
0.8499026917123763
 41
4.71238898038469
 42
6.374242137347636
  0
ELLIPSE
  5
11A
330
D3
100
AcDbEntity
  8
AM_4
100
AcDbEllipse
 10
0.0000000000000002
 20
2.812346552359443
 30
0.0
 11
0.1725340532830156
 21
0.0
 31
0.0
210
0.0
220
0.0
230
1.0
 40
0.8499026917123786
 41
2.469243931461232
 42
6.955534029308147
  0
ELLIPSE
  5
11B
330
D3
100
AcDbEntity
  8
AM_4
100
AcDbEllipse
 10
-0.0000000000000004
 20
2.858022632116645
 30
0.0
 11
0.1050000000000006
 21
0.0
 31
0.0
210
0.0
220
0.0
230
1.0
 40
0.8499026917123815
 41
3.497803054396169
 42
5.926974906373217
  0
ELLIPSE
  5
11C
330
D3
100
AcDbEntity
  8
AM_4
100
AcDbEllipse
 10
-0.0000000000000014
 20
2.873830822182497
 30
0.0
 11
0.1050000000000033
 21
0.0
 31
0.0
210
0.0
220
0.0
230
1.0
 40
0.8499026917123729
 41
4.71238898038469
 42
5.345058981403223
  0
LINE
  5
11D
330
D3
100
AcDbEntity
  8
AM_4
100
AcDbLine
 10
0.0620865094155314
 20
2.80186325554556
 30
0.0
 11
0.0798255121056832
 21
2.812917473780993
 31
0.0
  0
LINE
  5
11E
330
D3
100
AcDbEntity
  8
AM_4
100
AcDbLine
 10
-0.0798255121056832
 20
2.812917473780993
 30
0.0
 11
-0.0620865094155314
 21
2.80186325554556
 31
0.0
  0
ELLIPSE
  5
11F
330
D3
100
AcDbEntity
  8
AM_4
100
AcDbEllipse
 10
-0.0000000000000001
 20
2.905447202314194
 30
0.0
 11
0.1349999999999996
 21
0.0
 31
0.0
210
0.0
220
0.0
230
1.0
 40
0.8499026917123749
 41
4.079718979366149
 42
6.992949865496102
  0
ELLIPSE
  5
120
330
D3
100
AcDbEntity
  8
AM_4
100
AcDbEllipse
 10
0.0000000000000014
 20
2.873830822182497
 30
0.0
 11
0.1050000000000033
 21
0.0
 31
0.0
210
0.0
220
0.0
230
1.0
 40
0.8499026917123723
 41
4.079718979366156
 42
4.71238898038469
  0
ELLIPSE
  5
121
330
D3
100
AcDbEntity
  8
AM_4
100
AcDbEllipse
 10
0.0000000000000003
 20
2.947602375823129
 30
0.0
 11
0.1026779019331873
 21
0.0
 31
0.0
210
0.0
220
0.0
230
1.0
 40
0.8499026917123783
 41
4.71238898038469
 42
6.992949865496097
  0
LINE
  5
122
330
D3
100
AcDbEntity
  8
AM_4
100
AcDbLine
 10
-0.0778827620330284
 20
3.004469865538493
 30
0.0
 11
-0.1023995687144094
 21
2.980216076307837
 31
0.0
  0
LINE
  5
123
330
D3
100
AcDbEntity
  8
AM_4
100
AcDbLine
 10
0.1023995687144094
 20
2.980216076307837
 30
0.0
 11
0.0778827620330284
 21
3.004469865538493
 31
0.0
  0
ELLIPSE
  5
124
330
D3
100
AcDbEntity
  8
AM_4
100
AcDbEllipse
 10
0.0
 20
2.94760237582313
 30
0.0
 11
0.102677901933187
 21
0.0
 31
0.0
210
0.0
220
0.0
230
1.0
 40
0.8499026917123762
 41
0.7097645583165004
 42
2.431828095273292
  0
ELLIPSE
  5
125
330
D3
100
AcDbEntity
  8
AM_4
100
AcDbEllipse
 10
-0.0000000000000003
 20
2.947602375823129
 30
0.0
 11
0.1026779019331873
 21
0.0
 31
0.0
210
0.0
220
0.0
230
1.0
 40
0.8499026917123783
 41
2.431828095273282
 42
4.71238898038469
  0
ELLIPSE
  5
126
330
D3
100
AcDbEntity
  8
AM_4
100
AcDbEllipse
 10
-0.0000000000000001
 20
2.905447202314195
 30
0.0
 11
0.135
 21
0.0
 31
0.0
210
0.0
220
0.0
230
1.0
 40
0.8499026917123794
 41
2.431828095273287
 42
4.079718979366149
  0
ENDBLK
  5
D6
330
D3
100
AcDbEntity
  8
0
100
AcDbBlockEnd
  0
BLOCK
  5
129
330
127
100
AcDbEntity
  8
0
100
AcDbBlockBegin
  2
4_ASME_B18_3_10_1_0_in_072320_0
 70
     2
 10
0.0
 20
0.0
 30
0.0
  3
4_ASME_B18_3_10_1_0_in_072320_0
  1

  0
ATTDEF
  5
12B
330
127
100
AcDbEntity
  8
AM_6
100
AcDbText
 10
5.189525
 20
-1.3195
 30
0.0
 40
0.5
  1
ANSI/ASME B18.3-1998
100
AcDbAttributeDefinition
  3

  2
NN
 70
     8
280
     0
  0
ATTDEF
  5
12C
330
127
100
AcDbEntity
  8
AM_6
100
AcDbText
 10
5.189525
 20
-1.8195
 30
0.0
 40
0.5
  1
Socket Button Head Cap Screws
100
AcDbAttributeDefinition
  3

  2
NT
 70
     8
280
     0
  0
ATTDEF
  5
12D
330
127
100
AcDbEntity
  8
AM_6
100
AcDbText
 10
5.189525
 20
-2.3195
 30
0.0
 40
0.5
  1
ASME B18.3-10
100
AcDbAttributeDefinition
  3

  2
NB
 70
     8
280
     0
  0
ATTDEF
  5
12E
330
127
100
AcDbEntity
  8
AM_6
100
AcDbText
 10
5.189525
 20
-2.8195
 30
0.0
 40
0.5
  1
ASME B18.3-$NS.
100
AcDbAttributeDefinition
  3

  2
NBSYN
 70
     8
280
     0
  0
ATTDEF
  5
12F
330
127
100
AcDbEntity
  8
AM_6
100
AcDbText
 10
5.189525
 20
-3.3195
 30
0.0
 40
0.5
  1
ASME B18.3-10
100
AcDbAttributeDefinition
  3

  2
LINA
 70
     8
280
     0
  0
ATTDEF
  5
130
330
127
100
AcDbEntity
  8
AM_6
100
AcDbText
 10
5.189525
 20
-3.8195
 30
0.0
 40
0.5
  1
10
100
AcDbAttributeDefinition
  3

  2
NS
 70
     8
280
     0
  0
ATTDEF
  5
131
330
127
100
AcDbEntity
  8
AM_6
100
AcDbText
 10
5.189525
 20
-4.3195
 30
0.0
 40
0.5
  1
0.361
100
AcDbAttributeDefinition
  3

  2
A
 70
     8
280
     0
  0
ATTDEF
  5
132
330
127
100
AcDbEntity
  8
AM_6
100
AcDbText
 10
5.189525
 20
-4.8195
 30
0.0
 40
0.5
  1
0.101
100
AcDbAttributeDefinition
  3

  2
H
 70
     8
280
     0
  0
ATTDEF
  5
133
330
127
100
AcDbEntity
  8
AM_6
100
AcDbText
 10
5.189525
 20
-5.3195
 30
0.0
 40
0.5
  1
0.800
100
AcDbAttributeDefinition
  3

  2
L
 70
     8
280
     0
  0
ATTDEF
  5
134
330
127
100
AcDbEntity
  8
AM_6
100
AcDbText
 10
5.189525
 20
-5.8195
 30
0.0
 40
0.5
  1
0.020
100
AcDbAttributeDefinition
  3

  2
S
 70
     8
280
     0
  0
ATTDEF
  5
135
330
127
100
AcDbEntity
  8
AM_6
100
AcDbText
 10
5.189525
 20
-6.3195
 30
0.0
 40
0.5
  1
0.125000
100
AcDbAttributeDefinition
  3

  2
J
 70
     8
280
     0
  0
ATTDEF
  5
136
330
127
100
AcDbEntity
  8
AM_6
100
AcDbText
 10
5.189525
 20
-6.8195
 30
0.0
 40
0.5
  1
baldor
100
AcDbAttributeDefinition
  3

  2
COMPANY
 70
     8
280
     0
  0
ARC
  5
138
330
127
100
AcDbEntity
  8
AM_5
100
AcDbCircle
 10
0.0000000000000001
 20
-1.5
 30
0.0
 40
0.0702000000000001
100
AcDbArc
 50
75.00000000000006
 51
15.00000000000019
  0
LINE
  5
13B
330
127
100
AcDbEntity
  8
AM_7
100
AcDbLine
 10
-0.1895249999999999
 20
-1.5
 30
0.0
 11
0.1895249999999999
 21
-1.5
 31
0.0
  0
CIRCLE
  5
13C
330
127
100
AcDbEntity
  8
AM_4
100
AcDbCircle
 10
0.0
 20
-1.5
 30
0.0
 40
0.0995
  0
LINE
  5
13D
330
127
100
AcDbEntity
  8
AM_4
100
AcDbLine
 10
-0.0625
 20
-1.536084391824351
 30
0.0
 11
-0.0625
 21
-1.463915608175648
 31
0.0
  0
LINE
  5
13E
330
127
100
AcDbEntity
  8
AM_4
100
AcDbLine
 10
-0.0625
 20
-1.463915608175648
 30
0.0
 11
0.0
 21
-1.427831216351297
 31
0.0
  0
LINE
  5
13F
330
127
100
AcDbEntity
  8
AM_4
100
AcDbLine
 10
0.0
 20
-1.427831216351297
 30
0.0
 11
0.0625
 21
-1.463915608175648
 31
0.0
  0
LINE
  5
140
330
127
100
AcDbEntity
  8
AM_4
100
AcDbLine
 10
0.0625
 20
-1.463915608175648
 30
0.0
 11
0.0625
 21
-1.536084391824351
 31
0.0
  0
LINE
  5
141
330
127
100
AcDbEntity
  8
AM_4
100
AcDbLine
 10
0.0625
 20
-1.536084391824351
 30
0.0
 11
0.0
 21
-1.572168783648703
 31
0.0
  0
LINE
  5
142
330
127
100
AcDbEntity
  8
AM_4
100
AcDbLine
 10
0.0
 20
-1.572168783648703
 30
0.0
 11
-0.0625
 21
-1.536084391824351
 31
0.0
  0
ARC
  5
143
330
127
100
AcDbEntity
  8
AM_5
100
AcDbCircle
 10
0.0
 20
-1.5
 30
0.0
 40
0.0702
100
AcDbArc
 50
344.9999999999998
 51
284.9999999999999
  0
CIRCLE
  5
144
330
127
100
AcDbEntity
  8
AM_4
100
AcDbCircle
 10
0.0
 20
-1.5
 30
0.0
 40
0.1804999999999999
  0
CIRCLE
  5
145
330
127
100
AcDbEntity
  8
AM_5
100
AcDbCircle
 10
0.0
 20
-1.5
 30
0.0
 40
0.0764
  0
ENDBLK
  5
12A
330
127
100
AcDbEntity
  8
0
100
AcDbBlockEnd
  0
BLOCK
  5
148
330
146
100
AcDbEntity
  8
0
100
AcDbBlockBegin
  2
5_ASME_B18_3_10_2_0_in_072320_0
 70
     2
 10
0.0
 20
0.0
 30
0.0
  3
5_ASME_B18_3_10_2_0_in_072320_0
  1

  0
ATTDEF
  5
14A
330
146
100
AcDbEntity
  8
AM_6
100
AcDbText
 10
5.189525
 20
1.6805
 30
0.0
 40
0.5
  1
ANSI/ASME B18.3-1998
100
AcDbAttributeDefinition
  3

  2
NN
 70
     8
280
     0
  0
ATTDEF
  5
14B
330
146
100
AcDbEntity
  8
AM_6
100
AcDbText
 10
5.189525
 20
1.1805
 30
0.0
 40
0.5
  1
Socket Button Head Cap Screws
100
AcDbAttributeDefinition
  3

  2
NT
 70
     8
280
     0
  0
ATTDEF
  5
14C
330
146
100
AcDbEntity
  8
AM_6
100
AcDbText
 10
5.189525
 20
0.6804999999999997
 30
0.0
 40
0.5
  1
ASME B18.3-10
100
AcDbAttributeDefinition
  3

  2
NB
 70
     8
280
     0
  0
ATTDEF
  5
14D
330
146
100
AcDbEntity
  8
AM_6
100
AcDbText
 10
5.189525
 20
0.1804999999999997
 30
0.0
 40
0.5
  1
ASME B18.3-$NS.
100
AcDbAttributeDefinition
  3

  2
NBSYN
 70
     8
280
     0
  0
ATTDEF
  5
14E
330
146
100
AcDbEntity
  8
AM_6
100
AcDbText
 10
5.189525
 20
-0.3195000000000003
 30
0.0
 40
0.5
  1
ASME B18.3-10
100
AcDbAttributeDefinition
  3

  2
LINA
 70
     8
280
     0
  0
ATTDEF
  5
14F
330
146
100
AcDbEntity
  8
AM_6
100
AcDbText
 10
5.189525
 20
-0.8195000000000003
 30
0.0
 40
0.5
  1
10
100
AcDbAttributeDefinition
  3

  2
NS
 70
     8
280
     0
  0
ATTDEF
  5
150
330
146
100
AcDbEntity
  8
AM_6
100
AcDbText
 10
5.189525
 20
-1.3195
 30
0.0
 40
0.5
  1
0.361
100
AcDbAttributeDefinition
  3

  2
A
 70
     8
280
     0
  0
ATTDEF
  5
151
330
146
100
AcDbEntity
  8
AM_6
100
AcDbText
 10
5.189525
 20
-1.8195
 30
0.0
 40
0.5
  1
0.101
100
AcDbAttributeDefinition
  3

  2
H
 70
     8
280
     0
  0
ATTDEF
  5
152
330
146
100
AcDbEntity
  8
AM_6
100
AcDbText
 10
5.189525
 20
-2.319500000000001
 30
0.0
 40
0.5
  1
0.800
100
AcDbAttributeDefinition
  3

  2
L
 70
     8
280
     0
  0
ATTDEF
  5
153
330
146
100
AcDbEntity
  8
AM_6
100
AcDbText
 10
5.189525
 20
-2.819500000000001
 30
0.0
 40
0.5
  1
0.020
100
AcDbAttributeDefinition
  3

  2
S
 70
     8
280
     0
  0
ATTDEF
  5
154
330
146
100
AcDbEntity
  8
AM_6
100
AcDbText
 10
5.189525
 20
-3.319500000000001
 30
0.0
 40
0.5
  1
0.125000
100
AcDbAttributeDefinition
  3

  2
J
 70
     8
280
     0
  0
ATTDEF
  5
155
330
146
100
AcDbEntity
  8
AM_6
100
AcDbText
 10
5.189525
 20
-3.819500000000001
 30
0.0
 40
0.5
  1
baldor
100
AcDbAttributeDefinition
  3

  2
COMPANY
 70
     8
280
     0
  0
ARC
  5
156
330
146
100
AcDbEntity
  8
AM_5
100
AcDbCircle
 10
-0.0000000000000001
 20
1.5
 30
0.0
 40
0.0702000000000003
100
AcDbArc
 50
75.0000000000001
 51
15.00000000000019
  0
LINE
  5
157
330
146
100
AcDbEntity
  8
AM_7
100
AcDbLine
 10
-0.1895249999999999
 20
1.5
 30
0.0
 11
0.1895249999999999
 21
1.5
 31
0.0
  0
LINE
  5
158
330
146
100
AcDbEntity
  8
AM_4
100
AcDbLine
 10
-0.0625
 20
1.463915608175648
 30
0.0
 11
-0.0625
 21
1.536084391824351
 31
0.0
  0
LINE
  5
159
330
146
100
AcDbEntity
  8
AM_4
100
AcDbLine
 10
-0.0625
 20
1.536084391824351
 30
0.0
 11
0.0
 21
1.572168783648703
 31
0.0
  0
LINE
  5
15A
330
146
100
AcDbEntity
  8
AM_4
100
AcDbLine
 10
0.0
 20
1.572168783648703
 30
0.0
 11
0.0625
 21
1.536084391824351
 31
0.0
  0
LINE
  5
15B
330
146
100
AcDbEntity
  8
AM_4
100
AcDbLine
 10
0.0625
 20
1.536084391824351
 30
0.0
 11
0.0625
 21
1.463915608175648
 31
0.0
  0
LINE
  5
15C
330
146
100
AcDbEntity
  8
AM_4
100
AcDbLine
 10
0.0625
 20
1.463915608175648
 30
0.0
 11
0.0
 21
1.427831216351297
 31
0.0
  0
LINE
  5
15D
330
146
100
AcDbEntity
  8
AM_4
100
AcDbLine
 10
0.0
 20
1.427831216351297
 30
0.0
 11
-0.0625
 21
1.463915608175648
 31
0.0
  0
CIRCLE
  5
15E
330
146
100
AcDbEntity
  8
AM_4
100
AcDbCircle
 10
0.0
 20
1.5
 30
0.0
 40
0.0995
  0
ARC
  5
15F
330
146
100
AcDbEntity
  8
AM_5
100
AcDbCircle
 10
0.0000000000000001
 20
1.5
 30
0.0
 40
0.0763999999999999
100
AcDbArc
 50
75.00000000000006
 51
14.9999999999999
  0
ARC
  5
160
330
146
100
AcDbEntity
  8
AM_5
100
AcDbCircle
 10
-0.0000000000000001
 20
1.5
 30
0.0
 40
0.0764
100
AcDbArc
 50
14.99999999999987
 51
195.0000000000001
  0
ARC
  5
161
330
146
100
AcDbEntity
  8
AM_5
100
AcDbCircle
 10
0.0
 20
1.5
 30
0.0
 40
0.0702
100
AcDbArc
 50
344.9999999999998
 51
284.9999999999999
  0
CIRCLE
  5
162
330
146
100
AcDbEntity
  8
AM_4
100
AcDbCircle
 10
0.0
 20
1.5
 30
0.0
 40
0.1804999999999999
  0
ENDBLK
  5
149
330
146
100
AcDbEntity
  8
0
100
AcDbBlockEnd
  0
BLOCK
  5
165
330
163
100
AcDbEntity
  8
0
100
AcDbBlockBegin
  2
6_070893LW_0_in_072320_0
 70
     2
 10
0.0
 20
0.0
 30
0.0
  3
6_070893LW_0_in_072320_0
  1

  0
ATTDEF
  5
167
330
163
100
AcDbEntity
  8
AM_6
100
AcDbText
 10
6.75
 20
1.75
 30
0.0
 40
0.5
  1
Imperial Insert Lockwasher -Inch
100
AcDbAttributeDefinition
  3

  2
NN
 70
     8
280
     0
  0
ATTDEF
  5
168
330
163
100
AcDbEntity
  8
AM_6
100
AcDbText
 10
6.75
 20
1.25
 30
0.0
 40
0.5
  1
Imperial Bearings
100
AcDbAttributeDefinition
  3

  2
NT
 70
     8
280
     0
  0
ATTDEF
  5
169
330
163
100
AcDbEntity
  8
AM_6
100
AcDbText
 10
6.75
 20
0.75
 30
0.0
 40
0.5
  1
070893LW
100
AcDbAttributeDefinition
  3

  2
NB
 70
     8
280
     0
  0
ATTDEF
  5
16A
330
163
100
AcDbEntity
  8
AM_6
100
AcDbText
 10
6.75
 20
0.25
 30
0.0
 40
0.5
  1
$PN.LW
100
AcDbAttributeDefinition
  3

  2
NBSYN
 70
     8
280
     0
  0
ATTDEF
  5
16B
330
163
100
AcDbEntity
  8
AM_6
100
AcDbText
 10
6.75
 20
-0.25
 30
0.0
 40
0.5
  1
070893
100
AcDbAttributeDefinition
  3

  2
LINA
 70
     8
280
     0
  0
ATTDEF
  5
16C
330
163
100
AcDbEntity
  8
AM_6
100
AcDbText
 10
6.75
 20
-0.75
 30
0.0
 40
0.5
  1
2-1/4
100
AcDbAttributeDefinition
  3

  2
SS
 70
     8
280
     0
  0
ATTDEF
  5
16D
330
163
100
AcDbEntity
  8
AM_6
100
AcDbText
 10
6.75
 20
-1.25
 30
0.0
 40
0.5
  1
2.250000
100
AcDbAttributeDefinition
  3

  2
SS1
 70
     8
280
     0
  0
ATTDEF
  5
16E
330
163
100
AcDbEntity
  8
AM_6
100
AcDbText
 10
6.75
 20
-1.75
 30
0.0
 40
0.5
  1
070893
100
AcDbAttributeDefinition
  3

  2
PN
 70
     8
280
     0
  0
ATTDEF
  5
16F
330
163
100
AcDbEntity
  8
AM_6
100
AcDbText
 10
6.75
 20
-2.25
 30
0.0
 40
0.5
  1
INS-IP-204R
100
AcDbAttributeDefinition
  3

  2
DESCRIPTION
 70
     8
280
     0
  0
ATTDEF
  5
170
330
163
100
AcDbEntity
  8
AM_6
100
AcDbText
 10
6.75
 20
-2.75
 30
0.0
 40
0.5
  1
3.9370
100
AcDbAttributeDefinition
  3

  2
A
 70
     8
280
     0
  0
ATTDEF
  5
171
330
163
100
AcDbEntity
  8
AM_6
100
AcDbText
 10
6.75
 20
-3.25
 30
0.0
 40
0.5
  1
1-3/64
100
AcDbAttributeDefinition
  3

  2
B
 70
     8
280
     0
  0
ATTDEF
  5
172
330
163
100
AcDbEntity
  8
AM_6
100
AcDbText
 10
6.75
 20
-3.75
 30
0.0
 40
0.5
  1
3-1/32
100
AcDbAttributeDefinition
  3

  2
C
 70
     8
280
     0
  0
ATTDEF
  5
173
330
163
100
AcDbEntity
  8
AM_6
100
AcDbText
 10
6.75
 20
-4.25
 30
0.0
 40
0.5
  1
1.050
100
AcDbAttributeDefinition
  3

  2
D
 70
     8
280
     0
  0
ATTDEF
  5
174
330
163
100
AcDbEntity
  8
AM_6
100
AcDbText
 10
6.75
 20
-4.75
 30
0.0
 40
0.5
  1
3-1/2
100
AcDbAttributeDefinition
  3

  2
E
 70
     8
280
     0
  0
ATTDEF
  5
175
330
163
100
AcDbEntity
  8
AM_6
100
AcDbText
 10
6.75
 20
-5.25
 30
0.0
 40
0.5
  1
0.1900
100
AcDbAttributeDefinition
  3

  2
NDM
 70
     8
280
     0
  0
ATTDEF
  5
176
330
163
100
AcDbEntity
  8
AM_6
100
AcDbText
 10
6.75
 20
-5.75
 30
0.0
 40
0.5
  1
0.1450
100
AcDbAttributeDefinition
  3

  2
KDM
 70
     8
280
     0
  0
ATTDEF
  5
177
330
163
100
AcDbEntity
  8
AM_6
100
AcDbText
 10
6.75
 20
-6.25
 30
0.0
 40
0.5
  1
2.92
100
AcDbAttributeDefinition
  3

  2
AL
 70
     8
280
     0
  0
ATTDEF
  5
178
330
163
100
AcDbEntity
  8
AM_6
100
AcDbText
 10
6.75
 20
-6.75
 30
0.0
 40
0.5
  1
0.50
100
AcDbAttributeDefinition
  3

  2
BL
 70
     8
280
     0
  0
ATTDEF
  5
179
330
163
100
AcDbEntity
  8
AM_6
100
AcDbText
 10
6.75
 20
-7.25
 30
0.0
 40
0.5
  1
0.07
100
AcDbAttributeDefinition
  3

  2
CL
 70
     8
280
     0
  0
ATTDEF
  5
17A
330
163
100
AcDbEntity
  8
AM_6
100
AcDbText
 10
6.75
 20
-7.75
 30
0.0
 40
0.5
  1
0.44
100
AcDbAttributeDefinition
  3

  2
DL
 70
     8
280
     0
  0
ATTDEF
  5
17B
330
163
100
AcDbEntity
  8
AM_6
100
AcDbText
 10
6.75
 20
-8.25
 30
0.0
 40
0.5
  1
baldor
100
AcDbAttributeDefinition
  3

  2
COMPANY
 70
     8
280
     0
  0
ARC
  5
17C
330
163
100
AcDbEntity
  8
AM_9
100
AcDbCircle
 10
0.0000000000000074
 20
-0.0000000000000213
 30
0.0
 40
1.184210526315812
100
AcDbArc
 50
106.4408245728696
 51
118.5591754271302
  0
LINE
  5
17D
330
163
100
AcDbEntity
  8
AM_9
100
AcDbLine
 10
-0.0949999999999993
 20
-1.5
 30
0.0
 11
-0.0949999999999992
 21
-1.346522802996666
 31
0.0
  0
LINE
  5
17E
330
163
100
AcDbEntity
  8
AM_9
100
AcDbLine
 10
0.0950000000000006
 20
-1.346522802996667
 30
0.0
 11
0.0950000000000008
 21
-1.5
 31
0.0
  0
LINE
  5
17F
330
163
100
AcDbEntity
  8
AM_9
100
AcDbLine
 10
-0.0950000000000002
 20
1.346522802996667
 30
0.0
 11
-0.0950000000000002
 21
1.5
 31
0.0
  0
LINE
  5
180
330
163
100
AcDbEntity
  8
AM_9
100
AcDbLine
 10
0.0949999999999998
 20
1.5
 30
0.0
 11
0.0949999999999997
 21
1.346522802996666
 31
0.0
  0
LINE
  5
181
330
163
100
AcDbEntity
  8
AM_7
100
AcDbLine
 10
-1.160443916002941
 20
-1.060693903426993
 30
0.0
 11
-0.9609438908510427
 21
-1.060693903426993
 31
0.0
  0
LINE
  5
182
330
163
100
AcDbEntity
  8
AM_7
100
AcDbLine
 10
-1.060693903426992
 20
-1.160443916002942
 30
0.0
 11
-1.060693903426992
 21
-0.9609438908510443
 31
0.0
  0
LINE
  5
183
330
163
100
AcDbEntity
  8
AM_7
100
AcDbLine
 10
-1.50004770375291
 20
-0.0997500125759499
 30
0.0
 11
-1.50004770375291
 21
0.0997500125759479
 31
0.0
  0
LINE
  5
184
330
163
100
AcDbEntity
  8
AM_7
100
AcDbLine
 10
0.9609438908510431
 20
1.060693903426992
 30
0.0
 11
1.160443916002941
 21
1.060693903426992
 31
0.0
  0
LINE
  5
185
330
163
100
AcDbEntity
  8
AM_7
100
AcDbLine
 10
1.060693903426992
 20
0.9609438908510436
 30
0.0
 11
1.060693903426992
 21
1.160443916002941
 31
0.0
  0
LINE
  5
186
330
163
100
AcDbEntity
  8
AM_7
100
AcDbLine
 10
1.50004770375291
 20
-0.0997500125759484
 30
0.0
 11
1.50004770375291
 21
0.0997500125759494
 31
0.0
  0
LINE
  5
187
330
163
100
AcDbEntity
  8
AM_7
100
AcDbLine
 10
0.9609438908510441
 20
-1.060693903426992
 30
0.0
 11
1.160443916002942
 21
-1.060693903426992
 31
0.0
  0
LINE
  5
188
330
163
100
AcDbEntity
  8
AM_7
100
AcDbLine
 10
1.060693903426993
 20
-1.160443916002941
 30
0.0
 11
1.060693903426993
 21
-0.960943890851043
 31
0.0
  0
LINE
  5
189
330
163
100
AcDbEntity
  8
AM_7
100
AcDbLine
 10
-1.160443916002941
 20
1.060693903426992
 30
0.0
 11
-0.9609438908510431
 21
1.060693903426992
 31
0.0
  0
LINE
  5
18A
330
163
100
AcDbEntity
  8
AM_7
100
AcDbLine
 10
-1.060693903426992
 20
0.9609438908510429
 30
0.0
 11
-1.060693903426992
 21
1.160443916002941
 31
0.0
  0
LINE
  5
18B
330
163
100
AcDbEntity
  8
AM_4
100
AcDbLine
 10
-0.9934850275670962
 20
1.12783531599254
 30
0.0
 11
-0.7901920130155246
 21
0.9245423014409685
 31
0.0
  0
LINE
  5
18C
330
163
100
AcDbEntity
  8
AM_4
100
AcDbLine
 10
-0.0949999999999992
 20
-1.346522802996666
 30
0.0
 11
-0.0949999999999993
 21
-1.212500261685452
 31
0.0
  0
LINE
  5
18D
330
163
100
AcDbEntity
  8
AM_4
100
AcDbLine
 10
0.9245423014409687
 20
-0.7901920130155246
 30
0.0
 11
1.127835315992544
 21
-0.9934850275670987
 31
0.0
  0
LINE
  5
18E
330
163
100
AcDbEntity
  8
AM_4
100
AcDbLine
 10
0.0950000000000016
 20
-1.212500261685452
 30
0.0
 11
0.0950000000000006
 21
-1.346522802996667
 31
0.0
  0
ARC
  5
18F
330
163
100
AcDbEntity
  8
AM_4
100
AcDbCircle
 10
-0.0000000000000035
 20
0.0000000000000082
 30
0.0
 40
1.216216216216224
100
AcDbArc
 50
274.4800005720173
 51
310.5199994279829
  0
LINE
  5
190
330
163
100
AcDbEntity
  8
AM_4
100
AcDbLine
 10
0.9934850275670963
 20
-1.127835315992539
 30
0.0
 11
0.7901920130155249
 21
-0.9245423014409682
 31
0.0
  0
CIRCLE
  5
191
330
163
100
AcDbEntity
  8
AM_4
100
AcDbCircle
 10
0.0
 20
0.0
 30
0.0
 40
1.75
  0
LINE
  5
192
330
163
100
AcDbEntity
  8
AM_4
100
AcDbLine
 10
1.127835315992543
 20
0.9934850275670993
 30
0.0
 11
0.9245423014409684
 21
0.7901920130155248
 31
0.0
  0
ARC
  5
193
330
163
100
AcDbEntity
  8
AM_4
100
AcDbCircle
 10
1.060693903426992
 20
1.060693903426992
 30
0.0
 40
0.0950000119770942
100
AcDbArc
 50
314.9712292265371
 51
135.028770773463
  0
ARC
  5
194
330
163
100
AcDbEntity
  8
AM_4
100
AcDbCircle
 10
-0.0000000000000178
 20
0.000000000000028
 30
0.0
 40
1.216216216216183
100
AcDbArc
 50
118.3991498683932
 51
130.5199994279832
  0
LINE
  5
195
330
163
100
AcDbEntity
  8
AM_4
100
AcDbLine
 10
1.5
 20
-0.0949999999999995
 30
0.0
 11
1.212500261685452
 21
-0.0949999999999997
 31
0.0
  0
LINE
  5
196
330
163
100
AcDbEntity
  8
AM_4
100
AcDbLine
 10
-0.3351610878026547
 20
1.135791184971982
 30
0.0
 11
-0.3474761188090756
 21
1.165522299848729
 31
0.0
  0
ARC
  5
197
330
163
100
AcDbEntity
  8
AM_4
100
AcDbCircle
 10
1.060693903426993
 20
-1.060693903426992
 30
0.0
 40
0.0950000119770941
100
AcDbArc
 50
224.9712292265342
 51
45.02877077346296
  0
LINE
  5
198
330
163
100
AcDbEntity
  8
AM_4
100
AcDbLine
 10
-0.5784460019368972
 20
1.069851441757457
 30
0.0
 11
-0.5661309709304763
 21
1.04012032688071
 31
0.0
  0
LINE
  5
199
330
163
100
AcDbEntity
  8
AM_4
100
AcDbLine
 10
0.7901920130155253
 20
0.924542301440968
 30
0.0
 11
0.9934850275670989
 21
1.127835315992543
 31
0.0
  0
ARC
  5
19A
330
163
100
AcDbEntity
  8
AM_4
100
AcDbCircle
 10
-0.0000000000000067
 20
-0.000000000000003
 30
0.0
 40
1.216216216216223
100
AcDbArc
 50
4.480000572017279
 51
40.51999942798287
  0
LINE
  5
19B
330
163
100
AcDbEntity
  8
AM_4
100
AcDbLine
 10
1.212500261685452
 20
0.0950000000000012
 30
0.0
 11
1.5
 21
0.0950000000000005
 31
0.0
  0
ARC
  5
19C
330
163
100
AcDbEntity
  8
AM_4
100
AcDbCircle
 10
1.50004770375291
 20
0.0000000000000005
 30
0.0
 40
0.0950000119770942
100
AcDbArc
 50
269.9712292265376
 51
90.02877077346241
  0
ARC
  5
19D
330
163
100
AcDbEntity
  8
AM_4
100
AcDbCircle
 10
0.0000000000000027
 20
-0.0000000000000009
 30
0.0
 40
1.216216216216214
100
AcDbArc
 50
319.480000572017
 51
355.519999427983
  0
ARC
  5
19E
330
163
100
AcDbEntity
  8
AM_4
100
AcDbCircle
 10
-0.0000000000000021
 20
-0.0000000000000047
 30
0.0
 40
1.216216216216211
100
AcDbArc
 50
229.4800005720169
 51
265.5199994279831
  0
LINE
  5
19F
330
163
100
AcDbEntity
  8
AM_4
100
AcDbLine
 10
-0.7901920130155256
 20
-0.924542301440968
 30
0.0
 11
-0.9934850275670983
 21
-1.127835315992544
 31
0.0
  0
ARC
  5
1A0
330
163
100
AcDbEntity
  8
AM_4
100
AcDbCircle
 10
-1.060693903426992
 20
-1.060693903426993
 30
0.0
 40
0.0950000119770943
100
AcDbArc
 50
134.9712292265372
 51
315.0287707734631
  0
LINE
  5
1A1
330
163
100
AcDbEntity
  8
AM_4
100
AcDbLine
 10
-1.127835315992543
 20
-0.9934850275671001
 30
0.0
 11
-0.9245423014409685
 21
-0.7901920130155251
 31
0.0
  0
ARC
  5
1A2
330
163
100
AcDbEntity
  8
AM_4
100
AcDbCircle
 10
0.0000000000000016
 20
0.0000000000000007
 30
0.0
 40
1.216216216216218
100
AcDbArc
 50
184.4800005720171
 51
220.519999427983
  0
LINE
  5
1A3
330
163
100
AcDbEntity
  8
AM_4
100
AcDbLine
 10
-1.212500261685452
 20
-0.0950000000000006
 30
0.0
 11
-1.5
 21
-0.0950000000000009
 31
0.0
  0
ARC
  5
1A4
330
163
100
AcDbEntity
  8
AM_4
100
AcDbCircle
 10
-1.50004770375291
 20
-0.0000000000000009
 30
0.0
 40
0.095000011977094
100
AcDbArc
 50
89.97122922653745
 51
270.0287707734628
  0
LINE
  5
1A5
330
163
100
AcDbEntity
  8
AM_4
100
AcDbLine
 10
-1.5
 20
0.0949999999999988
 30
0.0
 11
-1.212500261685452
 21
0.0949999999999994
 31
0.0
  0
ARC
  5
1A6
330
163
100
AcDbEntity
  8
AM_4
100
AcDbCircle
 10
0.0000000000000013
 20
-0.0000000000000009
 30
0.0
 40
1.216216216216218
100
AcDbArc
 50
139.4800005720171
 51
175.5199994279829
  0
LINE
  5
1A7
330
163
100
AcDbEntity
  8
AM_4
100
AcDbLine
 10
-0.9245423014409687
 20
0.7901920130155244
 30
0.0
 11
-1.127835315992543
 21
0.993485027567099
 31
0.0
  0
ARC
  5
1A8
330
163
100
AcDbEntity
  8
AM_4
100
AcDbCircle
 10
-1.060693903426992
 20
1.060693903426992
 30
0.0
 40
0.0950000119770941
100
AcDbArc
 50
44.97122922653449
 51
225.028770773463
  0
ARC
  5
1A9
330
163
100
AcDbEntity
  8
AM_4
100
AcDbCircle
 10
-0.0000000000000083
 20
0.0000000000000209
 30
0.0
 40
1.124999999999978
100
AcDbArc
 50
106.1206297915571
 51
118.879370208443
  0
ARC
  5
1AA
330
163
100
AcDbEntity
  8
AM_4
100
AcDbCircle
 10
-0.0000000000000042
 20
0.0000000000000202
 30
0.0
 40
1.216216216216196
100
AcDbArc
 50
94.48000057201695
 51
106.6008501316068
  0
LINE
  5
1AB
330
163
100
AcDbEntity
  8
AM_4
100
AcDbLine
 10
-0.0950000000000006
 20
1.212500261685452
 30
0.0
 11
-0.0950000000000002
 21
1.346522802996667
 31
0.0
  0
LINE
  5
1AC
330
163
100
AcDbEntity
  8
AM_4
100
AcDbLine
 10
0.0949999999999997
 20
1.346522802996666
 30
0.0
 11
0.0949999999999998
 21
1.212500261685452
 31
0.0
  0
ARC
  5
1AD
330
163
100
AcDbEntity
  8
AM_4
100
AcDbCircle
 10
0.0000000000000001
 20
-0.0000000000000002
 30
0.0
 40
1.216216216216216
100
AcDbArc
 50
49.480000572017
 51
85.51999942798297
  0
ENDBLK
  5
166
330
163
100
AcDbEntity
  8
0
100
AcDbBlockEnd
  0
BLOCK
  5
1B0
330
1AE
100
AcDbEntity
  8
0
100
AcDbBlockBegin
  2
7_070893I_0_in_072320_0
 70
     2
 10
0.0
 20
0.0
 30
0.0
  3
7_070893I_0_in_072320_0
  1

  0
ATTDEF
  5
1B2
330
1AE
100
AcDbEntity
  8
AM_6
100
AcDbText
 10
6.918499999999998
 20
1.918499999999998
 30
0.0
 40
0.5
  1
Imperial Insert -Inch
100
AcDbAttributeDefinition
  3

  2
NN
 70
     8
280
     0
  0
ATTDEF
  5
1B3
330
1AE
100
AcDbEntity
  8
AM_6
100
AcDbText
 10
6.918499999999998
 20
1.418499999999998
 30
0.0
 40
0.5
  1
Imperial Bearings
100
AcDbAttributeDefinition
  3

  2
NT
 70
     8
280
     0
  0
ATTDEF
  5
1B4
330
1AE
100
AcDbEntity
  8
AM_6
100
AcDbText
 10
6.918499999999998
 20
0.9184999999999983
 30
0.0
 40
0.5
  1
070893I
100
AcDbAttributeDefinition
  3

  2
NB
 70
     8
280
     0
  0
ATTDEF
  5
1B5
330
1AE
100
AcDbEntity
  8
AM_6
100
AcDbText
 10
6.918499999999998
 20
0.4184999999999983
 30
0.0
 40
0.5
  1
$PN.I
100
AcDbAttributeDefinition
  3

  2
NBSYN
 70
     8
280
     0
  0
ATTDEF
  5
1B6
330
1AE
100
AcDbEntity
  8
AM_6
100
AcDbText
 10
6.918499999999998
 20
-0.0815000000000017
 30
0.0
 40
0.5
  1
070893
100
AcDbAttributeDefinition
  3

  2
LINA
 70
     8
280
     0
  0
ATTDEF
  5
1B7
330
1AE
100
AcDbEntity
  8
AM_6
100
AcDbText
 10
6.918499999999998
 20
-0.5815000000000017
 30
0.0
 40
0.5
  1
2-1/4
100
AcDbAttributeDefinition
  3

  2
SS
 70
     8
280
     0
  0
ATTDEF
  5
1B8
330
1AE
100
AcDbEntity
  8
AM_6
100
AcDbText
 10
6.918499999999998
 20
-1.081500000000002
 30
0.0
 40
0.5
  1
2.250000
100
AcDbAttributeDefinition
  3

  2
SS1
 70
     8
280
     0
  0
ATTDEF
  5
1B9
330
1AE
100
AcDbEntity
  8
AM_6
100
AcDbText
 10
6.918499999999998
 20
-1.581500000000002
 30
0.0
 40
0.5
  1
070893
100
AcDbAttributeDefinition
  3

  2
PN
 70
     8
280
     0
  0
ATTDEF
  5
1BA
330
1AE
100
AcDbEntity
  8
AM_6
100
AcDbText
 10
6.918499999999998
 20
-2.081500000000002
 30
0.0
 40
0.5
  1
INS-IP-204R
100
AcDbAttributeDefinition
  3

  2
DESCRIPTION
 70
     8
280
     0
  0
ATTDEF
  5
1BB
330
1AE
100
AcDbEntity
  8
AM_6
100
AcDbText
 10
6.918499999999998
 20
-2.581500000000002
 30
0.0
 40
0.5
  1
Contact Seal
100
AcDbAttributeDefinition
  3

  2
ST
 70
     8
280
     0
  0
ATTDEF
  5
1BC
330
1AE
100
AcDbEntity
  8
AM_6
100
AcDbText
 10
6.918499999999998
 20
-3.081500000000002
 30
0.0
 40
0.5
  1
3.9370
100
AcDbAttributeDefinition
  3

  2
A
 70
     8
280
     0
  0
ATTDEF
  5
1BD
330
1AE
100
AcDbEntity
  8
AM_6
100
AcDbText
 10
6.918499999999998
 20
-3.581500000000002
 30
0.0
 40
0.5
  1
1-3/64
100
AcDbAttributeDefinition
  3

  2
B
 70
     8
280
     0
  0
ATTDEF
  5
1BE
330
1AE
100
AcDbEntity
  8
AM_6
100
AcDbText
 10
6.918499999999998
 20
-4.081500000000002
 30
0.0
 40
0.5
  1
3-1/32
100
AcDbAttributeDefinition
  3

  2
C
 70
     8
280
     0
  0
ATTDEF
  5
1BF
330
1AE
100
AcDbEntity
  8
AM_6
100
AcDbText
 10
6.918499999999998
 20
-4.581500000000002
 30
0.0
 40
0.5
  1
1.050
100
AcDbAttributeDefinition
  3

  2
D
 70
     8
280
     0
  0
ATTDEF
  5
1C0
330
1AE
100
AcDbEntity
  8
AM_6
100
AcDbText
 10
6.918499999999998
 20
-5.081500000000002
 30
0.0
 40
0.5
  1
3-1/2
100
AcDbAttributeDefinition
  3

  2
E
 70
     8
280
     0
  0
ATTDEF
  5
1C1
330
1AE
100
AcDbEntity
  8
AM_6
100
AcDbText
 10
6.918499999999998
 20
-5.581500000000002
 30
0.0
 40
0.5
  1
0.1900
100
AcDbAttributeDefinition
  3

  2
NDM
 70
     8
280
     0
  0
ATTDEF
  5
1C2
330
1AE
100
AcDbEntity
  8
AM_6
100
AcDbText
 10
6.918499999999998
 20
-6.081500000000002
 30
0.0
 40
0.5
  1
0.101
100
AcDbAttributeDefinition
  3

  2
H
 70
     8
280
     0
  0
ATTDEF
  5
1C3
330
1AE
100
AcDbEntity
  8
AM_6
100
AcDbText
 10
6.918499999999998
 20
-6.581500000000002
 30
0.0
 40
0.5
  1
0.1450
100
AcDbAttributeDefinition
  3

  2
KDM
 70
     8
280
     0
  0
ATTDEF
  5
1C4
330
1AE
100
AcDbEntity
  8
AM_6
100
AcDbText
 10
6.918499999999998
 20
-7.081500000000002
 30
0.0
 40
0.5
  1
2.92
100
AcDbAttributeDefinition
  3

  2
AL
 70
     8
280
     0
  0
ATTDEF
  5
1C5
330
1AE
100
AcDbEntity
  8
AM_6
100
AcDbText
 10
6.918499999999998
 20
-7.581500000000002
 30
0.0
 40
0.5
  1
0.50
100
AcDbAttributeDefinition
  3

  2
BL
 70
     8
280
     0
  0
ATTDEF
  5
1C6
330
1AE
100
AcDbEntity
  8
AM_6
100
AcDbText
 10
6.918499999999998
 20
-8.081500000000002
 30
0.0
 40
0.5
  1
0.07
100
AcDbAttributeDefinition
  3

  2
CL
 70
     8
280
     0
  0
ATTDEF
  5
1C7
330
1AE
100
AcDbEntity
  8
AM_6
100
AcDbText
 10
6.918499999999998
 20
-8.581500000000002
 30
0.0
 40
0.5
  1
0.44
100
AcDbAttributeDefinition
  3

  2
DL
 70
     8
280
     0
  0
ATTDEF
  5
1C8
330
1AE
100
AcDbEntity
  8
AM_6
100
AcDbText
 10
6.918499999999998
 20
-9.081500000000002
 30
0.0
 40
0.5
  1
0.8000
100
AcDbAttributeDefinition
  3

  2
LL
 70
     8
280
     0
  0
ATTDEF
  5
1C9
330
1AE
100
AcDbEntity
  8
AM_6
100
AcDbText
 10
6.918499999999998
 20
-9.581500000000002
 30
0.0
 40
0.5
  1
0.025
100
AcDbAttributeDefinition
  3

  2
Y
 70
     8
280
     0
  0
ATTDEF
  5
1CA
330
1AE
100
AcDbEntity
  8
AM_6
100
AcDbText
 10
6.918499999999998
 20
-10.0815
 30
0.0
 40
0.5
  1
0.025000
100
AcDbAttributeDefinition
  3

  2
Y1
 70
     8
280
     0
  0
ATTDEF
  5
1CB
330
1AE
100
AcDbEntity
  8
AM_6
100
AcDbText
 10
6.918499999999998
 20
-10.5815
 30
0.0
 40
0.5
  1
2-19/32
100
AcDbAttributeDefinition
  3

  2
Z
 70
     8
280
     0
  0
ATTDEF
  5
1CC
330
1AE
100
AcDbEntity
  8
AM_6
100
AcDbText
 10
6.918499999999998
 20
-11.0815
 30
0.0
 40
0.5
  1
2.593750
100
AcDbAttributeDefinition
  3

  2
Z1
 70
     8
280
     0
  0
ATTDEF
  5
1CD
330
1AE
100
AcDbEntity
  8
AM_6
100
AcDbText
 10
6.918499999999998
 20
-11.5815
 30
0.0
 40
0.5
  1
baldor
100
AcDbAttributeDefinition
  3

  2
COMPANY
 70
     8
280
     0
  0
CIRCLE
  5
1CE
330
1AE
100
AcDbEntity
  8
AM_9
100
AcDbCircle
 10
0.0
 20
0.0
 30
0.0
 40
1.296875
  0
CIRCLE
  5
1CF
330
1AE
100
AcDbEntity
  8
AM_9
100
AcDbCircle
 10
0.0
 20
0.0
 30
0.0
 40
1.407719017094017
  0
CIRCLE
  5
1D0
330
1AE
100
AcDbEntity
  8
AM_9
100
AcDbCircle
 10
0.0
 20
0.0
 30
0.0
 40
1.440972222222222
  0
CIRCLE
  5
1D1
330
1AE
100
AcDbEntity
  8
AM_9
100
AcDbCircle
 10
0.0
 20
0.0
 30
0.0
 40
1.589882260469459
  0
CIRCLE
  5
1D2
330
1AE
100
AcDbEntity
  8
AM_9
100
AcDbCircle
 10
0.0
 20
0.0
 30
0.0
 40
1.676484800847903
  0
CIRCLE
  5
1D3
330
1AE
100
AcDbEntity
  8
AM_9
100
AcDbCircle
 10
0.0
 20
0.0
 30
0.0
 40
1.7685
  0
CIRCLE
  5
1D4
330
1AE
100
AcDbEntity
  8
AM_9
100
AcDbCircle
 10
0.0
 20
0.0
 30
0.0
 40
1.91615625
  0
CIRCLE
  5
1D5
330
1AE
100
AcDbEntity
  8
AM_9
100
AcDbCircle
 10
0.0
 20
-1.5
 30
0.0
 40
0.0724499999999999
  0
LINE
  5
1D6
330
1AE
100
AcDbEntity
  8
AM_9
100
AcDbLine
 10
-1.209152595828996
 20
0.8555992052357225
 30
0.0
 11
-1.402725450079624
 21
1.049172059486351
 31
0.0
  0
LINE
  5
1D7
330
1AE
100
AcDbEntity
  8
AM_9
100
AcDbLine
 10
-1.402725450079624
 20
-1.049172059486351
 30
0.0
 11
-1.209152595828996
 21
-0.8555992052357226
 31
0.0
  0
LINE
  5
1D8
330
1AE
100
AcDbEntity
  8
AM_9
100
AcDbLine
 10
1.049172059486351
 20
-1.402725450079624
 30
0.0
 11
0.8555992052357224
 21
-1.209152595828996
 31
0.0
  0
LINE
  5
1D9
330
1AE
100
AcDbEntity
  8
AM_9
100
AcDbLine
 10
1.402725450079625
 20
1.04917205948635
 30
0.0
 11
1.209152595828997
 21
0.8555992052357221
 31
0.0
  0
LINE
  5
1DA
330
1AE
100
AcDbEntity
  8
AM_9
100
AcDbLine
 10
0.8555992052357232
 20
1.209152595828995
 30
0.0
 11
1.049172059486351
 21
1.402725450079624
 31
0.0
  0
LINE
  5
1DB
330
1AE
100
AcDbEntity
  8
AM_9
100
AcDbLine
 10
1.099551044745082
 20
-0.9652007563196369
 30
0.0
 11
1.209152595828996
 21
-0.8555992052357224
 31
0.0
  0
LINE
  5
1DC
330
1AE
100
AcDbEntity
  8
AM_9
100
AcDbLine
 10
0.8555992052357224
 20
-1.209152595828996
 30
0.0
 11
0.9652007563196376
 21
-1.099551044745081
 31
0.0
  0
LINE
  5
1DD
330
1AE
100
AcDbEntity
  8
AM_9
100
AcDbLine
 10
0.9652007563196371
 20
1.099551044745082
 30
0.0
 11
0.8555992052357232
 21
1.209152595828995
 31
0.0
  0
LINE
  5
1DE
330
1AE
100
AcDbEntity
  8
AM_9
100
AcDbLine
 10
1.209152595828997
 20
0.8555992052357221
 30
0.0
 11
1.099551044745081
 21
0.9652007563196375
 31
0.0
  0
LINE
  5
1DF
330
1AE
100
AcDbEntity
  8
AM_9
100
AcDbLine
 10
-1.049172059486351
 20
1.402725450079624
 30
0.0
 11
-0.8555992052357224
 21
1.209152595828996
 31
0.0
  0
LINE
  5
1E0
330
1AE
100
AcDbEntity
  8
AM_9
100
AcDbLine
 10
1.209152595828996
 20
-0.8555992052357224
 30
0.0
 11
1.402725450079624
 21
-1.049172059486351
 31
0.0
  0
LINE
  5
1E1
330
1AE
100
AcDbEntity
  8
AM_9
100
AcDbLine
 10
-1.099551044745081
 20
0.9652007563196371
 30
0.0
 11
-1.209152595828996
 21
0.8555992052357225
 31
0.0
  0
LINE
  5
1E2
330
1AE
100
AcDbEntity
  8
AM_9
100
AcDbLine
 10
-0.8555992052357224
 20
1.209152595828996
 30
0.0
 11
-0.9652007563196374
 21
1.099551044745081
 31
0.0
  0
ARC
  5
1E3
330
1AE
100
AcDbEntity
  8
AM_9
100
AcDbCircle
 10
0.0000000000000022
 20
-0.0000000000000002
 30
0.0
 40
1.701715561259649
100
AcDbArc
 50
143.447931657164
 51
216.552068342836
  0
LINE
  5
1E4
330
1AE
100
AcDbEntity
  8
AM_9
100
AcDbLine
 10
-0.9652007563196365
 20
-1.099551044745082
 30
0.0
 11
-0.8555992052357225
 21
-1.209152595828996
 31
0.0
  0
LINE
  5
1E5
330
1AE
100
AcDbEntity
  8
AM_9
100
AcDbLine
 10
-1.209152595828996
 20
-0.8555992052357226
 30
0.0
 11
-1.09955104474508
 21
-0.9652007563196376
 31
0.0
  0
LINE
  5
1E6
330
1AE
100
AcDbEntity
  8
AM_9
100
AcDbLine
 10
-0.8555992052357225
 20
-1.209152595828996
 30
0.0
 11
-1.049172059486351
 21
-1.402725450079624
 31
0.0
  0
ARC
  5
1E7
330
1AE
100
AcDbEntity
  8
AM_9
100
AcDbCircle
 10
-0.0000000000000005
 20
0.0000000000000004
 30
0.0
 40
1.187335092348284
100
AcDbArc
 50
106.4568292430074
 51
118.5431707569926
  0
ARC
  5
1E8
330
1AE
100
AcDbEntity
  8
AM_9
100
AcDbCircle
 10
-0.0000000000000013
 20
0.0
 30
0.0
 40
1.701715561259648
100
AcDbArc
 50
323.447931657164
 51
36.55206834283601
  0
CIRCLE
  5
1E9
330
1AE
100
AcDbEntity
  8
AM_9
100
AcDbCircle
 10
0.0
 20
1.5
 30
0.0
 40
0.0724499999999999
  0
ARC
  5
1EA
330
1AE
100
AcDbEntity
  8
AM_9
100
AcDbCircle
 10
0.0
 20
0.0000000000000022
 30
0.0
 40
1.701715561259649
100
AcDbArc
 50
233.447931657164
 51
306.552068342836
  0
ARC
  5
1EB
330
1AE
100
AcDbEntity
  8
AM_9
100
AcDbCircle
 10
0.0000000000000002
 20
-0.0000000000000027
 30
0.0
 40
1.701715561259649
100
AcDbArc
 50
53.44793165716397
 51
126.552068342836
  0
CIRCLE
  5
1EC
330
1AE
100
AcDbEntity
  8
AM_4
100
AcDbCircle
 10
0.0
 20
0.0
 30
0.0
 40
1.918499999999998
  0
LINE
  5
1ED
330
1AE
100
AcDbEntity
  8
AM_4
100
AcDbLine
 10
1.058944566254844
 20
-1.412497956848118
 30
0.0
 11
1.049172059486351
 21
-1.402725450079624
 31
0.0
  0
LINE
  5
1EE
330
1AE
100
AcDbEntity
  8
AM_4
100
AcDbLine
 10
1.412497956848118
 20
1.058944566254843
 30
0.0
 11
1.402725450079625
 21
1.04917205948635
 31
0.0
  0
LINE
  5
1EF
330
1AE
100
AcDbEntity
  8
AM_4
100
AcDbLine
 10
1.049172059486351
 20
1.402725450079624
 30
0.0
 11
1.058944566254845
 21
1.412497956848117
 31
0.0
  0
LINE
  5
1F0
330
1AE
100
AcDbEntity
  8
AM_4
100
AcDbLine
 10
-1.402725450079624
 20
1.049172059486351
 30
0.0
 11
-1.412497956848117
 21
1.058944566254844
 31
0.0
  0
LINE
  5
1F1
330
1AE
100
AcDbEntity
  8
AM_4
100
AcDbLine
 10
-1.058944566254844
 20
1.412497956848118
 30
0.0
 11
-1.049172059486351
 21
1.402725450079624
 31
0.0
  0
LINE
  5
1F2
330
1AE
100
AcDbEntity
  8
AM_4
100
AcDbLine
 10
1.402725450079624
 20
-1.049172059486351
 30
0.0
 11
1.412497956848117
 21
-1.058944566254844
 31
0.0
  0
LINE
  5
1F3
330
1AE
100
AcDbEntity
  8
AM_4
100
AcDbLine
 10
-1.412497956848118
 20
-1.058944566254844
 30
0.0
 11
-1.402725450079624
 21
-1.049172059486351
 31
0.0
  0
LINE
  5
1F4
330
1AE
100
AcDbEntity
  8
AM_4
100
AcDbLine
 10
-1.049172059486351
 20
-1.402725450079624
 30
0.0
 11
-1.058944566254844
 21
-1.412497956848117
 31
0.0
  0
CIRCLE
  5
1F5
330
1AE
100
AcDbEntity
  8
AM_4
100
AcDbCircle
 10
0.0
 20
0.0
 30
0.0
 40
1.792352345749211
  0
ARC
  5
1F6
330
1AE
100
AcDbEntity
  8
AM_4
100
AcDbCircle
 10
0.0000000000000095
 20
-0.0000000000000111
 30
0.0
 40
1.765365138576356
100
AcDbArc
 50
306.858761484337
 51
323.141238515663
  0
ARC
  5
1F7
330
1AE
100
AcDbEntity
  8
AM_4
100
AcDbCircle
 10
0.0000000000000104
 20
0.0000000000000127
 30
0.0
 40
1.765365138576386
100
AcDbArc
 50
216.8587614843372
 51
233.1412385156629
  0
ARC
  5
1F8
330
1AE
100
AcDbEntity
  8
AM_4
100
AcDbCircle
 10
-0.0000000000000218
 20
0.0000000000000233
 30
0.0
 40
1.765365138576338
100
AcDbArc
 50
126.858761484337
 51
143.1412385156631
  0
ARC
  5
1F9
330
1AE
100
AcDbEntity
  8
AM_4
100
AcDbCircle
 10
-0.000000000000004
 20
-0.0000000000000027
 30
0.0
 40
1.765365138576374
100
AcDbArc
 50
36.85876148433707
 51
53.14123851566281
  0
ARC
  5
1FA
330
1AE
100
AcDbEntity
  8
AM_4
100
AcDbCircle
 10
-0.0000000000000007
 20
0.0000000000000001
 30
0.0
 40
1.751685102610601
100
AcDbArc
 50
143.205255192614
 51
216.7947448073861
  0
LINE
  5
1FB
330
1AE
100
AcDbEntity
  8
AM_4
100
AcDbLine
 10
0.9652007563196376
 20
-1.099551044745081
 30
0.0
 11
1.099551044745082
 21
-0.9652007563196369
 31
0.0
  0
LINE
  5
1FC
330
1AE
100
AcDbEntity
  8
AM_4
100
AcDbLine
 10
1.099551044745081
 20
0.9652007563196375
 30
0.0
 11
0.9652007563196371
 21
1.099551044745082
 31
0.0
  0
LINE
  5
1FD
330
1AE
100
AcDbEntity
  8
AM_4
100
AcDbLine
 10
-0.9652007563196374
 20
1.099551044745081
 30
0.0
 11
-1.099551044745081
 21
0.9652007563196371
 31
0.0
  0
LINE
  5
1FE
330
1AE
100
AcDbEntity
  8
AM_4
100
AcDbLine
 10
-1.09955104474508
 20
-0.9652007563196376
 30
0.0
 11
-0.9652007563196365
 21
-1.099551044745082
 31
0.0
  0
ARC
  5
1FF
330
1AE
100
AcDbEntity
  8
AM_4
100
AcDbCircle
 10
-0.0000000000000002
 20
0.0000000000000001
 30
0.0
 40
1.751685102610602
100
AcDbArc
 50
323.2052551926139
 51
36.794744807386
  0
ARC
  5
200
330
1AE
100
AcDbEntity
  8
AM_4
100
AcDbCircle
 10
0.0000000000000001
 20
0.0
 30
0.0
 40
1.751685102610602
100
AcDbArc
 50
233.2052551926139
 51
306.7947448073861
  0
ARC
  5
201
330
1AE
100
AcDbEntity
  8
AM_4
100
AcDbCircle
 10
-0.0000000000000001
 20
0.0000000000000004
 30
0.0
 40
1.751685102610602
100
AcDbArc
 50
53.20525519261393
 51
126.794744807386
  0
LINE
  5
202
330
1AE
100
AcDbEntity
  8
AM_4
100
AcDbLine
 10
-0.3123681427517311
 20
1.080764147903618
 30
0.0
 11
-0.3351610878026546
 21
1.135791184971982
 31
0.0
  0
ARC
  5
203
330
1AE
100
AcDbEntity
  8
AM_4
100
AcDbCircle
 10
-0.0000000000000003
 20
-0.0000000000000001
 30
0.0
 40
1.125
100
AcDbArc
 50
118.8793702084428
 51
106.1206297915572
  0
LINE
  5
204
330
1AE
100
AcDbEntity
  8
AM_4
100
AcDbLine
 10
-0.5661309709304762
 20
1.04012032688071
 30
0.0
 11
-0.5433380258795528
 21
0.9850932898123459
 31
0.0
  0
ARC
  5
205
330
1AE
100
AcDbEntity
  8
AM_4
100
AcDbCircle
 10
0.0
 20
0.0000000000000001
 30
0.0
 40
1.184210526315789
100
AcDbArc
 50
118.5591754271304
 51
106.4408245728696
  0
CIRCLE
  5
206
330
1AE
100
AcDbEntity
  8
AM_5
100
AcDbCircle
 10
0.0
 20
1.5
 30
0.0
 40
0.0950000000000001
  0
CIRCLE
  5
207
330
1AE
100
AcDbEntity
  8
AM_5
100
AcDbCircle
 10
0.0
 20
-1.5
 30
0.0
 40
0.0950000000000001
  0
ENDBLK
  5
1B1
330
1AE
100
AcDbEntity
  8
0
100
AcDbBlockEnd
  0
BLOCK
  5
20A
330
208
100
AcDbEntity
  8
0
100
AcDbBlockBegin
  2
8_B072320_0_in_072320_0
 70
     2
 10
0.0
 20
0.0
 30
0.0
  3
8_B072320_0_in_072320_0
  1

  0
ATTDEF
  5
20C
330
208
100
AcDbEntity
  8
AM_6
100
AcDbText
 10
8.74325
 20
3.74325
 30
0.0
 40
0.5
  1
SFC - 102 - 204 -(Contact Seal)Housing
100
AcDbAttributeDefinition
  3

  2
NN
 70
     8
280
     0
  0
ATTDEF
  5
20D
330
208
100
AcDbEntity
  8
AM_6
100
AcDbText
 10
8.74325
 20
3.24325
 30
0.0
 40
0.5
  1
Steal Imperial Piloted Flange Bearings
100
AcDbAttributeDefinition
  3

  2
NT
 70
     8
280
     0
  0
ATTDEF
  5
20E
330
208
100
AcDbEntity
  8
AM_6
100
AcDbText
 10
8.74325
 20
2.74325
 30
0.0
 40
0.5
  1
B072320
100
AcDbAttributeDefinition
  3

  2
NB
 70
     8
280
     0
  0
ATTDEF
  5
20F
330
208
100
AcDbEntity
  8
AM_6
100
AcDbText
 10
8.74325
 20
2.24325
 30
0.0
 40
0.5
  1
$PN.
100
AcDbAttributeDefinition
  3

  2
NBSYN
 70
     8
280
     0
  0
ATTDEF
  5
210
330
208
100
AcDbEntity
  8
AM_6
100
AcDbText
 10
8.74325
 20
1.74325
 30
0.0
 40
0.5
  1
B072320
100
AcDbAttributeDefinition
  3

  2
LINA
 70
     8
280
     0
  0
ATTDEF
  5
211
330
208
100
AcDbEntity
  8
AM_6
100
AcDbText
 10
8.74325
 20
1.24325
 30
0.0
 40
0.5
  1
2-1/4
100
AcDbAttributeDefinition
  3

  2
SS
 70
     8
280
     0
  0
ATTDEF
  5
212
330
208
100
AcDbEntity
  8
AM_6
100
AcDbText
 10
8.74325
 20
0.7432500000000002
 30
0.0
 40
0.5
  1
B072320
100
AcDbAttributeDefinition
  3

  2
PN
 70
     8
280
     0
  0
ATTDEF
  5
213
330
208
100
AcDbEntity
  8
AM_6
100
AcDbText
 10
8.74325
 20
0.2432500000000002
 30
0.0
 40
0.5
  1
Expansion
100
AcDbAttributeDefinition
  3

  2
TYPE
 70
     8
280
     0
  0
ATTDEF
  5
214
330
208
100
AcDbEntity
  8
AM_6
100
AcDbText
 10
8.74325
 20
-0.2567499999999998
 30
0.0
 40
0.5
  1
Expansion
100
AcDbAttributeDefinition
  3

  2
EF
 70
     8
280
     0
  0
ATTDEF
  5
215
330
208
100
AcDbEntity
  8
AM_6
100
AcDbText
 10
8.74325
 20
-0.7567499999999998
 30
0.0
 40
0.5
  1
SFC-IP-204RE
100
AcDbAttributeDefinition
  3

  2
DESCRIPTION
 70
     8
280
     0
  0
ATTDEF
  5
216
330
208
100
AcDbEntity
  8
AM_6
100
AcDbText
 10
8.74325
 20
-1.25675
 30
0.0
 40
0.5
  1
Contact Seal
100
AcDbAttributeDefinition
  3

  2
ST
 70
     8
280
     0
  0
ATTDEF
  5
217
330
208
100
AcDbEntity
  8
AM_6
100
AcDbText
 10
8.74325
 20
-1.75675
 30
0.0
 40
0.5
  1
3.030
100
AcDbAttributeDefinition
  3

  2
A
 70
     8
280
     0
  0
ATTDEF
  5
218
330
208
100
AcDbEntity
  8
AM_6
100
AcDbText
 10
8.74325
 20
-2.25675
 30
0.0
 40
0.5
  1
7.1300
100
AcDbAttributeDefinition
  3

  2
B
 70
     8
280
     0
  0
ATTDEF
  5
219
330
208
100
AcDbEntity
  8
AM_6
100
AcDbText
 10
8.74325
 20
-2.75675
 30
0.0
 40
0.5
  1
2.4200
100
AcDbAttributeDefinition
  3

  2
C
 70
     8
280
     0
  0
ATTDEF
  5
21A
330
208
100
AcDbEntity
  8
AM_6
100
AcDbText
 10
8.74325
 20
-3.25675
 30
0.0
 40
0.5
  1
4.2500
100
AcDbAttributeDefinition
  3

  2
D
 70
     8
280
     0
  0
ATTDEF
  5
21B
330
208
100
AcDbEntity
  8
AM_6
100
AcDbText
 10
8.74325
 20
-3.75675
 30
0.0
 40
0.5
  1
6.0000
100
AcDbAttributeDefinition
  3

  2
DD
 70
     8
280
     0
  0
ATTDEF
  5
21C
330
208
100
AcDbEntity
  8
AM_6
100
AcDbText
 10
8.74325
 20
-4.25675
 30
0.0
 40
0.5
  1
1.0200
100
AcDbAttributeDefinition
  3

  2
E
 70
     8
280
     0
  0
ATTDEF
  5
21D
330
208
100
AcDbEntity
  8
AM_6
100
AcDbText
 10
8.74325
 20
-4.75675
 30
0.0
 40
0.5
  1
0.5000
100
AcDbAttributeDefinition
  3

  2
F
 70
     8
280
     0
  0
ATTDEF
  5
21E
330
208
100
AcDbEntity
  8
AM_6
100
AcDbText
 10
8.74325
 20
-5.25675
 30
0.0
 40
0.5
  1
1.80
100
AcDbAttributeDefinition
  3

  2
G
 70
     8
280
     0
  0
ATTDEF
  5
21F
330
208
100
AcDbEntity
  8
AM_6
100
AcDbText
 10
8.74325
 20
-5.75675
 30
0.0
 40
0.5
  1
0.56
100
AcDbAttributeDefinition
  3

  2
H
 70
     8
280
     0
  0
ATTDEF
  5
220
330
208
100
AcDbEntity
  8
AM_6
100
AcDbText
 10
8.74325
 20
-6.25675
 30
0.0
 40
0.5
  1
5.000
100
AcDbAttributeDefinition
  3

  2
K
 70
     8
280
     0
  0
ATTDEF
  5
221
330
208
100
AcDbEntity
  8
AM_6
100
AcDbText
 10
8.74325
 20
-6.75675
 30
0.0
 40
0.5
  1
3.50
100
AcDbAttributeDefinition
  3

  2
L
 70
     8
280
     0
  0
ATTDEF
  5
222
330
208
100
AcDbEntity
  8
AM_6
100
AcDbText
 10
8.74325
 20
-7.25675
 30
0.0
 40
0.5
  1
0.5000
100
AcDbAttributeDefinition
  3

  2
M
 70
     8
280
     0
  0
ATTDEF
  5
223
330
208
100
AcDbEntity
  8
AM_6
100
AcDbText
 10
8.74325
 20
-7.75675
 30
0.0
 40
0.5
  1
3.34
100
AcDbAttributeDefinition
  3

  2
N
 70
     8
280
     0
  0
ATTDEF
  5
224
330
208
100
AcDbEntity
  8
AM_6
100
AcDbText
 10
8.74325
 20
-8.25675
 30
0.0
 40
0.5
  1
1.23
100
AcDbAttributeDefinition
  3

  2
P
 70
     8
280
     0
  0
ATTDEF
  5
225
330
208
100
AcDbEntity
  8
AM_6
100
AcDbText
 10
8.74325
 20
-8.75675
 30
0.0
 40
0.5
  1
1.55
100
AcDbAttributeDefinition
  3

  2
Q
 70
     8
280
     0
  0
ATTDEF
  5
226
330
208
100
AcDbEntity
  8
AM_6
100
AcDbText
 10
8.74325
 20
-9.25675
 30
0.0
 40
0.5
  1
0.25
100
AcDbAttributeDefinition
  3

  2
X
 70
     8
280
     0
  0
ATTDEF
  5
227
330
208
100
AcDbEntity
  8
AM_6
100
AcDbText
 10
8.74325
 20
-9.75675
 30
0.0
 40
0.5
  1
0.025
100
AcDbAttributeDefinition
  3

  2
Y
 70
     8
280
     0
  0
ATTDEF
  5
228
330
208
100
AcDbEntity
  8
AM_6
100
AcDbText
 10
8.74325
 20
-10.25675
 30
0.0
 40
0.5
  1
2.59
100
AcDbAttributeDefinition
  3

  2
Z
 70
     8
280
     0
  0
ATTDEF
  5
229
330
208
100
AcDbEntity
  8
AM_6
100
AcDbText
 10
8.74325
 20
-10.75675
 30
0.0
 40
0.5
  1
3.9370
100
AcDbAttributeDefinition
  3

  2
BORE
 70
     8
280
     0
  0
ATTDEF
  5
22A
330
208
100
AcDbEntity
  8
AM_6
100
AcDbText
 10
8.74325
 20
-11.25675
 30
0.0
 40
0.5
  1
0.0740000
100
AcDbAttributeDefinition
  3

  2
O
 70
     8
280
     0
  0
ATTDEF
  5
22B
330
208
100
AcDbEntity
  8
AM_6
100
AcDbText
 10
8.74325
 20
-11.75675
 30
0.0
 40
0.5
  1
baldor
100
AcDbAttributeDefinition
  3

  2
COMPANY
 70
     8
280
     0
  0
CIRCLE
  5
22C
330
208
100
AcDbEntity
  8
AM_9
100
AcDbCircle
 10
0.0
 20
0.0
 30
0.0
 40
2.375
  0
CIRCLE
  5
22D
330
208
100
AcDbEntity
  8
AM_9
100
AcDbCircle
 10
0.0
 20
0.0
 30
0.0
 40
2.393508007830627
  0
ARC
  5
22E
330
208
100
AcDbEntity
  8
AM_9
100
AcDbCircle
 10
-0.0000000000000001
 20
0.0000000000000036
 30
0.0
 40
2.500000000000004
100
AcDbArc
 50
257.0559184567994
 51
282.9440815432006
  0
ARC
  5
22F
330
208
100
AcDbEntity
  8
AM_9
100
AcDbCircle
 10
-0.0000000000000169
 20
0.0000000000000169
 30
0.0
 40
2.500000000000024
100
AcDbArc
 50
306.9747611065313
 51
323.0252388934687
  0
ARC
  5
230
330
208
100
AcDbEntity
  8
AM_9
100
AcDbCircle
 10
0.0000000000000473
 20
0.0000000000000513
 30
0.0
 40
2.499999999999931
100
AcDbArc
 50
36.97476110653093
 51
53.02523889346898
  0
ARC
  5
231
330
208
100
AcDbEntity
  8
AM_9
100
AcDbCircle
 10
0.0000000000000001
 20
-0.0000000000000031
 30
0.0
 40
2.500000000000003
100
AcDbArc
 50
77.05591845679939
 51
102.9440815432006
  0
ARC
  5
232
330
208
100
AcDbEntity
  8
AM_9
100
AcDbCircle
 10
0.000000000000004
 20
0.0000000000000002
 30
0.0
 40
2.500000000000002
100
AcDbArc
 50
126.9747611065312
 51
233.0252388934688
  0
LINE
  5
233
330
208
100
AcDbEntity
  8
AM_9
100
AcDbLine
 10
0.0824011005184861
 20
2.999999999999997
 30
0.0
 11
-0.0824011005184863
 21
2.999999999999997
 31
0.0
  0
LINE
  5
234
330
208
100
AcDbEntity
  8
AM_9
100
AcDbLine
 10
0.0824011005184869
 20
-2.999999999999997
 30
0.0
 11
-0.0824011005184871
 21
-2.999999999999997
 31
0.0
  0
ARC
  5
235
330
208
100
AcDbEntity
  8
AM_5
100
AcDbCircle
 10
3.0
 20
0.0000000000000002
 30
0.0
 40
0.2499999999999995
100
AcDbArc
 50
75.00000000000001
 51
14.99999999999994
  0
ARC
  5
236
330
208
100
AcDbEntity
  8
AM_5
100
AcDbCircle
 10
-3.0
 20
0.0
 30
0.0
 40
0.25
100
AcDbArc
 50
75.00000000000006
 51
15.00000000000002
  0
LINE
  5
237
330
208
100
AcDbEntity
  8
AM_7
100
AcDbLine
 10
-3.74325
 20
0.0
 30
0.0
 11
3.74325
 21
0.0
 31
0.0
  0
LINE
  5
238
330
208
100
AcDbEntity
  8
AM_7
100
AcDbLine
 10
0.0
 20
-3.74325
 30
0.0
 11
0.0
 21
3.74325
 31
0.0
  0
LINE
  5
239
330
208
100
AcDbEntity
  8
AM_7
100
AcDbLine
 10
-3.0
 20
-0.2624999999999998
 30
0.0
 11
-3.0
 21
0.2624999999999998
 31
0.0
  0
LINE
  5
23A
330
208
100
AcDbEntity
  8
AM_7
100
AcDbLine
 10
-2.383820343559643
 20
2.121320343559642
 30
0.0
 11
-1.858820343559642
 21
2.121320343559642
 31
0.0
  0
LINE
  5
23B
330
208
100
AcDbEntity
  8
AM_7
100
AcDbLine
 10
-2.121320343559642
 20
1.858820343559642
 30
0.0
 11
-2.121320343559642
 21
2.383820343559643
 31
0.0
  0
LINE
  5
23C
330
208
100
AcDbEntity
  8
AM_7
100
AcDbLine
 10
-2.383820343559643
 20
-2.121320343559642
 30
0.0
 11
-1.858820343559642
 21
-2.121320343559642
 31
0.0
  0
LINE
  5
23D
330
208
100
AcDbEntity
  8
AM_7
100
AcDbLine
 10
-2.121320343559642
 20
-2.383820343559643
 30
0.0
 11
-2.121320343559642
 21
-1.858820343559642
 31
0.0
  0
LINE
  5
23E
330
208
100
AcDbEntity
  8
AM_7
100
AcDbLine
 10
1.858820343559642
 20
2.121320343559642
 30
0.0
 11
2.383820343559643
 21
2.121320343559642
 31
0.0
  0
LINE
  5
23F
330
208
100
AcDbEntity
  8
AM_7
100
AcDbLine
 10
2.121320343559642
 20
1.858820343559642
 30
0.0
 11
2.121320343559642
 21
2.383820343559643
 31
0.0
  0
LINE
  5
240
330
208
100
AcDbEntity
  8
AM_7
100
AcDbLine
 10
1.858820343559642
 20
-2.121320343559642
 30
0.0
 11
2.383820343559643
 21
-2.121320343559642
 31
0.0
  0
LINE
  5
241
330
208
100
AcDbEntity
  8
AM_7
100
AcDbLine
 10
2.121320343559642
 20
-2.383820343559643
 30
0.0
 11
2.121320343559642
 21
-1.858820343559642
 31
0.0
  0
LINE
  5
242
330
208
100
AcDbEntity
  8
AM_7
100
AcDbLine
 10
3.0
 20
-0.2625000000000003
 30
0.0
 11
3.0
 21
0.2625000000000003
 31
0.0
  0
CIRCLE
  5
243
330
208
100
AcDbEntity
  8
AM_4
100
AcDbCircle
 10
3.0
 20
0.0
 30
0.0
 40
0.20835
  0
CIRCLE
  5
244
330
208
100
AcDbEntity
  8
AM_4
100
AcDbCircle
 10
-3.0
 20
0.0
 30
0.0
 40
0.2083499999999994
  0
CIRCLE
  5
245
330
208
100
AcDbEntity
  8
AM_4
100
AcDbCircle
 10
0.0
 20
0.0
 30
0.0
 40
3.565
  0
CIRCLE
  5
246
330
208
100
AcDbEntity
  8
AM_4
100
AcDbCircle
 10
-2.121320343559642
 20
2.121320343559642
 30
0.0
 40
0.25
  0
CIRCLE
  5
247
330
208
100
AcDbEntity
  8
AM_4
100
AcDbCircle
 10
-2.121320343559642
 20
-2.121320343559642
 30
0.0
 40
0.25
  0
CIRCLE
  5
248
330
208
100
AcDbEntity
  8
AM_4
100
AcDbCircle
 10
2.121320343559642
 20
2.121320343559642
 30
0.0
 40
0.25
  0
CIRCLE
  5
249
330
208
100
AcDbEntity
  8
AM_4
100
AcDbCircle
 10
2.121320343559642
 20
-2.121320343559642
 30
0.0
 40
0.25
  0
LINE
  5
24A
330
208
100
AcDbEntity
  8
AM_4
100
AcDbLine
 10
-0.56
 20
2.999999999999997
 30
0.0
 11
-0.56
 21
2.436472860509634
 31
0.0
  0
LINE
  5
24B
330
208
100
AcDbEntity
  8
AM_4
100
AcDbLine
 10
0.56
 20
2.999999999999997
 30
0.0
 11
0.56
 21
2.436472860509634
 31
0.0
  0
LINE
  5
24C
330
208
100
AcDbEntity
  8
AM_4
100
AcDbLine
 10
-0.0824011005184863
 20
2.999999999999997
 30
0.0
 11
-0.56
 21
2.999999999999997
 31
0.0
  0
LINE
  5
24D
330
208
100
AcDbEntity
  8
AM_4
100
AcDbLine
 10
0.56
 20
2.999999999999997
 30
0.0
 11
0.0824011005184861
 21
2.999999999999997
 31
0.0
  0
LINE
  5
24E
330
208
100
AcDbEntity
  8
AM_4
100
AcDbLine
 10
-0.56
 20
-2.436472860509634
 30
0.0
 11
-0.56
 21
-2.999999999999997
 31
0.0
  0
ARC
  5
24F
330
208
100
AcDbEntity
  8
AM_4
100
AcDbCircle
 10
-2.121320343559642
 20
2.121320343559643
 30
0.0
 40
0.6300000000000004
100
AcDbArc
 50
281.3577794791196
 51
348.6422205208803
  0
ARC
  5
250
330
208
100
AcDbEntity
  8
AM_4
100
AcDbCircle
 10
0.0000000000000004
 20
-0.0000000000000002
 30
0.0
 40
2.5
100
AcDbArc
 50
143.0252388934688
 51
216.9747611065312
  0
ARC
  5
251
330
208
100
AcDbEntity
  8
AM_4
100
AcDbCircle
 10
-2.121320343559642
 20
-2.121320343559642
 30
0.0
 40
0.6299999999999997
100
AcDbArc
 50
11.35777947911974
 51
78.64222052088037
  0
ARC
  5
252
330
208
100
AcDbEntity
  8
AM_4
100
AcDbCircle
 10
-0.0000000000000033
 20
-0.0000000000000075
 30
0.0
 40
2.499999999999992
100
AcDbArc
 50
233.0252388934688
 51
257.0559184567994
  0
LINE
  5
253
330
208
100
AcDbEntity
  8
AM_4
100
AcDbLine
 10
0.56
 20
-2.436472860509634
 30
0.0
 11
0.56
 21
-2.999999999999997
 31
0.0
  0
ARC
  5
254
330
208
100
AcDbEntity
  8
AM_4
100
AcDbCircle
 10
0.0000000000000075
 20
-0.0000000000000164
 30
0.0
 40
2.499999999999982
100
AcDbArc
 50
282.9440815432006
 51
306.9747611065313
  0
ARC
  5
255
330
208
100
AcDbEntity
  8
AM_4
100
AcDbCircle
 10
2.121320343559637
 20
-2.121320343559641
 30
0.0
 40
0.6299999999999948
100
AcDbArc
 50
101.3577794791195
 51
168.6422205208803
  0
ARC
  5
256
330
208
100
AcDbEntity
  8
AM_4
100
AcDbCircle
 10
0.0000000000000018
 20
-0.0000000000000004
 30
0.0
 40
2.499999999999998
100
AcDbArc
 50
323.0252388934687
 51
36.97476110653124
  0
ARC
  5
257
330
208
100
AcDbEntity
  8
AM_4
100
AcDbCircle
 10
2.12132034355964
 20
2.121320343559641
 30
0.0
 40
0.6299999999999977
100
AcDbArc
 50
191.3577794791196
 51
258.6422205208803
  0
ARC
  5
258
330
208
100
AcDbEntity
  8
AM_4
100
AcDbCircle
 10
-0.0000000000000009
 20
-0.0000000000000018
 30
0.0
 40
2.500000000000002
100
AcDbArc
 50
53.02523889346882
 51
77.05591845679936
  0
LINE
  5
259
330
208
100
AcDbEntity
  8
AM_4
100
AcDbLine
 10
0.56
 20
2.5
 30
0.0
 11
-0.56
 21
2.5
 31
0.0
  0
ARC
  5
25A
330
208
100
AcDbEntity
  8
AM_4
100
AcDbCircle
 10
0.0000000000000098
 20
-0.0000000000000213
 30
0.0
 40
2.500000000000023
100
AcDbArc
 50
102.9440815432007
 51
126.9747611065311
  0
CIRCLE
  5
25B
330
208
100
AcDbEntity
  8
AM_4
100
AcDbCircle
 10
0.0
 20
0.0
 30
0.0
 40
1.9685
  0
LINE
  5
25C
330
208
100
AcDbEntity
  8
AM_4
100
AcDbLine
 10
-0.0824011005184871
 20
-2.999999999999997
 30
0.0
 11
-0.56
 21
-2.999999999999997
 31
0.0
  0
LINE
  5
25D
330
208
100
AcDbEntity
  8
AM_4
100
AcDbLine
 10
0.56
 20
-2.999999999999997
 30
0.0
 11
0.0824011005184869
 21
-2.999999999999997
 31
0.0
  0
LINE
  5
25E
330
208
100
AcDbEntity
  8
AM_4
100
AcDbLine
 10
0.56
 20
-2.5
 30
0.0
 11
-0.56
 21
-2.5
 31
0.0
  0
ARC
  5
25F
330
208
100
AcDbEntity
  8
AM_5
100
AcDbCircle
 10
3.0
 20
0.0000000000000004
 30
0.0
 40
0.2500000000000002
100
AcDbArc
 50
165.0000000000001
 51
105.0000000000001
  0
ARC
  5
260
330
208
100
AcDbEntity
  8
AM_5
100
AcDbCircle
 10
-3.0
 20
0.0000000000000004
 30
0.0
 40
0.2500000000000002
100
AcDbArc
 50
165.0000000000001
 51
105.0000000000001
  0
ENDBLK
  5
20B
330
208
100
AcDbEntity
  8
0
100
AcDbBlockEnd
  0
ENDSEC
  0
SECTION
  2
ENTITIES
  0
INSERT
  5
6F
330
1F
100
AcDbEntity
  8
0
100
AcDbBlockReference
  2
1_072320_0
 10
0.0
 20
0.0
 30
0.0
  0
POINT
  5
262
330
1F
100
AcDbEntity
  8
ConnectionPoints
100
AcDbPoint
 10
0.0
 20
2.75
 30
0.7149999999999999
  0
POINT
  5
263
330
1F
100
AcDbEntity
  8
ConnectionPoints
100
AcDbPoint
 10
0.0
 20
-1.5
 30
1.439
  0
POINT
  5
264
330
1F
100
AcDbEntity
  8
ConnectionPoints
100
AcDbPoint
 10
0.0
 20
1.5
 30
1.439
  0
POINT
  5
265
330
1F
100
AcDbEntity
  8
ConnectionPoints
100
AcDbPoint
 10
0.0
 20
0.0
 30
1.295
  0
POINT
  5
266
330
1F
100
AcDbEntity
  8
ConnectionPoints
100
AcDbPoint
 10
0.0
 20
0.0
 30
1.54
  0
POINT
  5
267
330
1F
100
AcDbEntity
  8
ConnectionPoints
100
AcDbPoint
 10
0.0
 20
0.0
 30
1.494
  0
POINT
  5
268
330
1F
100
AcDbEntity
  8
ConnectionPoints
100
AcDbPoint
 10
0.0
 20
1.5
 30
1.295
  0
POINT
  5
269
330
1F
100
AcDbEntity
  8
ConnectionPoints
100
AcDbPoint
 10
0.0
 20
1.5
 30
1.439
  0
POINT
  5
26A
330
1F
100
AcDbEntity
  8
ConnectionPoints
100
AcDbPoint
 10
0.0
 20
-1.5
 30
1.295
  0
POINT
  5
26B
330
1F
100
AcDbEntity
  8
ConnectionPoints
100
AcDbPoint
 10
0.0
 20
-1.5
 30
1.439
  0
POINT
  5
26C
330
1F
100
AcDbEntity
  8
ConnectionPoints
100
AcDbPoint
 10
0.0
 20
0.0
 30
1.295
  0
POINT
  5
26D
330
1F
100
AcDbEntity
  8
ConnectionPoints
100
AcDbPoint
 10
0.0
 20
2.75
 30
0.7149999999999999
  0
POINT
  5
26E
330
1F
100
AcDbEntity
  8
ConnectionPoints
100
AcDbPoint
 10
0.0
 20
-2.75
 30
0.7149999999999997
  0
POINT
  5
26F
330
1F
100
AcDbEntity
  8
ConnectionPoints
100
AcDbPoint
 10
0.0
 20
0.0
 30
1.54
  0
POINT
  5
270
330
1F
100
AcDbEntity
  8
ConnectionPoints
100
AcDbPoint
 10
0.0
 20
0.0
 30
1.79
  0
ENDSEC
  0
SECTION
  2
OBJECTS
  0
DICTIONARY
  5
C
330
0
100
AcDbDictionary
281
     1
  3
ACAD_DETAILVIEWSTYLE
350
278
  3
ACAD_GROUP
350
D
  3
ACAD_LAYOUT
350
1A
  3
ACAD_MATERIAL
350
43
  3
ACAD_MLEADERSTYLE
350
6B
  3
ACAD_MLINESTYLE
350
17
  3
ACAD_PLOTSETTINGS
350
19
  3
ACAD_PLOTSTYLENAME
350
E
  3
ACAD_SCALELIST
350
47
  3
ACAD_SECTIONVIEWSTYLE
350
279
  3
ACAD_TABLESTYLE
350
69
  3
ACAD_VISUALSTYLE
350
2A
  3
ACDB_RECOMPOSE_DATA
350
275
  3
AcDbVariableDictionary
350
271
  0
SUN
  5
6D
330
29
100
AcDbSun
 90
        1
290
     0
 63
     7
421
 16777215
 40
1.0
291
     1
 91
  2455826
 92
 54000000
292
     0
 70
     2
 71
   256
280
     1
  0
DICTIONARY
  5
278
102
{ACAD_REACTORS
330
C
102
}
330
C
100
AcDbDictionary
281
     1
  0
DICTIONARY
  5
D
102
{ACAD_REACTORS
330
C
102
}
330
C
100
AcDbDictionary
281
     1
  0
DICTIONARY
  5
1A
102
{ACAD_REACTORS
330
C
102
}
330
C
100
AcDbDictionary
281
     1
  3
Layout1
350
1E
  3
Layout2
350
26
  3
Model
350
22
  0
DICTIONARY
  5
43
102
{ACAD_REACTORS
330
C
102
}
330
C
100
AcDbDictionary
281
     1
  3
ByBlock
350
45
  3
ByLayer
350
44
  3
Global
350
46
  0
DICTIONARY
  5
6B
102
{ACAD_REACTORS
330
C
102
}
330
C
100
AcDbDictionary
281
     1
  3
Standard
350
6C
  0
DICTIONARY
  5
17
102
{ACAD_REACTORS
330
C
102
}
330
C
100
AcDbDictionary
281
     1
  3
Standard
350
18
  0
DICTIONARY
  5
19
102
{ACAD_REACTORS
330
C
102
}
330
C
100
AcDbDictionary
281
     1
  0
ACDBDICTIONARYWDFLT
  5
E
102
{ACAD_REACTORS
330
C
102
}
330
C
100
AcDbDictionary
281
     1
  3
Normal
350
F
100
AcDbDictionaryWithDefault
340
F
  0
DICTIONARY
  5
47
102
{ACAD_REACTORS
330
C
102
}
330
C
100
AcDbDictionary
281
     1
  3
A0
350
48
  3
A1
350
49
  3
A2
350
4A
  3
A3
350
4B
  3
A4
350
4C
  3
A5
350
4D
  3
A6
350
4E
  3
A7
350
4F
  3
A8
350
50
  3
A9
350
51
  3
B0
350
52
  3
B1
350
53
  3
B2
350
54
  3
B3
350
55
  3
B4
350
56
  3
B5
350
57
  3
B6
350
58
  3
B7
350
59
  3
B8
350
5A
  3
B9
350
5B
  3
C0
350
5C
  3
C1
350
5D
  3
C2
350
5E
  3
C3
350
5F
  3
C4
350
60
  3
C5
350
61
  3
C6
350
62
  3
C7
350
63
  3
C8
350
64
  3
C9
350
65
  3
D0
350
66
  3
D1
350
67
  3
D2
350
68
  0
DICTIONARY
  5
279
102
{ACAD_REACTORS
330
C
102
}
330
C
100
AcDbDictionary
281
     1
  0
DICTIONARY
  5
69
102
{ACAD_REACTORS
330
C
102
}
330
C
100
AcDbDictionary
281
     1
  3
Standard
350
6A
  0
DICTIONARY
  5
2A
102
{ACAD_REACTORS
330
C
102
}
330
C
100
AcDbDictionary
281
     1
  3
2dWireframe
350
2F
  3
Basic
350
32
  3
Brighten
350
36
  3
ColorChange
350
3A
  3
Conceptual
350
34
  3
Dim
350
35
  3
EdgeColorOff
350
3D
  3
Facepattern
350
39
  3
Flat
350
2B
  3
FlatWithEdges
350
2C
  3
Gouraud
350
2D
  3
GouraudWithEdges
350
2E
  3
Hidden
350
31
  3
JitterOff
350
3B
  3
Linepattern
350
38
  3
OverhangOff
350
3C
  3
Realistic
350
33
  3
Shaded
350
42
  3
Shaded with edges
350
41
  3
Shades of Gray
350
3E
  3
Sketchy
350
3F
  3
Thicken
350
37
  3
Wireframe
350
30
  3
X-Ray
350
40
  0
XRECORD
  5
275
102
{ACAD_REACTORS
330
C
102
}
330
C
100
AcDbXrecord
280
     1
 90
        1
330
6A
  0
DICTIONARY
  5
271
102
{ACAD_REACTORS
330
C
102
}
330
C
100
AcDbDictionary
281
     1
  3
CANNOSCALE
350
272
  3
CMLEADERSTYLE
350
277
  3
CTABLESTYLE
350
276
  0
LAYOUT
  5
1E
102
{ACAD_REACTORS
330
1A
102
}
330
1A
100
AcDbPlotSettings
  1

  2
none_device
  4

  6

 40
0.0
 41
0.0
 42
0.0
 43
0.0
 44
0.0
 45
0.0
 46
0.0
 47
0.0
 48
0.0
 49
0.0
140
0.0
141
0.0
142
1.0
143
1.0
 70
   688
 72
     0
 73
     0
 74
     5
  7

 75
    16
 76
     0
 77
     2
 78
   300
147
1.0
148
0.0
149
0.0
100
AcDbLayout
  1
Layout1
 70
     1
 71
     1
 10
0.0
 20
0.0
 11
12.0
 21
9.0
 12
0.0
 22
0.0
 32
0.0
 14
1.000000000000000E+20
 24
1.000000000000000E+20
 34
1.000000000000000E+20
 15
-1.000000000000000E+20
 25
-1.000000000000000E+20
 35
-1.000000000000000E+20
146
0.0
 13
0.0
 23
0.0
 33
0.0
 16
1.0
 26
0.0
 36
0.0
 17
0.0
 27
1.0
 37
0.0
 76
     0
330
1B
  0
LAYOUT
  5
26
102
{ACAD_REACTORS
330
1A
102
}
330
1A
100
AcDbPlotSettings
  1

  2
none_device
  4

  6

 40
0.0
 41
0.0
 42
0.0
 43
0.0
 44
0.0
 45
0.0
 46
0.0
 47
0.0
 48
0.0
 49
0.0
140
0.0
141
0.0
142
1.0
143
1.0
 70
   688
 72
     0
 73
     0
 74
     5
  7

 75
    16
 76
     0
 77
     2
 78
   300
147
1.0
148
0.0
149
0.0
100
AcDbLayout
  1
Layout2
 70
     1
 71
     2
 10
0.0
 20
0.0
 11
0.0
 21
0.0
 12
0.0
 22
0.0
 32
0.0
 14
0.0
 24
0.0
 34
0.0
 15
0.0
 25
0.0
 35
0.0
146
0.0
 13
0.0
 23
0.0
 33
0.0
 16
1.0
 26
0.0
 36
0.0
 17
0.0
 27
1.0
 37
0.0
 76
     0
330
23
  0
LAYOUT
  5
22
102
{ACAD_REACTORS
330
1A
102
}
330
1A
100
AcDbPlotSettings
  1

  2
none_device
  4
Letter_(8.50_x_11.00_Inches)
  6

 40
6.35
 41
6.35
 42
6.35000508
 43
6.35000508
 44
215.9
 45
279.4
 46
0.0
 47
0.0
 48
0.0
 49
0.0
140
0.0
141
0.0
142
1.0
143
1.0
 70
  1712
 72
     0
 73
     0
 74
     0
  7

 75
     0
 76
     0
 77
     2
 78
   300
147
1.0
148
0.0
149
0.0
100
AcDbLayout
  1
Model
 70
     1
 71
     0
 10
0.0
 20
0.0
 11
12.0
 21
9.0
 12
0.0
 22
0.0
 32
0.0
 14
1.000000000000000E+20
 24
1.000000000000000E+20
 34
1.000000000000000E+20
 15
-1.000000000000000E+20
 25
-1.000000000000000E+20
 35
-1.000000000000000E+20
146
0.0
 13
0.0
 23
0.0
 33
0.0
 16
1.0
 26
0.0
 36
0.0
 17
0.0
 27
1.0
 37
0.0
 76
     0
330
1F
331
29
  0
MATERIAL
  5
45
102
{ACAD_REACTORS
330
43
102
}
330
43
100
AcDbMaterial
  1
ByBlock
 72
     1
 94
      127
  0
MATERIAL
  5
44
102
{ACAD_REACTORS
330
43
102
}
330
43
100
AcDbMaterial
  1
ByLayer
 72
     1
 94
      127
  0
MATERIAL
  5
46
102
{ACAD_REACTORS
330
43
102
}
330
43
100
AcDbMaterial
  1
Global
 72
     1
 94
      127
  0
MLEADERSTYLE
  5
6C
102
{ACAD_REACTORS
330
6B
102
}
330
6B
100
AcDbMLeaderStyle
179
     2
170
     2
171
     1
172
     0
 90
        2
 40
0.0
 41
0.0
173
     1
 91
-1056964608
340
14
 92
       -2
290
     1
 42
0.09
291
     1
 43
0.36
  3
Standard
341
0
 44
0.18
300

342
11
174
     1
178
     6
175
     1
176
     0
 93
-1056964608
 45
0.18
292
     0
297
     0
 46
0.18
343
0
 94
-1056964608
 47
1.0
 49
1.0
140
1.0
293
     1
141
0.0
294
     1
177
     0
142
1.0
295
     0
296
     0
143
0.125
271
     0
272
     9
273
     9
298
     0
  0
MLINESTYLE
  5
18
102
{ACAD_REACTORS
330
17
102
}
330
17
100
AcDbMlineStyle
  2
Standard
 70
     0
  3

 62
   256
 51
90.0
 52
90.0
 71
     2
 49
0.5
 62
   256
  6
BYLAYER
 49
-0.5
 62
   256
  6
BYLAYER
  0
ACDBPLACEHOLDER
  5
F
102
{ACAD_REACTORS
330
E
102
}
330
E
  0
SCALE
  5
48
102
{ACAD_REACTORS
330
47
102
}
330
47
100
AcDbScale
 70
     0
300
1:1
140
1.0
141
1.0
290
     1
  0
SCALE
  5
49
102
{ACAD_REACTORS
330
47
102
}
330
47
100
AcDbScale
 70
     0
300
1:2
140
1.0
141
2.0
290
     0
  0
SCALE
  5
4A
102
{ACAD_REACTORS
330
47
102
}
330
47
100
AcDbScale
 70
     0
300
1:4
140
1.0
141
4.0
290
     0
  0
SCALE
  5
4B
102
{ACAD_REACTORS
330
47
102
}
330
47
100
AcDbScale
 70
     0
300
1:5
140
1.0
141
5.0
290
     0
  0
SCALE
  5
4C
102
{ACAD_REACTORS
330
47
102
}
330
47
100
AcDbScale
 70
     0
300
1:8
140
1.0
141
8.0
290
     0
  0
SCALE
  5
4D
102
{ACAD_REACTORS
330
47
102
}
330
47
100
AcDbScale
 70
     0
300
1:10
140
1.0
141
10.0
290
     0
  0
SCALE
  5
4E
102
{ACAD_REACTORS
330
47
102
}
330
47
100
AcDbScale
 70
     0
300
1:16
140
1.0
141
16.0
290
     0
  0
SCALE
  5
4F
102
{ACAD_REACTORS
330
47
102
}
330
47
100
AcDbScale
 70
     0
300
1:20
140
1.0
141
20.0
290
     0
  0
SCALE
  5
50
102
{ACAD_REACTORS
330
47
102
}
330
47
100
AcDbScale
 70
     0
300
1:30
140
1.0
141
30.0
290
     0
  0
SCALE
  5
51
102
{ACAD_REACTORS
330
47
102
}
330
47
100
AcDbScale
 70
     0
300
1:40
140
1.0
141
40.0
290
     0
  0
SCALE
  5
52
102
{ACAD_REACTORS
330
47
102
}
330
47
100
AcDbScale
 70
     0
300
1:50
140
1.0
141
50.0
290
     0
  0
SCALE
  5
53
102
{ACAD_REACTORS
330
47
102
}
330
47
100
AcDbScale
 70
     0
300
1:100
140
1.0
141
100.0
290
     0
  0
SCALE
  5
54
102
{ACAD_REACTORS
330
47
102
}
330
47
100
AcDbScale
 70
     0
300
2:1
140
2.0
141
1.0
290
     0
  0
SCALE
  5
55
102
{ACAD_REACTORS
330
47
102
}
330
47
100
AcDbScale
 70
     0
300
4:1
140
4.0
141
1.0
290
     0
  0
SCALE
  5
56
102
{ACAD_REACTORS
330
47
102
}
330
47
100
AcDbScale
 70
     0
300
8:1
140
8.0
141
1.0
290
     0
  0
SCALE
  5
57
102
{ACAD_REACTORS
330
47
102
}
330
47
100
AcDbScale
 70
     0
300
10:1
140
10.0
141
1.0
290
     0
  0
SCALE
  5
58
102
{ACAD_REACTORS
330
47
102
}
330
47
100
AcDbScale
 70
     0
300
100:1
140
100.0
141
1.0
290
     0
  0
SCALE
  5
59
102
{ACAD_REACTORS
330
47
102
}
330
47
100
AcDbScale
 70
     0
300
1/128" = 1'-0"
140
0.0078125
141
12.0
290
     0
  0
SCALE
  5
5A
102
{ACAD_REACTORS
330
47
102
}
330
47
100
AcDbScale
 70
     0
300
1/64" = 1'-0"
140
0.015625
141
12.0
290
     0
  0
SCALE
  5
5B
102
{ACAD_REACTORS
330
47
102
}
330
47
100
AcDbScale
 70
     0
300
1/32" = 1'-0"
140
0.03125
141
12.0
290
     0
  0
SCALE
  5
5C
102
{ACAD_REACTORS
330
47
102
}
330
47
100
AcDbScale
 70
     0
300
1/16" = 1'-0"
140
0.0625
141
12.0
290
     0
  0
SCALE
  5
5D
102
{ACAD_REACTORS
330
47
102
}
330
47
100
AcDbScale
 70
     0
300
3/32" = 1'-0"
140
0.09375
141
12.0
290
     0
  0
SCALE
  5
5E
102
{ACAD_REACTORS
330
47
102
}
330
47
100
AcDbScale
 70
     0
300
1/8" = 1'-0"
140
0.125
141
12.0
290
     0
  0
SCALE
  5
5F
102
{ACAD_REACTORS
330
47
102
}
330
47
100
AcDbScale
 70
     0
300
3/16" = 1'-0"
140
0.1875
141
12.0
290
     0
  0
SCALE
  5
60
102
{ACAD_REACTORS
330
47
102
}
330
47
100
AcDbScale
 70
     0
300
1/4" = 1'-0"
140
0.25
141
12.0
290
     0
  0
SCALE
  5
61
102
{ACAD_REACTORS
330
47
102
}
330
47
100
AcDbScale
 70
     0
300
3/8" = 1'-0"
140
0.375
141
12.0
290
     0
  0
SCALE
  5
62
102
{ACAD_REACTORS
330
47
102
}
330
47
100
AcDbScale
 70
     0
300
1/2" = 1'-0"
140
0.5
141
12.0
290
     0
  0
SCALE
  5
63
102
{ACAD_REACTORS
330
47
102
}
330
47
100
AcDbScale
 70
     0
300
3/4" = 1'-0"
140
0.75
141
12.0
290
     0
  0
SCALE
  5
64
102
{ACAD_REACTORS
330
47
102
}
330
47
100
AcDbScale
 70
     0
300
1" = 1'-0"
140
1.0
141
12.0
290
     0
  0
SCALE
  5
65
102
{ACAD_REACTORS
330
47
102
}
330
47
100
AcDbScale
 70
     0
300
1-1/2" = 1'-0"
140
1.5
141
12.0
290
     0
  0
SCALE
  5
66
102
{ACAD_REACTORS
330
47
102
}
330
47
100
AcDbScale
 70
     0
300
3" = 1'-0"
140
3.0
141
12.0
290
     0
  0
SCALE
  5
67
102
{ACAD_REACTORS
330
47
102
}
330
47
100
AcDbScale
 70
     0
300
6" = 1'-0"
140
6.0
141
12.0
290
     0
  0
SCALE
  5
68
102
{ACAD_REACTORS
330
47
102
}
330
47
100
AcDbScale
 70
     0
300
1'-0" = 1'-0"
140
12.0
141
12.0
290
     0
  0
TABLESTYLE
  5
6A
102
{ACAD_REACTORS
330
69
102
}
102
{ACAD_XDICTIONARY
360
273
102
}
330
69
100
AcDbTableStyle
  3
Standard
 70
     0
 71
     0
 40
0.06
 41
0.06
280
     0
281
     0
  7
Standard
140
0.18
170
     2
 62
     0
 63
   257
283
     0
 90
        4
 91
        0
  1

274
    -2
284
     1
 64
     0
275
    -2
285
     1
 65
     0
276
    -2
286
     1
 66
     0
277
    -2
287
     1
 67
     0
278
    -2
288
     1
 68
     0
279
    -2
289
     1
 69
     0
  7
Standard
140
0.25
170
     5
 62
     0
 63
   257
283
     0
 90
        4
 91
        0
  1

274
    -2
284
     1
 64
     0
275
    -2
285
     1
 65
     0
276
    -2
286
     1
 66
     0
277
    -2
287
     1
 67
     0
278
    -2
288
     1
 68
     0
279
    -2
289
     1
 69
     0
  7
Standard
140
0.18
170
     5
 62
     0
 63
   257
283
     0
 90
        4
 91
        0
  1

274
    -2
284
     1
 64
     0
275
    -2
285
     1
 65
     0
276
    -2
286
     1
 66
     0
277
    -2
287
     1
 67
     0
278
    -2
288
     1
 68
     0
279
    -2
289
     1
 69
     0
  0
VISUALSTYLE
  5
2F
102
{ACAD_REACTORS
330
2A
102
}
330
2A
100
AcDbVisualStyle
  2
2dWireframe
 70
     4
177
     3
291
     0
 70
    58
 90
        0
176
     1
 90
        2
176
     1
 90
        0
176
     1
 90
        0
176
     1
 40
0.6
176
     1
 40
30.0
176
     1
 62
     7
420
 16777215
176
     1
 90
        1
176
     1
 90
        4
176
     1
 62
     7
176
     1
 62
   257
176
     1
 90
        1
176
     1
 90
        1
176
     1
 40
1.0
176
     1
 90
        0
176
     1
 62
   257
176
     1
 40
1.0
176
     1
 90
        1
176
     1
 90
        6
176
     1
 90
        2
176
     1
 62
     7
176
     1
 90
        5
176
     1
 90
        0
176
     1
 90
        0
176
     1
290
     0
176
     1
 90
        1
176
     1
 40
0.0
176
     1
 90
        0
176
     1
290
     1
176
     1
290
     1
176
     1
290
     0
176
     1
290
     0
176
     1
290
     0
176
     1
290
     0
176
     1
290
     0
176
     1
290
     0
176
     1
290
     0
176
     1
 90
       50
176
     1
 40
0.0
176
     1
 40
1.0
176
     1
 90
        0
176
     1
 62
    18
420
        0
176
     1
 90
       50
176
     1
 90
        3
176
     1
 62
     5
420
      255
176
     1
290
     0
176
     1
 90
       50
176
     1
 90
       50
176
     1
 90
       50
176
     1
290
     0
176
     1
 90
       50
176
     1
 62
   256
176
     0
 40
1.0
176
     0
 90
        2
176
     1
  1
strokes_ogs.tif
176
     1
290
     0
176
     1
 40
1.0
176
     1
 40
1.0
176
     1
  0
VISUALSTYLE
  5
32
102
{ACAD_REACTORS
330
2A
102
}
330
2A
100
AcDbVisualStyle
  2
Basic
 70
     7
177
     3
291
     1
 70
    58
 90
        1
176
     1
 90
        0
176
     1
 90
        1
176
     1
 90
        0
176
     1
 40
0.6
176
     1
 40
30.0
176
     1
 62
     7
420
 16777215
176
     1
 90
        0
176
     1
 90
        4
176
     1
 62
     7
176
     1
 62
   257
176
     1
 90
        1
176
     1
 90
        1
176
     1
 40
1.0
176
     1
 90
        8
176
     1
 62
     7
176
     1
 40
1.0
176
     1
 90
        1
176
     1
 90
        6
176
     1
 90
        2
176
     1
 62
     7
176
     1
 90
        5
176
     1
 90
        0
176
     1
 90
        0
176
     1
290
     0
176
     1
 90
        1
176
     1
 40
0.0
176
     1
 90
        0
176
     1
290
     0
176
     1
290
     1
176
     1
290
     1
176
     1
290
     0
176
     1
290
     0
176
     1
290
     0
176
     1
290
     0
176
     1
290
     0
176
     1
290
     0
176
     1
 90
       50
176
     1
 40
0.0
176
     1
 40
1.0
176
     1
 90
        0
176
     1
 62
    18
420
        0
176
     1
 90
       50
176
     1
 90
        3
176
     1
 62
     5
420
      255
176
     1
290
     0
176
     1
 90
       50
176
     1
 90
       50
176
     1
 90
       50
176
     1
290
     0
176
     1
 90
       50
176
     1
 62
   256
176
     0
 40
1.0
176
     0
 90
        2
176
     1
  1
strokes_ogs.tif
176
     1
290
     0
176
     1
 40
1.0
176
     1
 40
1.0
176
     1
  0
VISUALSTYLE
  5
36
102
{ACAD_REACTORS
330
2A
102
}
330
2A
100
AcDbVisualStyle
  2
Brighten
 70
    12
177
     3
291
     1
 70
    58
 90
        2
176
     1
 90
        2
176
     1
 90
        0
176
     1
 90
        0
176
     1
 40
0.6
176
     1
 40
30.0
176
     1
 62
     7
420
 16777215
176
     1
 90
        1
176
     1
 90
        4
176
     1
 62
     7
176
     1
 62
   257
176
     1
 90
        1
176
     1
 90
        1
176
     1
 40
1.0
176
     1
 90
        8
176
     1
 62
     7
176
     1
 40
1.0
176
     1
 90
        1
176
     1
 90
        6
176
     1
 90
        2
176
     1
 62
     7
176
     1
 90
        5
176
     1
 90
        0
176
     1
 90
        0
176
     1
290
     0
176
     1
 90
        1
176
     1
 40
50.0
176
     1
 90
        0
176
     1
290
     0
176
     1
290
     1
176
     1
290
     1
176
     1
290
     0
176
     1
290
     0
176
     1
290
     0
176
     1
290
     0
176
     1
290
     0
176
     1
290
     0
176
     1
 90
       50
176
     1
 40
0.0
176
     1
 40
1.0
176
     1
 90
        0
176
     1
 62
    18
420
        0
176
     1
 90
       50
176
     1
 90
        3
176
     1
 62
     5
420
      255
176
     1
290
     0
176
     1
 90
       50
176
     1
 90
       50
176
     1
 90
       50
176
     1
290
     0
176
     1
 90
       50
176
     1
 62
   256
176
     0
 40
1.0
176
     0
 90
        2
176
     1
  1
strokes_ogs.tif
176
     1
290
     0
176
     1
 40
1.0
176
     1
 40
1.0
176
     1
  0
VISUALSTYLE
  5
3A
102
{ACAD_REACTORS
330
2A
102
}
330
2A
100
AcDbVisualStyle
  2
ColorChange
 70
    16
177
     3
291
     1
 70
    58
 90
        2
176
     1
 90
        2
176
     1
 90
        3
176
     1
 90
        0
176
     1
 40
0.6
176
     1
 40
30.0
176
     1
 62
     8
420
  8421504
176
     1
 90
        1
176
     1
 90
        4
176
     1
 62
     7
176
     1
 62
   257
176
     1
 90
        1
176
     1
 90
        1
176
     1
 40
1.0
176
     1
 90
        8
176
     1
 62
     8
420
  8421504
176
     1
 40
1.0
176
     1
 90
        1
176
     1
 90
        6
176
     1
 90
        2
176
     1
 62
     7
176
     1
 90
        5
176
     1
 90
        0
176
     1
 90
        0
176
     1
290
     0
176
     1
 90
        1
176
     1
 40
0.0
176
     1
 90
        0
176
     1
290
     0
176
     1
290
     1
176
     1
290
     1
176
     1
290
     0
176
     1
290
     0
176
     1
290
     0
176
     1
290
     0
176
     1
290
     0
176
     1
290
     0
176
     1
 90
       50
176
     1
 40
0.0
176
     1
 40
1.0
176
     1
 90
        0
176
     1
 62
    18
420
        0
176
     1
 90
       50
176
     1
 90
        3
176
     1
 62
     5
420
      255
176
     1
290
     0
176
     1
 90
       50
176
     1
 90
       50
176
     1
 90
       50
176
     1
290
     0
176
     1
 90
       50
176
     1
 62
   256
176
     0
 40
1.0
176
     0
 90
        2
176
     1
  1
strokes_ogs.tif
176
     1
290
     0
176
     1
 40
1.0
176
     1
 40
1.0
176
     1
  0
VISUALSTYLE
  5
34
102
{ACAD_REACTORS
330
2A
102
}
330
2A
100
AcDbVisualStyle
  2
Conceptual
 70
     9
177
     3
291
     0
 70
    58
 90
        3
176
     1
 90
        2
176
     1
 90
        0
176
     1
 90
        0
176
     1
 40
0.6
176
     1
 40
30.0
176
     1
 62
     7
420
 16777215
176
     1
 90
        2
176
     1
 90
        2
176
     1
 62
     7
176
     1
 62
   257
176
     1
 90
        1
176
     1
 90
        1
176
     1
 40
179.0
176
     1
 90
        8
176
     1
 62
     7
176
     1
 40
1.0
176
     1
 90
        1
176
     1
 90
        6
176
     1
 90
        2
176
     1
 62
     7
176
     1
 90
        3
176
     1
 90
        0
176
     1
 90
        0
176
     1
290
     0
176
     1
 90
        1
176
     1
 40
0.0
176
     1
 90
        0
176
     1
290
     0
176
     1
290
     1
176
     1
290
     1
176
     1
290
     0
176
     1
290
     0
176
     1
290
     0
176
     1
290
     0
176
     1
290
     0
176
     1
290
     0
176
     1
 90
       50
176
     1
 40
0.0
176
     1
 40
1.0
176
     1
 90
        0
176
     1
 62
    18
420
        0
176
     1
 90
       50
176
     1
 90
        3
176
     1
 62
     5
420
      255
176
     1
290
     0
176
     1
 90
       50
176
     1
 90
       50
176
     1
 90
       50
176
     1
290
     0
176
     1
 90
       50
176
     1
 62
   256
176
     0
 40
1.0
176
     0
 90
        2
176
     1
  1
strokes_ogs.tif
176
     1
290
     0
176
     1
 40
1.0
176
     1
 40
1.0
176
     1
  0
VISUALSTYLE
  5
35
102
{ACAD_REACTORS
330
2A
102
}
330
2A
100
AcDbVisualStyle
  2
Dim
 70
    11
177
     3
291
     1
 70
    58
 90
        2
176
     1
 90
        2
176
     1
 90
        0
176
     1
 90
        0
176
     1
 40
0.6
176
     1
 40
30.0
176
     1
 62
     7
420
 16777215
176
     1
 90
        1
176
     1
 90
        4
176
     1
 62
     7
176
     1
 62
   257
176
     1
 90
        1
176
     1
 90
        1
176
     1
 40
1.0
176
     1
 90
        8
176
     1
 62
     7
176
     1
 40
1.0
176
     1
 90
        1
176
     1
 90
        6
176
     1
 90
        2
176
     1
 62
     7
176
     1
 90
        5
176
     1
 90
        0
176
     1
 90
        0
176
     1
290
     0
176
     1
 90
        1
176
     1
 40
-50.0
176
     1
 90
        0
176
     1
290
     0
176
     1
290
     1
176
     1
290
     1
176
     1
290
     0
176
     1
290
     0
176
     1
290
     0
176
     1
290
     0
176
     1
290
     0
176
     1
290
     0
176
     1
 90
       50
176
     1
 40
0.0
176
     1
 40
1.0
176
     1
 90
        0
176
     1
 62
    18
420
        0
176
     1
 90
       50
176
     1
 90
        3
176
     1
 62
     5
420
      255
176
     1
290
     0
176
     1
 90
       50
176
     1
 90
       50
176
     1
 90
       50
176
     1
290
     0
176
     1
 90
       50
176
     1
 62
   256
176
     0
 40
1.0
176
     0
 90
        2
176
     1
  1
strokes_ogs.tif
176
     1
290
     0
176
     1
 40
1.0
176
     1
 40
1.0
176
     1
  0
VISUALSTYLE
  5
3D
102
{ACAD_REACTORS
330
2A
102
}
330
2A
100
AcDbVisualStyle
  2
EdgeColorOff
 70
    22
177
     3
291
     1
 70
    58
 90
        2
176
     0
 90
        2
176
     0
 90
        0
176
     0
 90
        0
176
     0
 40
0.6
176
     0
 40
30.0
176
     0
 62
     7
420
 16777215
176
     0
 90
        1
176
     0
 90
        4
176
     0
 62
     7
176
     0
 62
   257
176
     0
 90
        1
176
     0
 90
        1
176
     0
 40
1.0
176
     0
 90
        8
176
     2
 62
     7
176
     0
 40
1.0
176
     0
 90
        1
176
     0
 90
        6
176
     0
 90
        2
176
     0
 62
     7
176
     0
 90
        5
176
     0
 90
        0
176
     0
 90
        0
176
     0
290
     0
176
     0
 90
        1
176
     0
 40
0.0
176
     0
 90
        0
176
     0
290
     0
176
     0
290
     1
176
     0
290
     1
176
     0
290
     0
176
     0
290
     0
176
     0
290
     0
176
     0
290
     0
176
     0
290
     0
176
     0
290
     0
176
     0
 90
       50
176
     0
 40
0.0
176
     0
 40
1.0
176
     0
 90
        0
176
     0
 62
    18
420
        0
176
     0
 90
       50
176
     0
 90
        3
176
     0
 62
     5
420
      255
176
     0
290
     0
176
     0
 90
       50
176
     0
 90
       50
176
     0
 90
       50
176
     0
290
     0
176
     0
 90
       50
176
     0
 62
   256
176
     0
 40
1.0
176
     0
 90
        2
176
     0
  1
strokes_ogs.tif
176
     0
290
     0
176
     0
 40
1.0
176
     0
 40
1.0
176
     0
  0
VISUALSTYLE
  5
39
102
{ACAD_REACTORS
330
2A
102
}
330
2A
100
AcDbVisualStyle
  2
Facepattern
 70
    15
177
     3
291
     1
 70
    58
 90
        2
176
     1
 90
        2
176
     1
 90
        0
176
     1
 90
        0
176
     1
 40
0.6
176
     1
 40
30.0
176
     1
 62
     7
420
 16777215
176
     1
 90
        1
176
     1
 90
        4
176
     1
 62
     7
176
     1
 62
   257
176
     1
 90
        1
176
     1
 90
        1
176
     1
 40
1.0
176
     1
 90
        8
176
     1
 62
     7
176
     1
 40
1.0
176
     1
 90
        1
176
     1
 90
        6
176
     1
 90
        2
176
     1
 62
     7
176
     1
 90
        5
176
     1
 90
        0
176
     1
 90
        0
176
     1
290
     0
176
     1
 90
        1
176
     1
 40
0.0
176
     1
 90
        0
176
     1
290
     0
176
     1
290
     1
176
     1
290
     1
176
     1
290
     0
176
     1
290
     0
176
     1
290
     0
176
     1
290
     0
176
     1
290
     0
176
     1
290
     0
176
     1
 90
       50
176
     1
 40
0.0
176
     1
 40
1.0
176
     1
 90
        0
176
     1
 62
    18
420
        0
176
     1
 90
       50
176
     1
 90
        3
176
     1
 62
     5
420
      255
176
     1
290
     0
176
     1
 90
       50
176
     1
 90
       50
176
     1
 90
       50
176
     1
290
     0
176
     1
 90
       50
176
     1
 62
   256
176
     0
 40
1.0
176
     0
 90
        2
176
     1
  1
strokes_ogs.tif
176
     1
290
     0
176
     1
 40
1.0
176
     1
 40
1.0
176
     1
  0
VISUALSTYLE
  5
2B
102
{ACAD_REACTORS
330
2A
102
}
330
2A
100
AcDbVisualStyle
  2
Flat
 70
     0
177
     3
291
     1
 70
    58
 90
        2
176
     1
 90
        1
176
     1
 90
        1
176
     1
 90
        2
176
     1
 40
0.6
176
     1
 40
30.0
176
     1
 62
     7
420
 16777215
176
     1
 90
        0
176
     1
 90
        0
176
     1
 62
     7
176
     1
 62
   257
176
     1
 90
        1
176
     1
 90
        1
176
     1
 40
1.0
176
     1
 90
        8
176
     1
 62
     7
176
     1
 40
1.0
176
     1
 90
        1
176
     1
 90
        6
176
     1
 90
        2
176
     1
 62
     7
176
     1
 90
        5
176
     1
 90
        0
176
     1
 90
        0
176
     1
290
     0
176
     1
 90
       13
176
     1
 40
0.0
176
     1
 90
        0
176
     1
290
     0
176
     1
290
     1
176
     1
290
     1
176
     1
290
     0
176
     1
290
     0
176
     1
290
     0
176
     1
290
     0
176
     1
290
     0
176
     1
290
     0
176
     1
 90
       50
176
     1
 40
0.0
176
     1
 40
1.0
176
     1
 90
        0
176
     1
 62
    18
420
        0
176
     1
 90
       50
176
     1
 90
        3
176
     1
 62
     5
420
      255
176
     1
290
     0
176
     1
 90
       50
176
     1
 90
       50
176
     1
 90
       50
176
     1
290
     0
176
     1
 90
       50
176
     1
 62
   256
176
     0
 40
1.0
176
     0
 90
        2
176
     1
  1
strokes_ogs.tif
176
     1
290
     0
176
     1
 40
1.0
176
     1
 40
1.0
176
     1
  0
VISUALSTYLE
  5
2C
102
{ACAD_REACTORS
330
2A
102
}
330
2A
100
AcDbVisualStyle
  2
FlatWithEdges
 70
     1
177
     3
291
     1
 70
    58
 90
        2
176
     1
 90
        1
176
     1
 90
        1
176
     1
 90
        2
176
     1
 40
0.6
176
     1
 40
30.0
176
     1
 62
     7
420
 16777215
176
     1
 90
        1
176
     1
 90
        0
176
     1
 62
     7
176
     1
 62
   257
176
     1
 90
        1
176
     1
 90
        1
176
     1
 40
1.0
176
     1
 90
        0
176
     1
 62
   257
176
     1
 40
1.0
176
     1
 90
        1
176
     1
 90
        6
176
     1
 90
        2
176
     1
 62
     7
176
     1
 90
        5
176
     1
 90
        0
176
     1
 90
        0
176
     1
290
     0
176
     1
 90
       13
176
     1
 40
0.0
176
     1
 90
        0
176
     1
290
     0
176
     1
290
     1
176
     1
290
     1
176
     1
290
     0
176
     1
290
     0
176
     1
290
     0
176
     1
290
     0
176
     1
290
     0
176
     1
290
     0
176
     1
 90
       50
176
     1
 40
0.0
176
     1
 40
1.0
176
     1
 90
        0
176
     1
 62
    18
420
        0
176
     1
 90
       50
176
     1
 90
        3
176
     1
 62
     5
420
      255
176
     1
290
     0
176
     1
 90
       50
176
     1
 90
       50
176
     1
 90
       50
176
     1
290
     0
176
     1
 90
       50
176
     1
 62
   256
176
     0
 40
1.0
176
     0
 90
        2
176
     1
  1
strokes_ogs.tif
176
     1
290
     0
176
     1
 40
1.0
176
     1
 40
1.0
176
     1
  0
VISUALSTYLE
  5
2D
102
{ACAD_REACTORS
330
2A
102
}
330
2A
100
AcDbVisualStyle
  2
Gouraud
 70
     2
177
     3
291
     1
 70
    58
 90
        2
176
     1
 90
        2
176
     1
 90
        1
176
     1
 90
        2
176
     1
 40
0.6
176
     1
 40
30.0
176
     1
 62
     7
420
 16777215
176
     1
 90
        0
176
     1
 90
        0
176
     1
 62
     7
176
     1
 62
   257
176
     1
 90
        1
176
     1
 90
        1
176
     1
 40
1.0
176
     1
 90
        0
176
     1
 62
     7
176
     1
 40
1.0
176
     1
 90
        1
176
     1
 90
        6
176
     1
 90
        2
176
     1
 62
     7
176
     1
 90
        5
176
     1
 90
        0
176
     1
 90
        0
176
     1
290
     0
176
     1
 90
       13
176
     1
 40
0.0
176
     1
 90
        0
176
     1
290
     0
176
     1
290
     1
176
     1
290
     1
176
     1
290
     0
176
     1
290
     0
176
     1
290
     0
176
     1
290
     0
176
     1
290
     0
176
     1
290
     0
176
     1
 90
       50
176
     1
 40
0.0
176
     1
 40
1.0
176
     1
 90
        0
176
     1
 62
    18
420
        0
176
     1
 90
       50
176
     1
 90
        3
176
     1
 62
     5
420
      255
176
     1
290
     0
176
     1
 90
       50
176
     1
 90
       50
176
     1
 90
       50
176
     1
290
     0
176
     1
 90
       50
176
     1
 62
   256
176
     0
 40
1.0
176
     0
 90
        2
176
     1
  1
strokes_ogs.tif
176
     1
290
     0
176
     1
 40
1.0
176
     1
 40
1.0
176
     1
  0
VISUALSTYLE
  5
2E
102
{ACAD_REACTORS
330
2A
102
}
330
2A
100
AcDbVisualStyle
  2
GouraudWithEdges
 70
     3
177
     3
291
     1
 70
    58
 90
        2
176
     1
 90
        2
176
     1
 90
        1
176
     1
 90
        2
176
     1
 40
0.6
176
     1
 40
30.0
176
     1
 62
     7
420
 16777215
176
     1
 90
        1
176
     1
 90
        0
176
     1
 62
     7
176
     1
 62
   257
176
     1
 90
        1
176
     1
 90
        1
176
     1
 40
1.0
176
     1
 90
        0
176
     1
 62
   257
176
     1
 40
1.0
176
     1
 90
        1
176
     1
 90
        6
176
     1
 90
        2
176
     1
 62
     7
176
     1
 90
        5
176
     1
 90
        0
176
     1
 90
        0
176
     1
290
     0
176
     1
 90
       13
176
     1
 40
0.0
176
     1
 90
        0
176
     1
290
     0
176
     1
290
     1
176
     1
290
     1
176
     1
290
     0
176
     1
290
     0
176
     1
290
     0
176
     1
290
     0
176
     1
290
     0
176
     1
290
     0
176
     1
 90
       50
176
     1
 40
0.0
176
     1
 40
1.0
176
     1
 90
        0
176
     1
 62
    18
420
        0
176
     1
 90
       50
176
     1
 90
        3
176
     1
 62
     5
420
      255
176
     1
290
     0
176
     1
 90
       50
176
     1
 90
       50
176
     1
 90
       50
176
     1
290
     0
176
     1
 90
       50
176
     1
 62
   256
176
     0
 40
1.0
176
     0
 90
        2
176
     1
  1
strokes_ogs.tif
176
     1
290
     0
176
     1
 40
1.0
176
     1
 40
1.0
176
     1
  0
VISUALSTYLE
  5
31
102
{ACAD_REACTORS
330
2A
102
}
330
2A
100
AcDbVisualStyle
  2
Hidden
 70
     6
177
     3
291
     0
 70
    58
 90
        1
176
     1
 90
        2
176
     1
 90
        2
176
     1
 90
        0
176
     1
 40
0.6
176
     1
 40
30.0
176
     1
 62
     7
420
 16777215
176
     1
 90
        2
176
     1
 90
        2
176
     1
 62
     7
176
     1
 62
   257
176
     1
 90
        2
176
     1
 90
        1
176
     1
 40
40.0
176
     1
 90
        0
176
     1
 62
   257
176
     1
 40
1.0
176
     1
 90
        1
176
     1
 90
        6
176
     1
 90
        2
176
     1
 62
     7
176
     1
 90
        3
176
     1
 90
        0
176
     1
 90
        0
176
     1
290
     0
176
     1
 90
        1
176
     1
 40
0.0
176
     1
 90
        0
176
     1
290
     0
176
     1
290
     1
176
     1
290
     1
176
     1
290
     0
176
     1
290
     0
176
     1
290
     0
176
     1
290
     0
176
     1
290
     0
176
     1
290
     0
176
     1
 90
       50
176
     1
 40
0.0
176
     1
 40
1.0
176
     1
 90
        0
176
     1
 62
    18
420
        0
176
     1
 90
       50
176
     1
 90
        3
176
     1
 62
     5
420
      255
176
     1
290
     0
176
     1
 90
       50
176
     1
 90
       50
176
     1
 90
       50
176
     1
290
     0
176
     1
 90
       50
176
     1
 62
   256
176
     0
 40
1.0
176
     0
 90
        2
176
     1
  1
strokes_ogs.tif
176
     1
290
     0
176
     1
 40
1.0
176
     1
 40
1.0
176
     1
  0
VISUALSTYLE
  5
3B
102
{ACAD_REACTORS
330
2A
102
}
330
2A
100
AcDbVisualStyle
  2
JitterOff
 70
    20
177
     3
291
     1
 70
    58
 90
        2
176
     0
 90
        2
176
     0
 90
        0
176
     0
 90
        0
176
     0
 40
0.6
176
     0
 40
30.0
176
     0
 62
     7
420
 16777215
176
     0
 90
        1
176
     0
 90
        4
176
     0
 62
     7
176
     0
 62
   257
176
     0
 90
        1
176
     0
 90
        1
176
     0
 40
1.0
176
     0
 90
       10
176
     2
 62
     7
176
     0
 40
1.0
176
     0
 90
        1
176
     0
 90
        6
176
     0
 90
        2
176
     0
 62
     7
176
     0
 90
        5
176
     0
 90
        0
176
     0
 90
        0
176
     0
290
     0
176
     0
 90
        1
176
     0
 40
0.0
176
     0
 90
        0
176
     0
290
     0
176
     0
290
     1
176
     0
290
     1
176
     0
290
     0
176
     0
290
     0
176
     0
290
     0
176
     0
290
     0
176
     0
290
     0
176
     0
290
     0
176
     0
 90
       50
176
     0
 40
0.0
176
     0
 40
1.0
176
     0
 90
        0
176
     0
 62
    18
420
        0
176
     0
 90
       50
176
     0
 90
        3
176
     0
 62
     5
420
      255
176
     0
290
     0
176
     0
 90
       50
176
     0
 90
       50
176
     0
 90
       50
176
     0
290
     0
176
     0
 90
       50
176
     0
 62
   256
176
     0
 40
1.0
176
     0
 90
        2
176
     0
  1
strokes_ogs.tif
176
     0
290
     0
176
     0
 40
1.0
176
     0
 40
1.0
176
     0
  0
VISUALSTYLE
  5
38
102
{ACAD_REACTORS
330
2A
102
}
330
2A
100
AcDbVisualStyle
  2
Linepattern
 70
    14
177
     3
291
     1
 70
    58
 90
        2
176
     1
 90
        2
176
     1
 90
        0
176
     1
 90
        0
176
     1
 40
0.6
176
     1
 40
30.0
176
     1
 62
     7
420
 16777215
176
     1
 90
        1
176
     1
 90
        4
176
     1
 62
     7
176
     1
 62
   257
176
     1
 90
        7
176
     1
 90
        7
176
     1
 40
1.0
176
     1
 90
        8
176
     1
 62
     7
176
     1
 40
1.0
176
     1
 90
        1
176
     1
 90
        6
176
     1
 90
        2
176
     1
 62
     7
176
     1
 90
        5
176
     1
 90
        0
176
     1
 90
        0
176
     1
290
     0
176
     1
 90
        1
176
     1
 40
0.0
176
     1
 90
        0
176
     1
290
     0
176
     1
290
     1
176
     1
290
     1
176
     1
290
     0
176
     1
290
     0
176
     1
290
     0
176
     1
290
     0
176
     1
290
     0
176
     1
290
     0
176
     1
 90
       50
176
     1
 40
0.0
176
     1
 40
1.0
176
     1
 90
        0
176
     1
 62
    18
420
        0
176
     1
 90
       50
176
     1
 90
        3
176
     1
 62
     5
420
      255
176
     1
290
     0
176
     1
 90
       50
176
     1
 90
       50
176
     1
 90
       50
176
     1
290
     0
176
     1
 90
       50
176
     1
 62
   256
176
     0
 40
1.0
176
     0
 90
        2
176
     1
  1
strokes_ogs.tif
176
     1
290
     0
176
     1
 40
1.0
176
     1
 40
1.0
176
     1
  0
VISUALSTYLE
  5
3C
102
{ACAD_REACTORS
330
2A
102
}
330
2A
100
AcDbVisualStyle
  2
OverhangOff
 70
    21
177
     3
291
     1
 70
    58
 90
        2
176
     0
 90
        2
176
     0
 90
        0
176
     0
 90
        0
176
     0
 40
0.6
176
     0
 40
30.0
176
     0
 62
     7
420
 16777215
176
     0
 90
        1
176
     0
 90
        4
176
     0
 62
     7
176
     0
 62
   257
176
     0
 90
        1
176
     0
 90
        1
176
     0
 40
1.0
176
     0
 90
        9
176
     2
 62
     7
176
     0
 40
1.0
176
     0
 90
        1
176
     0
 90
        6
176
     0
 90
        2
176
     0
 62
     7
176
     0
 90
        5
176
     0
 90
        0
176
     0
 90
        0
176
     0
290
     0
176
     0
 90
        1
176
     0
 40
0.0
176
     0
 90
        0
176
     0
290
     0
176
     0
290
     1
176
     0
290
     1
176
     0
290
     0
176
     0
290
     0
176
     0
290
     0
176
     0
290
     0
176
     0
290
     0
176
     0
290
     0
176
     0
 90
       50
176
     0
 40
0.0
176
     0
 40
1.0
176
     0
 90
        0
176
     0
 62
    18
420
        0
176
     0
 90
       50
176
     0
 90
        3
176
     0
 62
     5
420
      255
176
     0
290
     0
176
     0
 90
       50
176
     0
 90
       50
176
     0
 90
       50
176
     0
290
     0
176
     0
 90
       50
176
     0
 62
   256
176
     0
 40
1.0
176
     0
 90
        2
176
     0
  1
strokes_ogs.tif
176
     0
290
     0
176
     0
 40
1.0
176
     0
 40
1.0
176
     0
  0
VISUALSTYLE
  5
33
102
{ACAD_REACTORS
330
2A
102
}
330
2A
100
AcDbVisualStyle
  2
Realistic
 70
     8
177
     3
291
     0
 70
    58
 90
        2
176
     1
 90
        3
176
     1
 90
        0
176
     1
 90
        2
176
     1
 40
0.6
176
     1
 40
30.0
176
     1
 62
     7
420
 16777215
176
     1
 90
        0
176
     1
 90
        0
176
     1
 62
     7
176
     1
 62
   257
176
     1
 90
        1
176
     1
 90
        1
176
     1
 40
1.0
176
     1
 90
        8
176
     1
 62
   257
176
     1
 40
1.0
176
     1
 90
        1
176
     1
 90
        6
176
     1
 90
        2
176
     1
 62
     7
176
     1
 90
        3
176
     1
 90
        0
176
     1
 90
        0
176
     1
290
     0
176
     1
 90
       13
176
     1
 40
0.0
176
     1
 90
        0
176
     1
290
     0
176
     1
290
     1
176
     1
290
     1
176
     1
290
     0
176
     1
290
     0
176
     1
290
     0
176
     1
290
     0
176
     1
290
     0
176
     1
290
     0
176
     1
 90
       50
176
     1
 40
0.0
176
     1
 40
1.0
176
     1
 90
        0
176
     1
 62
    18
420
        0
176
     1
 90
       50
176
     1
 90
        3
176
     1
 62
     5
420
      255
176
     1
290
     0
176
     1
 90
       50
176
     1
 90
       50
176
     1
 90
       50
176
     1
290
     0
176
     1
 90
       50
176
     1
 62
   256
176
     0
 40
1.0
176
     0
 90
        2
176
     1
  1
strokes_ogs.tif
176
     1
290
     0
176
     1
 40
1.0
176
     1
 40
1.0
176
     1
  0
VISUALSTYLE
  5
42
102
{ACAD_REACTORS
330
2A
102
}
330
2A
100
AcDbVisualStyle
  2
Shaded
 70
    27
177
     3
291
     0
 70
    58
 90
        2
176
     1
 90
        2
176
     1
 90
        1
176
     1
 90
        2
176
     1
 40
0.6
176
     1
 40
30.0
176
     1
 62
     7
420
 16777215
176
     1
 90
        0
176
     1
 90
        4
176
     1
 62
     7
176
     1
 62
   257
176
     1
 90
        1
176
     1
 90
        1
176
     1
 40
1.0
176
     1
 90
        8
176
     1
 62
   257
176
     1
 40
1.0
176
     1
 90
        1
176
     1
 90
        6
176
     1
 90
        2
176
     1
 62
     8
420
  7895160
176
     1
 90
        3
176
     1
 90
        0
176
     1
 90
        0
176
     1
290
     0
176
     1
 90
        5
176
     1
 40
0.0
176
     1
 90
        0
176
     1
290
     0
176
     1
290
     1
176
     1
290
     1
176
     1
290
     0
176
     1
290
     0
176
     1
290
     0
176
     1
290
     0
176
     1
290
     0
176
     1
290
     0
176
     1
 90
       50
176
     1
 40
0.0
176
     1
 40
1.0
176
     1
 90
        0
176
     1
 62
    18
420
        0
176
     1
 90
       50
176
     1
 90
        3
176
     1
 62
     5
420
      255
176
     1
290
     0
176
     1
 90
       50
176
     1
 90
       50
176
     1
 90
       50
176
     1
290
     0
176
     1
 90
       50
176
     1
 62
   256
176
     0
 40
1.0
176
     0
 90
        2
176
     1
  1
strokes_ogs.tif
176
     1
290
     0
176
     1
 40
1.0
176
     1
 40
1.0
176
     1
  0
VISUALSTYLE
  5
41
102
{ACAD_REACTORS
330
2A
102
}
330
2A
100
AcDbVisualStyle
  2
Shaded with edges
 70
    26
177
     3
291
     0
 70
    58
 90
        2
176
     1
 90
        2
176
     1
 90
        1
176
     1
 90
        2
176
     1
 40
0.6
176
     1
 40
30.0
176
     1
 62
     7
420
 16777215
176
     1
 90
        1
176
     1
 90
       10
176
     1
 62
     7
176
     1
 62
   257
176
     1
 90
        2
176
     1
 90
        1
176
     1
 40
1.0
176
     1
 90
        8
176
     1
 62
   257
176
     1
 40
1.0
176
     1
 90
        1
176
     1
 90
        6
176
     1
 90
        2
176
     1
 62
     7
176
     1
 90
        3
176
     1
 90
        0
176
     1
 90
        0
176
     1
290
     0
176
     1
 90
        5
176
     1
 40
0.0
176
     1
 90
        0
176
     1
290
     0
176
     1
290
     1
176
     1
290
     1
176
     1
290
     0
176
     1
290
     0
176
     1
290
     0
176
     1
290
     0
176
     1
290
     0
176
     1
290
     0
176
     1
 90
       50
176
     1
 40
0.0
176
     1
 40
1.0
176
     1
 90
        0
176
     1
 62
    18
420
        0
176
     1
 90
       50
176
     1
 90
        3
176
     1
 62
     5
420
      255
176
     1
290
     0
176
     1
 90
       50
176
     1
 90
       50
176
     1
 90
       50
176
     1
290
     0
176
     1
 90
       50
176
     1
 62
   256
176
     0
 40
1.0
176
     0
 90
        2
176
     1
  1
strokes_ogs.tif
176
     1
290
     0
176
     1
 40
1.0
176
     1
 40
1.0
176
     1
  0
VISUALSTYLE
  5
3E
102
{ACAD_REACTORS
330
2A
102
}
330
2A
100
AcDbVisualStyle
  2
Shades of Gray
 70
    23
177
     3
291
     0
 70
    58
 90
        2
176
     1
 90
        2
176
     1
 90
        3
176
     1
 90
        0
176
     1
 40
0.6
176
     1
 40
30.0
176
     1
 62
     7
420
 16777215
176
     1
 90
        2
176
     1
 90
        2
176
     1
 62
     7
176
     1
 62
     7
176
     1
 90
        1
176
     1
 90
        1
176
     1
 40
40.0
176
     1
 90
        8
176
     1
 62
     7
176
     1
 40
1.0
176
     1
 90
        1
176
     1
 90
        6
176
     1
 90
        2
176
     1
 62
     7
176
     1
 90
        3
176
     1
 90
        0
176
     1
 90
        0
176
     1
290
     0
176
     1
 90
        1
176
     1
 40
0.0
176
     1
 90
        0
176
     1
290
     0
176
     1
290
     1
176
     1
290
     1
176
     1
290
     0
176
     1
290
     0
176
     1
290
     0
176
     1
290
     0
176
     1
290
     0
176
     1
290
     0
176
     1
 90
       50
176
     1
 40
0.0
176
     1
 40
1.0
176
     1
 90
        0
176
     1
 62
    18
420
        0
176
     1
 90
       50
176
     1
 90
        3
176
     1
 62
     5
420
      255
176
     1
290
     0
176
     1
 90
       50
176
     1
 90
       50
176
     1
 90
       50
176
     1
290
     0
176
     1
 90
       50
176
     1
 62
   256
176
     0
 40
1.0
176
     0
 90
        2
176
     1
  1
strokes_ogs.tif
176
     1
290
     0
176
     1
 40
1.0
176
     1
 40
1.0
176
     1
  0
VISUALSTYLE
  5
3F
102
{ACAD_REACTORS
330
2A
102
}
330
2A
100
AcDbVisualStyle
  2
Sketchy
 70
    24
177
     3
291
     0
 70
    58
 90
        1
176
     1
 90
        2
176
     1
 90
        2
176
     1
 90
        0
176
     1
 40
0.6
176
     1
 40
30.0
176
     1
 62
     7
420
 16777215
176
     1
 90
        2
176
     1
 90
        2
176
     1
 62
     7
176
     1
 62
     7
176
     1
 90
        1
176
     1
 90
        1
176
     1
 40
40.0
176
     1
 90
       11
176
     1
 62
     7
176
     1
 40
1.0
176
     1
 90
        1
176
     1
 90
        6
176
     1
 90
        2
176
     1
 62
     7
176
     1
 90
        6
176
     1
 90
        0
176
     1
 90
        0
176
     1
290
     0
176
     1
 90
        1
176
     1
 40
0.0
176
     1
 90
        0
176
     1
290
     0
176
     1
290
     1
176
     1
290
     1
176
     1
290
     0
176
     1
290
     0
176
     1
290
     0
176
     1
290
     0
176
     1
290
     0
176
     1
290
     0
176
     1
 90
       50
176
     1
 40
0.0
176
     1
 40
1.0
176
     1
 90
        0
176
     1
 62
    18
420
        0
176
     1
 90
       50
176
     1
 90
        3
176
     1
 62
     5
420
      255
176
     1
290
     0
176
     1
 90
       50
176
     1
 90
       50
176
     1
 90
       50
176
     1
290
     0
176
     1
 90
       50
176
     1
 62
   256
176
     0
 40
1.0
176
     0
 90
        2
176
     1
  1
strokes_ogs.tif
176
     1
290
     0
176
     1
 40
1.0
176
     1
 40
1.0
176
     1
  0
VISUALSTYLE
  5
37
102
{ACAD_REACTORS
330
2A
102
}
330
2A
100
AcDbVisualStyle
  2
Thicken
 70
    13
177
     3
291
     1
 70
    58
 90
        2
176
     1
 90
        2
176
     1
 90
        0
176
     1
 90
        0
176
     1
 40
0.6
176
     1
 40
30.0
176
     1
 62
     7
420
 16777215
176
     1
 90
        1
176
     1
 90
        4
176
     1
 62
     7
176
     1
 62
   257
176
     1
 90
        1
176
     1
 90
        1
176
     1
 40
1.0
176
     1
 90
       12
176
     1
 62
     7
176
     1
 40
1.0
176
     1
 90
        1
176
     1
 90
        6
176
     1
 90
        2
176
     1
 62
     7
176
     1
 90
        5
176
     1
 90
        0
176
     1
 90
        0
176
     1
290
     0
176
     1
 90
        1
176
     1
 40
0.0
176
     1
 90
        0
176
     1
290
     0
176
     1
290
     1
176
     1
290
     1
176
     1
290
     0
176
     1
290
     0
176
     1
290
     0
176
     1
290
     0
176
     1
290
     0
176
     1
290
     0
176
     1
 90
       50
176
     1
 40
0.0
176
     1
 40
1.0
176
     1
 90
        0
176
     1
 62
    18
420
        0
176
     1
 90
       50
176
     1
 90
        3
176
     1
 62
     5
420
      255
176
     1
290
     0
176
     1
 90
       50
176
     1
 90
       50
176
     1
 90
       50
176
     1
290
     0
176
     1
 90
       50
176
     1
 62
   256
176
     0
 40
1.0
176
     0
 90
        2
176
     1
  1
strokes_ogs.tif
176
     1
290
     0
176
     1
 40
1.0
176
     1
 40
1.0
176
     1
  0
VISUALSTYLE
  5
30
102
{ACAD_REACTORS
330
2A
102
}
330
2A
100
AcDbVisualStyle
  2
Wireframe
 70
     5
177
     3
291
     0
 70
    58
 90
        0
176
     1
 90
        2
176
     1
 90
        0
176
     1
 90
        0
176
     1
 40
0.6
176
     1
 40
30.0
176
     1
 62
     7
420
 16777215
176
     1
 90
        1
176
     1
 90
        4
176
     1
 62
     7
176
     1
 62
   257
176
     1
 90
        1
176
     1
 90
        1
176
     1
 40
1.0
176
     1
 90
        0
176
     1
 62
   257
176
     1
 40
1.0
176
     1
 90
        1
176
     1
 90
        6
176
     1
 90
        2
176
     1
 62
     7
176
     1
 90
        3
176
     1
 90
        0
176
     1
 90
        0
176
     1
290
     0
176
     1
 90
        1
176
     1
 40
0.0
176
     1
 90
        0
176
     1
290
     0
176
     1
290
     1
176
     1
290
     1
176
     1
290
     0
176
     1
290
     0
176
     1
290
     0
176
     1
290
     0
176
     1
290
     0
176
     1
290
     0
176
     1
 90
       50
176
     1
 40
0.0
176
     1
 40
1.0
176
     1
 90
        0
176
     1
 62
    18
420
        0
176
     1
 90
       50
176
     1
 90
        3
176
     1
 62
     5
420
      255
176
     1
290
     0
176
     1
 90
       50
176
     1
 90
       50
176
     1
 90
       50
176
     1
290
     0
176
     1
 90
       50
176
     1
 62
   256
176
     0
 40
1.0
176
     0
 90
        2
176
     1
  1
strokes_ogs.tif
176
     1
290
     0
176
     1
 40
1.0
176
     1
 40
1.0
176
     1
  0
VISUALSTYLE
  5
40
102
{ACAD_REACTORS
330
2A
102
}
330
2A
100
AcDbVisualStyle
  2
X-Ray
 70
    25
177
     3
291
     0
 70
    58
 90
        2
176
     1
 90
        2
176
     1
 90
        1
176
     1
 90
        1
176
     1
 40
0.5
176
     1
 40
30.0
176
     1
 62
     7
420
 16777215
176
     1
 90
        1
176
     1
 90
        0
176
     1
 62
     7
176
     1
 62
   257
176
     1
 90
        1
176
     1
 90
        1
176
     1
 40
1.0
176
     1
 90
        8
176
     1
 62
     7
176
     1
 40
1.0
176
     1
 90
        1
176
     1
 90
        6
176
     1
 90
        2
176
     1
 62
     7
176
     1
 90
        3
176
     1
 90
        0
176
     1
 90
        0
176
     1
290
     0
176
     1
 90
       13
176
     1
 40
0.0
176
     1
 90
        0
176
     1
290
     0
176
     1
290
     1
176
     1
290
     1
176
     1
290
     0
176
     1
290
     0
176
     1
290
     0
176
     1
290
     0
176
     1
290
     0
176
     1
290
     0
176
     1
 90
       50
176
     1
 40
0.0
176
     1
 40
1.0
176
     1
 90
        0
176
     1
 62
    18
420
        0
176
     1
 90
       50
176
     1
 90
        3
176
     1
 62
     5
420
      255
176
     1
290
     0
176
     1
 90
       50
176
     1
 90
       50
176
     1
 90
       50
176
     1
290
     0
176
     1
 90
       50
176
     1
 62
   256
176
     0
 40
1.0
176
     0
 90
        2
176
     1
  1
strokes_ogs.tif
176
     1
290
     0
176
     1
 40
1.0
176
     1
 40
1.0
176
     1
  0
DICTIONARYVAR
  5
272
102
{ACAD_REACTORS
330
271
102
}
330
271
100
DictionaryVariables
280
     0
  1
1:1
  0
DICTIONARYVAR
  5
277
102
{ACAD_REACTORS
330
271
102
}
330
271
100
DictionaryVariables
280
     0
  1
Standard
  0
DICTIONARYVAR
  5
276
102
{ACAD_REACTORS
330
271
102
}
330
271
100
DictionaryVariables
280
     0
  1
Standard
  0
DICTIONARY
  5
273
330
6A
100
AcDbDictionary
280
     1
281
     1
  3
ACAD_ROUNDTRIP_2008_TABLESTYLE_CELLSTYLEMAP
360
274
  0
CELLSTYLEMAP
  5
274
102
{ACAD_REACTORS
330
273
102
}
330
273
100
AcDbCellStyleMap
 90
        3
300
CELLSTYLE
  1
TABLEFORMAT_BEGIN
 90
        5
170
     1
 91
        0
 92
    32768
 62
   257
 93
        1
300
CONTENTFORMAT
  1
CONTENTFORMAT_BEGIN
 90
        0
 91
        0
 92
        4
 93
        0
300

 40
0.0
140
1.0
 94
        5
 62
     0
340
11
144
0.25
309
CONTENTFORMAT_END
171
     1
301
MARGIN
  1
CELLMARGIN_BEGIN
 40
0.06
 40
0.06
 40
0.06
 40
0.06
 40
0.06
 40
0.06
309
CELLMARGIN_END
 94
        6
 95
        1
302
GRIDFORMAT
  1
GRIDFORMAT_BEGIN
 90
        0
 91
        1
 62
     0
 92
       -2
340
14
 93
        0
 40
0.045
309
GRIDFORMAT_END
 95
        2
302
GRIDFORMAT
  1
GRIDFORMAT_BEGIN
 90
        0
 91
        1
 62
     0
 92
       -2
340
14
 93
        0
 40
0.045
309
GRIDFORMAT_END
 95
        4
302
GRIDFORMAT
  1
GRIDFORMAT_BEGIN
 90
        0
 91
        1
 62
     0
 92
       -2
340
14
 93
        0
 40
0.045
309
GRIDFORMAT_END
 95
        8
302
GRIDFORMAT
  1
GRIDFORMAT_BEGIN
 90
        0
 91
        1
 62
     0
 92
       -2
340
14
 93
        0
 40
0.045
309
GRIDFORMAT_END
 95
       16
302
GRIDFORMAT
  1
GRIDFORMAT_BEGIN
 90
        0
 91
        1
 62
     0
 92
       -2
340
14
 93
        0
 40
0.045
309
GRIDFORMAT_END
 95
       32
302
GRIDFORMAT
  1
GRIDFORMAT_BEGIN
 90
        0
 91
        1
 62
     0
 92
       -2
340
14
 93
        0
 40
0.045
309
GRIDFORMAT_END
309
TABLEFORMAT_END
  1
CELLSTYLE_BEGIN
 90
        1
 91
        1
300
_TITLE
309
CELLSTYLE_END
300
CELLSTYLE
  1
TABLEFORMAT_BEGIN
 90
        5
170
     1
 91
        0
 92
        0
 62
   257
 93
        1
300
CONTENTFORMAT
  1
CONTENTFORMAT_BEGIN
 90
        0
 91
        0
 92
        4
 93
        0
300

 40
0.0
140
1.0
 94
        5
 62
     0
340
11
144
0.18
309
CONTENTFORMAT_END
171
     1
301
MARGIN
  1
CELLMARGIN_BEGIN
 40
0.06
 40
0.06
 40
0.06
 40
0.06
 40
0.06
 40
0.06
309
CELLMARGIN_END
 94
        6
 95
        1
302
GRIDFORMAT
  1
GRIDFORMAT_BEGIN
 90
        0
 91
        1
 62
     0
 92
       -2
340
14
 93
        0
 40
0.045
309
GRIDFORMAT_END
 95
        2
302
GRIDFORMAT
  1
GRIDFORMAT_BEGIN
 90
        0
 91
        1
 62
     0
 92
       -2
340
14
 93
        0
 40
0.045
309
GRIDFORMAT_END
 95
        4
302
GRIDFORMAT
  1
GRIDFORMAT_BEGIN
 90
        0
 91
        1
 62
     0
 92
       -2
340
14
 93
        0
 40
0.045
309
GRIDFORMAT_END
 95
        8
302
GRIDFORMAT
  1
GRIDFORMAT_BEGIN
 90
        0
 91
        1
 62
     0
 92
       -2
340
14
 93
        0
 40
0.045
309
GRIDFORMAT_END
 95
       16
302
GRIDFORMAT
  1
GRIDFORMAT_BEGIN
 90
        0
 91
        1
 62
     0
 92
       -2
340
14
 93
        0
 40
0.045
309
GRIDFORMAT_END
 95
       32
302
GRIDFORMAT
  1
GRIDFORMAT_BEGIN
 90
        0
 91
        1
 62
     0
 92
       -2
340
14
 93
        0
 40
0.045
309
GRIDFORMAT_END
309
TABLEFORMAT_END
  1
CELLSTYLE_BEGIN
 90
        2
 91
        1
300
_HEADER
309
CELLSTYLE_END
300
CELLSTYLE
  1
TABLEFORMAT_BEGIN
 90
        5
170
     1
 91
        0
 92
        0
 62
   257
 93
        1
300
CONTENTFORMAT
  1
CONTENTFORMAT_BEGIN
 90
        0
 91
        0
 92
        4
 93
        0
300

 40
0.0
140
1.0
 94
        2
 62
     0
340
11
144
0.18
309
CONTENTFORMAT_END
171
     1
301
MARGIN
  1
CELLMARGIN_BEGIN
 40
0.06
 40
0.06
 40
0.06
 40
0.06
 40
0.06
 40
0.06
309
CELLMARGIN_END
 94
        6
 95
        1
302
GRIDFORMAT
  1
GRIDFORMAT_BEGIN
 90
        0
 91
        1
 62
     0
 92
       -2
340
14
 93
        0
 40
0.045
309
GRIDFORMAT_END
 95
        2
302
GRIDFORMAT
  1
GRIDFORMAT_BEGIN
 90
        0
 91
        1
 62
     0
 92
       -2
340
14
 93
        0
 40
0.045
309
GRIDFORMAT_END
 95
        4
302
GRIDFORMAT
  1
GRIDFORMAT_BEGIN
 90
        0
 91
        1
 62
     0
 92
       -2
340
14
 93
        0
 40
0.045
309
GRIDFORMAT_END
 95
        8
302
GRIDFORMAT
  1
GRIDFORMAT_BEGIN
 90
        0
 91
        1
 62
     0
 92
       -2
340
14
 93
        0
 40
0.045
309
GRIDFORMAT_END
 95
       16
302
GRIDFORMAT
  1
GRIDFORMAT_BEGIN
 90
        0
 91
        1
 62
     0
 92
       -2
340
14
 93
        0
 40
0.045
309
GRIDFORMAT_END
 95
       32
302
GRIDFORMAT
  1
GRIDFORMAT_BEGIN
 90
        0
 91
        1
 62
     0
 92
       -2
340
14
 93
        0
 40
0.045
309
GRIDFORMAT_END
309
TABLEFORMAT_END
  1
CELLSTYLE_BEGIN
 90
        3
 91
        2
300
_DATA
309
CELLSTYLE_END
  0
ENDSEC
  0
EOF