0
SECTION
  2
HEADER
  9
$ACADVER
  1
AC1027
  9
$ACADMAINTVER
 70
     8
  9
$DWGCODEPAGE
  3
ANSI_1252
  9
$REQUIREDVERSIONS
160
                 0
  9
$COMMENTS
  1
File was created by Cadenas
  9
$CUSTOMPROPERTYTAG
  1
NN
  9
$CUSTOMPROPERTY
  1
Steel IMPERIAL-HD Piloted Flange 1-1/8 thru 2-1/4 Inch Bore
  9
$CUSTOMPROPERTYTAG
  1
NT
  9
$CUSTOMPROPERTY
  1
Steal Imperial Piloted Flange Bearingsi- Inch - 102-204
  9
$CUSTOMPROPERTYTAG
  1
NB
  9
$CUSTOMPROPERTY
  1
072308
  9
$CUSTOMPROPERTYTAG
  1
NBSYN
  9
$CUSTOMPROPERTY
  1
$PN.
  9
$CUSTOMPROPERTYTAG
  1
LINA
  9
$CUSTOMPROPERTY
  1
072308
  9
$CUSTOMPROPERTYTAG
  1
SS
  9
$CUSTOMPROPERTY
  1
1-3/16
  9
$CUSTOMPROPERTYTAG
  1
PN
  9
$CUSTOMPROPERTY
  1
072308
  9
$CUSTOMPROPERTYTAG
  1
TYPE
  9
$CUSTOMPROPERTY
  1
Expansion
  9
$CUSTOMPROPERTYTAG
  1
EF
  9
$CUSTOMPROPERTY
  1
Expansion
  9
$CUSTOMPROPERTYTAG
  1
DESCRIPTION
  9
$CUSTOMPROPERTY
  1
SFC-IP-103RE
  9
$CUSTOMPROPERTYTAG
  1
ST
  9
$CUSTOMPROPERTY
  1
Contact Seal
  9
$CUSTOMPROPERTYTAG
  1
A
  9
$CUSTOMPROPERTY
  1
2.63
  9
$CUSTOMPROPERTYTAG
  1
B
  9
$CUSTOMPROPERTY
  1
5.25
  9
$CUSTOMPROPERTYTAG
  1
C
  9
$CUSTOMPROPERTY
  1
1.94
  9
$CUSTOMPROPERTYTAG
  1
D
  9
$CUSTOMPROPERTY
  1
3.09
  9
$CUSTOMPROPERTYTAG
  1
DD
  9
$CUSTOMPROPERTY
  1
4.3800
  9
$CUSTOMPROPERTYTAG
  1
E
  9
$CUSTOMPROPERTY
  1
0.00
  9
$CUSTOMPROPERTYTAG
  1
F
  9
$CUSTOMPROPERTY
  1
0.4375
  9
$CUSTOMPROPERTYTAG
  1
G
  9
$CUSTOMPROPERTY
  1
1.61
  9
$CUSTOMPROPERTYTAG
  1
H
  9
$CUSTOMPROPERTY
  1
0.50
  9
$CUSTOMPROPERTYTAG
  1
K
  9
$CUSTOMPROPERTY
  1
3.625
  9
$CUSTOMPROPERTYTAG
  1
L
  9
$CUSTOMPROPERTY
  1
2.72
  9
$CUSTOMPROPERTYTAG
  1
M
  9
$CUSTOMPROPERTY
  1
0.4375
  9
$CUSTOMPROPERTYTAG
  1
N
  9
$CUSTOMPROPERTY
  1
2.78
  9
$CUSTOMPROPERTYTAG
  1
P
  9
$CUSTOMPROPERTY
  1
1.02
  9
$CUSTOMPROPERTYTAG
  1
Q
  9
$CUSTOMPROPERTY
  1
1.17
  9
$CUSTOMPROPERTYTAG
  1
X
  9
$CUSTOMPROPERTY
  1
0.19
  9
$CUSTOMPROPERTYTAG
  1
Y
  9
$CUSTOMPROPERTY
  1
0.020
  9
$CUSTOMPROPERTYTAG
  1
Z
  9
$CUSTOMPROPERTY
  1
1.80
  9
$CUSTOMPROPERTYTAG
  1
COMPANY
  9
$CUSTOMPROPERTY
  1
baldor
  9
$INSBASE
 10
0.0
 20
0.0
 30
0.0
  9
$EXTMIN
 10
1.000000000000000E+20
 20
1.000000000000000E+20
 30
1.000000000000000E+20
  9
$EXTMAX
 10
-1.000000000000000E+20
 20
-1.000000000000000E+20
 30
-1.000000000000000E+20
  9
$LIMMIN
 10
0.0
 20
0.0
  9
$LIMMAX
 10
12.0
 20
9.0
  9
$ORTHOMODE
 70
     0
  9
$REGENMODE
 70
     1
  9
$FILLMODE
 70
     1
  9
$QTEXTMODE
 70
     0
  9
$MIRRTEXT
 70
     1
  9
$LTSCALE
 40
1.0
  9
$ATTMODE
 70
     1
  9
$TEXTSIZE
 40
0.2
  9
$TRACEWID
 40
0.05
  9
$TEXTSTYLE
  7
Standard
  9
$CLAYER
  8
0
  9
$CELTYPE
  6
ByLayer
  9
$CECOLOR
 62
   256
  9
$CELTSCALE
 40
1.0
  9
$DISPSILH
 70
     0
  9
$DIMSCALE
 40
1.0
  9
$DIMASZ
 40
0.18
  9
$DIMEXO
 40
0.0625
  9
$DIMDLI
 40
0.38
  9
$DIMRND
 40
0.0
  9
$DIMDLE
 40
0.0
  9
$DIMEXE
 40
0.18
  9
$DIMTP
 40
0.0
  9
$DIMTM
 40
0.0
  9
$DIMTXT
 40
0.18
  9
$DIMCEN
 40
0.09
  9
$DIMTSZ
 40
0.0
  9
$DIMTOL
 70
     0
  9
$DIMLIM
 70
     0
  9
$DIMTIH
 70
     1
  9
$DIMTOH
 70
     1
  9
$DIMSE1
 70
     0
  9
$DIMSE2
 70
     0
  9
$DIMTAD
 70
     0
  9
$DIMZIN
 70
     0
  9
$DIMBLK
  1

  9
$DIMASO
 70
     1
  9
$DIMSHO
 70
     1
  9
$DIMPOST
  1

  9
$DIMAPOST
  1

  9
$DIMALT
 70
     0
  9
$DIMALTD
 70
     2
  9
$DIMALTF
 40
25.4
  9
$DIMLFAC
 40
1.0
  9
$DIMTOFL
 70
     0
  9
$DIMTVP
 40
0.0
  9
$DIMTIX
 70
     0
  9
$DIMSOXD
 70
     0
  9
$DIMSAH
 70
     0
  9
$DIMBLK1
  1

  9
$DIMBLK2
  1

  9
$DIMSTYLE
  2
Standard
  9
$DIMCLRD
 70
     0
  9
$DIMCLRE
 70
     0
  9
$DIMCLRT
 70
     0
  9
$DIMTFAC
 40
1.0
  9
$DIMGAP
 40
0.09
  9
$DIMJUST
 70
     0
  9
$DIMSD1
 70
     0
  9
$DIMSD2
 70
     0
  9
$DIMTOLJ
 70
     1
  9
$DIMTZIN
 70
     0
  9
$DIMALTZ
 70
     0
  9
$DIMALTTZ
 70
     0
  9
$DIMUPT
 70
     0
  9
$DIMDEC
 70
     4
  9
$DIMTDEC
 70
     4
  9
$DIMALTU
 70
     2
  9
$DIMALTTD
 70
     2
  9
$DIMTXSTY
  7
Standard
  9
$DIMAUNIT
 70
     0
  9
$DIMADEC
 70
     0
  9
$DIMALTRND
 40
0.0
  9
$DIMAZIN
 70
     0
  9
$DIMDSEP
 70
    46
  9
$DIMATFIT
 70
     3
  9
$DIMFRAC
 70
     0
  9
$DIMLDRBLK
  1

  9
$DIMLUNIT
 70
     2
  9
$DIMLWD
 70
    -2
  9
$DIMLWE
 70
    -2
  9
$DIMTMOVE
 70
     0
  9
$DIMFXL
 40
1.0
  9
$DIMFXLON
 70
     0
  9
$DIMJOGANG
 40
0.7853981633974483
  9
$DIMTFILL
 70
     0
  9
$DIMTFILLCLR
 70
     0
  9
$DIMARCSYM
 70
     0
  9
$DIMLTYPE
  6

  9
$DIMLTEX1
  6

  9
$DIMLTEX2
  6

  9
$DIMTXTDIRECTION
 70
     0
  9
$LUNITS
 70
     2
  9
$LUPREC
 70
     4
  9
$SKETCHINC
 40
0.1
  9
$FILLETRAD
 40
0.5
  9
$AUNITS
 70
     0
  9
$AUPREC
 70
     0
  9
$MENU
  1
.
  9
$ELEVATION
 40
0.0
  9
$PELEVATION
 40
0.0
  9
$THICKNESS
 40
0.0
  9
$LIMCHECK
 70
     0
  9
$CHAMFERA
 40
0.0
  9
$CHAMFERB
 40
0.0
  9
$CHAMFERC
 40
0.0
  9
$CHAMFERD
 40
0.0
  9
$SKPOLY
 70
     0
  9
$TDCREATE
 40
2458168.897547002
  9
$TDUCREATE
 40
2458168.855880335
  9
$TDUPDATE
 40
2458168.897547187
  9
$TDUUPDATE
 40
2458168.855880521
  9
$TDINDWG
 40
0.0000000116
  9
$TDUSRTIMER
 40
0.0000000116
  9
$USRTIMER
 70
     1
  9
$ANGBASE
 50
0.0
  9
$ANGDIR
 70
     0
  9
$PDMODE
 70
     0
  9
$PDSIZE
 40
0.0
  9
$PLINEWID
 40
0.0
  9
$SPLFRAME
 70
     0
  9
$SPLINETYPE
 70
     6
  9
$SPLINESEGS
 70
     8
  9
$HANDSEED
  5
24D
  9
$SURFTAB1
 70
     6
  9
$SURFTAB2
 70
     6
  9
$SURFTYPE
 70
     6
  9
$SURFU
 70
     6
  9
$SURFV
 70
     6
  9
$UCSBASE
  2

  9
$UCSNAME
  2

  9
$UCSORG
 10
0.0
 20
0.0
 30
0.0
  9
$UCSXDIR
 10
1.0
 20
0.0
 30
0.0
  9
$UCSYDIR
 10
0.0
 20
1.0
 30
0.0
  9
$UCSORTHOREF
  2

  9
$UCSORTHOVIEW
 70
     0
  9
$UCSORGTOP
 10
0.0
 20
0.0
 30
0.0
  9
$UCSORGBOTTOM
 10
0.0
 20
0.0
 30
0.0
  9
$UCSORGLEFT
 10
0.0
 20
0.0
 30
0.0
  9
$UCSORGRIGHT
 10
0.0
 20
0.0
 30
0.0
  9
$UCSORGFRONT
 10
0.0
 20
0.0
 30
0.0
  9
$UCSORGBACK
 10
0.0
 20
0.0
 30
0.0
  9
$PUCSBASE
  2

  9
$PUCSNAME
  2

  9
$PUCSORG
 10
0.0
 20
0.0
 30
0.0
  9
$PUCSXDIR
 10
1.0
 20
0.0
 30
0.0
  9
$PUCSYDIR
 10
0.0
 20
1.0
 30
0.0
  9
$PUCSORTHOREF
  2

  9
$PUCSORTHOVIEW
 70
     0
  9
$PUCSORGTOP
 10
0.0
 20
0.0
 30
0.0
  9
$PUCSORGBOTTOM
 10
0.0
 20
0.0
 30
0.0
  9
$PUCSORGLEFT
 10
0.0
 20
0.0
 30
0.0
  9
$PUCSORGRIGHT
 10
0.0
 20
0.0
 30
0.0
  9
$PUCSORGFRONT
 10
0.0
 20
0.0
 30
0.0
  9
$PUCSORGBACK
 10
0.0
 20
0.0
 30
0.0
  9
$USERI1
 70
     0
  9
$USERI2
 70
     0
  9
$USERI3
 70
     0
  9
$USERI4
 70
     0
  9
$USERI5
 70
     0
  9
$USERR1
 40
0.0
  9
$USERR2
 40
0.0
  9
$USERR3
 40
0.0
  9
$USERR4
 40
0.0
  9
$USERR5
 40
0.0
  9
$WORLDVIEW
 70
     1
  9
$SHADEDGE
 70
     3
  9
$SHADEDIF
 70
    70
  9
$TILEMODE
 70
     1
  9
$MAXACTVP
 70
    64
  9
$PINSBASE
 10
0.0
 20
0.0
 30
0.0
  9
$PLIMCHECK
 70
     0
  9
$PEXTMIN
 10
1.000000000000000E+20
 20
1.000000000000000E+20
 30
1.000000000000000E+20
  9
$PEXTMAX
 10
-1.000000000000000E+20
 20
-1.000000000000000E+20
 30
-1.000000000000000E+20
  9
$PLIMMIN
 10
0.0
 20
0.0
  9
$PLIMMAX
 10
12.0
 20
9.0
  9
$UNITMODE
 70
     0
  9
$VISRETAIN
 70
     1
  9
$PLINEGEN
 70
     0
  9
$PSLTSCALE
 70
     1
  9
$TREEDEPTH
 70
  3020
  9
$CMLSTYLE
  2
Standard
  9
$CMLJUST
 70
     0
  9
$CMLSCALE
 40
1.0
  9
$PROXYGRAPHICS
 70
     1
  9
$MEASUREMENT
 70
     0
  9
$CELWEIGHT
370
    -1
  9
$ENDCAPS
280
     0
  9
$JOINSTYLE
280
     0
  9
$LWDISPLAY
290
     0
  9
$INSUNITS
 70
     1
  9
$HYPERLINKBASE
  1

  9
$STYLESHEET
  1

  9
$XEDIT
290
     1
  9
$CEPSNTYPE
380
     0
  9
$PSTYLEMODE
290
     1
  9
$FINGERPRINTGUID
  2
{3DA18B2C-A209-4F54-8359-D2A51B982450}
  9
$VERSIONGUID
  2
{FAEB1C32-E019-11D5-929B-00C0DF256EC4}
  9
$EXTNAMES
290
     1
  9
$PSVPSCALE
 40
0.0
  9
$OLESTARTUP
290
     0
  9
$SORTENTS
280
   127
  9
$INDEXCTL
280
     0
  9
$HIDETEXT
280
     1
  9
$XCLIPFRAME
280
     2
  9
$HALOGAP
280
     0
  9
$OBSCOLOR
 70
   257
  9
$OBSLTYPE
280
     0
  9
$INTERSECTIONDISPLAY
280
     0
  9
$INTERSECTIONCOLOR
 70
   257
  9
$DIMASSOC
280
     2
  9
$PROJECTNAME
  1

  9
$CAMERADISPLAY
290
     0
  9
$LENSLENGTH
 40
50.0
  9
$CAMERAHEIGHT
 40
0.0
  9
$STEPSPERSEC
 40
2.0
  9
$STEPSIZE
 40
6.0
  9
$3DDWFPREC
 40
2.0
  9
$PSOLWIDTH
 40
0.25
  9
$PSOLHEIGHT
 40
4.0
  9
$LOFTANG1
 40
1.570796326794897
  9
$LOFTANG2
 40
1.570796326794897
  9
$LOFTMAG1
 40
0.0
  9
$LOFTMAG2
 40
0.0
  9
$LOFTPARAM
 70
     7
  9
$LOFTNORMALS
280
     1
  9
$LATITUDE
 40
37.795
  9
$LONGITUDE
 40
-122.394
  9
$NORTHDIRECTION
 40
0.0
  9
$TIMEZONE
 70
 -8000
  9
$LIGHTGLYPHDISPLAY
280
     1
  9
$TILEMODELIGHTSYNCH
280
     1
  9
$CMATERIAL
347
44
  9
$SOLIDHIST
280
     0
  9
$SHOWHIST
280
     1
  9
$DWFFRAME
280
     2
  9
$DGNFRAME
280
     2
  9
$REALWORLDSCALE
290
     1
  9
$INTERFERECOLOR
 62
   256
  9
$CSHADOW
280
     0
  9
$SHADOWPLANELOCATION
 40
0.0
  0
ENDSEC
  0
SECTION
  2
CLASSES
  0
CLASS
  1
ACDBDICTIONARYWDFLT
  2
AcDbDictionaryWithDefault
  3
ObjectDBX Classes
 90
        0
 91
        4
280
     0
281
     0
  0
CLASS
  1
VISUALSTYLE
  2
AcDbVisualStyle
  3
ObjectDBX Classes
 90
     4095
 91
        4
280
     0
281
     0
  0
CLASS
  1
MATERIAL
  2
AcDbMaterial
  3
ObjectDBX Classes
 90
     1153
 91
        4
280
     0
281
     0
  0
CLASS
  1
SCALE
  2
AcDbScale
  3
ObjectDBX Classes
 90
     1153
 91
        4
280
     0
281
     0
  0
CLASS
  1
TABLESTYLE
  2
AcDbTableStyle
  3
ObjectDBX Classes
 90
     4095
 91
        4
280
     0
281
     0
  0
CLASS
  1
MLEADERSTYLE
  2
AcDbMLeaderStyle
  3
ACDB_MLEADERSTYLE_CLASS
 90
     4095
 91
        4
280
     0
281
     0
  0
CLASS
  1
SUN
  2
AcDbSun
  3
SCENEOE
 90
     1153
 91
        4
280
     0
281
     0
  0
CLASS
  1
DICTIONARYVAR
  2
AcDbDictionaryVar
  3
ObjectDBX Classes
 90
        0
 91
        4
280
     0
281
     0
  0
CLASS
  1
CELLSTYLEMAP
  2
AcDbCellStyleMap
  3
ObjectDBX Classes
 90
     1152
 91
        4
280
     0
281
     0
  0
ENDSEC
  0
SECTION
  2
TABLES
  0
TABLE
  2
VPORT
  5
8
330
0
100
AcDbSymbolTable
 70
     1
  0
VPORT
  5
29
330
8
100
AcDbSymbolTableRecord
100
AcDbViewportTableRecord
  2
*Active
 70
     0
 10
0.0
 20
0.0
 11
1.0
 21
1.0
 12
0.0
 22
0.0
 13
0.0
 23
0.0
 14
0.5
 24
0.5
 15
0.5
 25
0.5
 16
0.0
 26
0.0
 36
1.0
 17
0.0
 27
0.0
 37
0.0
 40
4.35336
 41
1.23008434864105
 42
50.0
 43
0.0
 44
0.0
 50
0.0
 51
0.0
 71
     0
 72
   100
 73
     1
 74
     3
 75
     0
 76
     0
 77
     0
 78
     0
281
     0
 65
     1
110
0.0
120
0.0
130
0.0
111
1.0
121
0.0
131
0.0
112
0.0
122
1.0
132
0.0
 79
     0
146
0.0
348
2F
 60
     3
 61
     5
292
     1
282
     1
141
0.0
142
0.0
 63
   250
361
6D
  0
ENDTAB
  0
TABLE
  2
LTYPE
  5
5
330
0
100
AcDbSymbolTable
 70
     3
  0
LTYPE
  5
14
330
5
100
AcDbSymbolTableRecord
100
AcDbLinetypeTableRecord
  2
ByBlock
 70
     0
  3

 72
    65
 73
     0
 40
0.0
  0
LTYPE
  5
15
330
5
100
AcDbSymbolTableRecord
100
AcDbLinetypeTableRecord
  2
ByLayer
 70
     0
  3

 72
    65
 73
     0
 40
0.0
  0
LTYPE
  5
16
330
5
100
AcDbSymbolTableRecord
100
AcDbLinetypeTableRecord
  2
Continuous
 70
     0
  3
Solid line
 72
    65
 73
     0
 40
0.0
  0
LTYPE
  5
9D
330
5
100
AcDbSymbolTableRecord
100
AcDbLinetypeTableRecord
  2
Dashed
 70
     0
  3

 72
    65
 73
     2
 40
2.0
 49
1.0
 74
     0
 49
-1.0
 74
     0
  0
LTYPE
  5
21C
330
5
100
AcDbSymbolTableRecord
100
AcDbLinetypeTableRecord
  2
Center
 70
     0
  3

 72
    65
 73
     4
 40
1.5
 49
0.45
 74
     0
 49
-0.5
 74
     0
 49
0.05
 74
     0
 49
-0.5
 74
     0
  0
ENDTAB
  0
TABLE
  2
LAYER
  5
2
330
0
100
AcDbSymbolTable
 70
     7
  0
LAYER
  5
10
330
2
100
AcDbSymbolTableRecord
100
AcDbLayerTableRecord
  2
0
 70
     0
 62
     7
  6
Continuous
370
    -3
390
F
347
46
348
0
  0
LAYER
  5
72
330
2
100
AcDbSymbolTableRecord
100
AcDbLayerTableRecord
  2
AM_6
 70
     0
 62
    -2
  6
Continuous
370
    35
390
F
347
46
348
0
  0
LAYER
  5
9E
330
2
100
AcDbSymbolTableRecord
100
AcDbLayerTableRecord
  2
AM_9
 70
     0
 62
     6
  6
Dashed
370
    25
390
F
347
46
348
0
  0
LAYER
  5
CE
330
2
100
AcDbSymbolTableRecord
100
AcDbLayerTableRecord
  2
AM_4
 70
     0
 62
     7
  6
Continuous
370
    50
390
F
347
46
348
0
  0
LAYER
  5
FE
330
2
100
AcDbSymbolTableRecord
100
AcDbLayerTableRecord
  2
AM_5
 70
     0
 62
     3
  6
Continuous
370
    25
390
F
347
46
348
0
  0
LAYER
  5
21D
330
2
100
AcDbSymbolTableRecord
100
AcDbLayerTableRecord
  2
AM_7
 70
     0
 62
     7
  6
Center
370
    25
390
F
347
46
348
0
  0
LAYER
  5
234
330
2
100
AcDbSymbolTableRecord
100
AcDbLayerTableRecord
  2
ConnectionPoints
 70
     0
 62
     7
  6
Continuous
370
    50
390
F
347
46
348
0
  0
ENDTAB
  0
TABLE
  2
STYLE
  5
3
330
0
100
AcDbSymbolTable
 70
     1
  0
STYLE
  5
11
330
3
100
AcDbSymbolTableRecord
100
AcDbTextStyleTableRecord
  2
Standard
 70
     0
 40
0.0
 41
1.0
 50
0.0
 71
     0
 42
0.2
  3
txt
  4

  0
ENDTAB
  0
TABLE
  2
VIEW
  5
6
330
0
100
AcDbSymbolTable
 70
     0
  0
ENDTAB
  0
TABLE
  2
UCS
  5
7
330
0
100
AcDbSymbolTable
 70
     0
  0
ENDTAB
  0
TABLE
  2
APPID
  5
9
330
0
100
AcDbSymbolTable
 70
     1
  0
APPID
  5
12
330
9
100
AcDbSymbolTableRecord
100
AcDbRegAppTableRecord
  2
ACAD
 70
     0
  0
ENDTAB
  0
TABLE
  2
DIMSTYLE
  5
A
330
0
100
AcDbSymbolTable
 70
     1
100
AcDbDimStyleTable
  0
DIMSTYLE
105
27
330
A
100
AcDbSymbolTableRecord
100
AcDbDimStyleTableRecord
  2
Standard
 70
     0
178
     0
340
11
  0
ENDTAB
  0
TABLE
  2
BLOCK_RECORD
  5
1
330
0
100
AcDbSymbolTable
 70
     9
  0
BLOCK_RECORD
  5
1F
330
1
100
AcDbSymbolTableRecord
100
AcDbBlockTableRecord
  2
*Model_Space
340
22
 70
     0
280
     1
281
     0
  0
BLOCK_RECORD
  5
1B
330
1
100
AcDbSymbolTableRecord
100
AcDbBlockTableRecord
  2
*Paper_Space
340
1E
 70
     0
280
     1
281
     0
  0
BLOCK_RECORD
  5
23
330
1
100
AcDbSymbolTableRecord
100
AcDbBlockTableRecord
  2
*Paper_Space0
340
26
 70
     0
280
     1
281
     0
  0
BLOCK_RECORD
  5
6E
330
1
100
AcDbSymbolTableRecord
100
AcDbBlockTableRecord
  2
1_072308_4
340
0
102
{BLKREFS
331
6F
102
}
 70
     0
280
     1
281
     0
  0
BLOCK_RECORD
  5
91
330
1
100
AcDbSymbolTableRecord
100
AcDbBlockTableRecord
  2
2_405015E_Inch_1_0_in_072308_4
340
0
102
{BLKREFS
331
92
102
}
 70
     0
280
     1
281
     0
  0
BLOCK_RECORD
  5
A1
330
1
100
AcDbSymbolTableRecord
100
AcDbBlockTableRecord
  2
3_405015E_Inch_2_0_in_072308_4
340
0
102
{BLKREFS
331
A2
102
}
 70
     0
280
     1
281
     0
  0
BLOCK_RECORD
  5
EE
330
1
100
AcDbSymbolTableRecord
100
AcDbBlockTableRecord
  2
4_ASME_B18_3_10_1_0_in_072308_4
340
0
102
{BLKREFS
331
EF
102
}
 70
     0
280
     1
281
     0
  0
BLOCK_RECORD
  5
102
330
1
100
AcDbSymbolTableRecord
100
AcDbBlockTableRecord
  2
5_ASME_B18_3_10_2_0_in_072308_4
340
0
102
{BLKREFS
331
103
102
}
 70
     0
280
     1
281
     0
  0
BLOCK_RECORD
  5
12A
330
1
100
AcDbSymbolTableRecord
100
AcDbBlockTableRecord
  2
6_070881LW_0_in_072308_4
340
0
102
{BLKREFS
331
12B
102
}
 70
     0
280
     1
281
     0
  0
BLOCK_RECORD
  5
160
330
1
100
AcDbSymbolTableRecord
100
AcDbBlockTableRecord
  2
7_070881I_0_in_072308_4
340
0
102
{BLKREFS
331
161
102
}
 70
     0
280
     1
281
     0
  0
BLOCK_RECORD
  5
1E3
330
1
100
AcDbSymbolTableRecord
100
AcDbBlockTableRecord
  2
8_B072308_0_in_072308_4
340
0
102
{BLKREFS
331
1E4
102
}
 70
     0
280
     1
281
     0
  0
ENDTAB
  0
ENDSEC
  0
SECTION
  2
BLOCKS
  0
BLOCK
  5
20
330
1F
100
AcDbEntity
  8
0
100
AcDbBlockBegin
  2
*Model_Space
 70
     0
 10
0.0
 20
0.0
 30
0.0
  3
*Model_Space
  1

  0
ENDBLK
  5
21
330
1F
100
AcDbEntity
  8
0
100
AcDbBlockEnd
  0
BLOCK
  5
1C
330
1B
100
AcDbEntity
 67
     1
  8
0
100
AcDbBlockBegin
  2
*Paper_Space
 70
     0
 10
0.0
 20
0.0
 30
0.0
  3
*Paper_Space
  1

  0
ENDBLK
  5
1D
330
1B
100
AcDbEntity
 67
     1
  8
0
100
AcDbBlockEnd
  0
BLOCK
  5
24
330
23
100
AcDbEntity
  8
0
100
AcDbBlockBegin
  2
*Paper_Space0
 70
     0
 10
0.0
 20
0.0
 30
0.0
  3
*Paper_Space0
  1

  0
ENDBLK
  5
25
330
23
100
AcDbEntity
  8
0
100
AcDbBlockEnd
  0
BLOCK
  5
70
330
6E
100
AcDbEntity
  8
0
100
AcDbBlockBegin
  2
1_072308_4
 70
     2
 10
0.0
 20
0.0
 30
0.0
  3
1_072308_4
  1

  0
ATTDEF
  5
73
330
6E
100
AcDbEntity
  8
AM_6
100
AcDbText
 10
7.625
 20
2.134
 30
0.0
 40
0.5
  1
Steel IMPERIAL-HD Piloted Flange 1-1/8 thru 2-1/4 Inch Bore
100
AcDbAttributeDefinition
  3

  2
NN
 70
     8
280
     0
  0
ATTDEF
  5
74
330
6E
100
AcDbEntity
  8
AM_6
100
AcDbText
 10
7.625
 20
1.634
 30
0.0
 40
0.5
  1
Steal Imperial Piloted Flange Bearingsi- Inch - 102-204
100
AcDbAttributeDefinition
  3

  2
NT
 70
     8
280
     0
  0
ATTDEF
  5
75
330
6E
100
AcDbEntity
  8
AM_6
100
AcDbText
 10
7.625
 20
1.134
 30
0.0
 40
0.5
  1
072308
100
AcDbAttributeDefinition
  3

  2
NB
 70
     8
280
     0
  0
ATTDEF
  5
76
330
6E
100
AcDbEntity
  8
AM_6
100
AcDbText
 10
7.625
 20
0.6339999999999999
 30
0.0
 40
0.5
  1
$PN.
100
AcDbAttributeDefinition
  3

  2
NBSYN
 70
     8
280
     0
  0
ATTDEF
  5
77
330
6E
100
AcDbEntity
  8
AM_6
100
AcDbText
 10
7.625
 20
0.1339999999999999
 30
0.0
 40
0.5
  1
072308
100
AcDbAttributeDefinition
  3

  2
LINA
 70
     8
280
     0
  0
ATTDEF
  5
78
330
6E
100
AcDbEntity
  8
AM_6
100
AcDbText
 10
7.625
 20
-0.3660000000000001
 30
0.0
 40
0.5
  1
1-3/16
100
AcDbAttributeDefinition
  3

  2
SS
 70
     8
280
     0
  0
ATTDEF
  5
79
330
6E
100
AcDbEntity
  8
AM_6
100
AcDbText
 10
7.625
 20
-0.8660000000000001
 30
0.0
 40
0.5
  1
072308
100
AcDbAttributeDefinition
  3

  2
PN
 70
     8
280
     0
  0
ATTDEF
  5
7A
330
6E
100
AcDbEntity
  8
AM_6
100
AcDbText
 10
7.625
 20
-1.366
 30
0.0
 40
0.5
  1
Expansion
100
AcDbAttributeDefinition
  3

  2
TYPE
 70
     8
280
     0
  0
ATTDEF
  5
7B
330
6E
100
AcDbEntity
  8
AM_6
100
AcDbText
 10
7.625
 20
-1.866
 30
0.0
 40
0.5
  1
Expansion
100
AcDbAttributeDefinition
  3

  2
EF
 70
     8
280
     0
  0
ATTDEF
  5
7C
330
6E
100
AcDbEntity
  8
AM_6
100
AcDbText
 10
7.625
 20
-2.366
 30
0.0
 40
0.5
  1
SFC-IP-103RE
100
AcDbAttributeDefinition
  3

  2
DESCRIPTION
 70
     8
280
     0
  0
ATTDEF
  5
7D
330
6E
100
AcDbEntity
  8
AM_6
100
AcDbText
 10
7.625
 20
-2.866
 30
0.0
 40
0.5
  1
Contact Seal
100
AcDbAttributeDefinition
  3

  2
ST
 70
     8
280
     0
  0
ATTDEF
  5
7E
330
6E
100
AcDbEntity
  8
AM_6
100
AcDbText
 10
7.625
 20
-3.366
 30
0.0
 40
0.5
  1
2.63
100
AcDbAttributeDefinition
  3

  2
A
 70
     8
280
     0
  0
ATTDEF
  5
7F
330
6E
100
AcDbEntity
  8
AM_6
100
AcDbText
 10
7.625
 20
-3.866
 30
0.0
 40
0.5
  1
5.25
100
AcDbAttributeDefinition
  3

  2
B
 70
     8
280
     0
  0
ATTDEF
  5
80
330
6E
100
AcDbEntity
  8
AM_6
100
AcDbText
 10
7.625
 20
-4.366
 30
0.0
 40
0.5
  1
1.94
100
AcDbAttributeDefinition
  3

  2
C
 70
     8
280
     0
  0
ATTDEF
  5
81
330
6E
100
AcDbEntity
  8
AM_6
100
AcDbText
 10
7.625
 20
-4.866
 30
0.0
 40
0.5
  1
3.09
100
AcDbAttributeDefinition
  3

  2
D
 70
     8
280
     0
  0
ATTDEF
  5
82
330
6E
100
AcDbEntity
  8
AM_6
100
AcDbText
 10
7.625
 20
-5.366
 30
0.0
 40
0.5
  1
4.3800
100
AcDbAttributeDefinition
  3

  2
DD
 70
     8
280
     0
  0
ATTDEF
  5
83
330
6E
100
AcDbEntity
  8
AM_6
100
AcDbText
 10
7.625
 20
-5.866
 30
0.0
 40
0.5
  1
0.00
100
AcDbAttributeDefinition
  3

  2
E
 70
     8
280
     0
  0
ATTDEF
  5
84
330
6E
100
AcDbEntity
  8
AM_6
100
AcDbText
 10
7.625
 20
-6.366
 30
0.0
 40
0.5
  1
0.4375
100
AcDbAttributeDefinition
  3

  2
F
 70
     8
280
     0
  0
ATTDEF
  5
85
330
6E
100
AcDbEntity
  8
AM_6
100
AcDbText
 10
7.625
 20
-6.866
 30
0.0
 40
0.5
  1
1.61
100
AcDbAttributeDefinition
  3

  2
G
 70
     8
280
     0
  0
ATTDEF
  5
86
330
6E
100
AcDbEntity
  8
AM_6
100
AcDbText
 10
7.625
 20
-7.366
 30
0.0
 40
0.5
  1
0.50
100
AcDbAttributeDefinition
  3

  2
H
 70
     8
280
     0
  0
ATTDEF
  5
87
330
6E
100
AcDbEntity
  8
AM_6
100
AcDbText
 10
7.625
 20
-7.866
 30
0.0
 40
0.5
  1
3.625
100
AcDbAttributeDefinition
  3

  2
K
 70
     8
280
     0
  0
ATTDEF
  5
88
330
6E
100
AcDbEntity
  8
AM_6
100
AcDbText
 10
7.625
 20
-8.366
 30
0.0
 40
0.5
  1
2.72
100
AcDbAttributeDefinition
  3

  2
L
 70
     8
280
     0
  0
ATTDEF
  5
89
330
6E
100
AcDbEntity
  8
AM_6
100
AcDbText
 10
7.625
 20
-8.866
 30
0.0
 40
0.5
  1
0.4375
100
AcDbAttributeDefinition
  3

  2
M
 70
     8
280
     0
  0
ATTDEF
  5
8A
330
6E
100
AcDbEntity
  8
AM_6
100
AcDbText
 10
7.625
 20
-9.366
 30
0.0
 40
0.5
  1
2.78
100
AcDbAttributeDefinition
  3

  2
N
 70
     8
280
     0
  0
ATTDEF
  5
8B
330
6E
100
AcDbEntity
  8
AM_6
100
AcDbText
 10
7.625
 20
-9.866
 30
0.0
 40
0.5
  1
1.02
100
AcDbAttributeDefinition
  3

  2
P
 70
     8
280
     0
  0
ATTDEF
  5
8C
330
6E
100
AcDbEntity
  8
AM_6
100
AcDbText
 10
7.625
 20
-10.366
 30
0.0
 40
0.5
  1
1.17
100
AcDbAttributeDefinition
  3

  2
Q
 70
     8
280
     0
  0
ATTDEF
  5
8D
330
6E
100
AcDbEntity
  8
AM_6
100
AcDbText
 10
7.625
 20
-10.866
 30
0.0
 40
0.5
  1
0.19
100
AcDbAttributeDefinition
  3

  2
X
 70
     8
280
     0
  0
ATTDEF
  5
8E
330
6E
100
AcDbEntity
  8
AM_6
100
AcDbText
 10
7.625
 20
-11.366
 30
0.0
 40
0.5
  1
0.020
100
AcDbAttributeDefinition
  3

  2
Y
 70
     8
280
     0
  0
ATTDEF
  5
8F
330
6E
100
AcDbEntity
  8
AM_6
100
AcDbText
 10
7.625
 20
-11.866
 30
0.0
 40
0.5
  1
1.80
100
AcDbAttributeDefinition
  3

  2
Z
 70
     8
280
     0
  0
ATTDEF
  5
90
330
6E
100
AcDbEntity
  8
AM_6
100
AcDbText
 10
7.625
 20
-12.366
 30
0.0
 40
0.5
  1
baldor
100
AcDbAttributeDefinition
  3

  2
COMPANY
 70
     8
280
     0
  0
INSERT
  5
92
330
6E
100
AcDbEntity
  8
0
100
AcDbBlockReference
  2
2_405015E_Inch_1_0_in_072308_4
 10
0.0
 20
0.0
 30
0.0
  0
INSERT
  5
A2
330
6E
100
AcDbEntity
  8
0
100
AcDbBlockReference
  2
3_405015E_Inch_2_0_in_072308_4
 10
0.0
 20
0.0
 30
0.0
  0
INSERT
  5
EF
330
6E
100
AcDbEntity
  8
0
100
AcDbBlockReference
  2
4_ASME_B18_3_10_1_0_in_072308_4
 10
0.0
 20
0.0
 30
0.0
  0
INSERT
  5
103
330
6E
100
AcDbEntity
  8
0
100
AcDbBlockReference
  2
5_ASME_B18_3_10_2_0_in_072308_4
 10
0.0
 20
0.0
 30
0.0
  0
INSERT
  5
12B
330
6E
100
AcDbEntity
  8
0
100
AcDbBlockReference
  2
6_070881LW_0_in_072308_4
 10
0.0
 20
0.0
 30
0.0
  0
INSERT
  5
161
330
6E
100
AcDbEntity
  8
0
100
AcDbBlockReference
  2
7_070881I_0_in_072308_4
 10
0.0
 20
0.0
 30
0.0
  0
INSERT
  5
1E4
330
6E
100
AcDbEntity
  8
0
100
AcDbBlockReference
  2
8_B072308_0_in_072308_4
 10
0.0
 20
0.0
 30
0.0
  0
ENDBLK
  5
71
330
6E
100
AcDbEntity
  8
0
100
AcDbBlockEnd
  0
BLOCK
  5
93
330
91
100
AcDbEntity
  8
0
100
AcDbBlockBegin
  2
2_405015E_Inch_1_0_in_072308_4
 70
     2
 10
0.0
 20
0.0
 30
0.0
  3
2_405015E_Inch_1_0_in_072308_4
  1

  0
ATTDEF
  5
95
330
91
100
AcDbEntity
  8
AM_6
100
AcDbText
 10
5.21875
 20
-0.6334866994236646
 30
0.0
 40
0.5
  1
405015E -Inch
100
AcDbAttributeDefinition
  3

  2
NN
 70
     8
280
     0
  0
ATTDEF
  5
96
330
91
100
AcDbEntity
  8
AM_6
100
AcDbText
 10
5.21875
 20
-1.133486699423665
 30
0.0
 40
0.5
  1
Grease Fitting
100
AcDbAttributeDefinition
  3

  2
NT
 70
     8
280
     0
  0
ATTDEF
  5
97
330
91
100
AcDbEntity
  8
AM_6
100
AcDbText
 10
5.21875
 20
-1.633486699423665
 30
0.0
 40
0.5
  1
405015E-Inch
100
AcDbAttributeDefinition
  3

  2
NB
 70
     8
280
     0
  0
ATTDEF
  5
98
330
91
100
AcDbEntity
  8
AM_6
100
AcDbText
 10
5.21875
 20
-2.133486699423665
 30
0.0
 40
0.5
  1
$MN.-Inch
100
AcDbAttributeDefinition
  3

  2
NBSYN
 70
     8
280
     0
  0
ATTDEF
  5
99
330
91
100
AcDbEntity
  8
AM_6
100
AcDbText
 10
5.21875
 20
-2.633486699423665
 30
0.0
 40
0.5
  1
405015E
100
AcDbAttributeDefinition
  3

  2
LINA
 70
     8
280
     0
  0
ATTDEF
  5
9A
330
91
100
AcDbEntity
  8
AM_6
100
AcDbText
 10
5.21875
 20
-3.133486699423665
 30
0.0
 40
0.5
  1
405015E
100
AcDbAttributeDefinition
  3

  2
MN
 70
     8
280
     0
  0
ATTDEF
  5
9B
330
91
100
AcDbEntity
  8
AM_6
100
AcDbText
 10
5.21875
 20
-3.633486699423665
 30
0.0
 40
0.5
  1
1/8 x 27PTF
100
AcDbAttributeDefinition
  3

  2
T
 70
     8
280
     0
  0
ATTDEF
  5
9C
330
91
100
AcDbEntity
  8
AM_6
100
AcDbText
 10
5.21875
 20
-4.133486699423665
 30
0.0
 40
0.5
  1
baldor
100
AcDbAttributeDefinition
  3

  2
COMPANY
 70
     8
280
     0
  0
LINE
  5
9F
330
91
100
AcDbEntity
  8
AM_9
100
AcDbLine
 10
0.21875
 20
-0.6349999999999992
 30
0.0
 11
0.21875
 21
-0.6334868776657089
 31
0.0
  0
LINE
  5
A0
330
91
100
AcDbEntity
  8
AM_9
100
AcDbLine
 10
-0.21875
 20
-0.6334866994236646
 30
0.0
 11
-0.21875
 21
-0.6349999999999992
 31
0.0
  0
ENDBLK
  5
94
330
91
100
AcDbEntity
  8
0
100
AcDbBlockEnd
  0
BLOCK
  5
A3
330
A1
100
AcDbEntity
  8
0
100
AcDbBlockBegin
  2
3_405015E_Inch_2_0_in_072308_4
 70
     2
 10
0.0
 20
0.0
 30
0.0
  3
3_405015E_Inch_2_0_in_072308_4
  1

  0
ATTDEF
  5
A5
330
A1
100
AcDbEntity
  8
AM_6
100
AcDbText
 10
5.218750000000003
 20
-0.3257621550978043
 30
0.0
 40
0.5
  1
405015E -Inch
100
AcDbAttributeDefinition
  3

  2
NN
 70
     8
280
     0
  0
ATTDEF
  5
A6
330
A1
100
AcDbEntity
  8
AM_6
100
AcDbText
 10
5.218750000000003
 20
-0.8257621550978043
 30
0.0
 40
0.5
  1
Grease Fitting
100
AcDbAttributeDefinition
  3

  2
NT
 70
     8
280
     0
  0
ATTDEF
  5
A7
330
A1
100
AcDbEntity
  8
AM_6
100
AcDbText
 10
5.218750000000003
 20
-1.325762155097804
 30
0.0
 40
0.5
  1
405015E-Inch
100
AcDbAttributeDefinition
  3

  2
NB
 70
     8
280
     0
  0
ATTDEF
  5
A8
330
A1
100
AcDbEntity
  8
AM_6
100
AcDbText
 10
5.218750000000003
 20
-1.825762155097804
 30
0.0
 40
0.5
  1
$MN.-Inch
100
AcDbAttributeDefinition
  3

  2
NBSYN
 70
     8
280
     0
  0
ATTDEF
  5
A9
330
A1
100
AcDbEntity
  8
AM_6
100
AcDbText
 10
5.218750000000003
 20
-2.325762155097804
 30
0.0
 40
0.5
  1
405015E
100
AcDbAttributeDefinition
  3

  2
LINA
 70
     8
280
     0
  0
ATTDEF
  5
AA
330
A1
100
AcDbEntity
  8
AM_6
100
AcDbText
 10
5.218750000000003
 20
-2.825762155097804
 30
0.0
 40
0.5
  1
405015E
100
AcDbAttributeDefinition
  3

  2
MN
 70
     8
280
     0
  0
ATTDEF
  5
AB
330
A1
100
AcDbEntity
  8
AM_6
100
AcDbText
 10
5.218750000000003
 20
-3.325762155097804
 30
0.0
 40
0.5
  1
1/8 x 27PTF
100
AcDbAttributeDefinition
  3

  2
T
 70
     8
280
     0
  0
ATTDEF
  5
AC
330
A1
100
AcDbEntity
  8
AM_6
100
AcDbText
 10
5.218750000000003
 20
-3.825762155097804
 30
0.0
 40
0.5
  1
baldor
100
AcDbAttributeDefinition
  3

  2
COMPANY
 70
     8
280
     0
  0
LWPOLYLINE
  5
AD
330
A1
100
AcDbEntity
  8
AM_9
100
AcDbPolyline
 90
        4
 70
     0
 43
0.0
 10
0.0
 20
-0.7931551146036456
 10
-0.0544416102741496
 20
-0.7690438607580798
 10
-0.0818700010907651
 20
-0.7581409349135476
 10
-0.109375
 20
-0.7481622649511642
  0
LWPOLYLINE
  5
AE
330
A1
100
AcDbEntity
  8
AM_9
100
AcDbPolyline
 90
        4
 70
     0
 43
0.0
 10
0.109375
 20
-0.7481622649511642
 10
0.08203125
 20
-0.7580795916705387
 10
0.0546875
 20
-0.7689421020827861
 10
0.0
 20
-0.7931551146036456
  0
LWPOLYLINE
  5
AF
330
A1
100
AcDbEntity
  8
AM_9
100
AcDbPolyline
 90
        4
 70
     0
 43
0.0
 10
-0.109375
 20
-0.828360938382623
 10
-0.08203125
 20
-0.8373039891551093
 10
-0.0546875
 20
-0.8453018562347228
 10
0.0
 20
-0.8588095986975849
  0
LWPOLYLINE
  5
B0
330
A1
100
AcDbEntity
  8
AM_9
100
AcDbPolyline
 90
        4
 70
     0
 43
0.0
 10
0.0
 20
-0.8588095986975849
 10
0.0544416102741496
 20
-0.8453697002310051
 10
0.0818700010907651
 20
-0.8373538675001533
 10
0.1093749999999999
 20
-0.828360938382623
  0
LWPOLYLINE
  5
B1
330
A1
100
AcDbEntity
  8
AM_9
100
AcDbPolyline
 90
        4
 70
     0
 43
0.0
 10
0.21875
 20
-0.7177136046362024
 10
0.1643083897258504
 20
-0.7311535031027823
 10
0.1368799989092349
 20
-0.739169335833634
 10
0.109375
 20
-0.7481622649511642
  0
LINE
  5
B2
330
A1
100
AcDbEntity
  8
AM_9
100
AcDbLine
 10
0.0
 20
-0.8588095986975849
 30
0.0
 11
0.0
 21
-0.7931551146036456
 31
0.0
  0
LWPOLYLINE
  5
B3
330
A1
100
AcDbEntity
  8
AM_9
100
AcDbPolyline
 90
        4
 70
     0
 43
0.0
 10
-0.109375
 20
-0.7481622649511642
 10
-0.1367187499999999
 20
-0.739219214178678
 10
-0.1640625
 20
-0.7312213470990646
 10
-0.21875
 20
-0.7177136046362024
  0
LINE
  5
B4
330
A1
100
AcDbEntity
  8
AM_9
100
AcDbLine
 10
-0.1080308204612484
 20
-0.3504402263490228
 30
0.0
 11
-0.132528996253083
 21
-0.3635499655384563
 31
0.0
  0
LINE
  5
B5
330
A1
100
AcDbEntity
  8
AM_9
100
AcDbLine
 10
0.132528996253083
 20
-0.3635499655384563
 30
0.0
 11
0.1080308204612484
 21
-0.3504402263490228
 31
0.0
  0
LINE
  5
B6
330
A1
100
AcDbEntity
  8
AM_9
100
AcDbLine
 10
0.1093749999999999
 20
-0.8283609383826231
 30
0.0
 11
0.1150453993559254
 21
-0.8263843038917718
 31
0.0
  0
LINE
  5
B7
330
A1
100
AcDbEntity
  8
AM_9
100
AcDbLine
 10
-0.115045085987093
 20
-0.8263844142913371
 30
0.0
 11
-0.109375
 21
-0.828360938382623
 31
0.0
  0
LINE
  5
B8
330
A1
100
AcDbEntity
  8
AM_9
100
AcDbLine
 10
-0.1985638119988723
 20
-0.4491566140678469
 30
0.0
 11
-0.2056961494339878
 21
-0.6321391554214869
 31
0.0
  0
LINE
  5
B9
330
A1
100
AcDbEntity
  8
AM_9
100
AcDbLine
 10
0.2056961494339878
 20
-0.6321391554214869
 30
0.0
 11
0.1985638119988723
 21
-0.4491566140678469
 31
0.0
  0
LINE
  5
BA
330
A1
100
AcDbEntity
  8
AM_9
100
AcDbLine
 10
0.0995067562043957
 20
-0.8194285312886896
 30
0.0
 11
0.1044894872193376
 21
-0.8105921452056168
 31
0.0
  0
LINE
  5
BB
330
A1
100
AcDbEntity
  8
AM_9
100
AcDbLine
 10
-0.1044894872193378
 20
-0.8105921452056165
 30
0.0
 11
-0.0995067562043957
 21
-0.8194285312886896
 31
0.0
  0
ELLIPSE
  5
BC
330
A1
100
AcDbEntity
  8
AM_9
100
AcDbEllipse
 10
0.0000000000000004
 20
-0.7994072805344897
 30
0.0
 11
-0.1050000000000005
 21
1.564621938212803E-9
 31
0.0
210
0.0
220
0.0
230
1.0
 40
0.5973418434894899
 41
0.0000000258095683
 42
3.141592679399361
  0
LINE
  5
BD
330
A1
100
AcDbEntity
  8
AM_9
100
AcDbLine
 10
-0.105
 20
-0.8113520917273178
 30
0.0
 11
-0.105
 21
-0.8234668825639279
 31
0.0
  0
LINE
  5
BE
330
A1
100
AcDbEntity
  8
AM_9
100
AcDbLine
 10
0.105
 20
-0.8234668825639279
 30
0.0
 11
0.105
 21
-0.8113520917273178
 31
0.0
  0
ELLIPSE
  5
BF
330
A1
100
AcDbEntity
  8
AM_9
100
AcDbEllipse
 10
0.0
 20
-0.8234668825639275
 30
0.0
 11
-0.105
 21
1.285879139104721E-17
 31
0.0
210
0.0
220
0.0
230
1.0
 40
0.5973418434894927
 41
5.901576756424324
 42
9.806386511524645
  0
ELLIPSE
  5
C0
330
A1
100
AcDbEntity
  8
AM_9
100
AcDbEllipse
 10
-0.000000000000026
 20
-0.7151986734314889
 30
0.0
 11
-0.218750000000044
 21
2.678914873135374E-17
 31
0.0
210
0.0
220
0.0
230
1.0
 40
0.5973418434892735
 41
1.016908252311742
 42
2.124684401278254
  0
ELLIPSE
  5
C1
330
A1
100
AcDbEntity
  8
AM_9
100
AcDbEllipse
 10
-0.0000000000000011
 20
-0.7735457118495271
 30
0.0
 11
-0.1188200907349004
 21
1.455126437928939E-17
 31
0.0
210
0.0
220
0.0
230
1.0
 40
0.5973418434894923
 41
0.3248976822125185
 42
2.81669497137728
  0
LINE
  5
C2
330
A1
100
AcDbEntity
  8
AM_9
100
AcDbLine
 10
0.0805727917175616
 20
-0.8257105842403951
 30
0.0
 11
0.105
 21
-0.8122479522719819
 31
0.0
  0
LINE
  5
C3
330
A1
100
AcDbEntity
  8
AM_9
100
AcDbLine
 10
-0.105
 20
-0.8122479522719819
 30
0.0
 11
-0.0805727917175616
 21
-0.8257105842403951
 31
0.0
  0
ELLIPSE
  5
C4
330
A1
100
AcDbEntity
  8
AM_9
100
AcDbEllipse
 10
-0.0000000000000001
 20
-0.7298896256577857
 30
0.0
 11
-0.1725340532830157
 21
2.570957760527445E-9
 31
0.0
210
0.0
220
0.0
230
1.0
 40
0.5973418434894927
 41
0.8256117717085605
 42
2.315980914439066
  0
ELLIPSE
  5
C5
330
A1
100
AcDbEntity
  8
AM_9
100
AcDbEllipse
 10
0.0000000000000012
 20
-0.715198673431455
 30
0.0
 11
-0.213750000000004
 21
2.617682533177517E-17
 31
0.0
210
0.0
220
0.0
230
1.0
 40
0.5973418434894918
 41
1.012836519420147
 42
2.128756134169639
  0
LINE
  5
C6
330
A1
100
AcDbEntity
  8
AM_9
100
AcDbLine
 10
-0.0348250290716061
 20
-0.4996361035409392
 30
0.0
 11
0.0
 21
-0.4913890747338727
 31
0.0
  0
LINE
  5
C7
330
A1
100
AcDbEntity
  8
AM_9
100
AcDbLine
 10
0.0
 20
-0.4999999999999998
 30
0.0
 11
0.0
 21
-0.4913890747338727
 31
0.0
  0
LINE
  5
C8
330
A1
100
AcDbEntity
  8
AM_9
100
AcDbLine
 10
0.0
 20
-0.4913890747338727
 30
0.0
 11
0.0348439704010998
 21
-0.4996409150398167
 31
0.0
  0
ELLIPSE
  5
C9
330
A1
100
AcDbEntity
  8
AM_9
100
AcDbEllipse
 10
0.0000000000000004
 20
-0.8715860866228037
 30
0.0
 11
-0.1349999999999996
 21
1.653273178848922E-17
 31
0.0
210
0.0
220
0.0
230
1.0
 40
0.5973418434894872
 41
0.3056675812135552
 42
2.835925072376237
  0
ELLIPSE
  5
CA
330
A1
100
AcDbEntity
  8
AM_9
100
AcDbEllipse
 10
0.0
 20
-0.422473515406633
 30
0.0
 11
-0.161902872472269
 21
1.982738345459264E-17
 31
0.0
210
0.0
220
0.0
230
1.0
 40
0.5973418434894886
 41
0.0
 42
6.283185307179586
  0
ELLIPSE
  5
CB
330
A1
100
AcDbEntity
  8
AM_9
100
AcDbEllipse
 10
0.0
 20
-0.6350000000000021
 30
0.0
 11
-0.2187500000000024
 21
3.259629037943359E-9
 31
0.0
210
0.0
220
0.0
230
1.0
 40
0.5973418434894938
 41
0.0
 42
6.283185307179586
  0
ELLIPSE
  5
CC
330
A1
100
AcDbEntity
  8
AM_9
100
AcDbEllipse
 10
0.0
 20
-0.6349999999999997
 30
0.0
 11
-0.2057518972230696
 21
2.519734023527274E-17
 31
0.0
210
0.0
220
0.0
230
1.0
 40
0.5973418434894876
 41
0.0
 42
6.283185307179586
  0
ELLIPSE
  5
CD
330
A1
100
AcDbEntity
  8
AM_9
100
AcDbEllipse
 10
0.0000000000000001
 20
-0.4519182613160276
 30
0.0
 11
-0.1986176267812153
 21
2.432364408918590E-17
 31
0.0
210
0.0
220
0.0
230
1.0
 40
0.5973418434894885
 41
0.0
 42
6.283185307179586
  0
LWPOLYLINE
  5
CF
330
A1
100
AcDbEntity
  8
AM_4
100
AcDbPolyline
 90
        4
 70
     0
 43
0.0
 10
0.1150453993559254
 20
-0.8263843038917718
 10
0.1367187499999999
 20
-0.8184436116632485
 10
0.1640625
 20
-0.8075811012510012
 10
0.21875
 20
-0.7833680887301417
  0
LWPOLYLINE
  5
D0
330
A1
100
AcDbEntity
  8
AM_4
100
AcDbPolyline
 90
        4
 70
     0
 43
0.0
 10
-0.21875
 20
-0.7833680887301417
 10
-0.1643083897258504
 20
-0.8074793425757075
 10
-0.1368799989092349
 20
-0.8183822684202395
 10
-0.115045085987093
 20
-0.8263844142913371
  0
LINE
  5
D1
330
A1
100
AcDbEntity
  8
AM_4
100
AcDbLine
 10
0.105
 20
-0.809686800723495
 30
0.0
 11
0.1126038266756345
 21
-0.79620215786134
 31
0.0
  0
LINE
  5
D2
330
A1
100
AcDbEntity
  8
AM_4
100
AcDbLine
 10
-0.1126038266756345
 20
-0.79620215786134
 30
0.0
 11
-0.105
 21
-0.809686800723495
 31
0.0
  0
ELLIPSE
  5
D3
330
A1
100
AcDbEntity
  8
AM_4
100
AcDbEllipse
 10
0.0
 20
-0.7735457118495294
 30
0.0
 11
-0.1188200907348975
 21
1.455126437928903E-17
 31
0.0
210
0.0
220
0.0
230
1.0
 40
0.5973418434894903
 41
2.816694971377306
 42
6.608082989392074
  0
LINE
  5
D4
330
A1
100
AcDbEntity
  8
AM_4
100
AcDbLine
 10
-0.105
 20
-0.7994072805344903
 30
0.0
 11
-0.105
 21
-0.8113520917273178
 31
0.0
  0
LINE
  5
D5
330
A1
100
AcDbEntity
  8
AM_4
100
AcDbLine
 10
0.105
 20
-0.8113520917273178
 30
0.0
 11
0.105
 21
-0.7994072805344903
 31
0.0
  0
ELLIPSE
  5
D6
330
A1
100
AcDbEntity
  8
AM_4
100
AcDbEllipse
 10
0.0
 20
-0.7994072805344903
 30
0.0
 11
-0.1050000000000002
 21
1.285879139104723E-17
 31
0.0
210
0.0
220
0.0
230
1.0
 40
0.5973418434894867
 41
3.141592653589793
 42
6.283185307179586
  0
ELLIPSE
  5
D7
330
A1
100
AcDbEntity
  8
AM_4
100
AcDbEllipse
 10
0.0000000000000001
 20
-0.7151986734314578
 30
0.0
 11
-0.21875
 21
2.678914873134835E-17
 31
0.0
210
0.0
220
0.0
230
1.0
 40
0.5973418434894893
 41
2.124684401278189
 42
7.300093559491191
  0
LINE
  5
D8
330
A1
100
AcDbEntity
  8
AM_4
100
AcDbLine
 10
0.1054392060684121
 20
-0.8120058914687597
 30
0.0
 11
0.1169966312378532
 21
-0.8056362171384137
 31
0.0
  0
LINE
  5
D9
330
A1
100
AcDbEntity
  8
AM_4
100
AcDbLine
 10
-0.1169966312378532
 20
-0.8056362171384137
 30
0.0
 11
-0.1054392060684124
 21
-0.8120058914687593
 31
0.0
  0
ELLIPSE
  5
DA
330
A1
100
AcDbEntity
  8
AM_4
100
AcDbEllipse
 10
0.0
 20
-0.7298896256577866
 30
0.0
 11
-0.1725340532830158
 21
2.112932760969642E-17
 31
0.0
210
0.0
220
0.0
230
1.0
 40
0.5973418434894872
 41
2.315980898160151
 42
7.108797062609228
  0
ELLIPSE
  5
DB
330
A1
100
AcDbEntity
  8
AM_4
100
AcDbEllipse
 10
0.0
 20
-0.7151986734314583
 30
0.0
 11
-0.2137499999999998
 21
2.617682533177465E-17
 31
0.0
210
0.0
220
0.0
230
1.0
 40
0.5973418434894876
 41
2.128756134169652
 42
7.296021826599726
  0
LINE
  5
DC
330
A1
100
AcDbEntity
  8
AM_4
100
AcDbLine
 10
-0.21875
 20
-0.7833680887301417
 30
0.0
 11
-0.21875
 21
-0.566830584701316
 31
0.0
  0
LWPOLYLINE
  5
DD
330
A1
100
AcDbEntity
  8
AM_4
100
AcDbPolyline
 90
        4
 70
     0
 43
0.0
 10
-0.109375
 20
-0.6020364084802935
 10
-0.13671875
 20
-0.6109794592527796
 10
-0.1640625
 20
-0.618977326332393
 10
-0.21875
 20
-0.6324850687952553
  0
LWPOLYLINE
  5
DE
330
A1
100
AcDbEntity
  8
AM_4
100
AcDbPolyline
 90
        4
 70
     0
 43
0.0
 10
-0.109375
 20
-0.5218377350488346
 10
-0.08203125
 20
-0.5128946842763483
 10
-0.0546875
 20
-0.504896817196735
 10
-0.0348250290716061
 20
-0.4996361035409392
  0
LWPOLYLINE
  5
DF
330
A1
100
AcDbEntity
  8
AM_4
100
AcDbPolyline
 90
        4
 70
     0
 43
0.0
 10
-0.21875
 20
-0.566830584701316
 10
-0.1643083897258504
 20
-0.5427193308557503
 10
-0.1368799989092349
 20
-0.5318164050112181
 10
-0.109375
 20
-0.5218377350488346
  0
LWPOLYLINE
  5
E0
330
A1
100
AcDbEntity
  8
AM_4
100
AcDbPolyline
 90
        4
 70
     0
 43
0.0
 10
0.0
 20
-0.5570435588278122
 10
-0.0544416102741496
 20
-0.5811548126733778
 10
-0.0818700010907651
 20
-0.59205773851791
 10
-0.109375
 20
-0.6020364084802935
  0
LINE
  5
E1
330
A1
100
AcDbEntity
  8
AM_4
100
AcDbLine
 10
0.0
 20
-0.5570435588278122
 30
0.0
 11
0.0
 21
-0.4999999999999998
 31
0.0
  0
LWPOLYLINE
  5
E2
330
A1
100
AcDbEntity
  8
AM_4
100
AcDbPolyline
 90
        4
 70
     0
 43
0.0
 10
0.1093749999999999
 20
-0.6020364084802935
 10
0.0820312499999999
 20
-0.5921190817609189
 10
0.0546874999999999
 20
-0.5812565713486715
 10
0.0
 20
-0.5570435588278122
  0
LWPOLYLINE
  5
E3
330
A1
100
AcDbEntity
  8
AM_4
100
AcDbPolyline
 90
        4
 70
     0
 43
0.0
 10
0.21875
 20
-0.6324850687952553
 10
0.1643083897258504
 20
-0.6190451703286756
 10
0.1368799989092348
 20
-0.6110293375978236
 10
0.1093749999999999
 20
-0.6020364084802935
  0
LINE
  5
E4
330
A1
100
AcDbEntity
  8
AM_4
100
AcDbLine
 10
0.21875
 20
-0.7833680887301417
 30
0.0
 11
0.21875
 21
-0.566830584701316
 31
0.0
  0
LWPOLYLINE
  5
E5
330
A1
100
AcDbEntity
  8
AM_4
100
AcDbPolyline
 90
        4
 70
     0
 43
0.0
 10
0.109375
 20
-0.5218377350488346
 10
0.1367187499999999
 20
-0.5317550617682092
 10
0.1640625
 20
-0.5426175721804566
 10
0.21875
 20
-0.566830584701316
  0
LWPOLYLINE
  5
E6
330
A1
100
AcDbEntity
  8
AM_4
100
AcDbPolyline
 90
        4
 70
     0
 43
0.0
 10
0.0348439704010998
 20
-0.4996409150398167
 10
0.0544416102741496
 20
-0.5048289732004525
 10
0.0818700010907651
 20
-0.5128448059313043
 10
0.109375
 20
-0.5218377350488346
  0
LINE
  5
E7
330
A1
100
AcDbEntity
  8
AM_4
100
AcDbLine
 10
-0.0974470129503053
 20
-0.8001087566840285
 30
0.0
 11
-0.1252890166503926
 21
-0.8415542104915041
 31
0.0
  0
LINE
  5
E8
330
A1
100
AcDbEntity
  8
AM_4
100
AcDbLine
 10
0.1252890166503926
 20
-0.8415542104915041
 30
0.0
 11
0.0974470129503053
 21
-0.8001087566840285
 31
0.0
  0
ELLIPSE
  5
E9
330
A1
100
AcDbEntity
  8
AM_4
100
AcDbEllipse
 10
0.0
 20
-0.8715860866228029
 30
0.0
 11
-0.135
 21
1.653273178848927E-17
 31
0.0
210
0.0
220
0.0
230
1.0
 40
0.5973418434894869
 41
2.835925072376228
 42
6.588852888393152
  0
ELLIPSE
  5
EA
330
A1
100
AcDbEntity
  8
AM_4
100
AcDbEllipse
 10
0.0
 20
-0.8234668825639277
 30
0.0
 11
-0.1050000000000001
 21
1.564621938212798E-9
 31
0.0
210
0.0
220
0.0
230
1.0
 40
0.5973418434894879
 41
3.523201227065577
 42
5.90157677914483
  0
LINE
  5
EB
330
A1
100
AcDbEntity
  8
AM_4
100
AcDbLine
 10
0.0979183981851173
 20
-0.9542022005278099
 30
0.0
 11
0.128742246443567
 21
-0.8958534177589587
 31
0.0
  0
LINE
  5
EC
330
A1
100
AcDbEntity
  8
AM_4
100
AcDbLine
 10
-0.128742246443567
 20
-0.8958534177589587
 30
0.0
 11
-0.0979183981851173
 21
-0.9542022005278099
 31
0.0
  0
ELLIPSE
  5
ED
330
A1
100
AcDbEntity
  8
AM_4
100
AcDbEllipse
 10
0.0000000000000005
 20
-0.9357450253679708
 30
0.0
 11
-0.1026779019331868
 21
1.257441639456430E-17
 31
0.0
210
0.0
220
0.0
230
1.0
 40
0.5973418434894894
 41
0.0
 42
6.283185307179586
  0
ENDBLK
  5
A4
330
A1
100
AcDbEntity
  8
0
100
AcDbBlockEnd
  0
BLOCK
  5
F0
330
EE
100
AcDbEntity
  8
0
100
AcDbBlockBegin
  2
4_ASME_B18_3_10_1_0_in_072308_4
 70
     2
 10
0.0
 20
0.0
 30
0.0
  3
4_ASME_B18_3_10_1_0_in_072308_4
  1

  0
ATTDEF
  5
F2
330
EE
100
AcDbEntity
  8
AM_6
100
AcDbText
 10
5.095
 20
-1.239000033333333
 30
0.0
 40
0.5
  1
ANSI/ASME B18.3-1998
100
AcDbAttributeDefinition
  3

  2
NN
 70
     8
280
     0
  0
ATTDEF
  5
F3
330
EE
100
AcDbEntity
  8
AM_6
100
AcDbText
 10
5.095
 20
-1.739000033333333
 30
0.0
 40
0.5
  1
Socket Button Head Cap Screws
100
AcDbAttributeDefinition
  3

  2
NT
 70
     8
280
     0
  0
ATTDEF
  5
F4
330
EE
100
AcDbEntity
  8
AM_6
100
AcDbText
 10
5.095
 20
-2.239000033333333
 30
0.0
 40
0.5
  1
ASME B18.3-10
100
AcDbAttributeDefinition
  3

  2
NB
 70
     8
280
     0
  0
ATTDEF
  5
F5
330
EE
100
AcDbEntity
  8
AM_6
100
AcDbText
 10
5.095
 20
-2.739000033333333
 30
0.0
 40
0.5
  1
ASME B18.3-$NS.
100
AcDbAttributeDefinition
  3

  2
NBSYN
 70
     8
280
     0
  0
ATTDEF
  5
F6
330
EE
100
AcDbEntity
  8
AM_6
100
AcDbText
 10
5.095
 20
-3.239000033333333
 30
0.0
 40
0.5
  1
ASME B18.3-10
100
AcDbAttributeDefinition
  3

  2
LINA
 70
     8
280
     0
  0
ATTDEF
  5
F7
330
EE
100
AcDbEntity
  8
AM_6
100
AcDbText
 10
5.095
 20
-3.739000033333333
 30
0.0
 40
0.5
  1
10
100
AcDbAttributeDefinition
  3

  2
NS
 70
     8
280
     0
  0
ATTDEF
  5
F8
330
EE
100
AcDbEntity
  8
AM_6
100
AcDbText
 10
5.095
 20
-4.239000033333333
 30
0.0
 40
0.5
  1
0.361
100
AcDbAttributeDefinition
  3

  2
A
 70
     8
280
     0
  0
ATTDEF
  5
F9
330
EE
100
AcDbEntity
  8
AM_6
100
AcDbText
 10
5.095
 20
-4.739000033333333
 30
0.0
 40
0.5
  1
0.101
100
AcDbAttributeDefinition
  3

  2
H
 70
     8
280
     0
  0
ATTDEF
  5
FA
330
EE
100
AcDbEntity
  8
AM_6
100
AcDbText
 10
5.095
 20
-5.239000033333333
 30
0.0
 40
0.5
  1
0.800
100
AcDbAttributeDefinition
  3

  2
L
 70
     8
280
     0
  0
ATTDEF
  5
FB
330
EE
100
AcDbEntity
  8
AM_6
100
AcDbText
 10
5.095
 20
-5.739000033333333
 30
0.0
 40
0.5
  1
0.020
100
AcDbAttributeDefinition
  3

  2
S
 70
     8
280
     0
  0
ATTDEF
  5
FC
330
EE
100
AcDbEntity
  8
AM_6
100
AcDbText
 10
5.095
 20
-6.239000033333333
 30
0.0
 40
0.5
  1
0.125000
100
AcDbAttributeDefinition
  3

  2
J
 70
     8
280
     0
  0
ATTDEF
  5
FD
330
EE
100
AcDbEntity
  8
AM_6
100
AcDbText
 10
5.095
 20
-6.739000033333333
 30
0.0
 40
0.5
  1
baldor
100
AcDbAttributeDefinition
  3

  2
COMPANY
 70
     8
280
     0
  0
LINE
  5
FF
330
EE
100
AcDbEntity
  8
AM_5
100
AcDbLine
 10
0.095
 20
-1.239000033333333
 30
0.0
 11
-0.095
 21
-1.239000033333333
 31
0.0
  0
LINE
  5
100
330
EE
100
AcDbEntity
  8
AM_5
100
AcDbLine
 10
0.0764
 20
-1.239000033333333
 30
0.0
 11
0.095
 21
-1.271216178354114
 31
0.0
  0
LINE
  5
101
330
EE
100
AcDbEntity
  8
AM_5
100
AcDbLine
 10
-0.0764
 20
-1.239000033333333
 30
0.0
 11
-0.095
 21
-1.271216178354114
 31
0.0
  0
ENDBLK
  5
F1
330
EE
100
AcDbEntity
  8
0
100
AcDbBlockEnd
  0
BLOCK
  5
104
330
102
100
AcDbEntity
  8
0
100
AcDbBlockBegin
  2
5_ASME_B18_3_10_2_0_in_072308_4
 70
     2
 10
0.0
 20
0.0
 30
0.0
  3
5_ASME_B18_3_10_2_0_in_072308_4
  1

  0
ATTDEF
  5
106
330
102
100
AcDbEntity
  8
AM_6
100
AcDbText
 10
5.1805
 20
-0.5190000333333331
 30
0.0
 40
0.5
  1
ANSI/ASME B18.3-1998
100
AcDbAttributeDefinition
  3

  2
NN
 70
     8
280
     0
  0
ATTDEF
  5
107
330
102
100
AcDbEntity
  8
AM_6
100
AcDbText
 10
5.1805
 20
-1.019000033333333
 30
0.0
 40
0.5
  1
Socket Button Head Cap Screws
100
AcDbAttributeDefinition
  3

  2
NT
 70
     8
280
     0
  0
ATTDEF
  5
108
330
102
100
AcDbEntity
  8
AM_6
100
AcDbText
 10
5.1805
 20
-1.519000033333333
 30
0.0
 40
0.5
  1
ASME B18.3-10
100
AcDbAttributeDefinition
  3

  2
NB
 70
     8
280
     0
  0
ATTDEF
  5
109
330
102
100
AcDbEntity
  8
AM_6
100
AcDbText
 10
5.1805
 20
-2.019000033333333
 30
0.0
 40
0.5
  1
ASME B18.3-$NS.
100
AcDbAttributeDefinition
  3

  2
NBSYN
 70
     8
280
     0
  0
ATTDEF
  5
10A
330
102
100
AcDbEntity
  8
AM_6
100
AcDbText
 10
5.1805
 20
-2.519000033333333
 30
0.0
 40
0.5
  1
ASME B18.3-10
100
AcDbAttributeDefinition
  3

  2
LINA
 70
     8
280
     0
  0
ATTDEF
  5
10B
330
102
100
AcDbEntity
  8
AM_6
100
AcDbText
 10
5.1805
 20
-3.019000033333333
 30
0.0
 40
0.5
  1
10
100
AcDbAttributeDefinition
  3

  2
NS
 70
     8
280
     0
  0
ATTDEF
  5
10C
330
102
100
AcDbEntity
  8
AM_6
100
AcDbText
 10
5.1805
 20
-3.519000033333333
 30
0.0
 40
0.5
  1
0.361
100
AcDbAttributeDefinition
  3

  2
A
 70
     8
280
     0
  0
ATTDEF
  5
10D
330
102
100
AcDbEntity
  8
AM_6
100
AcDbText
 10
5.1805
 20
-4.019000033333333
 30
0.0
 40
0.5
  1
0.101
100
AcDbAttributeDefinition
  3

  2
H
 70
     8
280
     0
  0
ATTDEF
  5
10E
330
102
100
AcDbEntity
  8
AM_6
100
AcDbText
 10
5.1805
 20
-4.519000033333333
 30
0.0
 40
0.5
  1
0.800
100
AcDbAttributeDefinition
  3

  2
L
 70
     8
280
     0
  0
ATTDEF
  5
10F
330
102
100
AcDbEntity
  8
AM_6
100
AcDbText
 10
5.1805
 20
-5.019000033333333
 30
0.0
 40
0.5
  1
0.020
100
AcDbAttributeDefinition
  3

  2
S
 70
     8
280
     0
  0
ATTDEF
  5
110
330
102
100
AcDbEntity
  8
AM_6
100
AcDbText
 10
5.1805
 20
-5.519000033333333
 30
0.0
 40
0.5
  1
0.125000
100
AcDbAttributeDefinition
  3

  2
J
 70
     8
280
     0
  0
ATTDEF
  5
111
330
102
100
AcDbEntity
  8
AM_6
100
AcDbText
 10
5.1805
 20
-6.019000033333333
 30
0.0
 40
0.5
  1
baldor
100
AcDbAttributeDefinition
  3

  2
COMPANY
 70
     8
280
     0
  0
LINE
  5
112
330
102
100
AcDbEntity
  8
AM_9
100
AcDbLine
 10
0.0625
 20
-1.359000033333333
 30
0.0
 11
0.0625
 21
-1.420000033333333
 31
0.0
  0
LINE
  5
113
330
102
100
AcDbEntity
  8
AM_9
100
AcDbLine
 10
-0.0625
 20
-1.359000033333333
 30
0.0
 11
-0.0625
 21
-1.420000033333333
 31
0.0
  0
LINE
  5
114
330
102
100
AcDbEntity
  8
AM_9
100
AcDbLine
 10
0.0
 20
-1.359000033333333
 30
0.0
 11
0.0
 21
-1.420000033333333
 31
0.0
  0
LINE
  5
115
330
102
100
AcDbEntity
  8
AM_9
100
AcDbLine
 10
-0.0625
 20
-1.359000033333333
 30
0.0
 11
0.0625
 21
-1.359000033333333
 31
0.0
  0
LINE
  5
116
330
102
100
AcDbEntity
  8
AM_9
100
AcDbLine
 10
-0.0764
 20
-0.5190000333333331
 30
0.0
 11
-0.095
 21
-0.5376000333333331
 31
0.0
  0
LINE
  5
117
330
102
100
AcDbEntity
  8
AM_9
100
AcDbLine
 10
0.095
 20
-0.5376000333333331
 30
0.0
 11
0.0764
 21
-0.5190000333333331
 31
0.0
  0
LINE
  5
118
330
102
100
AcDbEntity
  8
AM_9
100
AcDbLine
 10
-0.0764
 20
-0.5190000333333331
 30
0.0
 11
0.0764
 21
-0.5190000333333331
 31
0.0
  0
LINE
  5
119
330
102
100
AcDbEntity
  8
AM_9
100
AcDbLine
 10
0.095
 20
-1.188333333333333
 30
0.0
 11
0.095
 21
-0.5376000333333331
 31
0.0
  0
LINE
  5
11A
330
102
100
AcDbEntity
  8
AM_9
100
AcDbLine
 10
-0.095
 20
-0.5376000333333331
 30
0.0
 11
-0.095
 21
-1.188333333333333
 31
0.0
  0
LINE
  5
11B
330
102
100
AcDbEntity
  8
AM_9
100
AcDbLine
 10
-0.095
 20
-0.5376000333333331
 30
0.0
 11
0.095
 21
-0.5376000333333331
 31
0.0
  0
LINE
  5
11C
330
102
100
AcDbEntity
  8
AM_5
100
AcDbLine
 10
0.095
 20
-1.239000033333333
 30
0.0
 11
-0.095
 21
-1.239000033333333
 31
0.0
  0
LINE
  5
11D
330
102
100
AcDbEntity
  8
AM_5
100
AcDbLine
 10
0.0764
 20
-1.239000033333333
 30
0.0
 11
0.087562085959324
 21
-1.258333333333334
 31
0.0
  0
LINE
  5
11E
330
102
100
AcDbEntity
  8
AM_5
100
AcDbLine
 10
-0.0764
 20
-1.239000033333333
 30
0.0
 11
-0.0875620859593239
 21
-1.258333333333333
 31
0.0
  0
LINE
  5
11F
330
102
100
AcDbEntity
  8
AM_4
100
AcDbLine
 10
0.095
 20
-1.319000033333333
 30
0.0
 11
0.095
 21
-1.258333333333333
 31
0.0
  0
LINE
  5
120
330
102
100
AcDbEntity
  8
AM_4
100
AcDbLine
 10
-0.095
 20
-1.258333333333333
 30
0.0
 11
-0.095
 21
-1.319000033333333
 31
0.0
  0
LINE
  5
121
330
102
100
AcDbEntity
  8
AM_4
100
AcDbLine
 10
-0.0994999980611925
 20
-1.420000033333333
 30
0.0
 11
0.0995
 21
-1.420000033333333
 31
0.0
  0
ARC
  5
122
330
102
100
AcDbEntity
  8
AM_4
100
AcDbCircle
 10
0.0995000000000003
 20
-1.339000033333333
 30
0.0
 40
0.0809999999999997
100
AcDbArc
 50
270.0
 51
0.0
  0
ARC
  5
123
330
102
100
AcDbEntity
  8
AM_4
100
AcDbCircle
 10
-0.0995000000000002
 20
-1.339000033333333
 30
0.0
 40
0.0809999999999997
100
AcDbArc
 50
180.0
 51
270.0
  0
LINE
  5
124
330
102
100
AcDbEntity
  8
AM_4
100
AcDbLine
 10
0.1805
 20
-1.339000033333333
 30
0.0
 11
0.1805
 21
-1.319000033333333
 31
0.0
  0
LINE
  5
125
330
102
100
AcDbEntity
  8
AM_4
100
AcDbLine
 10
-0.1805
 20
-1.319000033333333
 30
0.0
 11
-0.1805
 21
-1.339000033333333
 31
0.0
  0
LINE
  5
126
330
102
100
AcDbEntity
  8
AM_4
100
AcDbLine
 10
-0.1805
 20
-1.319000033333333
 30
0.0
 11
0.1805
 21
-1.319000033333333
 31
0.0
  0
LINE
  5
127
330
102
100
AcDbEntity
  8
AM_4
100
AcDbLine
 10
-0.1805
 20
-1.339000033333333
 30
0.0
 11
0.1805
 21
-1.339000033333333
 31
0.0
  0
LINE
  5
128
330
102
100
AcDbEntity
  8
AM_5
100
AcDbLine
 10
0.087562085959324
 20
-1.258333333333334
 30
0.0
 11
0.095
 21
-1.271216178354114
 31
0.0
  0
LINE
  5
129
330
102
100
AcDbEntity
  8
AM_5
100
AcDbLine
 10
-0.0875620859593239
 20
-1.258333333333333
 30
0.0
 11
-0.095
 21
-1.271216178354114
 31
0.0
  0
ENDBLK
  5
105
330
102
100
AcDbEntity
  8
0
100
AcDbBlockEnd
  0
BLOCK
  5
12C
330
12A
100
AcDbEntity
  8
0
100
AcDbBlockBegin
  2
6_070881LW_0_in_072308_4
 70
     2
 10
0.0
 20
0.0
 30
0.0
  3
6_070881LW_0_in_072308_4
  1

  0
ATTDEF
  5
12E
330
12A
100
AcDbEntity
  8
AM_6
100
AcDbText
 10
6.359375
 20
-0.8183333333333334
 30
0.0
 40
0.5
  1
Imperial Insert Lockwasher -Inch
100
AcDbAttributeDefinition
  3

  2
NN
 70
     8
280
     0
  0
ATTDEF
  5
12F
330
12A
100
AcDbEntity
  8
AM_6
100
AcDbText
 10
6.359375
 20
-1.318333333333333
 30
0.0
 40
0.5
  1
Imperial Bearings
100
AcDbAttributeDefinition
  3

  2
NT
 70
     8
280
     0
  0
ATTDEF
  5
130
330
12A
100
AcDbEntity
  8
AM_6
100
AcDbText
 10
6.359375
 20
-1.818333333333333
 30
0.0
 40
0.5
  1
070881LW
100
AcDbAttributeDefinition
  3

  2
NB
 70
     8
280
     0
  0
ATTDEF
  5
131
330
12A
100
AcDbEntity
  8
AM_6
100
AcDbText
 10
6.359375
 20
-2.318333333333333
 30
0.0
 40
0.5
  1
$PN.LW
100
AcDbAttributeDefinition
  3

  2
NBSYN
 70
     8
280
     0
  0
ATTDEF
  5
132
330
12A
100
AcDbEntity
  8
AM_6
100
AcDbText
 10
6.359375
 20
-2.818333333333333
 30
0.0
 40
0.5
  1
070881
100
AcDbAttributeDefinition
  3

  2
LINA
 70
     8
280
     0
  0
ATTDEF
  5
133
330
12A
100
AcDbEntity
  8
AM_6
100
AcDbText
 10
6.359375
 20
-3.318333333333333
 30
0.0
 40
0.5
  1
1-3/16
100
AcDbAttributeDefinition
  3

  2
SS
 70
     8
280
     0
  0
ATTDEF
  5
134
330
12A
100
AcDbEntity
  8
AM_6
100
AcDbText
 10
6.359375
 20
-3.818333333333333
 30
0.0
 40
0.5
  1
1.187500
100
AcDbAttributeDefinition
  3

  2
SS1
 70
     8
280
     0
  0
ATTDEF
  5
135
330
12A
100
AcDbEntity
  8
AM_6
100
AcDbText
 10
6.359375
 20
-4.318333333333333
 30
0.0
 40
0.5
  1
070881
100
AcDbAttributeDefinition
  3

  2
PN
 70
     8
280
     0
  0
ATTDEF
  5
136
330
12A
100
AcDbEntity
  8
AM_6
100
AcDbText
 10
6.359375
 20
-4.818333333333333
 30
0.0
 40
0.5
  1
INS-IP-103R
100
AcDbAttributeDefinition
  3

  2
DESCRIPTION
 70
     8
280
     0
  0
ATTDEF
  5
137
330
12A
100
AcDbEntity
  8
AM_6
100
AcDbText
 10
6.359375
 20
-5.318333333333333
 30
0.0
 40
0.5
  1
3.1496
100
AcDbAttributeDefinition
  3

  2
A
 70
     8
280
     0
  0
ATTDEF
  5
138
330
12A
100
AcDbEntity
  8
AM_6
100
AcDbText
 10
6.359375
 20
-5.818333333333333
 30
0.0
 40
0.5
  1
61/64
100
AcDbAttributeDefinition
  3

  2
B
 70
     8
280
     0
  0
ATTDEF
  5
139
330
12A
100
AcDbEntity
  8
AM_6
100
AcDbText
 10
6.359375
 20
-6.318333333333333
 30
0.0
 40
0.5
  1
2-5/8
100
AcDbAttributeDefinition
  3

  2
C
 70
     8
280
     0
  0
ATTDEF
  5
13A
330
12A
100
AcDbEntity
  8
AM_6
100
AcDbText
 10
6.359375
 20
-6.818333333333333
 30
0.0
 40
0.5
  1
0.970
100
AcDbAttributeDefinition
  3

  2
D
 70
     8
280
     0
  0
ATTDEF
  5
13B
330
12A
100
AcDbEntity
  8
AM_6
100
AcDbText
 10
6.359375
 20
-7.318333333333333
 30
0.0
 40
0.5
  1
2-23/32
100
AcDbAttributeDefinition
  3

  2
E
 70
     8
280
     0
  0
ATTDEF
  5
13C
330
12A
100
AcDbEntity
  8
AM_6
100
AcDbText
 10
6.359375
 20
-7.818333333333333
 30
0.0
 40
0.5
  1
0.1900
100
AcDbAttributeDefinition
  3

  2
NDM
 70
     8
280
     0
  0
ATTDEF
  5
13D
330
12A
100
AcDbEntity
  8
AM_6
100
AcDbText
 10
6.359375
 20
-8.318333333333333
 30
0.0
 40
0.5
  1
0.1450
100
AcDbAttributeDefinition
  3

  2
KDM
 70
     8
280
     0
  0
ATTDEF
  5
13E
330
12A
100
AcDbEntity
  8
AM_6
100
AcDbText
 10
6.359375
 20
-8.818333333333333
 30
0.0
 40
0.5
  1
2.22
100
AcDbAttributeDefinition
  3

  2
AL
 70
     8
280
     0
  0
ATTDEF
  5
13F
330
12A
100
AcDbEntity
  8
AM_6
100
AcDbText
 10
6.359375
 20
-9.318333333333333
 30
0.0
 40
0.5
  1
0.38
100
AcDbAttributeDefinition
  3

  2
BL
 70
     8
280
     0
  0
ATTDEF
  5
140
330
12A
100
AcDbEntity
  8
AM_6
100
AcDbText
 10
6.359375
 20
-9.818333333333333
 30
0.0
 40
0.5
  1
0.07
100
AcDbAttributeDefinition
  3

  2
CL
 70
     8
280
     0
  0
ATTDEF
  5
141
330
12A
100
AcDbEntity
  8
AM_6
100
AcDbText
 10
6.359375
 20
-10.31833333333333
 30
0.0
 40
0.5
  1
0.44
100
AcDbAttributeDefinition
  3

  2
DL
 70
     8
280
     0
  0
ATTDEF
  5
142
330
12A
100
AcDbEntity
  8
AM_6
100
AcDbText
 10
6.359375
 20
-10.81833333333333
 30
0.0
 40
0.5
  1
baldor
100
AcDbAttributeDefinition
  3

  2
COMPANY
 70
     8
280
     0
  0
LINE
  5
143
330
12A
100
AcDbEntity
  8
AM_9
100
AcDbLine
 10
-1.014028369756696
 20
-1.188333333333333
 30
0.0
 11
-1.014028369756696
 21
-1.258333333333333
 31
0.0
  0
LINE
  5
144
330
12A
100
AcDbEntity
  8
AM_9
100
AcDbLine
 10
-1.104654174762891
 20
-1.188333333333333
 30
0.0
 11
-1.104654174762891
 21
-1.258333333333333
 31
0.0
  0
LINE
  5
145
330
12A
100
AcDbEntity
  8
AM_9
100
AcDbLine
 10
1.014028369756694
 20
-1.188333333333333
 30
0.0
 11
1.014028369756694
 21
-1.258333333333333
 31
0.0
  0
LINE
  5
146
330
12A
100
AcDbEntity
  8
AM_9
100
AcDbLine
 10
1.104654174762891
 20
-1.258333333333333
 30
0.0
 11
1.104654174762891
 21
-1.188333333333333
 31
0.0
  0
LINE
  5
147
330
12A
100
AcDbEntity
  8
AM_9
100
AcDbLine
 10
-0.6348229681387971
 20
-1.188333333333333
 30
0.0
 11
-0.6348229681387971
 21
-1.258333333333333
 31
0.0
  0
LINE
  5
148
330
12A
100
AcDbEntity
  8
AM_9
100
AcDbLine
 10
0.6348229681387967
 20
-1.188333333333333
 30
0.0
 11
0.6348229681387967
 21
-1.258333333333333
 31
0.0
  0
LINE
  5
149
330
12A
100
AcDbEntity
  8
AM_9
100
AcDbLine
 10
-0.3120595936098344
 20
-0.8183333333333334
 30
0.0
 11
-0.3120595936098344
 21
-1.258333333333333
 31
0.0
  0
LINE
  5
14A
330
12A
100
AcDbEntity
  8
AM_9
100
AcDbLine
 10
-0.330704787980121
 20
-1.188333333333333
 30
0.0
 11
-0.330704787980121
 21
-1.258333333333333
 31
0.0
  0
LINE
  5
14B
330
12A
100
AcDbEntity
  8
AM_9
100
AcDbLine
 10
-0.3817124814111931
 20
-1.188333333333333
 30
0.0
 11
-0.3817124814111931
 21
-1.258333333333333
 31
0.0
  0
LINE
  5
14C
330
12A
100
AcDbEntity
  8
AM_9
100
AcDbLine
 10
-0.1551676768029767
 20
-1.188333333333333
 30
0.0
 11
-0.1551676768029767
 21
-1.258333333333333
 31
0.0
  0
LINE
  5
14D
330
12A
100
AcDbEntity
  8
AM_9
100
AcDbLine
 10
-0.1365224824326899
 20
-0.8183333333333334
 30
0.0
 11
-0.3241665804314351
 21
-0.8183333333333334
 31
0.0
  0
LINE
  5
14E
330
12A
100
AcDbEntity
  8
AM_9
100
AcDbLine
 10
-0.1365224824326899
 20
-0.8183333333333334
 30
0.0
 11
-0.1365224824326899
 21
-1.258333333333333
 31
0.0
  0
LINE
  5
14F
330
12A
100
AcDbEntity
  8
AM_9
100
AcDbLine
 10
-0.5160627698366371
 20
-1.188333333333333
 30
0.0
 11
-0.516062769836637
 21
-1.258333333333333
 31
0.0
  0
LINE
  5
150
330
12A
100
AcDbEntity
  8
AM_9
100
AcDbLine
 10
0.5160627698366368
 20
-1.188333333333333
 30
0.0
 11
0.516062769836637
 21
-1.258333333333333
 31
0.0
  0
LINE
  5
151
330
12A
100
AcDbEntity
  8
AM_9
100
AcDbLine
 10
-0.1486294692542906
 20
-1.188333333333333
 30
0.0
 11
-0.1486294692542906
 21
-0.8183333333333334
 31
0.0
  0
LINE
  5
152
330
12A
100
AcDbEntity
  8
AM_9
100
AcDbLine
 10
-0.3241665804314351
 20
-0.8183333333333334
 30
0.0
 11
-0.324166580431435
 21
-1.188333333333333
 31
0.0
  0
LINE
  5
153
330
12A
100
AcDbEntity
  8
AM_9
100
AcDbLine
 10
0.381712481411193
 20
-1.188333333333333
 30
0.0
 11
0.3817124814111933
 21
-1.258333333333333
 31
0.0
  0
LINE
  5
154
330
12A
100
AcDbEntity
  8
AM_9
100
AcDbLine
 10
-0.7842014807832203
 20
-1.188333333333333
 30
0.0
 11
-0.7842014807832203
 21
-1.258333333333333
 31
0.0
  0
LINE
  5
155
330
12A
100
AcDbEntity
  8
AM_9
100
AcDbLine
 10
-0.6498511923577763
 20
-1.188333333333333
 30
0.0
 11
-0.6498511923577763
 21
-1.258333333333333
 31
0.0
  0
LINE
  5
156
330
12A
100
AcDbEntity
  8
AM_9
100
AcDbLine
 10
-0.808964232505907
 20
-1.188333333333333
 30
0.0
 11
-0.808964232505907
 21
-1.258333333333333
 31
0.0
  0
LINE
  5
157
330
12A
100
AcDbEntity
  8
AM_9
100
AcDbLine
 10
0.6498511923577773
 20
-1.188333333333333
 30
0.0
 11
0.6498511923577773
 21
-1.258333333333333
 31
0.0
  0
LINE
  5
158
330
12A
100
AcDbEntity
  8
AM_9
100
AcDbLine
 10
0.7842014807832206
 20
-1.188333333333333
 30
0.0
 11
0.7842014807832206
 21
-1.258333333333333
 31
0.0
  0
LINE
  5
159
330
12A
100
AcDbEntity
  8
AM_9
100
AcDbLine
 10
0.8089642325059067
 20
-1.258333333333333
 30
0.0
 11
0.8089642325059067
 21
-1.188333333333333
 31
0.0
  0
LINE
  5
15A
330
12A
100
AcDbEntity
  8
AM_9
100
AcDbLine
 10
0.0949999999999998
 20
-1.188333333333333
 30
0.0
 11
0.0949999999999999
 21
-1.258333333333333
 31
0.0
  0
LINE
  5
15B
330
12A
100
AcDbEntity
  8
AM_9
100
AcDbLine
 10
-0.0949999999999999
 20
-1.188333333333333
 30
0.0
 11
-0.0949999999999999
 21
-1.258333333333333
 31
0.0
  0
LINE
  5
15C
330
12A
100
AcDbEntity
  8
AM_4
100
AcDbLine
 10
-1.359375
 20
-1.188333333333333
 30
0.0
 11
-1.359375
 21
-1.258333333333333
 31
0.0
  0
LINE
  5
15D
330
12A
100
AcDbEntity
  8
AM_4
100
AcDbLine
 10
1.359375
 20
-1.258333333333333
 30
0.0
 11
1.359375
 21
-1.188333333333333
 31
0.0
  0
LINE
  5
15E
330
12A
100
AcDbEntity
  8
AM_4
100
AcDbLine
 10
-1.359375
 20
-1.258333333333333
 30
0.0
 11
1.359375
 21
-1.258333333333333
 31
0.0
  0
LINE
  5
15F
330
12A
100
AcDbEntity
  8
AM_4
100
AcDbLine
 10
-1.359375
 20
-1.188333333333333
 30
0.0
 11
1.359375
 21
-1.188333333333333
 31
0.0
  0
ENDBLK
  5
12D
330
12A
100
AcDbEntity
  8
0
100
AcDbBlockEnd
  0
BLOCK
  5
162
330
160
100
AcDbEntity
  8
0
100
AcDbBlockBegin
  2
7_070881I_0_in_072308_4
 70
     2
 10
0.0
 20
0.0
 30
0.0
  3
7_070881I_0_in_072308_4
  1

  0
ATTDEF
  5
164
330
160
100
AcDbEntity
  8
AM_6
100
AcDbText
 10
6.5748
 20
1.225000000000001
 30
0.0
 40
0.5
  1
Imperial Insert -Inch
100
AcDbAttributeDefinition
  3

  2
NN
 70
     8
280
     0
  0
ATTDEF
  5
165
330
160
100
AcDbEntity
  8
AM_6
100
AcDbText
 10
6.5748
 20
0.7250000000000005
 30
0.0
 40
0.5
  1
Imperial Bearings
100
AcDbAttributeDefinition
  3

  2
NT
 70
     8
280
     0
  0
ATTDEF
  5
166
330
160
100
AcDbEntity
  8
AM_6
100
AcDbText
 10
6.5748
 20
0.2250000000000005
 30
0.0
 40
0.5
  1
070881I
100
AcDbAttributeDefinition
  3

  2
NB
 70
     8
280
     0
  0
ATTDEF
  5
167
330
160
100
AcDbEntity
  8
AM_6
100
AcDbText
 10
6.5748
 20
-0.2749999999999995
 30
0.0
 40
0.5
  1
$PN.I
100
AcDbAttributeDefinition
  3

  2
NBSYN
 70
     8
280
     0
  0
ATTDEF
  5
168
330
160
100
AcDbEntity
  8
AM_6
100
AcDbText
 10
6.5748
 20
-0.7749999999999995
 30
0.0
 40
0.5
  1
070881
100
AcDbAttributeDefinition
  3

  2
LINA
 70
     8
280
     0
  0
ATTDEF
  5
169
330
160
100
AcDbEntity
  8
AM_6
100
AcDbText
 10
6.5748
 20
-1.274999999999999
 30
0.0
 40
0.5
  1
1-3/16
100
AcDbAttributeDefinition
  3

  2
SS
 70
     8
280
     0
  0
ATTDEF
  5
16A
330
160
100
AcDbEntity
  8
AM_6
100
AcDbText
 10
6.5748
 20
-1.774999999999999
 30
0.0
 40
0.5
  1
1.187500
100
AcDbAttributeDefinition
  3

  2
SS1
 70
     8
280
     0
  0
ATTDEF
  5
16B
330
160
100
AcDbEntity
  8
AM_6
100
AcDbText
 10
6.5748
 20
-2.274999999999999
 30
0.0
 40
0.5
  1
070881
100
AcDbAttributeDefinition
  3

  2
PN
 70
     8
280
     0
  0
ATTDEF
  5
16C
330
160
100
AcDbEntity
  8
AM_6
100
AcDbText
 10
6.5748
 20
-2.774999999999999
 30
0.0
 40
0.5
  1
INS-IP-103R
100
AcDbAttributeDefinition
  3

  2
DESCRIPTION
 70
     8
280
     0
  0
ATTDEF
  5
16D
330
160
100
AcDbEntity
  8
AM_6
100
AcDbText
 10
6.5748
 20
-3.274999999999999
 30
0.0
 40
0.5
  1
Contact Seal
100
AcDbAttributeDefinition
  3

  2
ST
 70
     8
280
     0
  0
ATTDEF
  5
16E
330
160
100
AcDbEntity
  8
AM_6
100
AcDbText
 10
6.5748
 20
-3.774999999999999
 30
0.0
 40
0.5
  1
3.1496
100
AcDbAttributeDefinition
  3

  2
A
 70
     8
280
     0
  0
ATTDEF
  5
16F
330
160
100
AcDbEntity
  8
AM_6
100
AcDbText
 10
6.5748
 20
-4.274999999999999
 30
0.0
 40
0.5
  1
61/64
100
AcDbAttributeDefinition
  3

  2
B
 70
     8
280
     0
  0
ATTDEF
  5
170
330
160
100
AcDbEntity
  8
AM_6
100
AcDbText
 10
6.5748
 20
-4.774999999999999
 30
0.0
 40
0.5
  1
2-5/8
100
AcDbAttributeDefinition
  3

  2
C
 70
     8
280
     0
  0
ATTDEF
  5
171
330
160
100
AcDbEntity
  8
AM_6
100
AcDbText
 10
6.5748
 20
-5.274999999999999
 30
0.0
 40
0.5
  1
0.970
100
AcDbAttributeDefinition
  3

  2
D
 70
     8
280
     0
  0
ATTDEF
  5
172
330
160
100
AcDbEntity
  8
AM_6
100
AcDbText
 10
6.5748
 20
-5.774999999999999
 30
0.0
 40
0.5
  1
2-23/32
100
AcDbAttributeDefinition
  3

  2
E
 70
     8
280
     0
  0
ATTDEF
  5
173
330
160
100
AcDbEntity
  8
AM_6
100
AcDbText
 10
6.5748
 20
-6.274999999999999
 30
0.0
 40
0.5
  1
0.1900
100
AcDbAttributeDefinition
  3

  2
NDM
 70
     8
280
     0
  0
ATTDEF
  5
174
330
160
100
AcDbEntity
  8
AM_6
100
AcDbText
 10
6.5748
 20
-6.774999999999999
 30
0.0
 40
0.5
  1
0.101
100
AcDbAttributeDefinition
  3

  2
H
 70
     8
280
     0
  0
ATTDEF
  5
175
330
160
100
AcDbEntity
  8
AM_6
100
AcDbText
 10
6.5748
 20
-7.274999999999999
 30
0.0
 40
0.5
  1
0.1450
100
AcDbAttributeDefinition
  3

  2
KDM
 70
     8
280
     0
  0
ATTDEF
  5
176
330
160
100
AcDbEntity
  8
AM_6
100
AcDbText
 10
6.5748
 20
-7.774999999999999
 30
0.0
 40
0.5
  1
2.22
100
AcDbAttributeDefinition
  3

  2
AL
 70
     8
280
     0
  0
ATTDEF
  5
177
330
160
100
AcDbEntity
  8
AM_6
100
AcDbText
 10
6.5748
 20
-8.274999999999999
 30
0.0
 40
0.5
  1
0.38
100
AcDbAttributeDefinition
  3

  2
BL
 70
     8
280
     0
  0
ATTDEF
  5
178
330
160
100
AcDbEntity
  8
AM_6
100
AcDbText
 10
6.5748
 20
-8.774999999999999
 30
0.0
 40
0.5
  1
0.07
100
AcDbAttributeDefinition
  3

  2
CL
 70
     8
280
     0
  0
ATTDEF
  5
179
330
160
100
AcDbEntity
  8
AM_6
100
AcDbText
 10
6.5748
 20
-9.274999999999999
 30
0.0
 40
0.5
  1
0.44
100
AcDbAttributeDefinition
  3

  2
DL
 70
     8
280
     0
  0
ATTDEF
  5
17A
330
160
100
AcDbEntity
  8
AM_6
100
AcDbText
 10
6.5748
 20
-9.774999999999999
 30
0.0
 40
0.5
  1
0.8000
100
AcDbAttributeDefinition
  3

  2
LL
 70
     8
280
     0
  0
ATTDEF
  5
17B
330
160
100
AcDbEntity
  8
AM_6
100
AcDbText
 10
6.5748
 20
-10.275
 30
0.0
 40
0.5
  1
0.020
100
AcDbAttributeDefinition
  3

  2
Y
 70
     8
280
     0
  0
ATTDEF
  5
17C
330
160
100
AcDbEntity
  8
AM_6
100
AcDbText
 10
6.5748
 20
-10.775
 30
0.0
 40
0.5
  1
0.020000
100
AcDbAttributeDefinition
  3

  2
Y1
 70
     8
280
     0
  0
ATTDEF
  5
17D
330
160
100
AcDbEntity
  8
AM_6
100
AcDbText
 10
6.5748
 20
-11.275
 30
0.0
 40
0.5
  1
1-51/64
100
AcDbAttributeDefinition
  3

  2
Z
 70
     8
280
     0
  0
ATTDEF
  5
17E
330
160
100
AcDbEntity
  8
AM_6
100
AcDbText
 10
6.5748
 20
-11.775
 30
0.0
 40
0.5
  1
1.796875
100
AcDbAttributeDefinition
  3

  2
Z1
 70
     8
280
     0
  0
ATTDEF
  5
17F
330
160
100
AcDbEntity
  8
AM_6
100
AcDbText
 10
6.5748
 20
-12.275
 30
0.0
 40
0.5
  1
baldor
100
AcDbAttributeDefinition
  3

  2
COMPANY
 70
     8
280
     0
  0
LINE
  5
180
330
160
100
AcDbEntity
  8
AM_9
100
AcDbLine
 10
-0.1365224824326899
 20
0.7115625000000004
 30
0.0
 11
-0.1365224824326899
 21
-1.42
 31
0.0
  0
LINE
  5
181
330
160
100
AcDbEntity
  8
AM_9
100
AcDbLine
 10
-0.3120595936098343
 20
-1.258333333333333
 30
0.0
 11
-0.3120595936098343
 21
0.7115625000000004
 31
0.0
  0
LINE
  5
182
330
160
100
AcDbEntity
  8
AM_9
100
AcDbLine
 10
-0.59375
 20
0.7115625
 30
0.0
 11
-0.59375
 21
-1.42
 31
0.0
  0
LINE
  5
183
330
160
100
AcDbEntity
  8
AM_9
100
AcDbLine
 10
0.59375
 20
-1.42
 30
0.0
 11
0.59375
 21
0.7115625
 31
0.0
  0
LINE
  5
184
330
160
100
AcDbEntity
  8
AM_9
100
AcDbLine
 10
-0.625
 20
1.205
 30
0.0
 11
-0.625
 21
0.7115625000000002
 31
0.0
  0
LINE
  5
185
330
160
100
AcDbEntity
  8
AM_9
100
AcDbLine
 10
0.625
 20
0.7115625000000002
 30
0.0
 11
0.625
 21
1.205
 31
0.0
  0
LINE
  5
186
330
160
100
AcDbEntity
  8
AM_9
100
AcDbLine
 10
-0.1486294692542904
 20
-1.258333333333333
 30
0.0
 11
-0.1492679426243967
 21
0.7115625000000004
 31
0.0
  0
LINE
  5
187
330
160
100
AcDbEntity
  8
AM_9
100
AcDbLine
 10
-0.1486294692542904
 20
-1.403399530620127
 30
0.0
 11
-0.1486294692542904
 21
-1.319000033333333
 31
0.0
  0
LINE
  5
188
330
160
100
AcDbEntity
  8
AM_9
100
AcDbLine
 10
-0.3248050538015411
 20
0.7115625000000004
 30
0.0
 11
-0.3241665804314349
 21
-1.258333333333333
 31
0.0
  0
LINE
  5
189
330
160
100
AcDbEntity
  8
AM_9
100
AcDbLine
 10
-0.625
 20
-1.188333333333333
 30
0.0
 11
-0.625
 21
-1.258333333333333
 31
0.0
  0
LINE
  5
18A
330
160
100
AcDbEntity
  8
AM_9
100
AcDbLine
 10
0.625
 20
-1.258333333333333
 30
0.0
 11
0.625
 21
-1.188333333333333
 31
0.0
  0
LINE
  5
18B
330
160
100
AcDbEntity
  8
AM_9
100
AcDbLine
 10
0.8984375
 20
1.205
 30
0.0
 11
-0.8984375
 21
1.205
 31
0.0
  0
LINE
  5
18C
330
160
100
AcDbEntity
  8
AM_9
100
AcDbLine
 10
-0.8984375
 20
1.225000000000001
 30
0.0
 11
-0.8984375
 21
1.205
 31
0.0
  0
LINE
  5
18D
330
160
100
AcDbEntity
  8
AM_9
100
AcDbLine
 10
0.8984375
 20
1.205
 30
0.0
 11
0.8984375
 21
1.225000000000001
 31
0.0
  0
LINE
  5
18E
330
160
100
AcDbEntity
  8
AM_9
100
AcDbLine
 10
0.650538238691624
 20
-0.7483333333333333
 30
0.0
 11
0.650538238691624
 21
-1.188333333333333
 31
0.0
  0
LINE
  5
18F
330
160
100
AcDbEntity
  8
AM_9
100
AcDbLine
 10
0.9192388155425123
 20
-0.7483333333333333
 30
0.0
 11
0.9192388155425123
 21
-0.77
 31
0.0
  0
LINE
  5
190
330
160
100
AcDbEntity
  8
AM_9
100
AcDbLine
 10
-0.6505382386916237
 20
-0.7483333333333333
 30
0.0
 11
-0.6505382386916237
 21
-1.188333333333333
 31
0.0
  0
LINE
  5
191
330
160
100
AcDbEntity
  8
AM_9
100
AcDbLine
 10
-0.9192388155425117
 20
-0.7483333333333333
 30
0.0
 11
-0.9192388155425117
 21
-0.77
 31
0.0
  0
LINE
  5
192
330
160
100
AcDbEntity
  8
AM_9
100
AcDbLine
 10
-0.9982638888888888
 20
1.17
 30
0.0
 11
-0.9982638888888888
 21
0.9021874999999998
 31
0.0
  0
LINE
  5
193
330
160
100
AcDbEntity
  8
AM_9
100
AcDbLine
 10
0.9982638888888888
 20
0.9021874999999998
 30
0.0
 11
0.9982638888888888
 21
1.17
 31
0.0
  0
LINE
  5
194
330
160
100
AcDbEntity
  8
AM_9
100
AcDbLine
 10
0.0
 20
-0.3483333333333332
 30
0.0
 11
-0.0724499999999999
 21
-0.3821173231666627
 31
0.0
  0
LINE
  5
195
330
160
100
AcDbEntity
  8
AM_9
100
AcDbLine
 10
0.0724499999999999
 20
-0.3821173231666627
 30
0.0
 11
0.0
 21
-0.3483333333333332
 31
0.0
  0
LINE
  5
196
330
160
100
AcDbEntity
  8
AM_9
100
AcDbLine
 10
0.0724499999999999
 20
-0.3821173231666627
 30
0.0
 11
-0.0724499999999999
 21
-0.3821173231666627
 31
0.0
  0
LINE
  5
197
330
160
100
AcDbEntity
  8
AM_9
100
AcDbLine
 10
-0.0724499999999999
 20
-0.3821173231666627
 30
0.0
 11
-0.0724499999999999
 21
-1.165783333333333
 31
0.0
  0
LINE
  5
198
330
160
100
AcDbEntity
  8
AM_9
100
AcDbLine
 10
0.0724499999999999
 20
-1.165783333333333
 30
0.0
 11
0.0724499999999999
 21
-0.3821173231666627
 31
0.0
  0
LINE
  5
199
330
160
100
AcDbEntity
  8
AM_9
100
AcDbLine
 10
-1.097109460963668
 20
-0.7483333333333333
 30
0.0
 11
-0.6505382386916237
 21
-0.7483333333333333
 31
0.0
  0
LINE
  5
19A
330
160
100
AcDbEntity
  8
AM_9
100
AcDbLine
 10
0.650538238691624
 20
-0.7483333333333333
 30
0.0
 11
1.097109460963669
 21
-0.7483333333333333
 31
0.0
  0
LINE
  5
19B
330
160
100
AcDbEntity
  8
AM_9
100
AcDbLine
 10
0.0724499999999999
 20
-1.165783333333333
 30
0.0
 11
-0.0724499999999999
 21
-1.165783333333333
 31
0.0
  0
LINE
  5
19C
330
160
100
AcDbEntity
  8
AM_9
100
AcDbLine
 10
-0.0724499999999999
 20
-1.165783333333333
 30
0.0
 11
-0.0950000000000001
 21
-1.188333333333333
 31
0.0
  0
LINE
  5
19D
330
160
100
AcDbEntity
  8
AM_9
100
AcDbLine
 10
0.0950000000000001
 20
-1.188333333333333
 30
0.0
 11
0.0724499999999999
 21
-1.165783333333333
 31
0.0
  0
LINE
  5
19E
330
160
100
AcDbEntity
  8
AM_9
100
AcDbLine
 10
1.207007578016766
 20
0.9021874999999998
 30
0.0
 11
-1.207007578016702
 21
0.9021874999999998
 31
0.0
  0
ARC
  5
19F
330
160
100
AcDbEntity
  8
AM_9
100
AcDbCircle
 10
-1.207007578016767
 20
0.8021875000000022
 30
0.0
 40
0.0999999999999976
100
AcDbArc
 50
90.0
 51
150.0000000000006
  0
ARC
  5
1A0
330
160
100
AcDbEntity
  8
AM_9
100
AcDbCircle
 10
1.207007578016767
 20
0.8021875000000022
 30
0.0
 40
0.0999999999999975
100
AcDbArc
 50
29.99999999999938
 51
90.0
  0
LINE
  5
1A1
330
160
100
AcDbEntity
  8
AM_9
100
AcDbLine
 10
1.293610118395209
 20
0.8521875
 30
0.0
 11
-1.293610118395209
 21
0.8521875
 31
0.0
  0
LINE
  5
1A2
330
160
100
AcDbEntity
  8
AM_9
100
AcDbLine
 10
-1.293610118395209
 20
0.8521875
 30
0.0
 11
-1.3748
 21
0.7115625
 31
0.0
  0
LINE
  5
1A3
330
160
100
AcDbEntity
  8
AM_9
100
AcDbLine
 10
1.3748
 20
0.7115625
 30
0.0
 11
1.293610118395209
 21
0.8521875
 31
0.0
  0
LINE
  5
1A4
330
160
100
AcDbEntity
  8
AM_9
100
AcDbLine
 10
-1.096569265120716
 20
-0.770000002489096
 30
0.0
 11
-1.097109460963668
 21
-0.7483333333333333
 31
0.0
  0
LINE
  5
1A5
330
160
100
AcDbEntity
  8
AM_9
100
AcDbLine
 10
-0.8284088841127804
 20
-0.7483333333333333
 30
0.0
 11
-0.8278686882698282
 21
-0.7700000024890961
 31
0.0
  0
LINE
  5
1A6
330
160
100
AcDbEntity
  8
AM_9
100
AcDbLine
 10
0.8278686882698284
 20
-0.7700000024890961
 30
0.0
 11
0.8284088841127804
 21
-0.7483333333333333
 31
0.0
  0
LINE
  5
1A7
330
160
100
AcDbEntity
  8
AM_9
100
AcDbLine
 10
1.097109460963669
 20
-0.7483333333333333
 30
0.0
 11
1.096569265120716
 21
-0.770000002489096
 31
0.0
  0
LINE
  5
1A8
330
160
100
AcDbEntity
  8
AM_9
100
AcDbLine
 10
1.373983521904047
 20
-0.77
 30
0.0
 11
1.392436966032342
 21
-0.2415624999999999
 31
0.0
  0
LINE
  5
1A9
330
160
100
AcDbEntity
  8
AM_9
100
AcDbLine
 10
-1.392436966032342
 20
-0.2415624999999999
 30
0.0
 11
-1.373983521904047
 21
-0.77
 31
0.0
  0
LINE
  5
1AA
330
160
100
AcDbEntity
  8
AM_9
100
AcDbLine
 10
-1.52714375
 20
0.2625143487660681
 30
0.0
 11
-1.52714375
 21
0.2074856512339319
 31
0.0
  0
LINE
  5
1AB
330
160
100
AcDbEntity
  8
AM_9
100
AcDbLine
 10
1.52714375
 20
0.2074856512339319
 30
0.0
 11
1.52714375
 21
0.2625143487660681
 31
0.0
  0
LINE
  5
1AC
330
160
100
AcDbEntity
  8
AM_9
100
AcDbLine
 10
1.52714375
 20
0.2625143487660681
 30
0.0
 11
-1.52714375
 21
0.2625143487660681
 31
0.0
  0
LINE
  5
1AD
330
160
100
AcDbEntity
  8
AM_9
100
AcDbLine
 10
1.52714375
 20
0.2625143487660681
 30
0.0
 11
1.5748
 21
0.2900286975321362
 31
0.0
  0
LINE
  5
1AE
330
160
100
AcDbEntity
  8
AM_9
100
AcDbLine
 10
-1.5748
 20
0.2900286975321362
 30
0.0
 11
-1.52714375
 21
0.2625143487660681
 31
0.0
  0
LINE
  5
1AF
330
160
100
AcDbEntity
  8
AM_9
100
AcDbLine
 10
1.52714375
 20
0.2074856512339319
 30
0.0
 11
-1.52714375
 21
0.2074856512339319
 31
0.0
  0
LINE
  5
1B0
330
160
100
AcDbEntity
  8
AM_9
100
AcDbLine
 10
-1.52714375
 20
0.2074856512339319
 30
0.0
 11
-1.5748
 21
0.1799713024678639
 31
0.0
  0
LINE
  5
1B1
330
160
100
AcDbEntity
  8
AM_9
100
AcDbLine
 10
1.5748
 20
0.1799713024678639
 30
0.0
 11
1.52714375
 21
0.2074856512339319
 31
0.0
  0
LINE
  5
1B2
330
160
100
AcDbEntity
  8
AM_9
100
AcDbLine
 10
1.5248
 20
-0.2415624999999999
 30
0.0
 11
-1.524799999992305
 21
-0.2415624999999999
 31
0.0
  0
ARC
  5
1B3
330
160
100
AcDbEntity
  8
AM_9
100
AcDbCircle
 10
-1.5248
 20
-0.1915625000000003
 30
0.0
 40
0.0499999999999996
100
AcDbArc
 50
180.0
 51
270.0
  0
ARC
  5
1B4
330
160
100
AcDbEntity
  8
AM_9
100
AcDbCircle
 10
1.5248
 20
-0.1915625000000005
 30
0.0
 40
0.0499999999999994
100
AcDbArc
 50
270.0
 51
0.0
  0
LINE
  5
1B5
330
160
100
AcDbEntity
  8
AM_9
100
AcDbLine
 10
1.5748
 20
0.1799713024678639
 30
0.0
 11
-1.5748
 21
0.1799713024678639
 31
0.0
  0
LINE
  5
1B6
330
160
100
AcDbEntity
  8
AM_9
100
AcDbLine
 10
1.5748
 20
-0.1915625000000006
 30
0.0
 11
-1.5748
 21
-0.1915625000000006
 31
0.0
  0
LINE
  5
1B7
330
160
100
AcDbEntity
  8
AM_9
100
AcDbLine
 10
-1.5748
 20
0.1799713024678639
 30
0.0
 11
-1.5748
 21
-0.1915625000000006
 31
0.0
  0
LINE
  5
1B8
330
160
100
AcDbEntity
  8
AM_9
100
AcDbLine
 10
1.5748
 20
-0.1915625000000006
 30
0.0
 11
1.5748
 21
0.1799713024678639
 31
0.0
  0
LINE
  5
1B9
330
160
100
AcDbEntity
  8
AM_9
100
AcDbLine
 10
1.5748
 20
0.2900286975321362
 30
0.0
 11
-1.5748
 21
0.2900286975321362
 31
0.0
  0
LINE
  5
1BA
330
160
100
AcDbEntity
  8
AM_9
100
AcDbLine
 10
-1.5748
 20
0.6615624999999999
 30
0.0
 11
-1.5748
 21
0.2900286975321362
 31
0.0
  0
LINE
  5
1BB
330
160
100
AcDbEntity
  8
AM_9
100
AcDbLine
 10
1.5748
 20
0.2900286975321362
 30
0.0
 11
1.5748
 21
0.6615624999999999
 31
0.0
  0
LINE
  5
1BC
330
160
100
AcDbEntity
  8
AM_9
100
AcDbLine
 10
1.5248
 20
0.7115625
 30
0.0
 11
-1.524799999992304
 21
0.7115625
 31
0.0
  0
LINE
  5
1BD
330
160
100
AcDbEntity
  8
AM_9
100
AcDbLine
 10
1.5748
 20
0.6615624999999999
 30
0.0
 11
-1.5748
 21
0.6615624999999999
 31
0.0
  0
ARC
  5
1BE
330
160
100
AcDbEntity
  8
AM_9
100
AcDbCircle
 10
-1.5248
 20
0.6615624999999999
 30
0.0
 40
0.05
100
AcDbArc
 50
90.0
 51
180.0
  0
ARC
  5
1BF
330
160
100
AcDbEntity
  8
AM_9
100
AcDbCircle
 10
1.524799999999999
 20
0.6615624999999996
 30
0.0
 40
0.0500000000000005
100
AcDbArc
 50
0.0
 51
90.0
  0
LINE
  5
1C0
330
160
100
AcDbEntity
  8
AM_5
100
AcDbLine
 10
-0.0724499999999999
 20
-0.4283333333333331
 30
0.0
 11
-0.0950000000000001
 21
-0.4283333333333331
 31
0.0
  0
LINE
  5
1C1
330
160
100
AcDbEntity
  8
AM_5
100
AcDbLine
 10
-0.0950000000000001
 20
-0.4283333333333331
 30
0.0
 11
-0.0724499999999999
 21
-0.4153140847631071
 31
0.0
  0
LINE
  5
1C2
330
160
100
AcDbEntity
  8
AM_5
100
AcDbLine
 10
0.0724499999999998
 20
-0.4283333333333331
 30
0.0
 11
0.0949999999999999
 21
-0.4283333333333331
 31
0.0
  0
LINE
  5
1C3
330
160
100
AcDbEntity
  8
AM_5
100
AcDbLine
 10
0.0950000000000001
 20
-0.4283333333333346
 30
0.0
 11
0.0724499999999999
 21
-0.4153140847631272
 31
0.0
  0
LINE
  5
1C4
330
160
100
AcDbEntity
  8
AM_4
100
AcDbLine
 10
-0.3120595936098343
 20
-1.42
 30
0.0
 11
-0.3120595936098343
 21
-1.258333333333333
 31
0.0
  0
LINE
  5
1C5
330
160
100
AcDbEntity
  8
AM_4
100
AcDbLine
 10
-0.1486294692542904
 20
-1.319000033333333
 30
0.0
 11
-0.1486294692542904
 21
-1.258333333333333
 31
0.0
  0
LINE
  5
1C6
330
160
100
AcDbEntity
  8
AM_4
100
AcDbLine
 10
-0.1486294692542904
 20
-1.42
 30
0.0
 11
-0.1486294692542904
 21
-1.403399530620127
 31
0.0
  0
LINE
  5
1C7
330
160
100
AcDbEntity
  8
AM_4
100
AcDbLine
 10
-0.3241665804314349
 20
-1.258333333333333
 30
0.0
 11
-0.3241665804314349
 21
-1.42
 31
0.0
  0
LINE
  5
1C8
330
160
100
AcDbEntity
  8
AM_4
100
AcDbLine
 10
-0.625
 20
-1.258333333333333
 30
0.0
 11
-0.625
 21
-1.42
 31
0.0
  0
LINE
  5
1C9
330
160
100
AcDbEntity
  8
AM_4
100
AcDbLine
 10
0.625
 20
-1.42
 30
0.0
 11
0.625
 21
-1.258333333333333
 31
0.0
  0
LINE
  5
1CA
330
160
100
AcDbEntity
  8
AM_4
100
AcDbLine
 10
-0.0994999980611925
 20
-1.42
 30
0.0
 11
-0.625
 21
-1.42
 31
0.0
  0
LINE
  5
1CB
330
160
100
AcDbEntity
  8
AM_4
100
AcDbLine
 10
0.625
 20
-1.42
 30
0.0
 11
0.0995
 21
-1.42
 31
0.0
  0
ARC
  5
1CC
330
160
100
AcDbEntity
  8
AM_4
100
AcDbCircle
 10
1.311090561259646
 20
-1.138333333333333
 30
0.0
 40
0.0499999999999998
100
AcDbArc
 50
270.0
 51
358.0000000000002
  0
ARC
  5
1CD
330
160
100
AcDbEntity
  8
AM_4
100
AcDbCircle
 10
-1.311090561259646
 20
-1.138333333333333
 30
0.0
 40
0.0499999999999999
100
AcDbArc
 50
181.9999999999997
 51
270.0
  0
LWPOLYLINE
  5
1CE
330
160
100
AcDbEntity
  8
AM_4
100
AcDbPolyline
 90
        6
 70
     0
 43
0.0
 10
1.087341527345923
 20
-1.140078308168458
 10
1.084951493284856
 20
-1.156397767759576
 10
1.078879906620323
 20
-1.170687212123401
 10
1.069782372867751
 20
-1.181410152478868
 10
1.058595723464173
 20
-1.187378046236281
 10
1.051644804876986
 20
-1.188333333333333
  0
LWPOLYLINE
  5
1CF
330
160
100
AcDbEntity
  8
AM_4
100
AcDbPolyline
 90
        6
 70
     0
 43
0.0
 10
-1.051644804876985
 20
-1.188333333333333
 10
-1.056745917779431
 20
-1.187821153345449
 10
-1.068288439312639
 20
-1.182575969166354
 10
-1.077904345034989
 20
-1.172230922695886
 10
-1.084467122687451
 20
-1.158059162505154
 10
-1.087341527345923
 20
-1.140078308168458
  0
LINE
  5
1D0
330
160
100
AcDbEntity
  8
AM_4
100
AcDbLine
 10
0.9192388155425123
 20
-0.77
 30
0.0
 11
0.9192388155425123
 21
-1.188333333333333
 31
0.0
  0
LINE
  5
1D1
330
160
100
AcDbEntity
  8
AM_4
100
AcDbLine
 10
-0.9192388155425117
 20
-0.77
 30
0.0
 11
-0.9192388155425117
 21
-1.188333333333333
 31
0.0
  0
LINE
  5
1D2
330
160
100
AcDbEntity
  8
AM_4
100
AcDbLine
 10
-0.9982638888888888
 20
1.201963141025641
 30
0.0
 11
-0.9982638888888888
 21
1.17
 31
0.0
  0
LINE
  5
1D3
330
160
100
AcDbEntity
  8
AM_4
100
AcDbLine
 10
0.9982638888888888
 20
1.17
 30
0.0
 11
0.9982638888888888
 21
1.201963141025641
 31
0.0
  0
LINE
  5
1D4
330
160
100
AcDbEntity
  8
AM_4
100
AcDbLine
 10
0.9752270299145298
 20
1.225
 30
0.0
 11
-0.9752270298971709
 21
1.225
 31
0.0
  0
LINE
  5
1D5
330
160
100
AcDbEntity
  8
AM_4
100
AcDbLine
 10
0.9982638888888888
 20
1.201963141025641
 30
0.0
 11
-0.9982638888888888
 21
1.201963141025641
 31
0.0
  0
ARC
  5
1D6
330
160
100
AcDbEntity
  8
AM_4
100
AcDbCircle
 10
-0.9752270299145303
 20
1.201963141025641
 30
0.0
 40
0.0230368589743586
100
AcDbArc
 50
90.0
 51
180.0
  0
ARC
  5
1D7
330
160
100
AcDbEntity
  8
AM_4
100
AcDbCircle
 10
0.9752270299145303
 20
1.201963141025641
 30
0.0
 40
0.0230368589743586
100
AcDbArc
 50
0.0
 51
90.0
  0
LWPOLYLINE
  5
1D8
330
160
100
AcDbEntity
  8
AM_4
100
AcDbPolyline
 90
        6
 70
     0
 43
0.0
 10
0.7829442280260974
 20
-1.188333333333333
 10
0.7880453409285434
 20
-1.187821153345449
 10
0.7995878624617515
 20
-1.182575969166354
 10
0.8092037681841016
 20
-1.172230922695886
 10
0.8157665458365636
 20
-1.158059162505154
 10
0.8186409504950352
 20
-1.140078308168458
  0
LWPOLYLINE
  5
1D9
330
160
100
AcDbEntity
  8
AM_4
100
AcDbPolyline
 90
        6
 70
     0
 43
0.0
 10
-0.8186409504950352
 20
-1.140078308168458
 10
-0.816250916433965
 20
-1.156397767759586
 10
-0.8101793297694295
 20
-1.170687212123409
 10
-0.8010817960168559
 20
-1.181410152478873
 10
-0.7898951466132774
 20
-1.187378046236283
 10
-0.7829442280260974
 20
-1.188333333333333
  0
LINE
  5
1DA
330
160
100
AcDbEntity
  8
AM_4
100
AcDbLine
 10
-1.087341527345923
 20
-1.140078308168458
 30
0.0
 11
-1.361060102610601
 21
-1.140078308168458
 31
0.0
  0
LINE
  5
1DB
330
160
100
AcDbEntity
  8
AM_4
100
AcDbLine
 10
-1.087341527345923
 20
-1.140078308168458
 30
0.0
 11
-1.096569265120716
 21
-0.770000002489096
 31
0.0
  0
LINE
  5
1DC
330
160
100
AcDbEntity
  8
AM_4
100
AcDbLine
 10
-0.8278686882698282
 20
-0.7700000024890961
 30
0.0
 11
-0.8186409504950352
 21
-1.140078308168458
 31
0.0
  0
LINE
  5
1DD
330
160
100
AcDbEntity
  8
AM_4
100
AcDbLine
 10
0.8186409504950352
 20
-1.140078308168458
 30
0.0
 11
-0.8186409504950352
 21
-1.140078308168458
 31
0.0
  0
LINE
  5
1DE
330
160
100
AcDbEntity
  8
AM_4
100
AcDbLine
 10
0.8186409504950352
 20
-1.140078308168458
 30
0.0
 11
0.8278686882698284
 21
-0.7700000024890961
 31
0.0
  0
LINE
  5
1DF
330
160
100
AcDbEntity
  8
AM_4
100
AcDbLine
 10
1.096569265120716
 20
-0.770000002489096
 30
0.0
 11
1.087341527345923
 21
-1.140078308168458
 31
0.0
  0
LINE
  5
1E0
330
160
100
AcDbEntity
  8
AM_4
100
AcDbLine
 10
1.361060102610601
 20
-1.140078308168458
 30
0.0
 11
1.373983521904047
 21
-0.77
 31
0.0
  0
LINE
  5
1E1
330
160
100
AcDbEntity
  8
AM_4
100
AcDbLine
 10
-1.373983521904047
 20
-0.77
 30
0.0
 11
-1.361060102610601
 21
-1.140078308168458
 31
0.0
  0
LINE
  5
1E2
330
160
100
AcDbEntity
  8
AM_4
100
AcDbLine
 10
1.361060102610601
 20
-1.140078308168458
 30
0.0
 11
1.087341527345923
 21
-1.140078308168458
 31
0.0
  0
ENDBLK
  5
163
330
160
100
AcDbEntity
  8
0
100
AcDbBlockEnd
  0
BLOCK
  5
1E5
330
1E3
100
AcDbEntity
  8
0
100
AcDbBlockBegin
  2
8_B072308_0_in_072308_4
 70
     2
 10
0.0
 20
0.0
 30
0.0
  3
8_B072308_0_in_072308_4
  1

  0
ATTDEF
  5
1E7
330
1E3
100
AcDbEntity
  8
AM_6
100
AcDbText
 10
7.625
 20
2.134
 30
0.0
 40
0.5
  1
SFC - 102 - 204 -(Contact Seal)Housing
100
AcDbAttributeDefinition
  3

  2
NN
 70
     8
280
     0
  0
ATTDEF
  5
1E8
330
1E3
100
AcDbEntity
  8
AM_6
100
AcDbText
 10
7.625
 20
1.634
 30
0.0
 40
0.5
  1
Steal Imperial Piloted Flange Bearings
100
AcDbAttributeDefinition
  3

  2
NT
 70
     8
280
     0
  0
ATTDEF
  5
1E9
330
1E3
100
AcDbEntity
  8
AM_6
100
AcDbText
 10
7.625
 20
1.134
 30
0.0
 40
0.5
  1
B072308
100
AcDbAttributeDefinition
  3

  2
NB
 70
     8
280
     0
  0
ATTDEF
  5
1EA
330
1E3
100
AcDbEntity
  8
AM_6
100
AcDbText
 10
7.625
 20
0.6339999999999999
 30
0.0
 40
0.5
  1
$PN.
100
AcDbAttributeDefinition
  3

  2
NBSYN
 70
     8
280
     0
  0
ATTDEF
  5
1EB
330
1E3
100
AcDbEntity
  8
AM_6
100
AcDbText
 10
7.625
 20
0.1339999999999999
 30
0.0
 40
0.5
  1
B072308
100
AcDbAttributeDefinition
  3

  2
LINA
 70
     8
280
     0
  0
ATTDEF
  5
1EC
330
1E3
100
AcDbEntity
  8
AM_6
100
AcDbText
 10
7.625
 20
-0.3660000000000001
 30
0.0
 40
0.5
  1
1-3/16
100
AcDbAttributeDefinition
  3

  2
SS
 70
     8
280
     0
  0
ATTDEF
  5
1ED
330
1E3
100
AcDbEntity
  8
AM_6
100
AcDbText
 10
7.625
 20
-0.8660000000000001
 30
0.0
 40
0.5
  1
B072308
100
AcDbAttributeDefinition
  3

  2
PN
 70
     8
280
     0
  0
ATTDEF
  5
1EE
330
1E3
100
AcDbEntity
  8
AM_6
100
AcDbText
 10
7.625
 20
-1.366
 30
0.0
 40
0.5
  1
Expansion
100
AcDbAttributeDefinition
  3

  2
TYPE
 70
     8
280
     0
  0
ATTDEF
  5
1EF
330
1E3
100
AcDbEntity
  8
AM_6
100
AcDbText
 10
7.625
 20
-1.866
 30
0.0
 40
0.5
  1
Expansion
100
AcDbAttributeDefinition
  3

  2
EF
 70
     8
280
     0
  0
ATTDEF
  5
1F0
330
1E3
100
AcDbEntity
  8
AM_6
100
AcDbText
 10
7.625
 20
-2.366
 30
0.0
 40
0.5
  1
SFC-IP-103RE
100
AcDbAttributeDefinition
  3

  2
DESCRIPTION
 70
     8
280
     0
  0
ATTDEF
  5
1F1
330
1E3
100
AcDbEntity
  8
AM_6
100
AcDbText
 10
7.625
 20
-2.866
 30
0.0
 40
0.5
  1
Contact Seal
100
AcDbAttributeDefinition
  3

  2
ST
 70
     8
280
     0
  0
ATTDEF
  5
1F2
330
1E3
100
AcDbEntity
  8
AM_6
100
AcDbText
 10
7.625
 20
-3.366
 30
0.0
 40
0.5
  1
2.630
100
AcDbAttributeDefinition
  3

  2
A
 70
     8
280
     0
  0
ATTDEF
  5
1F3
330
1E3
100
AcDbEntity
  8
AM_6
100
AcDbText
 10
7.625
 20
-3.866
 30
0.0
 40
0.5
  1
5.2500
100
AcDbAttributeDefinition
  3

  2
B
 70
     8
280
     0
  0
ATTDEF
  5
1F4
330
1E3
100
AcDbEntity
  8
AM_6
100
AcDbText
 10
7.625
 20
-4.366
 30
0.0
 40
0.5
  1
1.9400
100
AcDbAttributeDefinition
  3

  2
C
 70
     8
280
     0
  0
ATTDEF
  5
1F5
330
1E3
100
AcDbEntity
  8
AM_6
100
AcDbText
 10
7.625
 20
-4.866
 30
0.0
 40
0.5
  1
3.0900
100
AcDbAttributeDefinition
  3

  2
D
 70
     8
280
     0
  0
ATTDEF
  5
1F6
330
1E3
100
AcDbEntity
  8
AM_6
100
AcDbText
 10
7.625
 20
-5.366
 30
0.0
 40
0.5
  1
4.3800
100
AcDbAttributeDefinition
  3

  2
DD
 70
     8
280
     0
  0
ATTDEF
  5
1F7
330
1E3
100
AcDbEntity
  8
AM_6
100
AcDbText
 10
7.625
 20
-5.866
 30
0.0
 40
0.5
  1
0.0000
100
AcDbAttributeDefinition
  3

  2
E
 70
     8
280
     0
  0
ATTDEF
  5
1F8
330
1E3
100
AcDbEntity
  8
AM_6
100
AcDbText
 10
7.625
 20
-6.366
 30
0.0
 40
0.5
  1
0.4375
100
AcDbAttributeDefinition
  3

  2
F
 70
     8
280
     0
  0
ATTDEF
  5
1F9
330
1E3
100
AcDbEntity
  8
AM_6
100
AcDbText
 10
7.625
 20
-6.866
 30
0.0
 40
0.5
  1
1.61
100
AcDbAttributeDefinition
  3

  2
G
 70
     8
280
     0
  0
ATTDEF
  5
1FA
330
1E3
100
AcDbEntity
  8
AM_6
100
AcDbText
 10
7.625
 20
-7.366
 30
0.0
 40
0.5
  1
0.50
100
AcDbAttributeDefinition
  3

  2
H
 70
     8
280
     0
  0
ATTDEF
  5
1FB
330
1E3
100
AcDbEntity
  8
AM_6
100
AcDbText
 10
7.625
 20
-7.866
 30
0.0
 40
0.5
  1
3.625
100
AcDbAttributeDefinition
  3

  2
K
 70
     8
280
     0
  0
ATTDEF
  5
1FC
330
1E3
100
AcDbEntity
  8
AM_6
100
AcDbText
 10
7.625
 20
-8.366
 30
0.0
 40
0.5
  1
2.72
100
AcDbAttributeDefinition
  3

  2
L
 70
     8
280
     0
  0
ATTDEF
  5
1FD
330
1E3
100
AcDbEntity
  8
AM_6
100
AcDbText
 10
7.625
 20
-8.866
 30
0.0
 40
0.5
  1
0.4375
100
AcDbAttributeDefinition
  3

  2
M
 70
     8
280
     0
  0
ATTDEF
  5
1FE
330
1E3
100
AcDbEntity
  8
AM_6
100
AcDbText
 10
7.625
 20
-9.366
 30
0.0
 40
0.5
  1
2.78
100
AcDbAttributeDefinition
  3

  2
N
 70
     8
280
     0
  0
ATTDEF
  5
1FF
330
1E3
100
AcDbEntity
  8
AM_6
100
AcDbText
 10
7.625
 20
-9.866
 30
0.0
 40
0.5
  1
1.02
100
AcDbAttributeDefinition
  3

  2
P
 70
     8
280
     0
  0
ATTDEF
  5
200
330
1E3
100
AcDbEntity
  8
AM_6
100
AcDbText
 10
7.625
 20
-10.366
 30
0.0
 40
0.5
  1
1.17
100
AcDbAttributeDefinition
  3

  2
Q
 70
     8
280
     0
  0
ATTDEF
  5
201
330
1E3
100
AcDbEntity
  8
AM_6
100
AcDbText
 10
7.625
 20
-10.866
 30
0.0
 40
0.5
  1
0.19
100
AcDbAttributeDefinition
  3

  2
X
 70
     8
280
     0
  0
ATTDEF
  5
202
330
1E3
100
AcDbEntity
  8
AM_6
100
AcDbText
 10
7.625
 20
-11.366
 30
0.0
 40
0.5
  1
0.020
100
AcDbAttributeDefinition
  3

  2
Y
 70
     8
280
     0
  0
ATTDEF
  5
203
330
1E3
100
AcDbEntity
  8
AM_6
100
AcDbText
 10
7.625
 20
-11.866
 30
0.0
 40
0.5
  1
1.80
100
AcDbAttributeDefinition
  3

  2
Z
 70
     8
280
     0
  0
ATTDEF
  5
204
330
1E3
100
AcDbEntity
  8
AM_6
100
AcDbText
 10
7.625
 20
-12.366
 30
0.0
 40
0.5
  1
3.1496
100
AcDbAttributeDefinition
  3

  2
BORE
 70
     8
280
     0
  0
ATTDEF
  5
205
330
1E3
100
AcDbEntity
  8
AM_6
100
AcDbText
 10
7.625
 20
-12.866
 30
0.0
 40
0.5
  1
0.0606667
100
AcDbAttributeDefinition
  3

  2
O
 70
     8
280
     0
  0
ATTDEF
  5
206
330
1E3
100
AcDbEntity
  8
AM_6
100
AcDbText
 10
7.625
 20
-13.366
 30
0.0
 40
0.5
  1
baldor
100
AcDbAttributeDefinition
  3

  2
COMPANY
 70
     8
280
     0
  0
LINE
  5
207
330
1E3
100
AcDbEntity
  8
AM_9
100
AcDbLine
 10
-2.3701
 20
0.0
 30
0.0
 11
-2.3701
 21
-0.4613499999999999
 31
0.0
  0
LINE
  5
208
330
1E3
100
AcDbEntity
  8
AM_9
100
AcDbLine
 10
-2.0099
 20
-0.4613499999999999
 30
0.0
 11
-2.0099
 21
0.0
 31
0.0
  0
LINE
  5
209
330
1E3
100
AcDbEntity
  8
AM_9
100
AcDbLine
 10
2.0099
 20
0.0
 30
0.0
 11
2.0099
 21
-0.4613499999999999
 31
0.0
  0
LINE
  5
20A
330
1E3
100
AcDbEntity
  8
AM_9
100
AcDbLine
 10
2.3701
 20
-0.4613499999999999
 30
0.0
 11
2.3701
 21
0.0
 31
0.0
  0
LINE
  5
20B
330
1E3
100
AcDbEntity
  8
AM_9
100
AcDbLine
 10
-2.0099
 20
-0.4613499999999999
 30
0.0
 11
-2.3701
 21
-0.4613499999999999
 31
0.0
  0
LINE
  5
20C
330
1E3
100
AcDbEntity
  8
AM_9
100
AcDbLine
 10
-2.3701
 20
-0.4613499999999999
 30
0.0
 11
-2.40875
 21
-0.5
 31
0.0
  0
LINE
  5
20D
330
1E3
100
AcDbEntity
  8
AM_9
100
AcDbLine
 10
-1.97125
 20
-0.5
 30
0.0
 11
-2.0099
 21
-0.4613499999999999
 31
0.0
  0
LINE
  5
20E
330
1E3
100
AcDbEntity
  8
AM_9
100
AcDbLine
 10
2.3701
 20
-0.4613499999999999
 30
0.0
 11
2.0099
 21
-0.4613499999999999
 31
0.0
  0
LINE
  5
20F
330
1E3
100
AcDbEntity
  8
AM_9
100
AcDbLine
 10
2.0099
 20
-0.4613499999999999
 30
0.0
 11
1.97125
 21
-0.5
 31
0.0
  0
LINE
  5
210
330
1E3
100
AcDbEntity
  8
AM_9
100
AcDbLine
 10
2.40875
 20
-0.5
 30
0.0
 11
2.3701
 21
-0.4613499999999999
 31
0.0
  0
LINE
  5
211
330
1E3
100
AcDbEntity
  8
AM_9
100
AcDbLine
 10
1.5748
 20
-0.77
 30
0.0
 11
1.5748
 21
1.17
 31
0.0
  0
LINE
  5
212
330
1E3
100
AcDbEntity
  8
AM_9
100
AcDbLine
 10
-1.5748
 20
1.17
 30
0.0
 11
-1.5748
 21
-0.77
 31
0.0
  0
LINE
  5
213
330
1E3
100
AcDbEntity
  8
AM_9
100
AcDbLine
 10
-1.329813850798539
 20
-0.4999999999999999
 30
0.0
 11
-1.329813850798539
 21
0.0000000000000001
 31
0.0
  0
LINE
  5
214
330
1E3
100
AcDbEntity
  8
AM_9
100
AcDbLine
 10
-1.767313850798539
 20
0.0000000000000001
 30
0.0
 11
-1.767313850798539
 21
-0.4999999999999999
 31
0.0
  0
LINE
  5
215
330
1E3
100
AcDbEntity
  8
AM_9
100
AcDbLine
 10
1.767313850798539
 20
-0.4999999999999999
 30
0.0
 11
1.767313850798539
 21
0.0000000000000001
 31
0.0
  0
LINE
  5
216
330
1E3
100
AcDbEntity
  8
AM_9
100
AcDbLine
 10
1.329813850798539
 20
0.0000000000000001
 30
0.0
 11
1.329813850798539
 21
-0.4999999999999999
 31
0.0
  0
LINE
  5
217
330
1E3
100
AcDbEntity
  8
AM_9
100
AcDbLine
 10
0.21875
 20
-0.7699999999999995
 30
0.0
 11
-0.2187499999999999
 21
-0.7699999999999995
 31
0.0
  0
LINE
  5
218
330
1E3
100
AcDbEntity
  8
AM_5
100
AcDbLine
 10
2.40875
 20
0.0
 30
0.0
 11
2.40875
 21
-0.5
 31
0.0
  0
LINE
  5
219
330
1E3
100
AcDbEntity
  8
AM_5
100
AcDbLine
 10
1.97125
 20
0.0
 30
0.0
 11
1.97125
 21
-0.5
 31
0.0
  0
LINE
  5
21A
330
1E3
100
AcDbEntity
  8
AM_5
100
AcDbLine
 10
-1.97125
 20
0.0
 30
0.0
 11
-1.97125
 21
-0.5
 31
0.0
  0
LINE
  5
21B
330
1E3
100
AcDbEntity
  8
AM_5
100
AcDbLine
 10
-2.40875
 20
0.0
 30
0.0
 11
-2.40875
 21
-0.5
 31
0.0
  0
LINE
  5
21E
330
1E3
100
AcDbEntity
  8
AM_7
100
AcDbLine
 10
-1.548563850798539
 20
0.0250000000000001
 30
0.0
 11
-1.548563850798539
 21
-0.5249999999999999
 31
0.0
  0
LINE
  5
21F
330
1E3
100
AcDbEntity
  8
AM_7
100
AcDbLine
 10
1.548563850798539
 20
0.0249999999999999
 30
0.0
 11
1.548563850798539
 21
-0.5250000000000001
 31
0.0
  0
LINE
  5
220
330
1E3
100
AcDbEntity
  8
AM_7
100
AcDbLine
 10
2.19
 20
0.025
 30
0.0
 11
2.19
 21
-0.525
 31
0.0
  0
LINE
  5
221
330
1E3
100
AcDbEntity
  8
AM_7
100
AcDbLine
 10
-2.19
 20
0.025
 30
0.0
 11
-2.19
 21
-0.525
 31
0.0
  0
LINE
  5
222
330
1E3
100
AcDbEntity
  8
AM_7
100
AcDbLine
 10
0.0
 20
2.134
 30
0.0
 11
0.0
 21
-2.134
 31
0.0
  0
LINE
  5
223
330
1E3
100
AcDbEntity
  8
AM_4
100
AcDbLine
 10
1.8125
 20
-0.7700000000000001
 30
0.0
 11
1.8125
 21
-0.5
 31
0.0
  0
LINE
  5
224
330
1E3
100
AcDbEntity
  8
AM_4
100
AcDbLine
 10
-1.8125
 20
-0.5
 30
0.0
 11
-1.8125
 21
-0.7700000000000001
 31
0.0
  0
LINE
  5
225
330
1E3
100
AcDbEntity
  8
AM_4
100
AcDbLine
 10
1.512675547840557
 20
-0.77
 30
0.0
 11
1.512675547840557
 21
-0.4999999999999999
 31
0.0
  0
LINE
  5
226
330
1E3
100
AcDbEntity
  8
AM_4
100
AcDbLine
 10
-1.512675547840556
 20
-0.77
 30
0.0
 11
-1.512675547840555
 21
-0.4999999999999999
 31
0.0
  0
LINE
  5
227
330
1E3
100
AcDbEntity
  8
AM_4
100
AcDbLine
 10
-0.9984833183209779
 20
-0.7699999999999998
 30
0.0
 11
-0.9984833183209779
 21
-0.4999999999999999
 31
0.0
  0
LINE
  5
228
330
1E3
100
AcDbEntity
  8
AM_4
100
AcDbLine
 10
0.9984833183209789
 20
-0.7699999999999998
 30
0.0
 11
0.9984833183209788
 21
-0.4999999999999999
 31
0.0
  0
LINE
  5
229
330
1E3
100
AcDbEntity
  8
AM_4
100
AcDbLine
 10
-1.721875
 20
1.17
 30
0.0
 11
1.721875
 21
1.17
 31
0.0
  0
LINE
  5
22A
330
1E3
100
AcDbEntity
  8
AM_4
100
AcDbLine
 10
-1.721875
 20
1.17
 30
0.0
 11
-1.762732300305345
 21
0.0
 31
0.0
  0
LINE
  5
22B
330
1E3
100
AcDbEntity
  8
AM_4
100
AcDbLine
 10
1.762732300305345
 20
0.0
 30
0.0
 11
1.721875
 21
1.17
 31
0.0
  0
LINE
  5
22C
330
1E3
100
AcDbEntity
  8
AM_4
100
AcDbLine
 10
-0.5
 20
-0.4999999999999998
 30
0.0
 11
-0.5
 21
-0.7699999999999995
 31
0.0
  0
LINE
  5
22D
330
1E3
100
AcDbEntity
  8
AM_4
100
AcDbLine
 10
-0.2187499999999999
 20
-0.7699999999999995
 30
0.0
 11
-1.8125
 21
-0.7700000000000001
 31
0.0
  0
LINE
  5
22E
330
1E3
100
AcDbEntity
  8
AM_4
100
AcDbLine
 10
1.8125
 20
-0.7700000000000001
 30
0.0
 11
0.21875
 21
-0.7699999999999995
 31
0.0
  0
LINE
  5
22F
330
1E3
100
AcDbEntity
  8
AM_4
100
AcDbLine
 10
0.5
 20
-0.4999999999999998
 30
0.0
 11
0.5
 21
-0.7699999999999995
 31
0.0
  0
LINE
  5
230
330
1E3
100
AcDbEntity
  8
AM_4
100
AcDbLine
 10
-2.625
 20
-0.5
 30
0.0
 11
2.625
 21
-0.5
 31
0.0
  0
LINE
  5
231
330
1E3
100
AcDbEntity
  8
AM_4
100
AcDbLine
 10
-2.625
 20
0.0
 30
0.0
 11
2.625
 21
0.0
 31
0.0
  0
LINE
  5
232
330
1E3
100
AcDbEntity
  8
AM_4
100
AcDbLine
 10
2.625
 20
-0.5
 30
0.0
 11
2.625
 21
0.0
 31
0.0
  0
LINE
  5
233
330
1E3
100
AcDbEntity
  8
AM_4
100
AcDbLine
 10
-2.625
 20
0.0
 30
0.0
 11
-2.625
 21
-0.5
 31
0.0
  0
ENDBLK
  5
1E6
330
1E3
100
AcDbEntity
  8
0
100
AcDbBlockEnd
  0
ENDSEC
  0
SECTION
  2
ENTITIES
  0
INSERT
  5
6F
330
1F
100
AcDbEntity
  8
0
100
AcDbBlockReference
  2
1_072308_4
 10
0.0
 20
0.0
 30
0.0
  0
POINT
  5
235
330
1F
100
AcDbEntity
  8
ConnectionPoints
100
AcDbPoint
 10
0.0
 20
-0.6349999999999995
 30
1.99375
  0
POINT
  5
236
330
1F
100
AcDbEntity
  8
ConnectionPoints
100
AcDbPoint
 10
0.0
 20
-1.319000033333333
 30
-1.009548611111111
  0
POINT
  5
237
330
1F
100
AcDbEntity
  8
ConnectionPoints
100
AcDbPoint
 10
0.0
 20
-1.319000033333333
 30
1.009548611111111
  0
POINT
  5
238
330
1F
100
AcDbEntity
  8
ConnectionPoints
100
AcDbPoint
 10
0.0
 20
-1.188333333333333
 30
0.0000000000000001
  0
POINT
  5
239
330
1F
100
AcDbEntity
  8
ConnectionPoints
100
AcDbPoint
 10
0.0
 20
-1.42
 30
0.0000000000000001
  0
POINT
  5
23A
330
1F
100
AcDbEntity
  8
ConnectionPoints
100
AcDbPoint
 10
0.0
 20
-1.387333333333333
 30
0.0000000000000001
  0
POINT
  5
23B
330
1F
100
AcDbEntity
  8
ConnectionPoints
100
AcDbPoint
 10
0.0
 20
-1.188333333333333
 30
1.009548611111111
  0
POINT
  5
23C
330
1F
100
AcDbEntity
  8
ConnectionPoints
100
AcDbPoint
 10
0.0
 20
-1.319
 30
1.009548611111111
  0
POINT
  5
23D
330
1F
100
AcDbEntity
  8
ConnectionPoints
100
AcDbPoint
 10
0.0
 20
-1.188333333333333
 30
-1.009548611111111
  0
POINT
  5
23E
330
1F
100
AcDbEntity
  8
ConnectionPoints
100
AcDbPoint
 10
0.0
 20
-1.319
 30
-1.009548611111111
  0
POINT
  5
23F
330
1F
100
AcDbEntity
  8
ConnectionPoints
100
AcDbPoint
 10
0.0
 20
-1.188333333333333
 30
0.0000000000000001
  0
POINT
  5
240
330
1F
100
AcDbEntity
  8
ConnectionPoints
100
AcDbPoint
 10
0.0
 20
-0.6349999999999995
 30
1.99375
  0
POINT
  5
241
330
1F
100
AcDbEntity
  8
ConnectionPoints
100
AcDbPoint
 10
0.0
 20
-0.6349999999999992
 30
-1.99375
  0
POINT
  5
242
330
1F
100
AcDbEntity
  8
ConnectionPoints
100
AcDbPoint
 10
0.0
 20
-1.42
 30
0.0000000000000001
  0
POINT
  5
243
330
1F
100
AcDbEntity
  8
ConnectionPoints
100
AcDbPoint
 10
0.0
 20
-1.61
 30
0.0000000000000001
  0
ENDSEC
  0
SECTION
  2
OBJECTS
  0
DICTIONARY
  5
C
330
0
100
AcDbDictionary
281
     1
  3
ACAD_DETAILVIEWSTYLE
350
24B
  3
ACAD_GROUP
350
D
  3
ACAD_LAYOUT
350
1A
  3
ACAD_MATERIAL
350
43
  3
ACAD_MLEADERSTYLE
350
6B
  3
ACAD_MLINESTYLE
350
17
  3
ACAD_PLOTSETTINGS
350
19
  3
ACAD_PLOTSTYLENAME
350
E
  3
ACAD_SCALELIST
350
47
  3
ACAD_SECTIONVIEWSTYLE
350
24C
  3
ACAD_TABLESTYLE
350
69
  3
ACAD_VISUALSTYLE
350
2A
  3
ACDB_RECOMPOSE_DATA
350
248
  3
AcDbVariableDictionary
350
244
  0
SUN
  5
6D
330
29
100
AcDbSun
 90
        1
290
     0
 63
     7
421
 16777215
 40
1.0
291
     1
 91
  2455826
 92
 54000000
292
     0
 70
     2
 71
   256
280
     1
  0
DICTIONARY
  5
24B
102
{ACAD_REACTORS
330
C
102
}
330
C
100
AcDbDictionary
281
     1
  0
DICTIONARY
  5
D
102
{ACAD_REACTORS
330
C
102
}
330
C
100
AcDbDictionary
281
     1
  0
DICTIONARY
  5
1A
102
{ACAD_REACTORS
330
C
102
}
330
C
100
AcDbDictionary
281
     1
  3
Layout1
350
1E
  3
Layout2
350
26
  3
Model
350
22
  0
DICTIONARY
  5
43
102
{ACAD_REACTORS
330
C
102
}
330
C
100
AcDbDictionary
281
     1
  3
ByBlock
350
45
  3
ByLayer
350
44
  3
Global
350
46
  0
DICTIONARY
  5
6B
102
{ACAD_REACTORS
330
C
102
}
330
C
100
AcDbDictionary
281
     1
  3
Standard
350
6C
  0
DICTIONARY
  5
17
102
{ACAD_REACTORS
330
C
102
}
330
C
100
AcDbDictionary
281
     1
  3
Standard
350
18
  0
DICTIONARY
  5
19
102
{ACAD_REACTORS
330
C
102
}
330
C
100
AcDbDictionary
281
     1
  0
ACDBDICTIONARYWDFLT
  5
E
102
{ACAD_REACTORS
330
C
102
}
330
C
100
AcDbDictionary
281
     1
  3
Normal
350
F
100
AcDbDictionaryWithDefault
340
F
  0
DICTIONARY
  5
47
102
{ACAD_REACTORS
330
C
102
}
330
C
100
AcDbDictionary
281
     1
  3
A0
350
48
  3
A1
350
49
  3
A2
350
4A
  3
A3
350
4B
  3
A4
350
4C
  3
A5
350
4D
  3
A6
350
4E
  3
A7
350
4F
  3
A8
350
50
  3
A9
350
51
  3
B0
350
52
  3
B1
350
53
  3
B2
350
54
  3
B3
350
55
  3
B4
350
56
  3
B5
350
57
  3
B6
350
58
  3
B7
350
59
  3
B8
350
5A
  3
B9
350
5B
  3
C0
350
5C
  3
C1
350
5D
  3
C2
350
5E
  3
C3
350
5F
  3
C4
350
60
  3
C5
350
61
  3
C6
350
62
  3
C7
350
63
  3
C8
350
64
  3
C9
350
65
  3
D0
350
66
  3
D1
350
67
  3
D2
350
68
  0
DICTIONARY
  5
24C
102
{ACAD_REACTORS
330
C
102
}
330
C
100
AcDbDictionary
281
     1
  0
DICTIONARY
  5
69
102
{ACAD_REACTORS
330
C
102
}
330
C
100
AcDbDictionary
281
     1
  3
Standard
350
6A
  0
DICTIONARY
  5
2A
102
{ACAD_REACTORS
330
C
102
}
330
C
100
AcDbDictionary
281
     1
  3
2dWireframe
350
2F
  3
Basic
350
32
  3
Brighten
350
36
  3
ColorChange
350
3A
  3
Conceptual
350
34
  3
Dim
350
35
  3
EdgeColorOff
350
3D
  3
Facepattern
350
39
  3
Flat
350
2B
  3
FlatWithEdges
350
2C
  3
Gouraud
350
2D
  3
GouraudWithEdges
350
2E
  3
Hidden
350
31
  3
JitterOff
350
3B
  3
Linepattern
350
38
  3
OverhangOff
350
3C
  3
Realistic
350
33
  3
Shaded
350
42
  3
Shaded with edges
350
41
  3
Shades of Gray
350
3E
  3
Sketchy
350
3F
  3
Thicken
350
37
  3
Wireframe
350
30
  3
X-Ray
350
40
  0
XRECORD
  5
248
102
{ACAD_REACTORS
330
C
102
}
330
C
100
AcDbXrecord
280
     1
 90
        1
330
6A
  0
DICTIONARY
  5
244
102
{ACAD_REACTORS
330
C
102
}
330
C
100
AcDbDictionary
281
     1
  3
CANNOSCALE
350
245
  3
CMLEADERSTYLE
350
24A
  3
CTABLESTYLE
350
249
  0
LAYOUT
  5
1E
102
{ACAD_REACTORS
330
1A
102
}
330
1A
100
AcDbPlotSettings
  1

  2
none_device
  4

  6

 40
0.0
 41
0.0
 42
0.0
 43
0.0
 44
0.0
 45
0.0
 46
0.0
 47
0.0
 48
0.0
 49
0.0
140
0.0
141
0.0
142
1.0
143
1.0
 70
   688
 72
     0
 73
     0
 74
     5
  7

 75
    16
 76
     0
 77
     2
 78
   300
147
1.0
148
0.0
149
0.0
100
AcDbLayout
  1
Layout1
 70
     1
 71
     1
 10
0.0
 20
0.0
 11
12.0
 21
9.0
 12
0.0
 22
0.0
 32
0.0
 14
1.000000000000000E+20
 24
1.000000000000000E+20
 34
1.000000000000000E+20
 15
-1.000000000000000E+20
 25
-1.000000000000000E+20
 35
-1.000000000000000E+20
146
0.0
 13
0.0
 23
0.0
 33
0.0
 16
1.0
 26
0.0
 36
0.0
 17
0.0
 27
1.0
 37
0.0
 76
     0
330
1B
  0
LAYOUT
  5
26
102
{ACAD_REACTORS
330
1A
102
}
330
1A
100
AcDbPlotSettings
  1

  2
none_device
  4

  6

 40
0.0
 41
0.0
 42
0.0
 43
0.0
 44
0.0
 45
0.0
 46
0.0
 47
0.0
 48
0.0
 49
0.0
140
0.0
141
0.0
142
1.0
143
1.0
 70
   688
 72
     0
 73
     0
 74
     5
  7

 75
    16
 76
     0
 77
     2
 78
   300
147
1.0
148
0.0
149
0.0
100
AcDbLayout
  1
Layout2
 70
     1
 71
     2
 10
0.0
 20
0.0
 11
0.0
 21
0.0
 12
0.0
 22
0.0
 32
0.0
 14
0.0
 24
0.0
 34
0.0
 15
0.0
 25
0.0
 35
0.0
146
0.0
 13
0.0
 23
0.0
 33
0.0
 16
1.0
 26
0.0
 36
0.0
 17
0.0
 27
1.0
 37
0.0
 76
     0
330
23
  0
LAYOUT
  5
22
102
{ACAD_REACTORS
330
1A
102
}
330
1A
100
AcDbPlotSettings
  1

  2
none_device
  4
Letter_(8.50_x_11.00_Inches)
  6

 40
6.35
 41
6.35
 42
6.35000508
 43
6.35000508
 44
215.9
 45
279.4
 46
0.0
 47
0.0
 48
0.0
 49
0.0
140
0.0
141
0.0
142
1.0
143
1.0
 70
  1712
 72
     0
 73
     0
 74
     0
  7

 75
     0
 76
     0
 77
     2
 78
   300
147
1.0
148
0.0
149
0.0
100
AcDbLayout
  1
Model
 70
     1
 71
     0
 10
0.0
 20
0.0
 11
12.0
 21
9.0
 12
0.0
 22
0.0
 32
0.0
 14
1.000000000000000E+20
 24
1.000000000000000E+20
 34
1.000000000000000E+20
 15
-1.000000000000000E+20
 25
-1.000000000000000E+20
 35
-1.000000000000000E+20
146
0.0
 13
0.0
 23
0.0
 33
0.0
 16
1.0
 26
0.0
 36
0.0
 17
0.0
 27
1.0
 37
0.0
 76
     0
330
1F
331
29
  0
MATERIAL
  5
45
102
{ACAD_REACTORS
330
43
102
}
330
43
100
AcDbMaterial
  1
ByBlock
 72
     1
 94
      127
  0
MATERIAL
  5
44
102
{ACAD_REACTORS
330
43
102
}
330
43
100
AcDbMaterial
  1
ByLayer
 72
     1
 94
      127
  0
MATERIAL
  5
46
102
{ACAD_REACTORS
330
43
102
}
330
43
100
AcDbMaterial
  1
Global
 72
     1
 94
      127
  0
MLEADERSTYLE
  5
6C
102
{ACAD_REACTORS
330
6B
102
}
330
6B
100
AcDbMLeaderStyle
179
     2
170
     2
171
     1
172
     0
 90
        2
 40
0.0
 41
0.0
173
     1
 91
-1056964608
340
14
 92
       -2
290
     1
 42
0.09
291
     1
 43
0.36
  3
Standard
341
0
 44
0.18
300

342
11
174
     1
178
     6
175
     1
176
     0
 93
-1056964608
 45
0.18
292
     0
297
     0
 46
0.18
343
0
 94
-1056964608
 47
1.0
 49
1.0
140
1.0
293
     1
141
0.0
294
     1
177
     0
142
1.0
295
     0
296
     0
143
0.125
271
     0
272
     9
273
     9
298
     0
  0
MLINESTYLE
  5
18
102
{ACAD_REACTORS
330
17
102
}
330
17
100
AcDbMlineStyle
  2
Standard
 70
     0
  3

 62
   256
 51
90.0
 52
90.0
 71
     2
 49
0.5
 62
   256
  6
BYLAYER
 49
-0.5
 62
   256
  6
BYLAYER
  0
ACDBPLACEHOLDER
  5
F
102
{ACAD_REACTORS
330
E
102
}
330
E
  0
SCALE
  5
48
102
{ACAD_REACTORS
330
47
102
}
330
47
100
AcDbScale
 70
     0
300
1:1
140
1.0
141
1.0
290
     1
  0
SCALE
  5
49
102
{ACAD_REACTORS
330
47
102
}
330
47
100
AcDbScale
 70
     0
300
1:2
140
1.0
141
2.0
290
     0
  0
SCALE
  5
4A
102
{ACAD_REACTORS
330
47
102
}
330
47
100
AcDbScale
 70
     0
300
1:4
140
1.0
141
4.0
290
     0
  0
SCALE
  5
4B
102
{ACAD_REACTORS
330
47
102
}
330
47
100
AcDbScale
 70
     0
300
1:5
140
1.0
141
5.0
290
     0
  0
SCALE
  5
4C
102
{ACAD_REACTORS
330
47
102
}
330
47
100
AcDbScale
 70
     0
300
1:8
140
1.0
141
8.0
290
     0
  0
SCALE
  5
4D
102
{ACAD_REACTORS
330
47
102
}
330
47
100
AcDbScale
 70
     0
300
1:10
140
1.0
141
10.0
290
     0
  0
SCALE
  5
4E
102
{ACAD_REACTORS
330
47
102
}
330
47
100
AcDbScale
 70
     0
300
1:16
140
1.0
141
16.0
290
     0
  0
SCALE
  5
4F
102
{ACAD_REACTORS
330
47
102
}
330
47
100
AcDbScale
 70
     0
300
1:20
140
1.0
141
20.0
290
     0
  0
SCALE
  5
50
102
{ACAD_REACTORS
330
47
102
}
330
47
100
AcDbScale
 70
     0
300
1:30
140
1.0
141
30.0
290
     0
  0
SCALE
  5
51
102
{ACAD_REACTORS
330
47
102
}
330
47
100
AcDbScale
 70
     0
300
1:40
140
1.0
141
40.0
290
     0
  0
SCALE
  5
52
102
{ACAD_REACTORS
330
47
102
}
330
47
100
AcDbScale
 70
     0
300
1:50
140
1.0
141
50.0
290
     0
  0
SCALE
  5
53
102
{ACAD_REACTORS
330
47
102
}
330
47
100
AcDbScale
 70
     0
300
1:100
140
1.0
141
100.0
290
     0
  0
SCALE
  5
54
102
{ACAD_REACTORS
330
47
102
}
330
47
100
AcDbScale
 70
     0
300
2:1
140
2.0
141
1.0
290
     0
  0
SCALE
  5
55
102
{ACAD_REACTORS
330
47
102
}
330
47
100
AcDbScale
 70
     0
300
4:1
140
4.0
141
1.0
290
     0
  0
SCALE
  5
56
102
{ACAD_REACTORS
330
47
102
}
330
47
100
AcDbScale
 70
     0
300
8:1
140
8.0
141
1.0
290
     0
  0
SCALE
  5
57
102
{ACAD_REACTORS
330
47
102
}
330
47
100
AcDbScale
 70
     0
300
10:1
140
10.0
141
1.0
290
     0
  0
SCALE
  5
58
102
{ACAD_REACTORS
330
47
102
}
330
47
100
AcDbScale
 70
     0
300
100:1
140
100.0
141
1.0
290
     0
  0
SCALE
  5
59
102
{ACAD_REACTORS
330
47
102
}
330
47
100
AcDbScale
 70
     0
300
1/128" = 1'-0"
140
0.0078125
141
12.0
290
     0
  0
SCALE
  5
5A
102
{ACAD_REACTORS
330
47
102
}
330
47
100
AcDbScale
 70
     0
300
1/64" = 1'-0"
140
0.015625
141
12.0
290
     0
  0
SCALE
  5
5B
102
{ACAD_REACTORS
330
47
102
}
330
47
100
AcDbScale
 70
     0
300
1/32" = 1'-0"
140
0.03125
141
12.0
290
     0
  0
SCALE
  5
5C
102
{ACAD_REACTORS
330
47
102
}
330
47
100
AcDbScale
 70
     0
300
1/16" = 1'-0"
140
0.0625
141
12.0
290
     0
  0
SCALE
  5
5D
102
{ACAD_REACTORS
330
47
102
}
330
47
100
AcDbScale
 70
     0
300
3/32" = 1'-0"
140
0.09375
141
12.0
290
     0
  0
SCALE
  5
5E
102
{ACAD_REACTORS
330
47
102
}
330
47
100
AcDbScale
 70
     0
300
1/8" = 1'-0"
140
0.125
141
12.0
290
     0
  0
SCALE
  5
5F
102
{ACAD_REACTORS
330
47
102
}
330
47
100
AcDbScale
 70
     0
300
3/16" = 1'-0"
140
0.1875
141
12.0
290
     0
  0
SCALE
  5
60
102
{ACAD_REACTORS
330
47
102
}
330
47
100
AcDbScale
 70
     0
300
1/4" = 1'-0"
140
0.25
141
12.0
290
     0
  0
SCALE
  5
61
102
{ACAD_REACTORS
330
47
102
}
330
47
100
AcDbScale
 70
     0
300
3/8" = 1'-0"
140
0.375
141
12.0
290
     0
  0
SCALE
  5
62
102
{ACAD_REACTORS
330
47
102
}
330
47
100
AcDbScale
 70
     0
300
1/2" = 1'-0"
140
0.5
141
12.0
290
     0
  0
SCALE
  5
63
102
{ACAD_REACTORS
330
47
102
}
330
47
100
AcDbScale
 70
     0
300
3/4" = 1'-0"
140
0.75
141
12.0
290
     0
  0
SCALE
  5
64
102
{ACAD_REACTORS
330
47
102
}
330
47
100
AcDbScale
 70
     0
300
1" = 1'-0"
140
1.0
141
12.0
290
     0
  0
SCALE
  5
65
102
{ACAD_REACTORS
330
47
102
}
330
47
100
AcDbScale
 70
     0
300
1-1/2" = 1'-0"
140
1.5
141
12.0
290
     0
  0
SCALE
  5
66
102
{ACAD_REACTORS
330
47
102
}
330
47
100
AcDbScale
 70
     0
300
3" = 1'-0"
140
3.0
141
12.0
290
     0
  0
SCALE
  5
67
102
{ACAD_REACTORS
330
47
102
}
330
47
100
AcDbScale
 70
     0
300
6" = 1'-0"
140
6.0
141
12.0
290
     0
  0
SCALE
  5
68
102
{ACAD_REACTORS
330
47
102
}
330
47
100
AcDbScale
 70
     0
300
1'-0" = 1'-0"
140
12.0
141
12.0
290
     0
  0
TABLESTYLE
  5
6A
102
{ACAD_REACTORS
330
69
102
}
102
{ACAD_XDICTIONARY
360
246
102
}
330
69
100
AcDbTableStyle
  3
Standard
 70
     0
 71
     0
 40
0.06
 41
0.06
280
     0
281
     0
  7
Standard
140
0.18
170
     2
 62
     0
 63
   257
283
     0
 90
        4
 91
        0
  1

274
    -2
284
     1
 64
     0
275
    -2
285
     1
 65
     0
276
    -2
286
     1
 66
     0
277
    -2
287
     1
 67
     0
278
    -2
288
     1
 68
     0
279
    -2
289
     1
 69
     0
  7
Standard
140
0.25
170
     5
 62
     0
 63
   257
283
     0
 90
        4
 91
        0
  1

274
    -2
284
     1
 64
     0
275
    -2
285
     1
 65
     0
276
    -2
286
     1
 66
     0
277
    -2
287
     1
 67
     0
278
    -2
288
     1
 68
     0
279
    -2
289
     1
 69
     0
  7
Standard
140
0.18
170
     5
 62
     0
 63
   257
283
     0
 90
        4
 91
        0
  1

274
    -2
284
     1
 64
     0
275
    -2
285
     1
 65
     0
276
    -2
286
     1
 66
     0
277
    -2
287
     1
 67
     0
278
    -2
288
     1
 68
     0
279
    -2
289
     1
 69
     0
  0
VISUALSTYLE
  5
2F
102
{ACAD_REACTORS
330
2A
102
}
330
2A
100
AcDbVisualStyle
  2
2dWireframe
 70
     4
177
     3
291
     0
 70
    58
 90
        0
176
     1
 90
        2
176
     1
 90
        0
176
     1
 90
        0
176
     1
 40
0.6
176
     1
 40
30.0
176
     1
 62
     7
420
 16777215
176
     1
 90
        1
176
     1
 90
        4
176
     1
 62
     7
176
     1
 62
   257
176
     1
 90
        1
176
     1
 90
        1
176
     1
 40
1.0
176
     1
 90
        0
176
     1
 62
   257
176
     1
 40
1.0
176
     1
 90
        1
176
     1
 90
        6
176
     1
 90
        2
176
     1
 62
     7
176
     1
 90
        5
176
     1
 90
        0
176
     1
 90
        0
176
     1
290
     0
176
     1
 90
        1
176
     1
 40
0.0
176
     1
 90
        0
176
     1
290
     1
176
     1
290
     1
176
     1
290
     0
176
     1
290
     0
176
     1
290
     0
176
     1
290
     0
176
     1
290
     0
176
     1
290
     0
176
     1
290
     0
176
     1
 90
       50
176
     1
 40
0.0
176
     1
 40
1.0
176
     1
 90
        0
176
     1
 62
    18
420
        0
176
     1
 90
       50
176
     1
 90
        3
176
     1
 62
     5
420
      255
176
     1
290
     0
176
     1
 90
       50
176
     1
 90
       50
176
     1
 90
       50
176
     1
290
     0
176
     1
 90
       50
176
     1
 62
   256
176
     0
 40
1.0
176
     0
 90
        2
176
     1
  1
strokes_ogs.tif
176
     1
290
     0
176
     1
 40
1.0
176
     1
 40
1.0
176
     1
  0
VISUALSTYLE
  5
32
102
{ACAD_REACTORS
330
2A
102
}
330
2A
100
AcDbVisualStyle
  2
Basic
 70
     7
177
     3
291
     1
 70
    58
 90
        1
176
     1
 90
        0
176
     1
 90
        1
176
     1
 90
        0
176
     1
 40
0.6
176
     1
 40
30.0
176
     1
 62
     7
420
 16777215
176
     1
 90
        0
176
     1
 90
        4
176
     1
 62
     7
176
     1
 62
   257
176
     1
 90
        1
176
     1
 90
        1
176
     1
 40
1.0
176
     1
 90
        8
176
     1
 62
     7
176
     1
 40
1.0
176
     1
 90
        1
176
     1
 90
        6
176
     1
 90
        2
176
     1
 62
     7
176
     1
 90
        5
176
     1
 90
        0
176
     1
 90
        0
176
     1
290
     0
176
     1
 90
        1
176
     1
 40
0.0
176
     1
 90
        0
176
     1
290
     0
176
     1
290
     1
176
     1
290
     1
176
     1
290
     0
176
     1
290
     0
176
     1
290
     0
176
     1
290
     0
176
     1
290
     0
176
     1
290
     0
176
     1
 90
       50
176
     1
 40
0.0
176
     1
 40
1.0
176
     1
 90
        0
176
     1
 62
    18
420
        0
176
     1
 90
       50
176
     1
 90
        3
176
     1
 62
     5
420
      255
176
     1
290
     0
176
     1
 90
       50
176
     1
 90
       50
176
     1
 90
       50
176
     1
290
     0
176
     1
 90
       50
176
     1
 62
   256
176
     0
 40
1.0
176
     0
 90
        2
176
     1
  1
strokes_ogs.tif
176
     1
290
     0
176
     1
 40
1.0
176
     1
 40
1.0
176
     1
  0
VISUALSTYLE
  5
36
102
{ACAD_REACTORS
330
2A
102
}
330
2A
100
AcDbVisualStyle
  2
Brighten
 70
    12
177
     3
291
     1
 70
    58
 90
        2
176
     1
 90
        2
176
     1
 90
        0
176
     1
 90
        0
176
     1
 40
0.6
176
     1
 40
30.0
176
     1
 62
     7
420
 16777215
176
     1
 90
        1
176
     1
 90
        4
176
     1
 62
     7
176
     1
 62
   257
176
     1
 90
        1
176
     1
 90
        1
176
     1
 40
1.0
176
     1
 90
        8
176
     1
 62
     7
176
     1
 40
1.0
176
     1
 90
        1
176
     1
 90
        6
176
     1
 90
        2
176
     1
 62
     7
176
     1
 90
        5
176
     1
 90
        0
176
     1
 90
        0
176
     1
290
     0
176
     1
 90
        1
176
     1
 40
50.0
176
     1
 90
        0
176
     1
290
     0
176
     1
290
     1
176
     1
290
     1
176
     1
290
     0
176
     1
290
     0
176
     1
290
     0
176
     1
290
     0
176
     1
290
     0
176
     1
290
     0
176
     1
 90
       50
176
     1
 40
0.0
176
     1
 40
1.0
176
     1
 90
        0
176
     1
 62
    18
420
        0
176
     1
 90
       50
176
     1
 90
        3
176
     1
 62
     5
420
      255
176
     1
290
     0
176
     1
 90
       50
176
     1
 90
       50
176
     1
 90
       50
176
     1
290
     0
176
     1
 90
       50
176
     1
 62
   256
176
     0
 40
1.0
176
     0
 90
        2
176
     1
  1
strokes_ogs.tif
176
     1
290
     0
176
     1
 40
1.0
176
     1
 40
1.0
176
     1
  0
VISUALSTYLE
  5
3A
102
{ACAD_REACTORS
330
2A
102
}
330
2A
100
AcDbVisualStyle
  2
ColorChange
 70
    16
177
     3
291
     1
 70
    58
 90
        2
176
     1
 90
        2
176
     1
 90
        3
176
     1
 90
        0
176
     1
 40
0.6
176
     1
 40
30.0
176
     1
 62
     8
420
  8421504
176
     1
 90
        1
176
     1
 90
        4
176
     1
 62
     7
176
     1
 62
   257
176
     1
 90
        1
176
     1
 90
        1
176
     1
 40
1.0
176
     1
 90
        8
176
     1
 62
     8
420
  8421504
176
     1
 40
1.0
176
     1
 90
        1
176
     1
 90
        6
176
     1
 90
        2
176
     1
 62
     7
176
     1
 90
        5
176
     1
 90
        0
176
     1
 90
        0
176
     1
290
     0
176
     1
 90
        1
176
     1
 40
0.0
176
     1
 90
        0
176
     1
290
     0
176
     1
290
     1
176
     1
290
     1
176
     1
290
     0
176
     1
290
     0
176
     1
290
     0
176
     1
290
     0
176
     1
290
     0
176
     1
290
     0
176
     1
 90
       50
176
     1
 40
0.0
176
     1
 40
1.0
176
     1
 90
        0
176
     1
 62
    18
420
        0
176
     1
 90
       50
176
     1
 90
        3
176
     1
 62
     5
420
      255
176
     1
290
     0
176
     1
 90
       50
176
     1
 90
       50
176
     1
 90
       50
176
     1
290
     0
176
     1
 90
       50
176
     1
 62
   256
176
     0
 40
1.0
176
     0
 90
        2
176
     1
  1
strokes_ogs.tif
176
     1
290
     0
176
     1
 40
1.0
176
     1
 40
1.0
176
     1
  0
VISUALSTYLE
  5
34
102
{ACAD_REACTORS
330
2A
102
}
330
2A
100
AcDbVisualStyle
  2
Conceptual
 70
     9
177
     3
291
     0
 70
    58
 90
        3
176
     1
 90
        2
176
     1
 90
        0
176
     1
 90
        0
176
     1
 40
0.6
176
     1
 40
30.0
176
     1
 62
     7
420
 16777215
176
     1
 90
        2
176
     1
 90
        2
176
     1
 62
     7
176
     1
 62
   257
176
     1
 90
        1
176
     1
 90
        1
176
     1
 40
179.0
176
     1
 90
        8
176
     1
 62
     7
176
     1
 40
1.0
176
     1
 90
        1
176
     1
 90
        6
176
     1
 90
        2
176
     1
 62
     7
176
     1
 90
        3
176
     1
 90
        0
176
     1
 90
        0
176
     1
290
     0
176
     1
 90
        1
176
     1
 40
0.0
176
     1
 90
        0
176
     1
290
     0
176
     1
290
     1
176
     1
290
     1
176
     1
290
     0
176
     1
290
     0
176
     1
290
     0
176
     1
290
     0
176
     1
290
     0
176
     1
290
     0
176
     1
 90
       50
176
     1
 40
0.0
176
     1
 40
1.0
176
     1
 90
        0
176
     1
 62
    18
420
        0
176
     1
 90
       50
176
     1
 90
        3
176
     1
 62
     5
420
      255
176
     1
290
     0
176
     1
 90
       50
176
     1
 90
       50
176
     1
 90
       50
176
     1
290
     0
176
     1
 90
       50
176
     1
 62
   256
176
     0
 40
1.0
176
     0
 90
        2
176
     1
  1
strokes_ogs.tif
176
     1
290
     0
176
     1
 40
1.0
176
     1
 40
1.0
176
     1
  0
VISUALSTYLE
  5
35
102
{ACAD_REACTORS
330
2A
102
}
330
2A
100
AcDbVisualStyle
  2
Dim
 70
    11
177
     3
291
     1
 70
    58
 90
        2
176
     1
 90
        2
176
     1
 90
        0
176
     1
 90
        0
176
     1
 40
0.6
176
     1
 40
30.0
176
     1
 62
     7
420
 16777215
176
     1
 90
        1
176
     1
 90
        4
176
     1
 62
     7
176
     1
 62
   257
176
     1
 90
        1
176
     1
 90
        1
176
     1
 40
1.0
176
     1
 90
        8
176
     1
 62
     7
176
     1
 40
1.0
176
     1
 90
        1
176
     1
 90
        6
176
     1
 90
        2
176
     1
 62
     7
176
     1
 90
        5
176
     1
 90
        0
176
     1
 90
        0
176
     1
290
     0
176
     1
 90
        1
176
     1
 40
-50.0
176
     1
 90
        0
176
     1
290
     0
176
     1
290
     1
176
     1
290
     1
176
     1
290
     0
176
     1
290
     0
176
     1
290
     0
176
     1
290
     0
176
     1
290
     0
176
     1
290
     0
176
     1
 90
       50
176
     1
 40
0.0
176
     1
 40
1.0
176
     1
 90
        0
176
     1
 62
    18
420
        0
176
     1
 90
       50
176
     1
 90
        3
176
     1
 62
     5
420
      255
176
     1
290
     0
176
     1
 90
       50
176
     1
 90
       50
176
     1
 90
       50
176
     1
290
     0
176
     1
 90
       50
176
     1
 62
   256
176
     0
 40
1.0
176
     0
 90
        2
176
     1
  1
strokes_ogs.tif
176
     1
290
     0
176
     1
 40
1.0
176
     1
 40
1.0
176
     1
  0
VISUALSTYLE
  5
3D
102
{ACAD_REACTORS
330
2A
102
}
330
2A
100
AcDbVisualStyle
  2
EdgeColorOff
 70
    22
177
     3
291
     1
 70
    58
 90
        2
176
     0
 90
        2
176
     0
 90
        0
176
     0
 90
        0
176
     0
 40
0.6
176
     0
 40
30.0
176
     0
 62
     7
420
 16777215
176
     0
 90
        1
176
     0
 90
        4
176
     0
 62
     7
176
     0
 62
   257
176
     0
 90
        1
176
     0
 90
        1
176
     0
 40
1.0
176
     0
 90
        8
176
     2
 62
     7
176
     0
 40
1.0
176
     0
 90
        1
176
     0
 90
        6
176
     0
 90
        2
176
     0
 62
     7
176
     0
 90
        5
176
     0
 90
        0
176
     0
 90
        0
176
     0
290
     0
176
     0
 90
        1
176
     0
 40
0.0
176
     0
 90
        0
176
     0
290
     0
176
     0
290
     1
176
     0
290
     1
176
     0
290
     0
176
     0
290
     0
176
     0
290
     0
176
     0
290
     0
176
     0
290
     0
176
     0
290
     0
176
     0
 90
       50
176
     0
 40
0.0
176
     0
 40
1.0
176
     0
 90
        0
176
     0
 62
    18
420
        0
176
     0
 90
       50
176
     0
 90
        3
176
     0
 62
     5
420
      255
176
     0
290
     0
176
     0
 90
       50
176
     0
 90
       50
176
     0
 90
       50
176
     0
290
     0
176
     0
 90
       50
176
     0
 62
   256
176
     0
 40
1.0
176
     0
 90
        2
176
     0
  1
strokes_ogs.tif
176
     0
290
     0
176
     0
 40
1.0
176
     0
 40
1.0
176
     0
  0
VISUALSTYLE
  5
39
102
{ACAD_REACTORS
330
2A
102
}
330
2A
100
AcDbVisualStyle
  2
Facepattern
 70
    15
177
     3
291
     1
 70
    58
 90
        2
176
     1
 90
        2
176
     1
 90
        0
176
     1
 90
        0
176
     1
 40
0.6
176
     1
 40
30.0
176
     1
 62
     7
420
 16777215
176
     1
 90
        1
176
     1
 90
        4
176
     1
 62
     7
176
     1
 62
   257
176
     1
 90
        1
176
     1
 90
        1
176
     1
 40
1.0
176
     1
 90
        8
176
     1
 62
     7
176
     1
 40
1.0
176
     1
 90
        1
176
     1
 90
        6
176
     1
 90
        2
176
     1
 62
     7
176
     1
 90
        5
176
     1
 90
        0
176
     1
 90
        0
176
     1
290
     0
176
     1
 90
        1
176
     1
 40
0.0
176
     1
 90
        0
176
     1
290
     0
176
     1
290
     1
176
     1
290
     1
176
     1
290
     0
176
     1
290
     0
176
     1
290
     0
176
     1
290
     0
176
     1
290
     0
176
     1
290
     0
176
     1
 90
       50
176
     1
 40
0.0
176
     1
 40
1.0
176
     1
 90
        0
176
     1
 62
    18
420
        0
176
     1
 90
       50
176
     1
 90
        3
176
     1
 62
     5
420
      255
176
     1
290
     0
176
     1
 90
       50
176
     1
 90
       50
176
     1
 90
       50
176
     1
290
     0
176
     1
 90
       50
176
     1
 62
   256
176
     0
 40
1.0
176
     0
 90
        2
176
     1
  1
strokes_ogs.tif
176
     1
290
     0
176
     1
 40
1.0
176
     1
 40
1.0
176
     1
  0
VISUALSTYLE
  5
2B
102
{ACAD_REACTORS
330
2A
102
}
330
2A
100
AcDbVisualStyle
  2
Flat
 70
     0
177
     3
291
     1
 70
    58
 90
        2
176
     1
 90
        1
176
     1
 90
        1
176
     1
 90
        2
176
     1
 40
0.6
176
     1
 40
30.0
176
     1
 62
     7
420
 16777215
176
     1
 90
        0
176
     1
 90
        0
176
     1
 62
     7
176
     1
 62
   257
176
     1
 90
        1
176
     1
 90
        1
176
     1
 40
1.0
176
     1
 90
        8
176
     1
 62
     7
176
     1
 40
1.0
176
     1
 90
        1
176
     1
 90
        6
176
     1
 90
        2
176
     1
 62
     7
176
     1
 90
        5
176
     1
 90
        0
176
     1
 90
        0
176
     1
290
     0
176
     1
 90
       13
176
     1
 40
0.0
176
     1
 90
        0
176
     1
290
     0
176
     1
290
     1
176
     1
290
     1
176
     1
290
     0
176
     1
290
     0
176
     1
290
     0
176
     1
290
     0
176
     1
290
     0
176
     1
290
     0
176
     1
 90
       50
176
     1
 40
0.0
176
     1
 40
1.0
176
     1
 90
        0
176
     1
 62
    18
420
        0
176
     1
 90
       50
176
     1
 90
        3
176
     1
 62
     5
420
      255
176
     1
290
     0
176
     1
 90
       50
176
     1
 90
       50
176
     1
 90
       50
176
     1
290
     0
176
     1
 90
       50
176
     1
 62
   256
176
     0
 40
1.0
176
     0
 90
        2
176
     1
  1
strokes_ogs.tif
176
     1
290
     0
176
     1
 40
1.0
176
     1
 40
1.0
176
     1
  0
VISUALSTYLE
  5
2C
102
{ACAD_REACTORS
330
2A
102
}
330
2A
100
AcDbVisualStyle
  2
FlatWithEdges
 70
     1
177
     3
291
     1
 70
    58
 90
        2
176
     1
 90
        1
176
     1
 90
        1
176
     1
 90
        2
176
     1
 40
0.6
176
     1
 40
30.0
176
     1
 62
     7
420
 16777215
176
     1
 90
        1
176
     1
 90
        0
176
     1
 62
     7
176
     1
 62
   257
176
     1
 90
        1
176
     1
 90
        1
176
     1
 40
1.0
176
     1
 90
        0
176
     1
 62
   257
176
     1
 40
1.0
176
     1
 90
        1
176
     1
 90
        6
176
     1
 90
        2
176
     1
 62
     7
176
     1
 90
        5
176
     1
 90
        0
176
     1
 90
        0
176
     1
290
     0
176
     1
 90
       13
176
     1
 40
0.0
176
     1
 90
        0
176
     1
290
     0
176
     1
290
     1
176
     1
290
     1
176
     1
290
     0
176
     1
290
     0
176
     1
290
     0
176
     1
290
     0
176
     1
290
     0
176
     1
290
     0
176
     1
 90
       50
176
     1
 40
0.0
176
     1
 40
1.0
176
     1
 90
        0
176
     1
 62
    18
420
        0
176
     1
 90
       50
176
     1
 90
        3
176
     1
 62
     5
420
      255
176
     1
290
     0
176
     1
 90
       50
176
     1
 90
       50
176
     1
 90
       50
176
     1
290
     0
176
     1
 90
       50
176
     1
 62
   256
176
     0
 40
1.0
176
     0
 90
        2
176
     1
  1
strokes_ogs.tif
176
     1
290
     0
176
     1
 40
1.0
176
     1
 40
1.0
176
     1
  0
VISUALSTYLE
  5
2D
102
{ACAD_REACTORS
330
2A
102
}
330
2A
100
AcDbVisualStyle
  2
Gouraud
 70
     2
177
     3
291
     1
 70
    58
 90
        2
176
     1
 90
        2
176
     1
 90
        1
176
     1
 90
        2
176
     1
 40
0.6
176
     1
 40
30.0
176
     1
 62
     7
420
 16777215
176
     1
 90
        0
176
     1
 90
        0
176
     1
 62
     7
176
     1
 62
   257
176
     1
 90
        1
176
     1
 90
        1
176
     1
 40
1.0
176
     1
 90
        0
176
     1
 62
     7
176
     1
 40
1.0
176
     1
 90
        1
176
     1
 90
        6
176
     1
 90
        2
176
     1
 62
     7
176
     1
 90
        5
176
     1
 90
        0
176
     1
 90
        0
176
     1
290
     0
176
     1
 90
       13
176
     1
 40
0.0
176
     1
 90
        0
176
     1
290
     0
176
     1
290
     1
176
     1
290
     1
176
     1
290
     0
176
     1
290
     0
176
     1
290
     0
176
     1
290
     0
176
     1
290
     0
176
     1
290
     0
176
     1
 90
       50
176
     1
 40
0.0
176
     1
 40
1.0
176
     1
 90
        0
176
     1
 62
    18
420
        0
176
     1
 90
       50
176
     1
 90
        3
176
     1
 62
     5
420
      255
176
     1
290
     0
176
     1
 90
       50
176
     1
 90
       50
176
     1
 90
       50
176
     1
290
     0
176
     1
 90
       50
176
     1
 62
   256
176
     0
 40
1.0
176
     0
 90
        2
176
     1
  1
strokes_ogs.tif
176
     1
290
     0
176
     1
 40
1.0
176
     1
 40
1.0
176
     1
  0
VISUALSTYLE
  5
2E
102
{ACAD_REACTORS
330
2A
102
}
330
2A
100
AcDbVisualStyle
  2
GouraudWithEdges
 70
     3
177
     3
291
     1
 70
    58
 90
        2
176
     1
 90
        2
176
     1
 90
        1
176
     1
 90
        2
176
     1
 40
0.6
176
     1
 40
30.0
176
     1
 62
     7
420
 16777215
176
     1
 90
        1
176
     1
 90
        0
176
     1
 62
     7
176
     1
 62
   257
176
     1
 90
        1
176
     1
 90
        1
176
     1
 40
1.0
176
     1
 90
        0
176
     1
 62
   257
176
     1
 40
1.0
176
     1
 90
        1
176
     1
 90
        6
176
     1
 90
        2
176
     1
 62
     7
176
     1
 90
        5
176
     1
 90
        0
176
     1
 90
        0
176
     1
290
     0
176
     1
 90
       13
176
     1
 40
0.0
176
     1
 90
        0
176
     1
290
     0
176
     1
290
     1
176
     1
290
     1
176
     1
290
     0
176
     1
290
     0
176
     1
290
     0
176
     1
290
     0
176
     1
290
     0
176
     1
290
     0
176
     1
 90
       50
176
     1
 40
0.0
176
     1
 40
1.0
176
     1
 90
        0
176
     1
 62
    18
420
        0
176
     1
 90
       50
176
     1
 90
        3
176
     1
 62
     5
420
      255
176
     1
290
     0
176
     1
 90
       50
176
     1
 90
       50
176
     1
 90
       50
176
     1
290
     0
176
     1
 90
       50
176
     1
 62
   256
176
     0
 40
1.0
176
     0
 90
        2
176
     1
  1
strokes_ogs.tif
176
     1
290
     0
176
     1
 40
1.0
176
     1
 40
1.0
176
     1
  0
VISUALSTYLE
  5
31
102
{ACAD_REACTORS
330
2A
102
}
330
2A
100
AcDbVisualStyle
  2
Hidden
 70
     6
177
     3
291
     0
 70
    58
 90
        1
176
     1
 90
        2
176
     1
 90
        2
176
     1
 90
        0
176
     1
 40
0.6
176
     1
 40
30.0
176
     1
 62
     7
420
 16777215
176
     1
 90
        2
176
     1
 90
        2
176
     1
 62
     7
176
     1
 62
   257
176
     1
 90
        2
176
     1
 90
        1
176
     1
 40
40.0
176
     1
 90
        0
176
     1
 62
   257
176
     1
 40
1.0
176
     1
 90
        1
176
     1
 90
        6
176
     1
 90
        2
176
     1
 62
     7
176
     1
 90
        3
176
     1
 90
        0
176
     1
 90
        0
176
     1
290
     0
176
     1
 90
        1
176
     1
 40
0.0
176
     1
 90
        0
176
     1
290
     0
176
     1
290
     1
176
     1
290
     1
176
     1
290
     0
176
     1
290
     0
176
     1
290
     0
176
     1
290
     0
176
     1
290
     0
176
     1
290
     0
176
     1
 90
       50
176
     1
 40
0.0
176
     1
 40
1.0
176
     1
 90
        0
176
     1
 62
    18
420
        0
176
     1
 90
       50
176
     1
 90
        3
176
     1
 62
     5
420
      255
176
     1
290
     0
176
     1
 90
       50
176
     1
 90
       50
176
     1
 90
       50
176
     1
290
     0
176
     1
 90
       50
176
     1
 62
   256
176
     0
 40
1.0
176
     0
 90
        2
176
     1
  1
strokes_ogs.tif
176
     1
290
     0
176
     1
 40
1.0
176
     1
 40
1.0
176
     1
  0
VISUALSTYLE
  5
3B
102
{ACAD_REACTORS
330
2A
102
}
330
2A
100
AcDbVisualStyle
  2
JitterOff
 70
    20
177
     3
291
     1
 70
    58
 90
        2
176
     0
 90
        2
176
     0
 90
        0
176
     0
 90
        0
176
     0
 40
0.6
176
     0
 40
30.0
176
     0
 62
     7
420
 16777215
176
     0
 90
        1
176
     0
 90
        4
176
     0
 62
     7
176
     0
 62
   257
176
     0
 90
        1
176
     0
 90
        1
176
     0
 40
1.0
176
     0
 90
       10
176
     2
 62
     7
176
     0
 40
1.0
176
     0
 90
        1
176
     0
 90
        6
176
     0
 90
        2
176
     0
 62
     7
176
     0
 90
        5
176
     0
 90
        0
176
     0
 90
        0
176
     0
290
     0
176
     0
 90
        1
176
     0
 40
0.0
176
     0
 90
        0
176
     0
290
     0
176
     0
290
     1
176
     0
290
     1
176
     0
290
     0
176
     0
290
     0
176
     0
290
     0
176
     0
290
     0
176
     0
290
     0
176
     0
290
     0
176
     0
 90
       50
176
     0
 40
0.0
176
     0
 40
1.0
176
     0
 90
        0
176
     0
 62
    18
420
        0
176
     0
 90
       50
176
     0
 90
        3
176
     0
 62
     5
420
      255
176
     0
290
     0
176
     0
 90
       50
176
     0
 90
       50
176
     0
 90
       50
176
     0
290
     0
176
     0
 90
       50
176
     0
 62
   256
176
     0
 40
1.0
176
     0
 90
        2
176
     0
  1
strokes_ogs.tif
176
     0
290
     0
176
     0
 40
1.0
176
     0
 40
1.0
176
     0
  0
VISUALSTYLE
  5
38
102
{ACAD_REACTORS
330
2A
102
}
330
2A
100
AcDbVisualStyle
  2
Linepattern
 70
    14
177
     3
291
     1
 70
    58
 90
        2
176
     1
 90
        2
176
     1
 90
        0
176
     1
 90
        0
176
     1
 40
0.6
176
     1
 40
30.0
176
     1
 62
     7
420
 16777215
176
     1
 90
        1
176
     1
 90
        4
176
     1
 62
     7
176
     1
 62
   257
176
     1
 90
        7
176
     1
 90
        7
176
     1
 40
1.0
176
     1
 90
        8
176
     1
 62
     7
176
     1
 40
1.0
176
     1
 90
        1
176
     1
 90
        6
176
     1
 90
        2
176
     1
 62
     7
176
     1
 90
        5
176
     1
 90
        0
176
     1
 90
        0
176
     1
290
     0
176
     1
 90
        1
176
     1
 40
0.0
176
     1
 90
        0
176
     1
290
     0
176
     1
290
     1
176
     1
290
     1
176
     1
290
     0
176
     1
290
     0
176
     1
290
     0
176
     1
290
     0
176
     1
290
     0
176
     1
290
     0
176
     1
 90
       50
176
     1
 40
0.0
176
     1
 40
1.0
176
     1
 90
        0
176
     1
 62
    18
420
        0
176
     1
 90
       50
176
     1
 90
        3
176
     1
 62
     5
420
      255
176
     1
290
     0
176
     1
 90
       50
176
     1
 90
       50
176
     1
 90
       50
176
     1
290
     0
176
     1
 90
       50
176
     1
 62
   256
176
     0
 40
1.0
176
     0
 90
        2
176
     1
  1
strokes_ogs.tif
176
     1
290
     0
176
     1
 40
1.0
176
     1
 40
1.0
176
     1
  0
VISUALSTYLE
  5
3C
102
{ACAD_REACTORS
330
2A
102
}
330
2A
100
AcDbVisualStyle
  2
OverhangOff
 70
    21
177
     3
291
     1
 70
    58
 90
        2
176
     0
 90
        2
176
     0
 90
        0
176
     0
 90
        0
176
     0
 40
0.6
176
     0
 40
30.0
176
     0
 62
     7
420
 16777215
176
     0
 90
        1
176
     0
 90
        4
176
     0
 62
     7
176
     0
 62
   257
176
     0
 90
        1
176
     0
 90
        1
176
     0
 40
1.0
176
     0
 90
        9
176
     2
 62
     7
176
     0
 40
1.0
176
     0
 90
        1
176
     0
 90
        6
176
     0
 90
        2
176
     0
 62
     7
176
     0
 90
        5
176
     0
 90
        0
176
     0
 90
        0
176
     0
290
     0
176
     0
 90
        1
176
     0
 40
0.0
176
     0
 90
        0
176
     0
290
     0
176
     0
290
     1
176
     0
290
     1
176
     0
290
     0
176
     0
290
     0
176
     0
290
     0
176
     0
290
     0
176
     0
290
     0
176
     0
290
     0
176
     0
 90
       50
176
     0
 40
0.0
176
     0
 40
1.0
176
     0
 90
        0
176
     0
 62
    18
420
        0
176
     0
 90
       50
176
     0
 90
        3
176
     0
 62
     5
420
      255
176
     0
290
     0
176
     0
 90
       50
176
     0
 90
       50
176
     0
 90
       50
176
     0
290
     0
176
     0
 90
       50
176
     0
 62
   256
176
     0
 40
1.0
176
     0
 90
        2
176
     0
  1
strokes_ogs.tif
176
     0
290
     0
176
     0
 40
1.0
176
     0
 40
1.0
176
     0
  0
VISUALSTYLE
  5
33
102
{ACAD_REACTORS
330
2A
102
}
330
2A
100
AcDbVisualStyle
  2
Realistic
 70
     8
177
     3
291
     0
 70
    58
 90
        2
176
     1
 90
        3
176
     1
 90
        0
176
     1
 90
        2
176
     1
 40
0.6
176
     1
 40
30.0
176
     1
 62
     7
420
 16777215
176
     1
 90
        0
176
     1
 90
        0
176
     1
 62
     7
176
     1
 62
   257
176
     1
 90
        1
176
     1
 90
        1
176
     1
 40
1.0
176
     1
 90
        8
176
     1
 62
   257
176
     1
 40
1.0
176
     1
 90
        1
176
     1
 90
        6
176
     1
 90
        2
176
     1
 62
     7
176
     1
 90
        3
176
     1
 90
        0
176
     1
 90
        0
176
     1
290
     0
176
     1
 90
       13
176
     1
 40
0.0
176
     1
 90
        0
176
     1
290
     0
176
     1
290
     1
176
     1
290
     1
176
     1
290
     0
176
     1
290
     0
176
     1
290
     0
176
     1
290
     0
176
     1
290
     0
176
     1
290
     0
176
     1
 90
       50
176
     1
 40
0.0
176
     1
 40
1.0
176
     1
 90
        0
176
     1
 62
    18
420
        0
176
     1
 90
       50
176
     1
 90
        3
176
     1
 62
     5
420
      255
176
     1
290
     0
176
     1
 90
       50
176
     1
 90
       50
176
     1
 90
       50
176
     1
290
     0
176
     1
 90
       50
176
     1
 62
   256
176
     0
 40
1.0
176
     0
 90
        2
176
     1
  1
strokes_ogs.tif
176
     1
290
     0
176
     1
 40
1.0
176
     1
 40
1.0
176
     1
  0
VISUALSTYLE
  5
42
102
{ACAD_REACTORS
330
2A
102
}
330
2A
100
AcDbVisualStyle
  2
Shaded
 70
    27
177
     3
291
     0
 70
    58
 90
        2
176
     1
 90
        2
176
     1
 90
        1
176
     1
 90
        2
176
     1
 40
0.6
176
     1
 40
30.0
176
     1
 62
     7
420
 16777215
176
     1
 90
        0
176
     1
 90
        4
176
     1
 62
     7
176
     1
 62
   257
176
     1
 90
        1
176
     1
 90
        1
176
     1
 40
1.0
176
     1
 90
        8
176
     1
 62
   257
176
     1
 40
1.0
176
     1
 90
        1
176
     1
 90
        6
176
     1
 90
        2
176
     1
 62
     8
420
  7895160
176
     1
 90
        3
176
     1
 90
        0
176
     1
 90
        0
176
     1
290
     0
176
     1
 90
        5
176
     1
 40
0.0
176
     1
 90
        0
176
     1
290
     0
176
     1
290
     1
176
     1
290
     1
176
     1
290
     0
176
     1
290
     0
176
     1
290
     0
176
     1
290
     0
176
     1
290
     0
176
     1
290
     0
176
     1
 90
       50
176
     1
 40
0.0
176
     1
 40
1.0
176
     1
 90
        0
176
     1
 62
    18
420
        0
176
     1
 90
       50
176
     1
 90
        3
176
     1
 62
     5
420
      255
176
     1
290
     0
176
     1
 90
       50
176
     1
 90
       50
176
     1
 90
       50
176
     1
290
     0
176
     1
 90
       50
176
     1
 62
   256
176
     0
 40
1.0
176
     0
 90
        2
176
     1
  1
strokes_ogs.tif
176
     1
290
     0
176
     1
 40
1.0
176
     1
 40
1.0
176
     1
  0
VISUALSTYLE
  5
41
102
{ACAD_REACTORS
330
2A
102
}
330
2A
100
AcDbVisualStyle
  2
Shaded with edges
 70
    26
177
     3
291
     0
 70
    58
 90
        2
176
     1
 90
        2
176
     1
 90
        1
176
     1
 90
        2
176
     1
 40
0.6
176
     1
 40
30.0
176
     1
 62
     7
420
 16777215
176
     1
 90
        1
176
     1
 90
       10
176
     1
 62
     7
176
     1
 62
   257
176
     1
 90
        2
176
     1
 90
        1
176
     1
 40
1.0
176
     1
 90
        8
176
     1
 62
   257
176
     1
 40
1.0
176
     1
 90
        1
176
     1
 90
        6
176
     1
 90
        2
176
     1
 62
     7
176
     1
 90
        3
176
     1
 90
        0
176
     1
 90
        0
176
     1
290
     0
176
     1
 90
        5
176
     1
 40
0.0
176
     1
 90
        0
176
     1
290
     0
176
     1
290
     1
176
     1
290
     1
176
     1
290
     0
176
     1
290
     0
176
     1
290
     0
176
     1
290
     0
176
     1
290
     0
176
     1
290
     0
176
     1
 90
       50
176
     1
 40
0.0
176
     1
 40
1.0
176
     1
 90
        0
176
     1
 62
    18
420
        0
176
     1
 90
       50
176
     1
 90
        3
176
     1
 62
     5
420
      255
176
     1
290
     0
176
     1
 90
       50
176
     1
 90
       50
176
     1
 90
       50
176
     1
290
     0
176
     1
 90
       50
176
     1
 62
   256
176
     0
 40
1.0
176
     0
 90
        2
176
     1
  1
strokes_ogs.tif
176
     1
290
     0
176
     1
 40
1.0
176
     1
 40
1.0
176
     1
  0
VISUALSTYLE
  5
3E
102
{ACAD_REACTORS
330
2A
102
}
330
2A
100
AcDbVisualStyle
  2
Shades of Gray
 70
    23
177
     3
291
     0
 70
    58
 90
        2
176
     1
 90
        2
176
     1
 90
        3
176
     1
 90
        0
176
     1
 40
0.6
176
     1
 40
30.0
176
     1
 62
     7
420
 16777215
176
     1
 90
        2
176
     1
 90
        2
176
     1
 62
     7
176
     1
 62
     7
176
     1
 90
        1
176
     1
 90
        1
176
     1
 40
40.0
176
     1
 90
        8
176
     1
 62
     7
176
     1
 40
1.0
176
     1
 90
        1
176
     1
 90
        6
176
     1
 90
        2
176
     1
 62
     7
176
     1
 90
        3
176
     1
 90
        0
176
     1
 90
        0
176
     1
290
     0
176
     1
 90
        1
176
     1
 40
0.0
176
     1
 90
        0
176
     1
290
     0
176
     1
290
     1
176
     1
290
     1
176
     1
290
     0
176
     1
290
     0
176
     1
290
     0
176
     1
290
     0
176
     1
290
     0
176
     1
290
     0
176
     1
 90
       50
176
     1
 40
0.0
176
     1
 40
1.0
176
     1
 90
        0
176
     1
 62
    18
420
        0
176
     1
 90
       50
176
     1
 90
        3
176
     1
 62
     5
420
      255
176
     1
290
     0
176
     1
 90
       50
176
     1
 90
       50
176
     1
 90
       50
176
     1
290
     0
176
     1
 90
       50
176
     1
 62
   256
176
     0
 40
1.0
176
     0
 90
        2
176
     1
  1
strokes_ogs.tif
176
     1
290
     0
176
     1
 40
1.0
176
     1
 40
1.0
176
     1
  0
VISUALSTYLE
  5
3F
102
{ACAD_REACTORS
330
2A
102
}
330
2A
100
AcDbVisualStyle
  2
Sketchy
 70
    24
177
     3
291
     0
 70
    58
 90
        1
176
     1
 90
        2
176
     1
 90
        2
176
     1
 90
        0
176
     1
 40
0.6
176
     1
 40
30.0
176
     1
 62
     7
420
 16777215
176
     1
 90
        2
176
     1
 90
        2
176
     1
 62
     7
176
     1
 62
     7
176
     1
 90
        1
176
     1
 90
        1
176
     1
 40
40.0
176
     1
 90
       11
176
     1
 62
     7
176
     1
 40
1.0
176
     1
 90
        1
176
     1
 90
        6
176
     1
 90
        2
176
     1
 62
     7
176
     1
 90
        6
176
     1
 90
        0
176
     1
 90
        0
176
     1
290
     0
176
     1
 90
        1
176
     1
 40
0.0
176
     1
 90
        0
176
     1
290
     0
176
     1
290
     1
176
     1
290
     1
176
     1
290
     0
176
     1
290
     0
176
     1
290
     0
176
     1
290
     0
176
     1
290
     0
176
     1
290
     0
176
     1
 90
       50
176
     1
 40
0.0
176
     1
 40
1.0
176
     1
 90
        0
176
     1
 62
    18
420
        0
176
     1
 90
       50
176
     1
 90
        3
176
     1
 62
     5
420
      255
176
     1
290
     0
176
     1
 90
       50
176
     1
 90
       50
176
     1
 90
       50
176
     1
290
     0
176
     1
 90
       50
176
     1
 62
   256
176
     0
 40
1.0
176
     0
 90
        2
176
     1
  1
strokes_ogs.tif
176
     1
290
     0
176
     1
 40
1.0
176
     1
 40
1.0
176
     1
  0
VISUALSTYLE
  5
37
102
{ACAD_REACTORS
330
2A
102
}
330
2A
100
AcDbVisualStyle
  2
Thicken
 70
    13
177
     3
291
     1
 70
    58
 90
        2
176
     1
 90
        2
176
     1
 90
        0
176
     1
 90
        0
176
     1
 40
0.6
176
     1
 40
30.0
176
     1
 62
     7
420
 16777215
176
     1
 90
        1
176
     1
 90
        4
176
     1
 62
     7
176
     1
 62
   257
176
     1
 90
        1
176
     1
 90
        1
176
     1
 40
1.0
176
     1
 90
       12
176
     1
 62
     7
176
     1
 40
1.0
176
     1
 90
        1
176
     1
 90
        6
176
     1
 90
        2
176
     1
 62
     7
176
     1
 90
        5
176
     1
 90
        0
176
     1
 90
        0
176
     1
290
     0
176
     1
 90
        1
176
     1
 40
0.0
176
     1
 90
        0
176
     1
290
     0
176
     1
290
     1
176
     1
290
     1
176
     1
290
     0
176
     1
290
     0
176
     1
290
     0
176
     1
290
     0
176
     1
290
     0
176
     1
290
     0
176
     1
 90
       50
176
     1
 40
0.0
176
     1
 40
1.0
176
     1
 90
        0
176
     1
 62
    18
420
        0
176
     1
 90
       50
176
     1
 90
        3
176
     1
 62
     5
420
      255
176
     1
290
     0
176
     1
 90
       50
176
     1
 90
       50
176
     1
 90
       50
176
     1
290
     0
176
     1
 90
       50
176
     1
 62
   256
176
     0
 40
1.0
176
     0
 90
        2
176
     1
  1
strokes_ogs.tif
176
     1
290
     0
176
     1
 40
1.0
176
     1
 40
1.0
176
     1
  0
VISUALSTYLE
  5
30
102
{ACAD_REACTORS
330
2A
102
}
330
2A
100
AcDbVisualStyle
  2
Wireframe
 70
     5
177
     3
291
     0
 70
    58
 90
        0
176
     1
 90
        2
176
     1
 90
        0
176
     1
 90
        0
176
     1
 40
0.6
176
     1
 40
30.0
176
     1
 62
     7
420
 16777215
176
     1
 90
        1
176
     1
 90
        4
176
     1
 62
     7
176
     1
 62
   257
176
     1
 90
        1
176
     1
 90
        1
176
     1
 40
1.0
176
     1
 90
        0
176
     1
 62
   257
176
     1
 40
1.0
176
     1
 90
        1
176
     1
 90
        6
176
     1
 90
        2
176
     1
 62
     7
176
     1
 90
        3
176
     1
 90
        0
176
     1
 90
        0
176
     1
290
     0
176
     1
 90
        1
176
     1
 40
0.0
176
     1
 90
        0
176
     1
290
     0
176
     1
290
     1
176
     1
290
     1
176
     1
290
     0
176
     1
290
     0
176
     1
290
     0
176
     1
290
     0
176
     1
290
     0
176
     1
290
     0
176
     1
 90
       50
176
     1
 40
0.0
176
     1
 40
1.0
176
     1
 90
        0
176
     1
 62
    18
420
        0
176
     1
 90
       50
176
     1
 90
        3
176
     1
 62
     5
420
      255
176
     1
290
     0
176
     1
 90
       50
176
     1
 90
       50
176
     1
 90
       50
176
     1
290
     0
176
     1
 90
       50
176
     1
 62
   256
176
     0
 40
1.0
176
     0
 90
        2
176
     1
  1
strokes_ogs.tif
176
     1
290
     0
176
     1
 40
1.0
176
     1
 40
1.0
176
     1
  0
VISUALSTYLE
  5
40
102
{ACAD_REACTORS
330
2A
102
}
330
2A
100
AcDbVisualStyle
  2
X-Ray
 70
    25
177
     3
291
     0
 70
    58
 90
        2
176
     1
 90
        2
176
     1
 90
        1
176
     1
 90
        1
176
     1
 40
0.5
176
     1
 40
30.0
176
     1
 62
     7
420
 16777215
176
     1
 90
        1
176
     1
 90
        0
176
     1
 62
     7
176
     1
 62
   257
176
     1
 90
        1
176
     1
 90
        1
176
     1
 40
1.0
176
     1
 90
        8
176
     1
 62
     7
176
     1
 40
1.0
176
     1
 90
        1
176
     1
 90
        6
176
     1
 90
        2
176
     1
 62
     7
176
     1
 90
        3
176
     1
 90
        0
176
     1
 90
        0
176
     1
290
     0
176
     1
 90
       13
176
     1
 40
0.0
176
     1
 90
        0
176
     1
290
     0
176
     1
290
     1
176
     1
290
     1
176
     1
290
     0
176
     1
290
     0
176
     1
290
     0
176
     1
290
     0
176
     1
290
     0
176
     1
290
     0
176
     1
 90
       50
176
     1
 40
0.0
176
     1
 40
1.0
176
     1
 90
        0
176
     1
 62
    18
420
        0
176
     1
 90
       50
176
     1
 90
        3
176
     1
 62
     5
420
      255
176
     1
290
     0
176
     1
 90
       50
176
     1
 90
       50
176
     1
 90
       50
176
     1
290
     0
176
     1
 90
       50
176
     1
 62
   256
176
     0
 40
1.0
176
     0
 90
        2
176
     1
  1
strokes_ogs.tif
176
     1
290
     0
176
     1
 40
1.0
176
     1
 40
1.0
176
     1
  0
DICTIONARYVAR
  5
245
102
{ACAD_REACTORS
330
244
102
}
330
244
100
DictionaryVariables
280
     0
  1
1:1
  0
DICTIONARYVAR
  5
24A
102
{ACAD_REACTORS
330
244
102
}
330
244
100
DictionaryVariables
280
     0
  1
Standard
  0
DICTIONARYVAR
  5
249
102
{ACAD_REACTORS
330
244
102
}
330
244
100
DictionaryVariables
280
     0
  1
Standard
  0
DICTIONARY
  5
246
330
6A
100
AcDbDictionary
280
     1
281
     1
  3
ACAD_ROUNDTRIP_2008_TABLESTYLE_CELLSTYLEMAP
360
247
  0
CELLSTYLEMAP
  5
247
102
{ACAD_REACTORS
330
246
102
}
330
246
100
AcDbCellStyleMap
 90
        3
300
CELLSTYLE
  1
TABLEFORMAT_BEGIN
 90
        5
170
     1
 91
        0
 92
    32768
 62
   257
 93
        1
300
CONTENTFORMAT
  1
CONTENTFORMAT_BEGIN
 90
        0
 91
        0
 92
        4
 93
        0
300

 40
0.0
140
1.0
 94
        5
 62
     0
340
11
144
0.25
309
CONTENTFORMAT_END
171
     1
301
MARGIN
  1
CELLMARGIN_BEGIN
 40
0.06
 40
0.06
 40
0.06
 40
0.06
 40
0.06
 40
0.06
309
CELLMARGIN_END
 94
        6
 95
        1
302
GRIDFORMAT
  1
GRIDFORMAT_BEGIN
 90
        0
 91
        1
 62
     0
 92
       -2
340
14
 93
        0
 40
0.045
309
GRIDFORMAT_END
 95
        2
302
GRIDFORMAT
  1
GRIDFORMAT_BEGIN
 90
        0
 91
        1
 62
     0
 92
       -2
340
14
 93
        0
 40
0.045
309
GRIDFORMAT_END
 95
        4
302
GRIDFORMAT
  1
GRIDFORMAT_BEGIN
 90
        0
 91
        1
 62
     0
 92
       -2
340
14
 93
        0
 40
0.045
309
GRIDFORMAT_END
 95
        8
302
GRIDFORMAT
  1
GRIDFORMAT_BEGIN
 90
        0
 91
        1
 62
     0
 92
       -2
340
14
 93
        0
 40
0.045
309
GRIDFORMAT_END
 95
       16
302
GRIDFORMAT
  1
GRIDFORMAT_BEGIN
 90
        0
 91
        1
 62
     0
 92
       -2
340
14
 93
        0
 40
0.045
309
GRIDFORMAT_END
 95
       32
302
GRIDFORMAT
  1
GRIDFORMAT_BEGIN
 90
        0
 91
        1
 62
     0
 92
       -2
340
14
 93
        0
 40
0.045
309
GRIDFORMAT_END
309
TABLEFORMAT_END
  1
CELLSTYLE_BEGIN
 90
        1
 91
        1
300
_TITLE
309
CELLSTYLE_END
300
CELLSTYLE
  1
TABLEFORMAT_BEGIN
 90
        5
170
     1
 91
        0
 92
        0
 62
   257
 93
        1
300
CONTENTFORMAT
  1
CONTENTFORMAT_BEGIN
 90
        0
 91
        0
 92
        4
 93
        0
300

 40
0.0
140
1.0
 94
        5
 62
     0
340
11
144
0.18
309
CONTENTFORMAT_END
171
     1
301
MARGIN
  1
CELLMARGIN_BEGIN
 40
0.06
 40
0.06
 40
0.06
 40
0.06
 40
0.06
 40
0.06
309
CELLMARGIN_END
 94
        6
 95
        1
302
GRIDFORMAT
  1
GRIDFORMAT_BEGIN
 90
        0
 91
        1
 62
     0
 92
       -2
340
14
 93
        0
 40
0.045
309
GRIDFORMAT_END
 95
        2
302
GRIDFORMAT
  1
GRIDFORMAT_BEGIN
 90
        0
 91
        1
 62
     0
 92
       -2
340
14
 93
        0
 40
0.045
309
GRIDFORMAT_END
 95
        4
302
GRIDFORMAT
  1
GRIDFORMAT_BEGIN
 90
        0
 91
        1
 62
     0
 92
       -2
340
14
 93
        0
 40
0.045
309
GRIDFORMAT_END
 95
        8
302
GRIDFORMAT
  1
GRIDFORMAT_BEGIN
 90
        0
 91
        1
 62
     0
 92
       -2
340
14
 93
        0
 40
0.045
309
GRIDFORMAT_END
 95
       16
302
GRIDFORMAT
  1
GRIDFORMAT_BEGIN
 90
        0
 91
        1
 62
     0
 92
       -2
340
14
 93
        0
 40
0.045
309
GRIDFORMAT_END
 95
       32
302
GRIDFORMAT
  1
GRIDFORMAT_BEGIN
 90
        0
 91
        1
 62
     0
 92
       -2
340
14
 93
        0
 40
0.045
309
GRIDFORMAT_END
309
TABLEFORMAT_END
  1
CELLSTYLE_BEGIN
 90
        2
 91
        1
300
_HEADER
309
CELLSTYLE_END
300
CELLSTYLE
  1
TABLEFORMAT_BEGIN
 90
        5
170
     1
 91
        0
 92
        0
 62
   257
 93
        1
300
CONTENTFORMAT
  1
CONTENTFORMAT_BEGIN
 90
        0
 91
        0
 92
        4
 93
        0
300

 40
0.0
140
1.0
 94
        2
 62
     0
340
11
144
0.18
309
CONTENTFORMAT_END
171
     1
301
MARGIN
  1
CELLMARGIN_BEGIN
 40
0.06
 40
0.06
 40
0.06
 40
0.06
 40
0.06
 40
0.06
309
CELLMARGIN_END
 94
        6
 95
        1
302
GRIDFORMAT
  1
GRIDFORMAT_BEGIN
 90
        0
 91
        1
 62
     0
 92
       -2
340
14
 93
        0
 40
0.045
309
GRIDFORMAT_END
 95
        2
302
GRIDFORMAT
  1
GRIDFORMAT_BEGIN
 90
        0
 91
        1
 62
     0
 92
       -2
340
14
 93
        0
 40
0.045
309
GRIDFORMAT_END
 95
        4
302
GRIDFORMAT
  1
GRIDFORMAT_BEGIN
 90
        0
 91
        1
 62
     0
 92
       -2
340
14
 93
        0
 40
0.045
309
GRIDFORMAT_END
 95
        8
302
GRIDFORMAT
  1
GRIDFORMAT_BEGIN
 90
        0
 91
        1
 62
     0
 92
       -2
340
14
 93
        0
 40
0.045
309
GRIDFORMAT_END
 95
       16
302
GRIDFORMAT
  1
GRIDFORMAT_BEGIN
 90
        0
 91
        1
 62
     0
 92
       -2
340
14
 93
        0
 40
0.045
309
GRIDFORMAT_END
 95
       32
302
GRIDFORMAT
  1
GRIDFORMAT_BEGIN
 90
        0
 91
        1
 62
     0
 92
       -2
340
14
 93
        0
 40
0.045
309
GRIDFORMAT_END
309
TABLEFORMAT_END
  1
CELLSTYLE_BEGIN
 90
        3
 91
        2
300
_DATA
309
CELLSTYLE_END
  0
ENDSEC
  0
EOF