0
SECTION
  2
HEADER
  9
$ACADVER
  1
AC1027
  9
$ACADMAINTVER
 70
     8
  9
$DWGCODEPAGE
  3
ANSI_1252
  9
$REQUIREDVERSIONS
160
                 0
  9
$COMMENTS
  1
File was created by Cadenas
  9
$CUSTOMPROPERTYTAG
  1
NN
  9
$CUSTOMPROPERTY
  1
Steel IMPERIAL-HD Piloted Flange 1-1/8 thru 2-1/4 Inch Bore
  9
$CUSTOMPROPERTYTAG
  1
NT
  9
$CUSTOMPROPERTY
  1
Steal Imperial Piloted Flange Bearingsi- Inch - 102-204
  9
$CUSTOMPROPERTYTAG
  1
NB
  9
$CUSTOMPROPERTY
  1
072308
  9
$CUSTOMPROPERTYTAG
  1
NBSYN
  9
$CUSTOMPROPERTY
  1
$PN.
  9
$CUSTOMPROPERTYTAG
  1
LINA
  9
$CUSTOMPROPERTY
  1
072308
  9
$CUSTOMPROPERTYTAG
  1
SS
  9
$CUSTOMPROPERTY
  1
1-3/16
  9
$CUSTOMPROPERTYTAG
  1
PN
  9
$CUSTOMPROPERTY
  1
072308
  9
$CUSTOMPROPERTYTAG
  1
TYPE
  9
$CUSTOMPROPERTY
  1
Expansion
  9
$CUSTOMPROPERTYTAG
  1
EF
  9
$CUSTOMPROPERTY
  1
Expansion
  9
$CUSTOMPROPERTYTAG
  1
DESCRIPTION
  9
$CUSTOMPROPERTY
  1
SFC-IP-103RE
  9
$CUSTOMPROPERTYTAG
  1
ST
  9
$CUSTOMPROPERTY
  1
Contact Seal
  9
$CUSTOMPROPERTYTAG
  1
A
  9
$CUSTOMPROPERTY
  1
2.63
  9
$CUSTOMPROPERTYTAG
  1
B
  9
$CUSTOMPROPERTY
  1
5.25
  9
$CUSTOMPROPERTYTAG
  1
C
  9
$CUSTOMPROPERTY
  1
1.94
  9
$CUSTOMPROPERTYTAG
  1
D
  9
$CUSTOMPROPERTY
  1
3.09
  9
$CUSTOMPROPERTYTAG
  1
DD
  9
$CUSTOMPROPERTY
  1
4.3800
  9
$CUSTOMPROPERTYTAG
  1
E
  9
$CUSTOMPROPERTY
  1
0.00
  9
$CUSTOMPROPERTYTAG
  1
F
  9
$CUSTOMPROPERTY
  1
0.4375
  9
$CUSTOMPROPERTYTAG
  1
G
  9
$CUSTOMPROPERTY
  1
1.61
  9
$CUSTOMPROPERTYTAG
  1
H
  9
$CUSTOMPROPERTY
  1
0.50
  9
$CUSTOMPROPERTYTAG
  1
K
  9
$CUSTOMPROPERTY
  1
3.625
  9
$CUSTOMPROPERTYTAG
  1
L
  9
$CUSTOMPROPERTY
  1
2.72
  9
$CUSTOMPROPERTYTAG
  1
M
  9
$CUSTOMPROPERTY
  1
0.4375
  9
$CUSTOMPROPERTYTAG
  1
N
  9
$CUSTOMPROPERTY
  1
2.78
  9
$CUSTOMPROPERTYTAG
  1
P
  9
$CUSTOMPROPERTY
  1
1.02
  9
$CUSTOMPROPERTYTAG
  1
Q
  9
$CUSTOMPROPERTY
  1
1.17
  9
$CUSTOMPROPERTYTAG
  1
X
  9
$CUSTOMPROPERTY
  1
0.19
  9
$CUSTOMPROPERTYTAG
  1
Y
  9
$CUSTOMPROPERTY
  1
0.020
  9
$CUSTOMPROPERTYTAG
  1
Z
  9
$CUSTOMPROPERTY
  1
1.80
  9
$CUSTOMPROPERTYTAG
  1
COMPANY
  9
$CUSTOMPROPERTY
  1
baldor
  9
$INSBASE
 10
0.0
 20
0.0
 30
0.0
  9
$EXTMIN
 10
1.000000000000000E+20
 20
1.000000000000000E+20
 30
1.000000000000000E+20
  9
$EXTMAX
 10
-1.000000000000000E+20
 20
-1.000000000000000E+20
 30
-1.000000000000000E+20
  9
$LIMMIN
 10
0.0
 20
0.0
  9
$LIMMAX
 10
12.0
 20
9.0
  9
$ORTHOMODE
 70
     0
  9
$REGENMODE
 70
     1
  9
$FILLMODE
 70
     1
  9
$QTEXTMODE
 70
     0
  9
$MIRRTEXT
 70
     1
  9
$LTSCALE
 40
1.0
  9
$ATTMODE
 70
     1
  9
$TEXTSIZE
 40
0.2
  9
$TRACEWID
 40
0.05
  9
$TEXTSTYLE
  7
Standard
  9
$CLAYER
  8
0
  9
$CELTYPE
  6
ByLayer
  9
$CECOLOR
 62
   256
  9
$CELTSCALE
 40
1.0
  9
$DISPSILH
 70
     0
  9
$DIMSCALE
 40
1.0
  9
$DIMASZ
 40
0.18
  9
$DIMEXO
 40
0.0625
  9
$DIMDLI
 40
0.38
  9
$DIMRND
 40
0.0
  9
$DIMDLE
 40
0.0
  9
$DIMEXE
 40
0.18
  9
$DIMTP
 40
0.0
  9
$DIMTM
 40
0.0
  9
$DIMTXT
 40
0.18
  9
$DIMCEN
 40
0.09
  9
$DIMTSZ
 40
0.0
  9
$DIMTOL
 70
     0
  9
$DIMLIM
 70
     0
  9
$DIMTIH
 70
     1
  9
$DIMTOH
 70
     1
  9
$DIMSE1
 70
     0
  9
$DIMSE2
 70
     0
  9
$DIMTAD
 70
     0
  9
$DIMZIN
 70
     0
  9
$DIMBLK
  1

  9
$DIMASO
 70
     1
  9
$DIMSHO
 70
     1
  9
$DIMPOST
  1

  9
$DIMAPOST
  1

  9
$DIMALT
 70
     0
  9
$DIMALTD
 70
     2
  9
$DIMALTF
 40
25.4
  9
$DIMLFAC
 40
1.0
  9
$DIMTOFL
 70
     0
  9
$DIMTVP
 40
0.0
  9
$DIMTIX
 70
     0
  9
$DIMSOXD
 70
     0
  9
$DIMSAH
 70
     0
  9
$DIMBLK1
  1

  9
$DIMBLK2
  1

  9
$DIMSTYLE
  2
Standard
  9
$DIMCLRD
 70
     0
  9
$DIMCLRE
 70
     0
  9
$DIMCLRT
 70
     0
  9
$DIMTFAC
 40
1.0
  9
$DIMGAP
 40
0.09
  9
$DIMJUST
 70
     0
  9
$DIMSD1
 70
     0
  9
$DIMSD2
 70
     0
  9
$DIMTOLJ
 70
     1
  9
$DIMTZIN
 70
     0
  9
$DIMALTZ
 70
     0
  9
$DIMALTTZ
 70
     0
  9
$DIMUPT
 70
     0
  9
$DIMDEC
 70
     4
  9
$DIMTDEC
 70
     4
  9
$DIMALTU
 70
     2
  9
$DIMALTTD
 70
     2
  9
$DIMTXSTY
  7
Standard
  9
$DIMAUNIT
 70
     0
  9
$DIMADEC
 70
     0
  9
$DIMALTRND
 40
0.0
  9
$DIMAZIN
 70
     0
  9
$DIMDSEP
 70
    46
  9
$DIMATFIT
 70
     3
  9
$DIMFRAC
 70
     0
  9
$DIMLDRBLK
  1

  9
$DIMLUNIT
 70
     2
  9
$DIMLWD
 70
    -2
  9
$DIMLWE
 70
    -2
  9
$DIMTMOVE
 70
     0
  9
$DIMFXL
 40
1.0
  9
$DIMFXLON
 70
     0
  9
$DIMJOGANG
 40
0.7853981633974483
  9
$DIMTFILL
 70
     0
  9
$DIMTFILLCLR
 70
     0
  9
$DIMARCSYM
 70
     0
  9
$DIMLTYPE
  6

  9
$DIMLTEX1
  6

  9
$DIMLTEX2
  6

  9
$DIMTXTDIRECTION
 70
     0
  9
$LUNITS
 70
     2
  9
$LUPREC
 70
     4
  9
$SKETCHINC
 40
0.1
  9
$FILLETRAD
 40
0.5
  9
$AUNITS
 70
     0
  9
$AUPREC
 70
     0
  9
$MENU
  1
.
  9
$ELEVATION
 40
0.0
  9
$PELEVATION
 40
0.0
  9
$THICKNESS
 40
0.0
  9
$LIMCHECK
 70
     0
  9
$CHAMFERA
 40
0.0
  9
$CHAMFERB
 40
0.0
  9
$CHAMFERC
 40
0.0
  9
$CHAMFERD
 40
0.0
  9
$SKPOLY
 70
     0
  9
$TDCREATE
 40
2458168.897527836
  9
$TDUCREATE
 40
2458168.855861169
  9
$TDUPDATE
 40
2458168.897528021
  9
$TDUUPDATE
 40
2458168.855861354
  9
$TDINDWG
 40
0.0000000116
  9
$TDUSRTIMER
 40
0.0000000116
  9
$USRTIMER
 70
     1
  9
$ANGBASE
 50
0.0
  9
$ANGDIR
 70
     0
  9
$PDMODE
 70
     0
  9
$PDSIZE
 40
0.0
  9
$PLINEWID
 40
0.0
  9
$SPLFRAME
 70
     0
  9
$SPLINETYPE
 70
     6
  9
$SPLINESEGS
 70
     8
  9
$HANDSEED
  5
267
  9
$SURFTAB1
 70
     6
  9
$SURFTAB2
 70
     6
  9
$SURFTYPE
 70
     6
  9
$SURFU
 70
     6
  9
$SURFV
 70
     6
  9
$UCSBASE
  2

  9
$UCSNAME
  2

  9
$UCSORG
 10
0.0
 20
0.0
 30
0.0
  9
$UCSXDIR
 10
1.0
 20
0.0
 30
0.0
  9
$UCSYDIR
 10
0.0
 20
1.0
 30
0.0
  9
$UCSORTHOREF
  2

  9
$UCSORTHOVIEW
 70
     0
  9
$UCSORGTOP
 10
0.0
 20
0.0
 30
0.0
  9
$UCSORGBOTTOM
 10
0.0
 20
0.0
 30
0.0
  9
$UCSORGLEFT
 10
0.0
 20
0.0
 30
0.0
  9
$UCSORGRIGHT
 10
0.0
 20
0.0
 30
0.0
  9
$UCSORGFRONT
 10
0.0
 20
0.0
 30
0.0
  9
$UCSORGBACK
 10
0.0
 20
0.0
 30
0.0
  9
$PUCSBASE
  2

  9
$PUCSNAME
  2

  9
$PUCSORG
 10
0.0
 20
0.0
 30
0.0
  9
$PUCSXDIR
 10
1.0
 20
0.0
 30
0.0
  9
$PUCSYDIR
 10
0.0
 20
1.0
 30
0.0
  9
$PUCSORTHOREF
  2

  9
$PUCSORTHOVIEW
 70
     0
  9
$PUCSORGTOP
 10
0.0
 20
0.0
 30
0.0
  9
$PUCSORGBOTTOM
 10
0.0
 20
0.0
 30
0.0
  9
$PUCSORGLEFT
 10
0.0
 20
0.0
 30
0.0
  9
$PUCSORGRIGHT
 10
0.0
 20
0.0
 30
0.0
  9
$PUCSORGFRONT
 10
0.0
 20
0.0
 30
0.0
  9
$PUCSORGBACK
 10
0.0
 20
0.0
 30
0.0
  9
$USERI1
 70
     0
  9
$USERI2
 70
     0
  9
$USERI3
 70
     0
  9
$USERI4
 70
     0
  9
$USERI5
 70
     0
  9
$USERR1
 40
0.0
  9
$USERR2
 40
0.0
  9
$USERR3
 40
0.0
  9
$USERR4
 40
0.0
  9
$USERR5
 40
0.0
  9
$WORLDVIEW
 70
     1
  9
$SHADEDGE
 70
     3
  9
$SHADEDIF
 70
    70
  9
$TILEMODE
 70
     1
  9
$MAXACTVP
 70
    64
  9
$PINSBASE
 10
0.0
 20
0.0
 30
0.0
  9
$PLIMCHECK
 70
     0
  9
$PEXTMIN
 10
1.000000000000000E+20
 20
1.000000000000000E+20
 30
1.000000000000000E+20
  9
$PEXTMAX
 10
-1.000000000000000E+20
 20
-1.000000000000000E+20
 30
-1.000000000000000E+20
  9
$PLIMMIN
 10
0.0
 20
0.0
  9
$PLIMMAX
 10
12.0
 20
9.0
  9
$UNITMODE
 70
     0
  9
$VISRETAIN
 70
     1
  9
$PLINEGEN
 70
     0
  9
$PSLTSCALE
 70
     1
  9
$TREEDEPTH
 70
  3020
  9
$CMLSTYLE
  2
Standard
  9
$CMLJUST
 70
     0
  9
$CMLSCALE
 40
1.0
  9
$PROXYGRAPHICS
 70
     1
  9
$MEASUREMENT
 70
     0
  9
$CELWEIGHT
370
    -1
  9
$ENDCAPS
280
     0
  9
$JOINSTYLE
280
     0
  9
$LWDISPLAY
290
     0
  9
$INSUNITS
 70
     1
  9
$HYPERLINKBASE
  1

  9
$STYLESHEET
  1

  9
$XEDIT
290
     1
  9
$CEPSNTYPE
380
     0
  9
$PSTYLEMODE
290
     1
  9
$FINGERPRINTGUID
  2
{ED4A052C-B0C3-4ADC-AEA1-C8508009B590}
  9
$VERSIONGUID
  2
{FAEB1C32-E019-11D5-929B-00C0DF256EC4}
  9
$EXTNAMES
290
     1
  9
$PSVPSCALE
 40
0.0
  9
$OLESTARTUP
290
     0
  9
$SORTENTS
280
   127
  9
$INDEXCTL
280
     0
  9
$HIDETEXT
280
     1
  9
$XCLIPFRAME
280
     2
  9
$HALOGAP
280
     0
  9
$OBSCOLOR
 70
   257
  9
$OBSLTYPE
280
     0
  9
$INTERSECTIONDISPLAY
280
     0
  9
$INTERSECTIONCOLOR
 70
   257
  9
$DIMASSOC
280
     2
  9
$PROJECTNAME
  1

  9
$CAMERADISPLAY
290
     0
  9
$LENSLENGTH
 40
50.0
  9
$CAMERAHEIGHT
 40
0.0
  9
$STEPSPERSEC
 40
2.0
  9
$STEPSIZE
 40
6.0
  9
$3DDWFPREC
 40
2.0
  9
$PSOLWIDTH
 40
0.25
  9
$PSOLHEIGHT
 40
4.0
  9
$LOFTANG1
 40
1.570796326794897
  9
$LOFTANG2
 40
1.570796326794897
  9
$LOFTMAG1
 40
0.0
  9
$LOFTMAG2
 40
0.0
  9
$LOFTPARAM
 70
     7
  9
$LOFTNORMALS
280
     1
  9
$LATITUDE
 40
37.795
  9
$LONGITUDE
 40
-122.394
  9
$NORTHDIRECTION
 40
0.0
  9
$TIMEZONE
 70
 -8000
  9
$LIGHTGLYPHDISPLAY
280
     1
  9
$TILEMODELIGHTSYNCH
280
     1
  9
$CMATERIAL
347
44
  9
$SOLIDHIST
280
     0
  9
$SHOWHIST
280
     1
  9
$DWFFRAME
280
     2
  9
$DGNFRAME
280
     2
  9
$REALWORLDSCALE
290
     1
  9
$INTERFERECOLOR
 62
   256
  9
$CSHADOW
280
     0
  9
$SHADOWPLANELOCATION
 40
0.0
  0
ENDSEC
  0
SECTION
  2
CLASSES
  0
CLASS
  1
ACDBDICTIONARYWDFLT
  2
AcDbDictionaryWithDefault
  3
ObjectDBX Classes
 90
        0
 91
        4
280
     0
281
     0
  0
CLASS
  1
VISUALSTYLE
  2
AcDbVisualStyle
  3
ObjectDBX Classes
 90
     4095
 91
        4
280
     0
281
     0
  0
CLASS
  1
MATERIAL
  2
AcDbMaterial
  3
ObjectDBX Classes
 90
     1153
 91
        4
280
     0
281
     0
  0
CLASS
  1
SCALE
  2
AcDbScale
  3
ObjectDBX Classes
 90
     1153
 91
        4
280
     0
281
     0
  0
CLASS
  1
TABLESTYLE
  2
AcDbTableStyle
  3
ObjectDBX Classes
 90
     4095
 91
        4
280
     0
281
     0
  0
CLASS
  1
MLEADERSTYLE
  2
AcDbMLeaderStyle
  3
ACDB_MLEADERSTYLE_CLASS
 90
     4095
 91
        4
280
     0
281
     0
  0
CLASS
  1
SUN
  2
AcDbSun
  3
SCENEOE
 90
     1153
 91
        4
280
     0
281
     0
  0
CLASS
  1
DICTIONARYVAR
  2
AcDbDictionaryVar
  3
ObjectDBX Classes
 90
        0
 91
        4
280
     0
281
     0
  0
CLASS
  1
CELLSTYLEMAP
  2
AcDbCellStyleMap
  3
ObjectDBX Classes
 90
     1152
 91
        4
280
     0
281
     0
  0
ENDSEC
  0
SECTION
  2
TABLES
  0
TABLE
  2
VPORT
  5
8
330
0
100
AcDbSymbolTable
 70
     1
  0
VPORT
  5
29
330
8
100
AcDbSymbolTableRecord
100
AcDbViewportTableRecord
  2
*Active
 70
     0
 10
0.0
 20
0.0
 11
1.0
 21
1.0
 12
0.0
 22
0.0
 13
0.0
 23
0.0
 14
0.5
 24
0.5
 15
0.5
 25
0.5
 16
0.0
 26
0.0
 36
1.0
 17
0.0
 27
0.0
 37
0.0
 40
5.622749999999999
 41
1.0
 42
50.0
 43
0.0
 44
0.0
 50
0.0
 51
0.0
 71
     0
 72
   100
 73
     1
 74
     3
 75
     0
 76
     0
 77
     0
 78
     0
281
     0
 65
     1
110
0.0
120
0.0
130
0.0
111
1.0
121
0.0
131
0.0
112
0.0
122
1.0
132
0.0
 79
     0
146
0.0
348
2F
 60
     3
 61
     5
292
     1
282
     1
141
0.0
142
0.0
 63
   250
361
6D
  0
ENDTAB
  0
TABLE
  2
LTYPE
  5
5
330
0
100
AcDbSymbolTable
 70
     3
  0
LTYPE
  5
14
330
5
100
AcDbSymbolTableRecord
100
AcDbLinetypeTableRecord
  2
ByBlock
 70
     0
  3

 72
    65
 73
     0
 40
0.0
  0
LTYPE
  5
15
330
5
100
AcDbSymbolTableRecord
100
AcDbLinetypeTableRecord
  2
ByLayer
 70
     0
  3

 72
    65
 73
     0
 40
0.0
  0
LTYPE
  5
16
330
5
100
AcDbSymbolTableRecord
100
AcDbLinetypeTableRecord
  2
Continuous
 70
     0
  3
Solid line
 72
    65
 73
     0
 40
0.0
  0
LTYPE
  5
9D
330
5
100
AcDbSymbolTableRecord
100
AcDbLinetypeTableRecord
  2
Dashed
 70
     0
  3

 72
    65
 73
     2
 40
2.0
 49
1.0
 74
     0
 49
-1.0
 74
     0
  0
LTYPE
  5
135
330
5
100
AcDbSymbolTableRecord
100
AcDbLinetypeTableRecord
  2
Center
 70
     0
  3

 72
    65
 73
     4
 40
1.5
 49
0.45
 74
     0
 49
-0.5
 74
     0
 49
0.05
 74
     0
 49
-0.5
 74
     0
  0
ENDTAB
  0
TABLE
  2
LAYER
  5
2
330
0
100
AcDbSymbolTable
 70
     7
  0
LAYER
  5
10
330
2
100
AcDbSymbolTableRecord
100
AcDbLayerTableRecord
  2
0
 70
     0
 62
     7
  6
Continuous
370
    -3
390
F
347
46
348
0
  0
LAYER
  5
72
330
2
100
AcDbSymbolTableRecord
100
AcDbLayerTableRecord
  2
AM_6
 70
     0
 62
    -2
  6
Continuous
370
    35
390
F
347
46
348
0
  0
LAYER
  5
9E
330
2
100
AcDbSymbolTableRecord
100
AcDbLayerTableRecord
  2
AM_9
 70
     0
 62
     6
  6
Dashed
370
    25
390
F
347
46
348
0
  0
LAYER
  5
B9
330
2
100
AcDbSymbolTableRecord
100
AcDbLayerTableRecord
  2
AM_4
 70
     0
 62
     7
  6
Continuous
370
    50
390
F
347
46
348
0
  0
LAYER
  5
133
330
2
100
AcDbSymbolTableRecord
100
AcDbLayerTableRecord
  2
AM_5
 70
     0
 62
     3
  6
Continuous
370
    25
390
F
347
46
348
0
  0
LAYER
  5
136
330
2
100
AcDbSymbolTableRecord
100
AcDbLayerTableRecord
  2
AM_7
 70
     0
 62
     7
  6
Center
370
    25
390
F
347
46
348
0
  0
LAYER
  5
24E
330
2
100
AcDbSymbolTableRecord
100
AcDbLayerTableRecord
  2
ConnectionPoints
 70
     0
 62
     7
  6
Continuous
370
    50
390
F
347
46
348
0
  0
ENDTAB
  0
TABLE
  2
STYLE
  5
3
330
0
100
AcDbSymbolTable
 70
     1
  0
STYLE
  5
11
330
3
100
AcDbSymbolTableRecord
100
AcDbTextStyleTableRecord
  2
Standard
 70
     0
 40
0.0
 41
1.0
 50
0.0
 71
     0
 42
0.2
  3
txt
  4

  0
ENDTAB
  0
TABLE
  2
VIEW
  5
6
330
0
100
AcDbSymbolTable
 70
     0
  0
ENDTAB
  0
TABLE
  2
UCS
  5
7
330
0
100
AcDbSymbolTable
 70
     0
  0
ENDTAB
  0
TABLE
  2
APPID
  5
9
330
0
100
AcDbSymbolTable
 70
     1
  0
APPID
  5
12
330
9
100
AcDbSymbolTableRecord
100
AcDbRegAppTableRecord
  2
ACAD
 70
     0
  0
ENDTAB
  0
TABLE
  2
DIMSTYLE
  5
A
330
0
100
AcDbSymbolTable
 70
     1
100
AcDbDimStyleTable
  0
DIMSTYLE
105
27
330
A
100
AcDbSymbolTableRecord
100
AcDbDimStyleTableRecord
  2
Standard
 70
     0
178
     0
340
11
  0
ENDTAB
  0
TABLE
  2
BLOCK_RECORD
  5
1
330
0
100
AcDbSymbolTable
 70
     9
  0
BLOCK_RECORD
  5
1F
330
1
100
AcDbSymbolTableRecord
100
AcDbBlockTableRecord
  2
*Model_Space
340
22
 70
     0
280
     1
281
     0
  0
BLOCK_RECORD
  5
1B
330
1
100
AcDbSymbolTableRecord
100
AcDbBlockTableRecord
  2
*Paper_Space
340
1E
 70
     0
280
     1
281
     0
  0
BLOCK_RECORD
  5
23
330
1
100
AcDbSymbolTableRecord
100
AcDbBlockTableRecord
  2
*Paper_Space0
340
26
 70
     0
280
     1
281
     0
  0
BLOCK_RECORD
  5
6E
330
1
100
AcDbSymbolTableRecord
100
AcDbBlockTableRecord
  2
1_072308_0
340
0
102
{BLKREFS
331
6F
102
}
 70
     0
280
     1
281
     0
  0
BLOCK_RECORD
  5
91
330
1
100
AcDbSymbolTableRecord
100
AcDbBlockTableRecord
  2
2_405015E_Inch_1_0_in_072308_0
340
0
102
{BLKREFS
331
92
102
}
 70
     0
280
     1
281
     0
  0
BLOCK_RECORD
  5
D3
330
1
100
AcDbSymbolTableRecord
100
AcDbBlockTableRecord
  2
3_405015E_Inch_2_0_in_072308_0
340
0
102
{BLKREFS
331
D4
102
}
 70
     0
280
     1
281
     0
  0
BLOCK_RECORD
  5
123
330
1
100
AcDbSymbolTableRecord
100
AcDbBlockTableRecord
  2
4_ASME_B18_3_10_1_0_in_072308_0
340
0
102
{BLKREFS
331
124
102
}
 70
     0
280
     1
281
     0
  0
BLOCK_RECORD
  5
143
330
1
100
AcDbSymbolTableRecord
100
AcDbBlockTableRecord
  2
5_ASME_B18_3_10_2_0_in_072308_0
340
0
102
{BLKREFS
331
144
102
}
 70
     0
280
     1
281
     0
  0
BLOCK_RECORD
  5
15F
330
1
100
AcDbSymbolTableRecord
100
AcDbBlockTableRecord
  2
6_070881LW_0_in_072308_0
340
0
102
{BLKREFS
331
160
102
}
 70
     0
280
     1
281
     0
  0
BLOCK_RECORD
  5
1A0
330
1
100
AcDbSymbolTableRecord
100
AcDbBlockTableRecord
  2
7_070881I_0_in_072308_0
340
0
102
{BLKREFS
331
1A1
102
}
 70
     0
280
     1
281
     0
  0
BLOCK_RECORD
  5
1F6
330
1
100
AcDbSymbolTableRecord
100
AcDbBlockTableRecord
  2
8_B072308_0_in_072308_0
340
0
102
{BLKREFS
331
1F7
102
}
 70
     0
280
     1
281
     0
  0
ENDTAB
  0
ENDSEC
  0
SECTION
  2
BLOCKS
  0
BLOCK
  5
20
330
1F
100
AcDbEntity
  8
0
100
AcDbBlockBegin
  2
*Model_Space
 70
     0
 10
0.0
 20
0.0
 30
0.0
  3
*Model_Space
  1

  0
ENDBLK
  5
21
330
1F
100
AcDbEntity
  8
0
100
AcDbBlockEnd
  0
BLOCK
  5
1C
330
1B
100
AcDbEntity
 67
     1
  8
0
100
AcDbBlockBegin
  2
*Paper_Space
 70
     0
 10
0.0
 20
0.0
 30
0.0
  3
*Paper_Space
  1

  0
ENDBLK
  5
1D
330
1B
100
AcDbEntity
 67
     1
  8
0
100
AcDbBlockEnd
  0
BLOCK
  5
24
330
23
100
AcDbEntity
  8
0
100
AcDbBlockBegin
  2
*Paper_Space0
 70
     0
 10
0.0
 20
0.0
 30
0.0
  3
*Paper_Space0
  1

  0
ENDBLK
  5
25
330
23
100
AcDbEntity
  8
0
100
AcDbBlockEnd
  0
BLOCK
  5
70
330
6E
100
AcDbEntity
  8
0
100
AcDbBlockBegin
  2
1_072308_0
 70
     2
 10
0.0
 20
0.0
 30
0.0
  3
1_072308_0
  1

  0
ATTDEF
  5
73
330
6E
100
AcDbEntity
  8
AM_6
100
AcDbText
 10
7.75625
 20
2.75625
 30
0.0
 40
0.5
  1
Steel IMPERIAL-HD Piloted Flange 1-1/8 thru 2-1/4 Inch Bore
100
AcDbAttributeDefinition
  3

  2
NN
 70
     8
280
     0
  0
ATTDEF
  5
74
330
6E
100
AcDbEntity
  8
AM_6
100
AcDbText
 10
7.75625
 20
2.25625
 30
0.0
 40
0.5
  1
Steal Imperial Piloted Flange Bearingsi- Inch - 102-204
100
AcDbAttributeDefinition
  3

  2
NT
 70
     8
280
     0
  0
ATTDEF
  5
75
330
6E
100
AcDbEntity
  8
AM_6
100
AcDbText
 10
7.75625
 20
1.75625
 30
0.0
 40
0.5
  1
072308
100
AcDbAttributeDefinition
  3

  2
NB
 70
     8
280
     0
  0
ATTDEF
  5
76
330
6E
100
AcDbEntity
  8
AM_6
100
AcDbText
 10
7.75625
 20
1.25625
 30
0.0
 40
0.5
  1
$PN.
100
AcDbAttributeDefinition
  3

  2
NBSYN
 70
     8
280
     0
  0
ATTDEF
  5
77
330
6E
100
AcDbEntity
  8
AM_6
100
AcDbText
 10
7.75625
 20
0.7562500000000001
 30
0.0
 40
0.5
  1
072308
100
AcDbAttributeDefinition
  3

  2
LINA
 70
     8
280
     0
  0
ATTDEF
  5
78
330
6E
100
AcDbEntity
  8
AM_6
100
AcDbText
 10
7.75625
 20
0.2562500000000001
 30
0.0
 40
0.5
  1
1-3/16
100
AcDbAttributeDefinition
  3

  2
SS
 70
     8
280
     0
  0
ATTDEF
  5
79
330
6E
100
AcDbEntity
  8
AM_6
100
AcDbText
 10
7.75625
 20
-0.2437499999999999
 30
0.0
 40
0.5
  1
072308
100
AcDbAttributeDefinition
  3

  2
PN
 70
     8
280
     0
  0
ATTDEF
  5
7A
330
6E
100
AcDbEntity
  8
AM_6
100
AcDbText
 10
7.75625
 20
-0.7437499999999999
 30
0.0
 40
0.5
  1
Expansion
100
AcDbAttributeDefinition
  3

  2
TYPE
 70
     8
280
     0
  0
ATTDEF
  5
7B
330
6E
100
AcDbEntity
  8
AM_6
100
AcDbText
 10
7.75625
 20
-1.24375
 30
0.0
 40
0.5
  1
Expansion
100
AcDbAttributeDefinition
  3

  2
EF
 70
     8
280
     0
  0
ATTDEF
  5
7C
330
6E
100
AcDbEntity
  8
AM_6
100
AcDbText
 10
7.75625
 20
-1.74375
 30
0.0
 40
0.5
  1
SFC-IP-103RE
100
AcDbAttributeDefinition
  3

  2
DESCRIPTION
 70
     8
280
     0
  0
ATTDEF
  5
7D
330
6E
100
AcDbEntity
  8
AM_6
100
AcDbText
 10
7.75625
 20
-2.24375
 30
0.0
 40
0.5
  1
Contact Seal
100
AcDbAttributeDefinition
  3

  2
ST
 70
     8
280
     0
  0
ATTDEF
  5
7E
330
6E
100
AcDbEntity
  8
AM_6
100
AcDbText
 10
7.75625
 20
-2.74375
 30
0.0
 40
0.5
  1
2.63
100
AcDbAttributeDefinition
  3

  2
A
 70
     8
280
     0
  0
ATTDEF
  5
7F
330
6E
100
AcDbEntity
  8
AM_6
100
AcDbText
 10
7.75625
 20
-3.24375
 30
0.0
 40
0.5
  1
5.25
100
AcDbAttributeDefinition
  3

  2
B
 70
     8
280
     0
  0
ATTDEF
  5
80
330
6E
100
AcDbEntity
  8
AM_6
100
AcDbText
 10
7.75625
 20
-3.74375
 30
0.0
 40
0.5
  1
1.94
100
AcDbAttributeDefinition
  3

  2
C
 70
     8
280
     0
  0
ATTDEF
  5
81
330
6E
100
AcDbEntity
  8
AM_6
100
AcDbText
 10
7.75625
 20
-4.24375
 30
0.0
 40
0.5
  1
3.09
100
AcDbAttributeDefinition
  3

  2
D
 70
     8
280
     0
  0
ATTDEF
  5
82
330
6E
100
AcDbEntity
  8
AM_6
100
AcDbText
 10
7.75625
 20
-4.74375
 30
0.0
 40
0.5
  1
4.3800
100
AcDbAttributeDefinition
  3

  2
DD
 70
     8
280
     0
  0
ATTDEF
  5
83
330
6E
100
AcDbEntity
  8
AM_6
100
AcDbText
 10
7.75625
 20
-5.24375
 30
0.0
 40
0.5
  1
0.00
100
AcDbAttributeDefinition
  3

  2
E
 70
     8
280
     0
  0
ATTDEF
  5
84
330
6E
100
AcDbEntity
  8
AM_6
100
AcDbText
 10
7.75625
 20
-5.74375
 30
0.0
 40
0.5
  1
0.4375
100
AcDbAttributeDefinition
  3

  2
F
 70
     8
280
     0
  0
ATTDEF
  5
85
330
6E
100
AcDbEntity
  8
AM_6
100
AcDbText
 10
7.75625
 20
-6.24375
 30
0.0
 40
0.5
  1
1.61
100
AcDbAttributeDefinition
  3

  2
G
 70
     8
280
     0
  0
ATTDEF
  5
86
330
6E
100
AcDbEntity
  8
AM_6
100
AcDbText
 10
7.75625
 20
-6.74375
 30
0.0
 40
0.5
  1
0.50
100
AcDbAttributeDefinition
  3

  2
H
 70
     8
280
     0
  0
ATTDEF
  5
87
330
6E
100
AcDbEntity
  8
AM_6
100
AcDbText
 10
7.75625
 20
-7.24375
 30
0.0
 40
0.5
  1
3.625
100
AcDbAttributeDefinition
  3

  2
K
 70
     8
280
     0
  0
ATTDEF
  5
88
330
6E
100
AcDbEntity
  8
AM_6
100
AcDbText
 10
7.75625
 20
-7.74375
 30
0.0
 40
0.5
  1
2.72
100
AcDbAttributeDefinition
  3

  2
L
 70
     8
280
     0
  0
ATTDEF
  5
89
330
6E
100
AcDbEntity
  8
AM_6
100
AcDbText
 10
7.75625
 20
-8.24375
 30
0.0
 40
0.5
  1
0.4375
100
AcDbAttributeDefinition
  3

  2
M
 70
     8
280
     0
  0
ATTDEF
  5
8A
330
6E
100
AcDbEntity
  8
AM_6
100
AcDbText
 10
7.75625
 20
-8.74375
 30
0.0
 40
0.5
  1
2.78
100
AcDbAttributeDefinition
  3

  2
N
 70
     8
280
     0
  0
ATTDEF
  5
8B
330
6E
100
AcDbEntity
  8
AM_6
100
AcDbText
 10
7.75625
 20
-9.24375
 30
0.0
 40
0.5
  1
1.02
100
AcDbAttributeDefinition
  3

  2
P
 70
     8
280
     0
  0
ATTDEF
  5
8C
330
6E
100
AcDbEntity
  8
AM_6
100
AcDbText
 10
7.75625
 20
-9.74375
 30
0.0
 40
0.5
  1
1.17
100
AcDbAttributeDefinition
  3

  2
Q
 70
     8
280
     0
  0
ATTDEF
  5
8D
330
6E
100
AcDbEntity
  8
AM_6
100
AcDbText
 10
7.75625
 20
-10.24375
 30
0.0
 40
0.5
  1
0.19
100
AcDbAttributeDefinition
  3

  2
X
 70
     8
280
     0
  0
ATTDEF
  5
8E
330
6E
100
AcDbEntity
  8
AM_6
100
AcDbText
 10
7.75625
 20
-10.74375
 30
0.0
 40
0.5
  1
0.020
100
AcDbAttributeDefinition
  3

  2
Y
 70
     8
280
     0
  0
ATTDEF
  5
8F
330
6E
100
AcDbEntity
  8
AM_6
100
AcDbText
 10
7.75625
 20
-11.24375
 30
0.0
 40
0.5
  1
1.80
100
AcDbAttributeDefinition
  3

  2
Z
 70
     8
280
     0
  0
ATTDEF
  5
90
330
6E
100
AcDbEntity
  8
AM_6
100
AcDbText
 10
7.75625
 20
-11.74375
 30
0.0
 40
0.5
  1
baldor
100
AcDbAttributeDefinition
  3

  2
COMPANY
 70
     8
280
     0
  0
INSERT
  5
92
330
6E
100
AcDbEntity
  8
0
100
AcDbBlockReference
  2
2_405015E_Inch_1_0_in_072308_0
 10
0.0
 20
0.0
 30
0.0
  0
INSERT
  5
D4
330
6E
100
AcDbEntity
  8
0
100
AcDbBlockReference
  2
3_405015E_Inch_2_0_in_072308_0
 10
0.0
 20
0.0
 30
0.0
  0
INSERT
  5
124
330
6E
100
AcDbEntity
  8
0
100
AcDbBlockReference
  2
4_ASME_B18_3_10_1_0_in_072308_0
 10
0.0
 20
0.0
 30
0.0
  0
INSERT
  5
144
330
6E
100
AcDbEntity
  8
0
100
AcDbBlockReference
  2
5_ASME_B18_3_10_2_0_in_072308_0
 10
0.0
 20
0.0
 30
0.0
  0
INSERT
  5
160
330
6E
100
AcDbEntity
  8
0
100
AcDbBlockReference
  2
6_070881LW_0_in_072308_0
 10
0.0
 20
0.0
 30
0.0
  0
INSERT
  5
1A1
330
6E
100
AcDbEntity
  8
0
100
AcDbBlockReference
  2
7_070881I_0_in_072308_0
 10
0.0
 20
0.0
 30
0.0
  0
INSERT
  5
1F7
330
6E
100
AcDbEntity
  8
0
100
AcDbBlockReference
  2
8_B072308_0_in_072308_0
 10
0.0
 20
0.0
 30
0.0
  0
ENDBLK
  5
71
330
6E
100
AcDbEntity
  8
0
100
AcDbBlockEnd
  0
BLOCK
  5
93
330
91
100
AcDbEntity
  8
0
100
AcDbBlockBegin
  2
2_405015E_Inch_1_0_in_072308_0
 70
     2
 10
0.0
 20
0.0
 30
0.0
  3
2_405015E_Inch_1_0_in_072308_0
  1

  0
ATTDEF
  5
95
330
91
100
AcDbEntity
  8
AM_6
100
AcDbText
 10
5.21875
 20
-1.698096968617874
 30
0.0
 40
0.5
  1
405015E -Inch
100
AcDbAttributeDefinition
  3

  2
NN
 70
     8
280
     0
  0
ATTDEF
  5
96
330
91
100
AcDbEntity
  8
AM_6
100
AcDbText
 10
5.21875
 20
-2.198096968617874
 30
0.0
 40
0.5
  1
Grease Fitting
100
AcDbAttributeDefinition
  3

  2
NT
 70
     8
280
     0
  0
ATTDEF
  5
97
330
91
100
AcDbEntity
  8
AM_6
100
AcDbText
 10
5.21875
 20
-2.698096968617874
 30
0.0
 40
0.5
  1
405015E-Inch
100
AcDbAttributeDefinition
  3

  2
NB
 70
     8
280
     0
  0
ATTDEF
  5
98
330
91
100
AcDbEntity
  8
AM_6
100
AcDbText
 10
5.21875
 20
-3.198096968617874
 30
0.0
 40
0.5
  1
$MN.-Inch
100
AcDbAttributeDefinition
  3

  2
NBSYN
 70
     8
280
     0
  0
ATTDEF
  5
99
330
91
100
AcDbEntity
  8
AM_6
100
AcDbText
 10
5.21875
 20
-3.698096968617874
 30
0.0
 40
0.5
  1
405015E
100
AcDbAttributeDefinition
  3

  2
LINA
 70
     8
280
     0
  0
ATTDEF
  5
9A
330
91
100
AcDbEntity
  8
AM_6
100
AcDbText
 10
5.21875
 20
-4.198096968617874
 30
0.0
 40
0.5
  1
405015E
100
AcDbAttributeDefinition
  3

  2
MN
 70
     8
280
     0
  0
ATTDEF
  5
9B
330
91
100
AcDbEntity
  8
AM_6
100
AcDbText
 10
5.21875
 20
-4.698096968617874
 30
0.0
 40
0.5
  1
1/8 x 27PTF
100
AcDbAttributeDefinition
  3

  2
T
 70
     8
280
     0
  0
ATTDEF
  5
9C
330
91
100
AcDbEntity
  8
AM_6
100
AcDbText
 10
5.21875
 20
-5.198096968617874
 30
0.0
 40
0.5
  1
baldor
100
AcDbAttributeDefinition
  3

  2
COMPANY
 70
     8
280
     0
  0
ELLIPSE
  5
9F
330
91
100
AcDbEntity
  8
AM_9
100
AcDbEllipse
 10
0.0
 20
-1.835454411475285
 30
0.0
 11
0.161902872472269
 21
0.0
 31
0.0
210
0.0
220
0.0
230
1.0
 40
0.8019867343145884
 41
0.0
 42
6.283185307179586
  0
LWPOLYLINE
  5
A0
330
91
100
AcDbEntity
  8
AM_9
100
AcDbPolyline
 90
        4
 70
     0
 43
0.0
 10
0.0
 20
-2.201740881631379
 10
-0.0544416102741496
 20
-2.172558772228335
 10
-0.0818700010907651
 20
-2.158783486368647
 10
-0.109375
 20
-2.145680818684434
  0
LWPOLYLINE
  5
A1
330
91
100
AcDbEntity
  8
AM_9
100
AcDbPolyline
 90
        4
 70
     0
 43
0.0
 10
0.109375
 20
-2.145680818684434
 10
0.08203125
 20
-2.15870455404238
 10
0.0546875
 20
-2.172432288288811
 10
0.0
 20
-2.201740881631379
  0
LWPOLYLINE
  5
A2
330
91
100
AcDbEntity
  8
AM_9
100
AcDbPolyline
 90
        4
 70
     0
 43
0.0
 10
-0.1093749999999999
 20
-2.205415003033383
 10
-0.0820312499999999
 20
-2.217713070789509
 10
-0.0546874999999999
 20
-2.22930713965715
 10
0.0
 20
-2.250642152542727
  0
LWPOLYLINE
  5
A3
330
91
100
AcDbEntity
  8
AM_9
100
AcDbPolyline
 90
        4
 70
     0
 43
0.0
 10
0.0
 20
-2.250642152542727
 10
0.0544416102741496
 20
-2.229408363008169
 10
0.0818700010907651
 20
-2.217783463743498
 10
0.109375
 20
-2.205415003033383
  0
LWPOLYLINE
  5
A4
330
91
100
AcDbEntity
  8
AM_9
100
AcDbPolyline
 90
        4
 70
     0
 43
0.0
 10
0.21875
 20
-2.100453669175089
 10
0.1643083897258504
 20
-2.121687458709648
 10
0.1368799989092349
 20
-2.133312357974318
 10
0.109375
 20
-2.145680818684434
  0
LINE
  5
A5
330
91
100
AcDbEntity
  8
AM_9
100
AcDbLine
 10
0.0
 20
-2.250642152542727
 30
0.0
 11
0.0
 21
-2.201740881631379
 31
0.0
  0
LWPOLYLINE
  5
A6
330
91
100
AcDbEntity
  8
AM_9
100
AcDbPolyline
 90
        4
 70
     0
 43
0.0
 10
-0.109375
 20
-2.145680818684434
 10
-0.1367187499999999
 20
-2.133382750928308
 10
-0.1640625
 20
-2.121788682060666
 10
-0.21875
 20
-2.100453669175089
  0
LINE
  5
A7
330
91
100
AcDbEntity
  8
AM_9
100
AcDbLine
 10
-0.130250652723323
 20
-2.195537071290815
 30
0.0
 11
-0.1093749999999999
 21
-2.205415003033383
 31
0.0
  0
LINE
  5
A8
330
91
100
AcDbEntity
  8
AM_9
100
AcDbLine
 10
0.109375
 20
-2.205415003033383
 30
0.0
 11
0.1290328376005791
 21
-2.196124894760248
 31
0.0
  0
LINE
  5
A9
330
91
100
AcDbEntity
  8
AM_9
100
AcDbLine
 10
-0.1984427182454455
 20
-1.850702216785825
 30
0.0
 11
-0.2055707060384885
 21
-1.9868264791451
 31
0.0
  0
LINE
  5
AA
330
91
100
AcDbEntity
  8
AM_9
100
AcDbLine
 10
0.2055707060384885
 20
-1.9868264791451
 30
0.0
 11
0.1984427182454455
 21
-1.850702216785825
 31
0.0
  0
ELLIPSE
  5
AB
330
91
100
AcDbEntity
  8
AM_9
100
AcDbEllipse
 10
0.0000000000000336
 20
-2.053484184348925
 30
0.0
 11
-0.2187499999999381
 21
2.678914873134077E-17
 31
0.0
210
0.0
220
0.0
230
1.0
 40
0.8019867343148412
 41
0.9243407851371925
 42
2.217251868452355
  0
ELLIPSE
  5
AC
330
91
100
AcDbEntity
  8
AM_9
100
AcDbEllipse
 10
0.0
 20
-2.053484184348949
 30
0.0
 11
-0.2137500000000002
 21
2.617682533177471E-17
 31
0.0
210
0.0
220
0.0
230
1.0
 40
0.8019867343145873
 41
0.8979768006671165
 42
2.243615852922678
  0
LINE
  5
AD
330
91
100
AcDbEntity
  8
AM_9
100
AcDbLine
 10
0.0858768093776716
 20
-2.164658443113518
 30
0.0
 11
0.0971799074502708
 21
-2.151773460986278
 31
0.0
  0
LINE
  5
AE
330
91
100
AcDbEntity
  8
AM_9
100
AcDbLine
 10
-0.0971799074502708
 20
-2.151773460986278
 30
0.0
 11
-0.0858768093776716
 21
-2.164658443113518
 31
0.0
  0
ELLIPSE
  5
AF
330
91
100
AcDbEntity
  8
AM_9
100
AcDbEllipse
 10
0.0
 20
-2.096942668136202
 30
0.0
 11
-0.1188200907348975
 21
1.455126437928903E-17
 31
0.0
210
0.0
220
0.0
230
1.0
 40
0.8019867343145879
 41
0.1945831333051711
 42
2.947009520284622
  0
ELLIPSE
  5
B0
330
91
100
AcDbEntity
  8
AM_9
100
AcDbEllipse
 10
0.0
 20
-2.064426410834765
 30
0.0
 11
-0.1725340532830159
 21
2.112932760969643E-17
 31
0.0
210
0.0
220
0.0
230
1.0
 40
0.8019867343145884
 41
0.6887352812740426
 42
2.452857372315752
  0
ELLIPSE
  5
B1
330
91
100
AcDbEntity
  8
AM_9
100
AcDbEllipse
 10
-0.0000000000000027
 20
-2.116205077915353
 30
0.0
 11
-0.1049999999999973
 21
1.285879139104688E-17
 31
0.0
210
0.0
220
0.0
230
1.0
 40
0.8019867343145913
 41
6.089728843389864
 42
9.618234424559093
  0
LINE
  5
B2
330
91
100
AcDbEntity
  8
AM_9
100
AcDbLine
 10
-0.105
 20
-2.116205077915345
 30
0.0
 11
-0.105
 21
-2.13412533322003
 31
0.0
  0
LINE
  5
B3
330
91
100
AcDbEntity
  8
AM_9
100
AcDbLine
 10
0.105
 20
-2.13412533322003
 30
0.0
 11
0.105
 21
-2.116205077915345
 31
0.0
  0
ELLIPSE
  5
B4
330
91
100
AcDbEntity
  8
AM_9
100
AcDbEllipse
 10
0.0
 20
-2.13412533322003
 30
0.0
 11
-0.1050000000000004
 21
1.285879139104725E-17
 31
0.0
210
0.0
220
0.0
230
1.0
 40
0.8019867343145889
 41
5.54722896043546
 42
10.16073430751351
  0
ELLIPSE
  5
B5
330
91
100
AcDbEntity
  8
AM_9
100
AcDbEllipse
 10
0.0
 20
-2.1699658438294
 30
0.0
 11
-0.135
 21
1.653273178848926E-17
 31
0.0
210
0.0
220
0.0
230
1.0
 40
0.8019867343145882
 41
0.5733419464662433
 42
2.568250707123551
  0
ELLIPSE
  5
B6
330
91
100
AcDbEntity
  8
AM_9
100
AcDbEllipse
 10
0.0000000000000001
 20
-1.99375
 30
0.0
 11
-0.2057518972230697
 21
2.519734023527274E-17
 31
0.0
210
0.0
220
0.0
230
1.0
 40
0.8019867343145858
 41
0.0
 42
6.283185307179586
  0
ELLIPSE
  5
B7
330
91
100
AcDbEntity
  8
AM_9
100
AcDbEllipse
 10
0.0000000000000001
 20
-1.857385670497455
 30
0.0
 11
-0.1986176267812155
 21
2.959633296930010E-9
 31
0.0
210
0.0
220
0.0
230
1.0
 40
0.8019867343145884
 41
0.0
 42
6.283185307179586
  0
ELLIPSE
  5
B8
330
91
100
AcDbEntity
  8
AM_9
100
AcDbEllipse
 10
-0.0000000000000002
 20
-1.993750000000001
 30
0.0
 11
-0.2187500000000002
 21
2.678914873134838E-17
 31
0.0
210
0.0
220
0.0
230
1.0
 40
0.8019867343145882
 41
0.0
 42
6.283185307179586
  0
LWPOLYLINE
  5
BA
330
91
100
AcDbEntity
  8
AM_4
100
AcDbPolyline
 90
        4
 70
     0
 43
0.0
 10
-0.21875
 20
-2.149354940086438
 10
-0.1643083897258504
 20
-2.178537049489482
 10
-0.1368799989092348
 20
-2.19231233534917
 10
-0.130250652723323
 20
-2.195537071290815
  0
LWPOLYLINE
  5
BB
330
91
100
AcDbEntity
  8
AM_4
100
AcDbPolyline
 90
        4
 70
     0
 43
0.0
 10
0.1290328376005791
 20
-2.196124894760248
 10
0.13671875
 20
-2.192391267675437
 10
0.1640625
 20
-2.178663533429006
 10
0.21875
 20
-2.149354940086438
  0
ELLIPSE
  5
BC
330
91
100
AcDbEntity
  8
AM_4
100
AcDbEllipse
 10
-0.0000000000000005
 20
-2.053484184348949
 30
0.0
 11
-0.2187499999999995
 21
3.259629037943316E-9
 31
0.0
210
0.0
220
0.0
230
1.0
 40
0.8019867343145878
 41
2.217251882808479
 42
7.207526106673049
  0
ELLIPSE
  5
BD
330
91
100
AcDbEntity
  8
AM_4
100
AcDbEllipse
 10
-0.0000000000000002
 20
-2.053484184348949
 30
0.0
 11
-0.2137500000000003
 21
2.617682533177471E-17
 31
0.0
210
0.0
220
0.0
230
1.0
 40
0.8019867343145874
 41
2.243615852922678
 42
7.181162107846703
  0
LWPOLYLINE
  5
BE
330
91
100
AcDbEntity
  8
AM_4
100
AcDbPolyline
 90
        4
 70
     0
 43
0.0
 10
0.109375
 20
-1.901553365664515
 10
0.08203125
 20
-1.888529630306569
 10
0.0546875
 20
-1.874801896060138
 10
0.0
 20
-1.84549330271757
  0
LWPOLYLINE
  5
BF
330
91
100
AcDbEntity
  8
AM_4
100
AcDbPolyline
 90
        4
 70
     0
 43
0.0
 10
0.21875
 20
-1.946780515173859
 10
0.1643083897258504
 20
-1.925546725639301
 10
0.1368799989092349
 20
-1.913921826374631
 10
0.109375
 20
-1.901553365664515
  0
LINE
  5
C0
330
91
100
AcDbEntity
  8
AM_4
100
AcDbLine
 10
0.21875
 20
-2.149354940086438
 30
0.0
 11
0.21875
 21
-1.897879244262511
 31
0.0
  0
LWPOLYLINE
  5
C1
330
91
100
AcDbEntity
  8
AM_4
100
AcDbPolyline
 90
        4
 70
     0
 43
0.0
 10
0.109375
 20
-1.841819181315566
 10
0.1367187499999999
 20
-1.854842916673513
 10
0.1640625
 20
-1.868570650919943
 10
0.21875
 20
-1.897879244262511
  0
LWPOLYLINE
  5
C2
330
91
100
AcDbEntity
  8
AM_4
100
AcDbPolyline
 90
        4
 70
     0
 43
0.0
 10
0.0
 20
-1.796592031806222
 10
0.0544416102741496
 20
-1.81782582134078
 10
0.0818700010907651
 20
-1.829450720605451
 10
0.109375
 20
-1.841819181315566
  0
LINE
  5
C3
330
91
100
AcDbEntity
  8
AM_4
100
AcDbLine
 10
-0.21875
 20
-2.149354940086438
 30
0.0
 11
-0.21875
 21
-1.897879244262511
 31
0.0
  0
LWPOLYLINE
  5
C4
330
91
100
AcDbEntity
  8
AM_4
100
AcDbPolyline
 90
        4
 70
     0
 43
0.0
 10
-0.1093749999999999
 20
-1.901553365664515
 10
-0.1367187499999999
 20
-1.913851433420641
 10
-0.1640625
 20
-1.925445502288283
 10
-0.21875
 20
-1.946780515173859
  0
LWPOLYLINE
  5
C5
330
91
100
AcDbEntity
  8
AM_4
100
AcDbPolyline
 90
        4
 70
     0
 43
0.0
 10
0.0
 20
-1.84549330271757
 10
-0.0544416102741496
 20
-1.874675412120614
 10
-0.0818700010907651
 20
-1.888450697980302
 10
-0.1093749999999999
 20
-1.901553365664515
  0
LINE
  5
C6
330
91
100
AcDbEntity
  8
AM_4
100
AcDbLine
 10
0.0
 20
-1.84549330271757
 30
0.0
 11
0.0
 21
-1.796592031806222
 31
0.0
  0
LWPOLYLINE
  5
C7
330
91
100
AcDbEntity
  8
AM_4
100
AcDbPolyline
 90
        4
 70
     0
 43
0.0
 10
-0.109375
 20
-1.841819181315566
 10
-0.08203125
 20
-1.82952111355944
 10
-0.0546875
 20
-1.817927044691799
 10
0.0
 20
-1.796592031806222
  0
LWPOLYLINE
  5
C8
330
91
100
AcDbEntity
  8
AM_4
100
AcDbPolyline
 90
        4
 70
     0
 43
0.0
 10
-0.21875
 20
-1.897879244262511
 10
-0.1643083897258504
 20
-1.868697134859467
 10
-0.1368799989092349
 20
-1.854921848999779
 10
-0.109375
 20
-1.841819181315566
  0
ELLIPSE
  5
C9
330
91
100
AcDbEntity
  8
AM_4
100
AcDbEllipse
 10
0.0000000000000006
 20
-2.096942668136202
 30
0.0
 11
-0.1188200907348969
 21
1.770557339659567E-9
 31
0.0
210
0.0
220
0.0
230
1.0
 40
0.8019867343145881
 41
2.947009538617057
 42
6.477768458817204
  0
ELLIPSE
  5
CA
330
91
100
AcDbEntity
  8
AM_4
100
AcDbEllipse
 10
0.0000000000000002
 20
-2.064426410834766
 30
0.0
 11
-0.1725340532830154
 21
2.112932760969636E-17
 31
0.0
210
0.0
220
0.0
230
1.0
 40
0.8019867343145881
 41
2.452857372315753
 42
6.971920588453626
  0
ELLIPSE
  5
CB
330
91
100
AcDbEntity
  8
AM_4
100
AcDbEllipse
 10
-0.0000000000000005
 20
-2.116205077915345
 30
0.0
 11
-0.1049999999999995
 21
1.564621938212788E-9
 31
0.0
210
0.0
220
0.0
230
1.0
 40
0.8019867343145869
 41
3.335049135714687
 42
6.089728861725226
  0
ELLIPSE
  5
CC
330
91
100
AcDbEntity
  8
AM_4
100
AcDbEllipse
 10
-0.0000000000000001
 20
-2.13412533322003
 30
0.0
 11
-0.1049999999999996
 21
1.285879139104716E-17
 31
0.0
210
0.0
220
0.0
230
1.0
 40
0.801986734314595
 41
3.87754900033392
 42
5.54722896043546
  0
LINE
  5
CD
330
91
100
AcDbEntity
  8
AM_4
100
AcDbLine
 10
-0.0778248555439209
 20
-2.077596407155495
 30
0.0
 11
-0.1000605285564698
 21
-2.09728579603214
 31
0.0
  0
LINE
  5
CE
330
91
100
AcDbEntity
  8
AM_4
100
AcDbLine
 10
0.1000605285564698
 20
-2.09728579603214
 30
0.0
 11
0.0778248555439209
 21
-2.077596407155495
 31
0.0
  0
ELLIPSE
  5
CF
330
91
100
AcDbEntity
  8
AM_4
100
AcDbEllipse
 10
0.0000000000000012
 20
-2.169965843829399
 30
0.0
 11
-0.1349999999999975
 21
1.653273178848897E-17
 31
0.0
210
0.0
220
0.0
230
1.0
 40
0.801986734314596
 41
2.568250707123544
 42
6.856527253645828
  0
LINE
  5
D0
330
91
100
AcDbEntity
  8
AM_4
100
AcDbLine
 10
0.0862589718497728
 20
-2.262421342141182
 30
0.0
 11
0.1134125355161299
 21
-2.22869513463949
 31
0.0
  0
LINE
  5
D1
330
91
100
AcDbEntity
  8
AM_4
100
AcDbLine
 10
-0.1134125355161299
 20
-2.22869513463949
 30
0.0
 11
-0.0862589718497728
 21
-2.262421342141182
 31
0.0
  0
ELLIPSE
  5
D2
330
91
100
AcDbEntity
  8
AM_4
100
AcDbEllipse
 10
-0.0000000000000001
 20
-2.217753191308559
 30
0.0
 11
-0.1026779019331874
 21
1.257441639456438E-17
 31
0.0
210
0.0
220
0.0
230
1.0
 40
0.8019867343145878
 41
0.0
 42
6.283185307179586
  0
ENDBLK
  5
94
330
91
100
AcDbEntity
  8
0
100
AcDbBlockEnd
  0
BLOCK
  5
D5
330
D3
100
AcDbEntity
  8
0
100
AcDbBlockBegin
  2
3_405015E_Inch_2_0_in_072308_0
 70
     2
 10
0.0
 20
0.0
 30
0.0
  3
3_405015E_Inch_2_0_in_072308_0
  1

  0
ATTDEF
  5
D7
330
D3
100
AcDbEntity
  8
AM_6
100
AcDbText
 10
5.218750000000002
 20
2.300041541668097
 30
0.0
 40
0.5
  1
405015E -Inch
100
AcDbAttributeDefinition
  3

  2
NN
 70
     8
280
     0
  0
ATTDEF
  5
D8
330
D3
100
AcDbEntity
  8
AM_6
100
AcDbText
 10
5.218750000000002
 20
1.800041541668097
 30
0.0
 40
0.5
  1
Grease Fitting
100
AcDbAttributeDefinition
  3

  2
NT
 70
     8
280
     0
  0
ATTDEF
  5
D9
330
D3
100
AcDbEntity
  8
AM_6
100
AcDbText
 10
5.218750000000002
 20
1.300041541668097
 30
0.0
 40
0.5
  1
405015E-Inch
100
AcDbAttributeDefinition
  3

  2
NB
 70
     8
280
     0
  0
ATTDEF
  5
DA
330
D3
100
AcDbEntity
  8
AM_6
100
AcDbText
 10
5.218750000000002
 20
0.8000415416680968
 30
0.0
 40
0.5
  1
$MN.-Inch
100
AcDbAttributeDefinition
  3

  2
NBSYN
 70
     8
280
     0
  0
ATTDEF
  5
DB
330
D3
100
AcDbEntity
  8
AM_6
100
AcDbText
 10
5.218750000000002
 20
0.3000415416680968
 30
0.0
 40
0.5
  1
405015E
100
AcDbAttributeDefinition
  3

  2
LINA
 70
     8
280
     0
  0
ATTDEF
  5
DC
330
D3
100
AcDbEntity
  8
AM_6
100
AcDbText
 10
5.218750000000002
 20
-0.1999584583319032
 30
0.0
 40
0.5
  1
405015E
100
AcDbAttributeDefinition
  3

  2
MN
 70
     8
280
     0
  0
ATTDEF
  5
DD
330
D3
100
AcDbEntity
  8
AM_6
100
AcDbText
 10
5.218750000000002
 20
-0.6999584583319032
 30
0.0
 40
0.5
  1
1/8 x 27PTF
100
AcDbAttributeDefinition
  3

  2
T
 70
     8
280
     0
  0
ATTDEF
  5
DE
330
D3
100
AcDbEntity
  8
AM_6
100
AcDbText
 10
5.218750000000002
 20
-1.199958458331903
 30
0.0
 40
0.5
  1
baldor
100
AcDbAttributeDefinition
  3

  2
COMPANY
 70
     8
280
     0
  0
ELLIPSE
  5
DF
330
D3
100
AcDbEntity
  8
AM_9
100
AcDbEllipse
 10
0.0
 20
1.835454411475286
 30
0.0
 11
-0.161902872472269
 21
1.982738345459263E-17
 31
0.0
210
0.0
220
0.0
230
1.0
 40
0.8019867343145898
 41
0.0
 42
6.283185307179586
  0
ELLIPSE
  5
E0
330
D3
100
AcDbEntity
  8
AM_9
100
AcDbEllipse
 10
0.0
 20
1.993749999999998
 30
0.0
 11
0.2187500000000027
 21
0.0
 31
0.0
210
0.0
220
0.0
230
1.0
 40
0.801986734314587
 41
1.047197551196605
 42
2.094395102393188
  0
LWPOLYLINE
  5
E1
330
D3
100
AcDbEntity
  8
AM_9
100
AcDbPolyline
 90
        4
 70
     0
 43
0.0
 10
-0.109375
 20
2.145680818684434
 10
-0.08203125
 20
2.158704554042381
 10
-0.0546875
 20
2.172432288288812
 10
0.0
 20
2.201740881631379
  0
LWPOLYLINE
  5
E2
330
D3
100
AcDbEntity
  8
AM_9
100
AcDbPolyline
 90
        4
 70
     0
 43
0.0
 10
0.0
 20
2.201740881631379
 10
0.0544416102741496
 20
2.172558772228335
 10
0.0818700010907651
 20
2.158783486368647
 10
0.109375
 20
2.145680818684434
  0
LWPOLYLINE
  5
E3
330
D3
100
AcDbEntity
  8
AM_9
100
AcDbPolyline
 90
        4
 70
     0
 43
0.0
 10
0.0
 20
2.250642152542727
 10
-0.0544416102741496
 20
2.229408363008169
 10
-0.0818700010907651
 20
2.217783463743499
 10
-0.109375
 20
2.205415003033383
  0
LWPOLYLINE
  5
E4
330
D3
100
AcDbEntity
  8
AM_9
100
AcDbPolyline
 90
        4
 70
     0
 43
0.0
 10
0.1093749999999999
 20
2.205415003033383
 10
0.0820312499999999
 20
2.217713070789509
 10
0.0546874999999999
 20
2.229307139657151
 10
0.0
 20
2.250642152542727
  0
LWPOLYLINE
  5
E5
330
D3
100
AcDbEntity
  8
AM_9
100
AcDbPolyline
 90
        4
 70
     0
 43
0.0
 10
0.109375
 20
2.145680818684434
 10
0.1367187499999999
 20
2.133382750928308
 10
0.1640625
 20
2.121788682060667
 10
0.21875
 20
2.10045366917509
  0
LINE
  5
E6
330
D3
100
AcDbEntity
  8
AM_9
100
AcDbLine
 10
0.0
 20
2.250642152542727
 30
0.0
 11
0.0
 21
2.201740881631379
 31
0.0
  0
LWPOLYLINE
  5
E7
330
D3
100
AcDbEntity
  8
AM_9
100
AcDbPolyline
 90
        4
 70
     0
 43
0.0
 10
-0.21875
 20
2.10045366917509
 10
-0.1643083897258504
 20
2.121687458709649
 10
-0.1368799989092349
 20
2.133312357974319
 10
-0.109375
 20
2.145680818684434
  0
ELLIPSE
  5
E8
330
D3
100
AcDbEntity
  8
AM_9
100
AcDbEllipse
 10
0.0000000000000007
 20
1.993750000000001
 30
0.0
 11
0.2187500000000007
 21
3.259629011154186E-9
 31
0.0
210
0.0
220
0.0
230
1.0
 40
0.8019867343145873
 41
2.09439508878522
 42
3.141592638688632
  0
LINE
  5
E9
330
D3
100
AcDbEntity
  8
AM_9
100
AcDbLine
 10
-0.109375
 20
2.205415003033383
 30
0.0
 11
-0.1290328376005789
 21
2.196124894760248
 31
0.0
  0
LINE
  5
EA
330
D3
100
AcDbEntity
  8
AM_9
100
AcDbLine
 10
0.1302506527233226
 20
2.195537071290815
 30
0.0
 11
0.1093749999999999
 21
2.205415003033383
 31
0.0
  0
ELLIPSE
  5
EB
330
D3
100
AcDbEntity
  8
AM_9
100
AcDbEllipse
 10
-0.0000000000000002
 20
1.99375
 30
0.0
 11
0.2057518972230698
 21
0.0
 31
0.0
210
0.0
220
0.0
230
1.0
 40
0.8019867343145896
 41
4.71238898038469
 42
6.241214871070907
  0
ELLIPSE
  5
EC
330
D3
100
AcDbEntity
  8
AM_9
100
AcDbEllipse
 10
-0.0000000000000002
 20
1.857385670497456
 30
0.0
 11
0.1986176267812156
 21
0.0
 31
0.0
210
0.0
220
0.0
230
1.0
 40
0.8019867343145881
 41
4.71238898038469
 42
6.241214871070907
  0
LINE
  5
ED
330
D3
100
AcDbEntity
  8
AM_9
100
AcDbLine
 10
0.1984427182454455
 20
1.850702216785826
 30
0.0
 11
0.2055707060384885
 21
1.9868264791451
 31
0.0
  0
LINE
  5
EE
330
D3
100
AcDbEntity
  8
AM_9
100
AcDbLine
 10
-0.2055707060384885
 20
1.9868264791451
 30
0.0
 11
-0.1984427182454455
 21
1.850702216785826
 31
0.0
  0
ELLIPSE
  5
EF
330
D3
100
AcDbEntity
  8
AM_9
100
AcDbEllipse
 10
0.0
 20
1.99375
 30
0.0
 11
0.2057518972230696
 21
0.0
 31
0.0
210
0.0
220
0.0
230
1.0
 40
0.801986734314588
 41
6.241214871070909
 42
10.99557428756428
  0
ELLIPSE
  5
F0
330
D3
100
AcDbEntity
  8
AM_9
100
AcDbEllipse
 10
0.0
 20
1.857385670497455
 30
0.0
 11
0.1986176267812155
 21
0.0
 31
0.0
210
0.0
220
0.0
230
1.0
 40
0.8019867343145854
 41
6.241214871070909
 42
10.99557428756428
  0
ELLIPSE
  5
F1
330
D3
100
AcDbEntity
  8
AM_9
100
AcDbEllipse
 10
0.0000000000000001
 20
1.99375
 30
0.0
 11
0.2187500000000001
 21
3.259629011154178E-9
 31
0.0
210
0.0
220
0.0
230
1.0
 40
0.8019867343145896
 41
3.141592638688632
 42
4.188790191178413
  0
ELLIPSE
  5
F2
330
D3
100
AcDbEntity
  8
AM_9
100
AcDbEllipse
 10
0.0
 20
1.993750000000002
 30
0.0
 11
0.2187500000000017
 21
0.0
 31
0.0
210
0.0
220
0.0
230
1.0
 40
0.8019867343145908
 41
4.188790204786395
 42
7.330382858376179
  0
ELLIPSE
  5
F3
330
D3
100
AcDbEntity
  8
AM_9
100
AcDbEllipse
 10
0.0000000000000197
 20
2.053484184348929
 30
0.0
 11
0.2187500000000366
 21
0.0
 31
0.0
210
0.0
220
0.0
230
1.0
 40
0.8019867343145716
 41
2.094395102393205
 42
2.217251868452421
  0
ELLIPSE
  5
F4
330
D3
100
AcDbEntity
  8
AM_9
100
AcDbEllipse
 10
-0.0000000000000013
 20
2.053484184348979
 30
0.0
 11
0.2187500000000037
 21
3.259629011154231E-9
 31
0.0
210
0.0
220
0.0
230
1.0
 40
0.8019867343144645
 41
0.9243407707812583
 42
2.09439508878523
  0
ELLIPSE
  5
F5
330
D3
100
AcDbEntity
  8
AM_9
100
AcDbEllipse
 10
0.0
 20
2.05348418434895
 30
0.0
 11
0.2137499999999992
 21
0.0
 31
0.0
210
0.0
220
0.0
230
1.0
 40
0.8019867343145913
 41
0.8979768006670952
 42
2.243615852922698
  0
LINE
  5
F6
330
D3
100
AcDbEntity
  8
AM_9
100
AcDbLine
 10
-0.0858768093776714
 20
2.164658443113519
 30
0.0
 11
-0.0971799074502706
 21
2.151773460986279
 31
0.0
  0
LINE
  5
F7
330
D3
100
AcDbEntity
  8
AM_9
100
AcDbLine
 10
0.0971799074502706
 20
2.151773460986279
 30
0.0
 11
0.0858768093776714
 21
2.164658443113519
 31
0.0
  0
ELLIPSE
  5
F8
330
D3
100
AcDbEntity
  8
AM_9
100
AcDbEllipse
 10
0.0
 20
2.116205077915345
 30
0.0
 11
0.1050000000000003
 21
1.564621925354008E-9
 31
0.0
210
0.0
220
0.0
230
1.0
 40
0.8019867343145894
 41
0.6130892400374046
 42
3.141592638688632
  0
ELLIPSE
  5
F9
330
D3
100
AcDbEntity
  8
AM_9
100
AcDbEllipse
 10
0.0
 20
2.096942668136202
 30
0.0
 11
0.1188200907348976
 21
1.770557325108314E-9
 31
0.0
210
0.0
220
0.0
230
1.0
 40
0.8019867343145869
 41
0.6130892400374046
 42
2.947009501952133
  0
ELLIPSE
  5
FA
330
D3
100
AcDbEntity
  8
AM_9
100
AcDbEllipse
 10
-0.0000000000000006
 20
2.0969426681362
 30
0.0
 11
0.1188200907348981
 21
1.770557325108322E-9
 31
0.0
210
0.0
220
0.0
230
1.0
 40
0.8019867343145983
 41
0.1945831149727972
 42
0.6130892400374133
  0
ELLIPSE
  5
FB
330
D3
100
AcDbEntity
  8
AM_9
100
AcDbEllipse
 10
0.0
 20
2.064426410834766
 30
0.0
 11
0.1725340532830158
 21
0.0
 31
0.0
210
0.0
220
0.0
230
1.0
 40
0.8019867343145884
 41
0.6887352812740799
 42
2.452857372315715
  0
ELLIPSE
  5
FC
330
D3
100
AcDbEntity
  8
AM_9
100
AcDbEllipse
 10
0.0000000000000064
 20
2.116205077915347
 30
0.0
 11
0.1049999999999936
 21
1.564621925353908E-9
 31
0.0
210
0.0
220
0.0
230
1.0
 40
0.80198673431459
 41
6.089728825054566
 42
6.896274547217007
  0
LINE
  5
FD
330
D3
100
AcDbEntity
  8
AM_9
100
AcDbLine
 10
0.105
 20
2.116205077915345
 30
0.0
 11
0.105
 21
2.13412533322003
 31
0.0
  0
LINE
  5
FE
330
D3
100
AcDbEntity
  8
AM_9
100
AcDbLine
 10
-0.105
 20
2.13412533322003
 30
0.0
 11
-0.105
 21
2.116205077915345
 31
0.0
  0
ELLIPSE
  5
FF
330
D3
100
AcDbEntity
  8
AM_9
100
AcDbEllipse
 10
0.0
 20
2.13412533322003
 30
0.0
 11
0.1050000000000001
 21
0.0
 31
0.0
210
0.0
220
0.0
230
1.0
 40
0.801986734314591
 41
0.0
 42
3.877549000333928
  0
ELLIPSE
  5
100
330
D3
100
AcDbEntity
  8
AM_9
100
AcDbEllipse
 10
-0.0000000000000062
 20
2.116205077915347
 30
0.0
 11
0.1049999999999938
 21
0.0
 31
0.0
210
0.0
220
0.0
230
1.0
 40
0.8019867343145883
 41
3.141592653589793
 42
3.335049117379547
  0
ELLIPSE
  5
101
330
D3
100
AcDbEntity
  8
AM_9
100
AcDbEllipse
 10
-0.0000000000000022
 20
2.134125333220029
 30
0.0
 11
0.1050000000000023
 21
1.564621925354039E-9
 31
0.0
210
0.0
220
0.0
230
1.0
 40
0.8019867343145823
 41
5.547228944842791
 42
6.283187037607677
  0
ELLIPSE
  5
102
330
D3
100
AcDbEntity
  8
AM_9
100
AcDbEllipse
 10
0.0
 20
2.169965843829399
 30
0.0
 11
0.1350000000000005
 21
0.0
 31
0.0
210
0.0
220
0.0
230
1.0
 40
0.8019867343145886
 41
0.5733419464662504
 42
2.568250707123544
  0
LWPOLYLINE
  5
103
330
D3
100
AcDbEntity
  8
AM_4
100
AcDbPolyline
 90
        4
 70
     0
 43
0.0
 10
-0.1290328376005789
 20
2.196124894760248
 10
-0.13671875
 20
2.192391267675437
 10
-0.1640625
 20
2.178663533429006
 10
-0.21875
 20
2.149354940086438
  0
LWPOLYLINE
  5
104
330
D3
100
AcDbEntity
  8
AM_4
100
AcDbPolyline
 90
        4
 70
     0
 43
0.0
 10
0.21875
 20
2.149354940086438
 10
0.1643083897258504
 20
2.178537049489483
 10
0.1368799989092348
 20
2.19231233534917
 10
0.1302506527233226
 20
2.195537071290815
  0
ELLIPSE
  5
105
330
D3
100
AcDbEntity
  8
AM_4
100
AcDbEllipse
 10
-0.000000000000001
 20
2.053484184348949
 30
0.0
 11
0.218750000000001
 21
0.0
 31
0.0
210
0.0
220
0.0
230
1.0
 40
0.8019867343145883
 41
2.217251868452423
 42
7.207526092316947
  0
ELLIPSE
  5
106
330
D3
100
AcDbEntity
  8
AM_4
100
AcDbEllipse
 10
0.0000000000000001
 20
2.053484184348949
 30
0.0
 11
0.2137500000000001
 21
0.0
 31
0.0
210
0.0
220
0.0
230
1.0
 40
0.80198673431459
 41
2.243615852922697
 42
4.71238898038469
  0
ELLIPSE
  5
107
330
D3
100
AcDbEntity
  8
AM_4
100
AcDbEllipse
 10
-0.0000000000000001
 20
2.053484184348949
 30
0.0
 11
0.2137500000000001
 21
0.0
 31
0.0
210
0.0
220
0.0
230
1.0
 40
0.8019867343145899
 41
4.71238898038469
 42
7.181162107846681
  0
LINE
  5
108
330
D3
100
AcDbEntity
  8
AM_4
100
AcDbLine
 10
0.21875
 20
2.149354940086438
 30
0.0
 11
0.21875
 21
1.897879244262511
 31
0.0
  0
LWPOLYLINE
  5
109
330
D3
100
AcDbEntity
  8
AM_4
100
AcDbPolyline
 90
        4
 70
     0
 43
0.0
 10
0.1093749999999999
 20
1.901553365664515
 10
0.1367187499999999
 20
1.913851433420641
 10
0.1640625
 20
1.925445502288283
 10
0.21875
 20
1.946780515173859
  0
LWPOLYLINE
  5
10A
330
D3
100
AcDbEntity
  8
AM_4
100
AcDbPolyline
 90
        4
 70
     0
 43
0.0
 10
0.0
 20
1.84549330271757
 10
0.0544416102741496
 20
1.874675412120614
 10
0.0818700010907651
 20
1.888450697980302
 10
0.1093749999999999
 20
1.901553365664515
  0
LWPOLYLINE
  5
10B
330
D3
100
AcDbEntity
  8
AM_4
100
AcDbPolyline
 90
        4
 70
     0
 43
0.0
 10
0.109375
 20
1.841819181315566
 10
0.08203125
 20
1.82952111355944
 10
0.0546875
 20
1.817927044691799
 10
0.0
 20
1.796592031806222
  0
LWPOLYLINE
  5
10C
330
D3
100
AcDbEntity
  8
AM_4
100
AcDbPolyline
 90
        4
 70
     0
 43
0.0
 10
0.21875
 20
1.897879244262511
 10
0.1643083897258504
 20
1.868697134859467
 10
0.1368799989092349
 20
1.854921848999779
 10
0.109375
 20
1.841819181315566
  0
LINE
  5
10D
330
D3
100
AcDbEntity
  8
AM_4
100
AcDbLine
 10
0.0
 20
1.84549330271757
 30
0.0
 11
0.0
 21
1.796592031806222
 31
0.0
  0
LWPOLYLINE
  5
10E
330
D3
100
AcDbEntity
  8
AM_4
100
AcDbPolyline
 90
        4
 70
     0
 43
0.0
 10
-0.109375
 20
1.901553365664515
 10
-0.08203125
 20
1.888529630306569
 10
-0.0546875
 20
1.874801896060138
 10
0.0
 20
1.84549330271757
  0
LWPOLYLINE
  5
10F
330
D3
100
AcDbEntity
  8
AM_4
100
AcDbPolyline
 90
        4
 70
     0
 43
0.0
 10
-0.21875
 20
1.946780515173859
 10
-0.1643083897258504
 20
1.925546725639301
 10
-0.1368799989092349
 20
1.91392182637463
 10
-0.109375
 20
1.901553365664515
  0
LINE
  5
110
330
D3
100
AcDbEntity
  8
AM_4
100
AcDbLine
 10
-0.21875
 20
2.149354940086438
 30
0.0
 11
-0.21875
 21
1.897879244262511
 31
0.0
  0
LWPOLYLINE
  5
111
330
D3
100
AcDbEntity
  8
AM_4
100
AcDbPolyline
 90
        4
 70
     0
 43
0.0
 10
-0.109375
 20
1.841819181315566
 10
-0.1367187499999999
 20
1.854842916673513
 10
-0.1640625
 20
1.868570650919944
 10
-0.21875
 20
1.897879244262511
  0
LWPOLYLINE
  5
112
330
D3
100
AcDbEntity
  8
AM_4
100
AcDbPolyline
 90
        4
 70
     0
 43
0.0
 10
0.0
 20
1.796592031806222
 10
-0.0544416102741496
 20
1.81782582134078
 10
-0.0818700010907651
 20
1.829450720605451
 10
-0.109375
 20
1.841819181315566
  0
ELLIPSE
  5
113
330
D3
100
AcDbEntity
  8
AM_4
100
AcDbEllipse
 10
0.0000000000000001
 20
2.096942668136202
 30
0.0
 11
0.1188200907348976
 21
1.770557325108314E-9
 31
0.0
210
0.0
220
0.0
230
1.0
 40
0.8019867343145908
 41
2.947009501952135
 42
4.712388968434154
  0
ELLIPSE
  5
114
330
D3
100
AcDbEntity
  8
AM_4
100
AcDbEllipse
 10
-0.0000000000000001
 20
2.096942668136202
 30
0.0
 11
0.1188200907348976
 21
1.770557325108314E-9
 31
0.0
210
0.0
220
0.0
230
1.0
 40
0.8019867343145908
 41
4.712388968434154
 42
6.477768422152364
  0
ELLIPSE
  5
115
330
D3
100
AcDbEntity
  8
AM_4
100
AcDbEllipse
 10
0.0000000000000001
 20
2.064426410834766
 30
0.0
 11
0.1725340532830155
 21
0.0
 31
0.0
210
0.0
220
0.0
230
1.0
 40
0.80198673431459
 41
2.452857372315718
 42
6.971920588453662
  0
ELLIPSE
  5
116
330
D3
100
AcDbEntity
  8
AM_4
100
AcDbEllipse
 10
0.0000000000000007
 20
2.116205077915345
 30
0.0
 11
0.104999999999999
 21
0.0
 31
0.0
210
0.0
220
0.0
230
1.0
 40
0.8019867343145953
 41
4.71238898038469
 42
6.08972884338987
  0
ELLIPSE
  5
117
330
D3
100
AcDbEntity
  8
AM_4
100
AcDbEllipse
 10
-0.0000000000000007
 20
2.116205077915345
 30
0.0
 11
0.1049999999999992
 21
0.0
 31
0.0
210
0.0
220
0.0
230
1.0
 40
0.8019867343145938
 41
3.335049117379516
 42
4.71238898038469
  0
ELLIPSE
  5
118
330
D3
100
AcDbEntity
  8
AM_4
100
AcDbEllipse
 10
-0.0000000000000003
 20
2.13412533322003
 30
0.0
 11
0.1050000000000012
 21
0.0
 31
0.0
210
0.0
220
0.0
230
1.0
 40
0.8019867343145782
 41
4.71238898038469
 42
5.547228960435445
  0
LINE
  5
119
330
D3
100
AcDbEntity
  8
AM_4
100
AcDbLine
 10
0.0778248555439206
 20
2.077596407155494
 30
0.0
 11
0.1000605285564694
 21
2.09728579603214
 31
0.0
  0
LINE
  5
11A
330
D3
100
AcDbEntity
  8
AM_4
100
AcDbLine
 10
-0.1000605285564694
 20
2.09728579603214
 30
0.0
 11
-0.0778248555439206
 21
2.077596407155494
 31
0.0
  0
ELLIPSE
  5
11B
330
D3
100
AcDbEntity
  8
AM_4
100
AcDbEllipse
 10
-0.0000000000000001
 20
2.169965843829399
 30
0.0
 11
0.1350000000000001
 21
0.0
 31
0.0
210
0.0
220
0.0
230
1.0
 40
0.8019867343145904
 41
5.547228960435454
 42
6.856527253645831
  0
ELLIPSE
  5
11C
330
D3
100
AcDbEntity
  8
AM_4
100
AcDbEllipse
 10
0.0000000000000006
 20
2.169965843829399
 30
0.0
 11
0.1350000000000015
 21
0.0
 31
0.0
210
0.0
220
0.0
230
1.0
 40
0.801986734314579
 41
2.568250707123542
 42
4.71238898038469
  0
ELLIPSE
  5
11D
330
D3
100
AcDbEntity
  8
AM_4
100
AcDbEllipse
 10
0.0000000000000003
 20
2.13412533322003
 30
0.0
 11
0.1050000000000011
 21
0.0
 31
0.0
210
0.0
220
0.0
230
1.0
 40
0.8019867343145792
 41
3.877549000333934
 42
4.71238898038469
  0
ELLIPSE
  5
11E
330
D3
100
AcDbEntity
  8
AM_4
100
AcDbEllipse
 10
0.0000000000000005
 20
2.217753191308558
 30
0.0
 11
0.1026779019331869
 21
1.530019967752500E-9
 31
0.0
210
0.0
220
0.0
230
1.0
 40
0.801986734314587
 41
4.712388968434151
 42
6.856527237016299
  0
ELLIPSE
  5
11F
330
D3
100
AcDbEntity
  8
AM_4
100
AcDbEllipse
 10
-0.0000000000000005
 20
2.169965843829399
 30
0.0
 11
0.1350000000000015
 21
0.0
 31
0.0
210
0.0
220
0.0
230
1.0
 40
0.801986734314579
 41
4.71238898038469
 42
5.547228960435449
  0
LINE
  5
120
330
D3
100
AcDbEntity
  8
AM_4
100
AcDbLine
 10
-0.0862589718497727
 20
2.262421342141182
 30
0.0
 11
-0.1134125355161297
 21
2.22869513463949
 31
0.0
  0
LINE
  5
121
330
D3
100
AcDbEntity
  8
AM_4
100
AcDbLine
 10
0.1134125355161297
 20
2.22869513463949
 30
0.0
 11
0.0862589718497727
 21
2.262421342141182
 31
0.0
  0
ELLIPSE
  5
122
330
D3
100
AcDbEntity
  8
AM_4
100
AcDbEllipse
 10
0.0
 20
2.217753191308558
 30
0.0
 11
0.1026779019331874
 21
0.0
 31
0.0
210
0.0
220
0.0
230
1.0
 40
0.8019867343145878
 41
0.5733419464662459
 42
4.71238898038469
  0
ENDBLK
  5
D6
330
D3
100
AcDbEntity
  8
0
100
AcDbBlockEnd
  0
BLOCK
  5
125
330
123
100
AcDbEntity
  8
0
100
AcDbBlockBegin
  2
4_ASME_B18_3_10_1_0_in_072308_0
 70
     2
 10
0.0
 20
0.0
 30
0.0
  3
4_ASME_B18_3_10_1_0_in_072308_0
  1

  0
ATTDEF
  5
127
330
123
100
AcDbEntity
  8
AM_6
100
AcDbText
 10
5.189525
 20
-0.8290486111111113
 30
0.0
 40
0.5
  1
ANSI/ASME B18.3-1998
100
AcDbAttributeDefinition
  3

  2
NN
 70
     8
280
     0
  0
ATTDEF
  5
128
330
123
100
AcDbEntity
  8
AM_6
100
AcDbText
 10
5.189525
 20
-1.329048611111111
 30
0.0
 40
0.5
  1
Socket Button Head Cap Screws
100
AcDbAttributeDefinition
  3

  2
NT
 70
     8
280
     0
  0
ATTDEF
  5
129
330
123
100
AcDbEntity
  8
AM_6
100
AcDbText
 10
5.189525
 20
-1.829048611111111
 30
0.0
 40
0.5
  1
ASME B18.3-10
100
AcDbAttributeDefinition
  3

  2
NB
 70
     8
280
     0
  0
ATTDEF
  5
12A
330
123
100
AcDbEntity
  8
AM_6
100
AcDbText
 10
5.189525
 20
-2.329048611111111
 30
0.0
 40
0.5
  1
ASME B18.3-$NS.
100
AcDbAttributeDefinition
  3

  2
NBSYN
 70
     8
280
     0
  0
ATTDEF
  5
12B
330
123
100
AcDbEntity
  8
AM_6
100
AcDbText
 10
5.189525
 20
-2.829048611111111
 30
0.0
 40
0.5
  1
ASME B18.3-10
100
AcDbAttributeDefinition
  3

  2
LINA
 70
     8
280
     0
  0
ATTDEF
  5
12C
330
123
100
AcDbEntity
  8
AM_6
100
AcDbText
 10
5.189525
 20
-3.329048611111111
 30
0.0
 40
0.5
  1
10
100
AcDbAttributeDefinition
  3

  2
NS
 70
     8
280
     0
  0
ATTDEF
  5
12D
330
123
100
AcDbEntity
  8
AM_6
100
AcDbText
 10
5.189525
 20
-3.829048611111111
 30
0.0
 40
0.5
  1
0.361
100
AcDbAttributeDefinition
  3

  2
A
 70
     8
280
     0
  0
ATTDEF
  5
12E
330
123
100
AcDbEntity
  8
AM_6
100
AcDbText
 10
5.189525
 20
-4.329048611111111
 30
0.0
 40
0.5
  1
0.101
100
AcDbAttributeDefinition
  3

  2
H
 70
     8
280
     0
  0
ATTDEF
  5
12F
330
123
100
AcDbEntity
  8
AM_6
100
AcDbText
 10
5.189525
 20
-4.829048611111111
 30
0.0
 40
0.5
  1
0.800
100
AcDbAttributeDefinition
  3

  2
L
 70
     8
280
     0
  0
ATTDEF
  5
130
330
123
100
AcDbEntity
  8
AM_6
100
AcDbText
 10
5.189525
 20
-5.329048611111111
 30
0.0
 40
0.5
  1
0.020
100
AcDbAttributeDefinition
  3

  2
S
 70
     8
280
     0
  0
ATTDEF
  5
131
330
123
100
AcDbEntity
  8
AM_6
100
AcDbText
 10
5.189525
 20
-5.829048611111111
 30
0.0
 40
0.5
  1
0.125000
100
AcDbAttributeDefinition
  3

  2
J
 70
     8
280
     0
  0
ATTDEF
  5
132
330
123
100
AcDbEntity
  8
AM_6
100
AcDbText
 10
5.189525
 20
-6.329048611111111
 30
0.0
 40
0.5
  1
baldor
100
AcDbAttributeDefinition
  3

  2
COMPANY
 70
     8
280
     0
  0
ARC
  5
134
330
123
100
AcDbEntity
  8
AM_5
100
AcDbCircle
 10
0.0000000000000002
 20
-1.009548611111111
 30
0.0
 40
0.0702
100
AcDbArc
 50
75.00000000000023
 51
15.00000000000027
  0
LINE
  5
137
330
123
100
AcDbEntity
  8
AM_7
100
AcDbLine
 10
-0.1895249999999999
 20
-1.009548611111111
 30
0.0
 11
0.1895249999999999
 21
-1.009548611111111
 31
0.0
  0
CIRCLE
  5
138
330
123
100
AcDbEntity
  8
AM_4
100
AcDbCircle
 10
0.0
 20
-1.009548611111111
 30
0.0
 40
0.0995
  0
LINE
  5
139
330
123
100
AcDbEntity
  8
AM_4
100
AcDbLine
 10
-0.0625
 20
-1.045633002935463
 30
0.0
 11
-0.0625
 21
-0.9734642192867594
 31
0.0
  0
LINE
  5
13A
330
123
100
AcDbEntity
  8
AM_4
100
AcDbLine
 10
-0.0625
 20
-0.9734642192867594
 30
0.0
 11
0.0
 21
-0.9373798274624079
 31
0.0
  0
LINE
  5
13B
330
123
100
AcDbEntity
  8
AM_4
100
AcDbLine
 10
0.0
 20
-0.9373798274624079
 30
0.0
 11
0.0625
 21
-0.9734642192867594
 31
0.0
  0
LINE
  5
13C
330
123
100
AcDbEntity
  8
AM_4
100
AcDbLine
 10
0.0625
 20
-0.9734642192867594
 30
0.0
 11
0.0625
 21
-1.045633002935463
 31
0.0
  0
LINE
  5
13D
330
123
100
AcDbEntity
  8
AM_4
100
AcDbLine
 10
0.0625
 20
-1.045633002935463
 30
0.0
 11
0.0
 21
-1.081717394759814
 31
0.0
  0
LINE
  5
13E
330
123
100
AcDbEntity
  8
AM_4
100
AcDbLine
 10
0.0
 20
-1.081717394759814
 30
0.0
 11
-0.0625
 21
-1.045633002935463
 31
0.0
  0
ARC
  5
13F
330
123
100
AcDbEntity
  8
AM_5
100
AcDbCircle
 10
0.0000000000000001
 20
-1.009548611111111
 30
0.0
 40
0.0764000000000002
100
AcDbArc
 50
74.99999999999996
 51
14.99999999999994
  0
ARC
  5
140
330
123
100
AcDbEntity
  8
AM_5
100
AcDbCircle
 10
0.0000000000000002
 20
-1.009548611111111
 30
0.0
 40
0.0764000000000001
100
AcDbArc
 50
14.99999999999994
 51
194.9999999999999
  0
ARC
  5
141
330
123
100
AcDbEntity
  8
AM_5
100
AcDbCircle
 10
0.0000000000000001
 20
-1.009548611111111
 30
0.0
 40
0.0701999999999999
100
AcDbArc
 50
345.0
 51
284.9999999999999
  0
CIRCLE
  5
142
330
123
100
AcDbEntity
  8
AM_4
100
AcDbCircle
 10
0.0
 20
-1.009548611111111
 30
0.0
 40
0.1804999999999999
  0
ENDBLK
  5
126
330
123
100
AcDbEntity
  8
0
100
AcDbBlockEnd
  0
BLOCK
  5
145
330
143
100
AcDbEntity
  8
0
100
AcDbBlockBegin
  2
5_ASME_B18_3_10_2_0_in_072308_0
 70
     2
 10
0.0
 20
0.0
 30
0.0
  3
5_ASME_B18_3_10_2_0_in_072308_0
  1

  0
ATTDEF
  5
147
330
143
100
AcDbEntity
  8
AM_6
100
AcDbText
 10
5.189525
 20
1.190048611111111
 30
0.0
 40
0.5
  1
ANSI/ASME B18.3-1998
100
AcDbAttributeDefinition
  3

  2
NN
 70
     8
280
     0
  0
ATTDEF
  5
148
330
143
100
AcDbEntity
  8
AM_6
100
AcDbText
 10
5.189525
 20
0.690048611111111
 30
0.0
 40
0.5
  1
Socket Button Head Cap Screws
100
AcDbAttributeDefinition
  3

  2
NT
 70
     8
280
     0
  0
ATTDEF
  5
149
330
143
100
AcDbEntity
  8
AM_6
100
AcDbText
 10
5.189525
 20
0.190048611111111
 30
0.0
 40
0.5
  1
ASME B18.3-10
100
AcDbAttributeDefinition
  3

  2
NB
 70
     8
280
     0
  0
ATTDEF
  5
14A
330
143
100
AcDbEntity
  8
AM_6
100
AcDbText
 10
5.189525
 20
-0.309951388888889
 30
0.0
 40
0.5
  1
ASME B18.3-$NS.
100
AcDbAttributeDefinition
  3

  2
NBSYN
 70
     8
280
     0
  0
ATTDEF
  5
14B
330
143
100
AcDbEntity
  8
AM_6
100
AcDbText
 10
5.189525
 20
-0.809951388888889
 30
0.0
 40
0.5
  1
ASME B18.3-10
100
AcDbAttributeDefinition
  3

  2
LINA
 70
     8
280
     0
  0
ATTDEF
  5
14C
330
143
100
AcDbEntity
  8
AM_6
100
AcDbText
 10
5.189525
 20
-1.309951388888889
 30
0.0
 40
0.5
  1
10
100
AcDbAttributeDefinition
  3

  2
NS
 70
     8
280
     0
  0
ATTDEF
  5
14D
330
143
100
AcDbEntity
  8
AM_6
100
AcDbText
 10
5.189525
 20
-1.809951388888889
 30
0.0
 40
0.5
  1
0.361
100
AcDbAttributeDefinition
  3

  2
A
 70
     8
280
     0
  0
ATTDEF
  5
14E
330
143
100
AcDbEntity
  8
AM_6
100
AcDbText
 10
5.189525
 20
-2.309951388888889
 30
0.0
 40
0.5
  1
0.101
100
AcDbAttributeDefinition
  3

  2
H
 70
     8
280
     0
  0
ATTDEF
  5
14F
330
143
100
AcDbEntity
  8
AM_6
100
AcDbText
 10
5.189525
 20
-2.809951388888889
 30
0.0
 40
0.5
  1
0.800
100
AcDbAttributeDefinition
  3

  2
L
 70
     8
280
     0
  0
ATTDEF
  5
150
330
143
100
AcDbEntity
  8
AM_6
100
AcDbText
 10
5.189525
 20
-3.309951388888889
 30
0.0
 40
0.5
  1
0.020
100
AcDbAttributeDefinition
  3

  2
S
 70
     8
280
     0
  0
ATTDEF
  5
151
330
143
100
AcDbEntity
  8
AM_6
100
AcDbText
 10
5.189525
 20
-3.809951388888889
 30
0.0
 40
0.5
  1
0.125000
100
AcDbAttributeDefinition
  3

  2
J
 70
     8
280
     0
  0
ATTDEF
  5
152
330
143
100
AcDbEntity
  8
AM_6
100
AcDbText
 10
5.189525
 20
-4.309951388888889
 30
0.0
 40
0.5
  1
baldor
100
AcDbAttributeDefinition
  3

  2
COMPANY
 70
     8
280
     0
  0
ARC
  5
153
330
143
100
AcDbEntity
  8
AM_5
100
AcDbCircle
 10
-0.0000000000000002
 20
1.009548611111111
 30
0.0
 40
0.0701999999999999
100
AcDbArc
 50
74.99999999999986
 51
14.99999999999977
  0
LINE
  5
154
330
143
100
AcDbEntity
  8
AM_7
100
AcDbLine
 10
-0.189525
 20
1.009548611111111
 30
0.0
 11
0.189525
 21
1.009548611111111
 31
0.0
  0
LINE
  5
155
330
143
100
AcDbEntity
  8
AM_4
100
AcDbLine
 10
-0.0625
 20
0.9734642192867594
 30
0.0
 11
-0.0625
 21
1.045633002935463
 31
0.0
  0
LINE
  5
156
330
143
100
AcDbEntity
  8
AM_4
100
AcDbLine
 10
-0.0625
 20
1.045633002935463
 30
0.0
 11
0.0
 21
1.081717394759814
 31
0.0
  0
LINE
  5
157
330
143
100
AcDbEntity
  8
AM_4
100
AcDbLine
 10
0.0
 20
1.081717394759814
 30
0.0
 11
0.0625
 21
1.045633002935463
 31
0.0
  0
LINE
  5
158
330
143
100
AcDbEntity
  8
AM_4
100
AcDbLine
 10
0.0625
 20
1.045633002935463
 30
0.0
 11
0.0625
 21
0.9734642192867594
 31
0.0
  0
LINE
  5
159
330
143
100
AcDbEntity
  8
AM_4
100
AcDbLine
 10
0.0625
 20
0.9734642192867594
 30
0.0
 11
0.0
 21
0.9373798274624079
 31
0.0
  0
LINE
  5
15A
330
143
100
AcDbEntity
  8
AM_4
100
AcDbLine
 10
0.0
 20
0.9373798274624079
 30
0.0
 11
-0.0625
 21
0.9734642192867594
 31
0.0
  0
CIRCLE
  5
15B
330
143
100
AcDbEntity
  8
AM_4
100
AcDbCircle
 10
0.0
 20
1.009548611111111
 30
0.0
 40
0.0995
  0
ARC
  5
15C
330
143
100
AcDbEntity
  8
AM_5
100
AcDbCircle
 10
0.0
 20
1.009548611111111
 30
0.0
 40
0.0702
100
AcDbArc
 50
345.0
 51
285.0
  0
CIRCLE
  5
15D
330
143
100
AcDbEntity
  8
AM_4
100
AcDbCircle
 10
0.0
 20
1.009548611111111
 30
0.0
 40
0.1805
  0
CIRCLE
  5
15E
330
143
100
AcDbEntity
  8
AM_5
100
AcDbCircle
 10
0.0000000000000001
 20
1.009548611111111
 30
0.0
 40
0.0764
  0
ENDBLK
  5
146
330
143
100
AcDbEntity
  8
0
100
AcDbBlockEnd
  0
BLOCK
  5
161
330
15F
100
AcDbEntity
  8
0
100
AcDbBlockBegin
  2
6_070881LW_0_in_072308_0
 70
     2
 10
0.0
 20
0.0
 30
0.0
  3
6_070881LW_0_in_072308_0
  1

  0
ATTDEF
  5
163
330
15F
100
AcDbEntity
  8
AM_6
100
AcDbText
 10
6.359375
 20
1.359375
 30
0.0
 40
0.5
  1
Imperial Insert Lockwasher -Inch
100
AcDbAttributeDefinition
  3

  2
NN
 70
     8
280
     0
  0
ATTDEF
  5
164
330
15F
100
AcDbEntity
  8
AM_6
100
AcDbText
 10
6.359375
 20
0.859375
 30
0.0
 40
0.5
  1
Imperial Bearings
100
AcDbAttributeDefinition
  3

  2
NT
 70
     8
280
     0
  0
ATTDEF
  5
165
330
15F
100
AcDbEntity
  8
AM_6
100
AcDbText
 10
6.359375
 20
0.359375
 30
0.0
 40
0.5
  1
070881LW
100
AcDbAttributeDefinition
  3

  2
NB
 70
     8
280
     0
  0
ATTDEF
  5
166
330
15F
100
AcDbEntity
  8
AM_6
100
AcDbText
 10
6.359375
 20
-0.140625
 30
0.0
 40
0.5
  1
$PN.LW
100
AcDbAttributeDefinition
  3

  2
NBSYN
 70
     8
280
     0
  0
ATTDEF
  5
167
330
15F
100
AcDbEntity
  8
AM_6
100
AcDbText
 10
6.359375
 20
-0.640625
 30
0.0
 40
0.5
  1
070881
100
AcDbAttributeDefinition
  3

  2
LINA
 70
     8
280
     0
  0
ATTDEF
  5
168
330
15F
100
AcDbEntity
  8
AM_6
100
AcDbText
 10
6.359375
 20
-1.140625
 30
0.0
 40
0.5
  1
1-3/16
100
AcDbAttributeDefinition
  3

  2
SS
 70
     8
280
     0
  0
ATTDEF
  5
169
330
15F
100
AcDbEntity
  8
AM_6
100
AcDbText
 10
6.359375
 20
-1.640625
 30
0.0
 40
0.5
  1
1.187500
100
AcDbAttributeDefinition
  3

  2
SS1
 70
     8
280
     0
  0
ATTDEF
  5
16A
330
15F
100
AcDbEntity
  8
AM_6
100
AcDbText
 10
6.359375
 20
-2.140625
 30
0.0
 40
0.5
  1
070881
100
AcDbAttributeDefinition
  3

  2
PN
 70
     8
280
     0
  0
ATTDEF
  5
16B
330
15F
100
AcDbEntity
  8
AM_6
100
AcDbText
 10
6.359375
 20
-2.640625
 30
0.0
 40
0.5
  1
INS-IP-103R
100
AcDbAttributeDefinition
  3

  2
DESCRIPTION
 70
     8
280
     0
  0
ATTDEF
  5
16C
330
15F
100
AcDbEntity
  8
AM_6
100
AcDbText
 10
6.359375
 20
-3.140625
 30
0.0
 40
0.5
  1
3.1496
100
AcDbAttributeDefinition
  3

  2
A
 70
     8
280
     0
  0
ATTDEF
  5
16D
330
15F
100
AcDbEntity
  8
AM_6
100
AcDbText
 10
6.359375
 20
-3.640625
 30
0.0
 40
0.5
  1
61/64
100
AcDbAttributeDefinition
  3

  2
B
 70
     8
280
     0
  0
ATTDEF
  5
16E
330
15F
100
AcDbEntity
  8
AM_6
100
AcDbText
 10
6.359375
 20
-4.140625
 30
0.0
 40
0.5
  1
2-5/8
100
AcDbAttributeDefinition
  3

  2
C
 70
     8
280
     0
  0
ATTDEF
  5
16F
330
15F
100
AcDbEntity
  8
AM_6
100
AcDbText
 10
6.359375
 20
-4.640625
 30
0.0
 40
0.5
  1
0.970
100
AcDbAttributeDefinition
  3

  2
D
 70
     8
280
     0
  0
ATTDEF
  5
170
330
15F
100
AcDbEntity
  8
AM_6
100
AcDbText
 10
6.359375
 20
-5.140625
 30
0.0
 40
0.5
  1
2-23/32
100
AcDbAttributeDefinition
  3

  2
E
 70
     8
280
     0
  0
ATTDEF
  5
171
330
15F
100
AcDbEntity
  8
AM_6
100
AcDbText
 10
6.359375
 20
-5.640625
 30
0.0
 40
0.5
  1
0.1900
100
AcDbAttributeDefinition
  3

  2
NDM
 70
     8
280
     0
  0
ATTDEF
  5
172
330
15F
100
AcDbEntity
  8
AM_6
100
AcDbText
 10
6.359375
 20
-6.140625
 30
0.0
 40
0.5
  1
0.1450
100
AcDbAttributeDefinition
  3

  2
KDM
 70
     8
280
     0
  0
ATTDEF
  5
173
330
15F
100
AcDbEntity
  8
AM_6
100
AcDbText
 10
6.359375
 20
-6.640625
 30
0.0
 40
0.5
  1
2.22
100
AcDbAttributeDefinition
  3

  2
AL
 70
     8
280
     0
  0
ATTDEF
  5
174
330
15F
100
AcDbEntity
  8
AM_6
100
AcDbText
 10
6.359375
 20
-7.140625
 30
0.0
 40
0.5
  1
0.38
100
AcDbAttributeDefinition
  3

  2
BL
 70
     8
280
     0
  0
ATTDEF
  5
175
330
15F
100
AcDbEntity
  8
AM_6
100
AcDbText
 10
6.359375
 20
-7.640625
 30
0.0
 40
0.5
  1
0.07
100
AcDbAttributeDefinition
  3

  2
CL
 70
     8
280
     0
  0
ATTDEF
  5
176
330
15F
100
AcDbEntity
  8
AM_6
100
AcDbText
 10
6.359375
 20
-8.140625
 30
0.0
 40
0.5
  1
0.44
100
AcDbAttributeDefinition
  3

  2
DL
 70
     8
280
     0
  0
ATTDEF
  5
177
330
15F
100
AcDbEntity
  8
AM_6
100
AcDbText
 10
6.359375
 20
-8.640625
 30
0.0
 40
0.5
  1
baldor
100
AcDbAttributeDefinition
  3

  2
COMPANY
 70
     8
280
     0
  0
ARC
  5
178
330
15F
100
AcDbEntity
  8
AM_9
100
AcDbCircle
 10
0.0000000000000075
 20
-0.0000000000000179
 30
0.0
 40
0.6250000000000192
100
AcDbArc
 50
103.7571526865005
 51
121.2428473134995
  0
LINE
  5
179
330
15F
100
AcDbEntity
  8
AM_9
100
AcDbLine
 10
-0.0949999999999995
 20
-1.014028369756696
 30
0.0
 11
-0.0949999999999996
 21
-0.8560714141077774
 31
0.0
  0
LINE
  5
17A
330
15F
100
AcDbEntity
  8
AM_9
100
AcDbLine
 10
0.0950000000000005
 20
-0.856071414107778
 30
0.0
 11
0.0950000000000003
 21
-1.014028369756697
 31
0.0
  0
LINE
  5
17B
330
15F
100
AcDbEntity
  8
AM_9
100
AcDbLine
 10
-0.095
 20
0.8560714141077778
 30
0.0
 11
-0.0949999999999999
 21
1.014028369756697
 31
0.0
  0
LINE
  5
17C
330
15F
100
AcDbEntity
  8
AM_9
100
AcDbLine
 10
0.0949999999999999
 20
1.014028369756696
 30
0.0
 11
0.0949999999999999
 21
0.8560714141077778
 31
0.0
  0
ARC
  5
17D
330
15F
100
AcDbEntity
  8
AM_4
100
AcDbCircle
 10
0.0000000000000334
 20
-0.0000000000000538
 30
0.0
 40
0.6418918918919552
100
AcDbArc
 50
121.0110413751887
 51
126.4889586248109
  0
ARC
  5
17E
330
15F
100
AcDbEntity
  8
AM_4
100
AcDbCircle
 10
-0.0000000000000011
 20
-0.000000000000003
 30
0.0
 40
0.6418918918918887
100
AcDbArc
 50
233.5110413751887
 51
261.4889586248115
  0
LINE
  5
17F
330
15F
100
AcDbEntity
  8
AM_4
100
AcDbLine
 10
-0.1486294692542906
 20
0.6070702437685346
 30
0.0
 11
-0.1551676768029767
 21
0.622854873106183
 31
0.0
  0
ARC
  5
180
330
15F
100
AcDbEntity
  8
AM_4
100
AcDbCircle
 10
-0.0000000000000013
 20
0.000000000000005
 30
0.0
 40
0.6418918918918967
100
AcDbArc
 50
278.5110413751888
 51
306.4889586248112
  0
ARC
  5
181
330
15F
100
AcDbEntity
  8
AM_4
100
AcDbCircle
 10
-0.0000000000000009
 20
0.0000000000000008
 30
0.0
 40
0.641891891891893
100
AcDbArc
 50
323.5110413751887
 51
351.4889586248112
  0
LINE
  5
182
330
15F
100
AcDbEntity
  8
AM_4
100
AcDbLine
 10
-0.0949999999999996
 20
-0.8560714141077774
 30
0.0
 11
-0.0949999999999996
 21
-0.634822968138797
 31
0.0
  0
LINE
  5
183
330
15F
100
AcDbEntity
  8
AM_4
100
AcDbLine
 10
0.5160627698366371
 20
-0.3817124814111928
 30
0.0
 11
0.7842014807832225
 21
-0.6498511923577781
 31
0.0
  0
ARC
  5
184
330
15F
100
AcDbEntity
  8
AM_4
100
AcDbCircle
 10
0.7138586688541273
 20
0.7138586688541277
 30
0.0
 40
0.0951055636517794
100
AcDbArc
 50
317.6998028417138
 51
132.3001971582857
  0
CIRCLE
  5
185
330
15F
100
AcDbEntity
  8
AM_4
100
AcDbCircle
 10
0.0
 20
0.0
 30
0.0
 40
1.359375
  0
ARC
  5
186
330
15F
100
AcDbEntity
  8
AM_4
100
AcDbCircle
 10
0.0000000000000407
 20
-0.0000000000002204
 30
0.0
 40
0.6418918918921157
100
AcDbArc
 50
98.5110413751894
 51
103.9889586248101
  0
LINE
  5
187
330
15F
100
AcDbEntity
  8
AM_4
100
AcDbLine
 10
0.6498511923577779
 20
-0.7842014807832213
 30
0.0
 11
0.3817124814111932
 21
-0.5160627698366369
 31
0.0
  0
ARC
  5
188
330
15F
100
AcDbEntity
  8
AM_4
100
AcDbCircle
 10
0.7138586688541279
 20
-0.7138586688541273
 30
0.0
 40
0.0951055636517795
100
AcDbArc
 50
227.6998028417143
 51
42.30019715828509
  0
LINE
  5
189
330
15F
100
AcDbEntity
  8
AM_4
100
AcDbLine
 10
0.7842014807832206
 20
0.6498511923577771
 30
0.0
 11
0.516062769836637
 21
0.3817124814111932
 31
0.0
  0
LINE
  5
18A
330
15F
100
AcDbEntity
  8
AM_4
100
AcDbLine
 10
0.3817124814111933
 20
0.516062769836637
 30
0.0
 11
0.6498511923577773
 21
0.7842014807832218
 31
0.0
  0
ARC
  5
18B
330
15F
100
AcDbEntity
  8
AM_4
100
AcDbCircle
 10
0.0000000000000034
 20
0.0000000000000023
 30
0.0
 40
0.6418918918918879
100
AcDbArc
 50
8.511041375188611
 51
36.48895862481137
  0
LINE
  5
18C
330
15F
100
AcDbEntity
  8
AM_4
100
AcDbLine
 10
0.6348229681387967
 20
0.0950000000000008
 30
0.0
 11
1.014028369756694
 21
0.0950000000000003
 31
0.0
  0
ARC
  5
18D
330
15F
100
AcDbEntity
  8
AM_4
100
AcDbCircle
 10
1.009548611111111
 20
0.0000000000000003
 30
0.0
 40
0.0951055636517794
100
AcDbArc
 50
272.6998028417143
 51
87.30019715828692
  0
LINE
  5
18E
330
15F
100
AcDbEntity
  8
AM_4
100
AcDbLine
 10
1.014028369756696
 20
-0.0949999999999995
 30
0.0
 11
0.6348229681387972
 21
-0.0949999999999998
 31
0.0
  0
LINE
  5
18F
330
15F
100
AcDbEntity
  8
AM_4
100
AcDbLine
 10
0.0950000000000005
 20
-0.6348229681387967
 30
0.0
 11
0.0950000000000005
 21
-0.856071414107778
 31
0.0
  0
LINE
  5
190
330
15F
100
AcDbEntity
  8
AM_4
100
AcDbLine
 10
-0.3817124814111921
 20
-0.5160627698366375
 30
0.0
 11
-0.6498511923577764
 21
-0.7842014807832212
 31
0.0
  0
ARC
  5
191
330
15F
100
AcDbEntity
  8
AM_4
100
AcDbCircle
 10
-0.7138586688541272
 20
-0.7138586688541281
 30
0.0
 40
0.0951055636517795
100
AcDbArc
 50
137.6998028417143
 51
312.3001971582864
  0
LINE
  5
192
330
15F
100
AcDbEntity
  8
AM_4
100
AcDbLine
 10
-0.7842014807832212
 20
-0.6498511923577781
 30
0.0
 11
-0.5160627698366368
 21
-0.3817124814111933
 31
0.0
  0
ARC
  5
193
330
15F
100
AcDbEntity
  8
AM_4
100
AcDbCircle
 10
-0.0000000000000048
 20
-0.0000000000000022
 30
0.0
 40
0.6418918918918867
100
AcDbArc
 50
188.5110413751886
 51
216.4889586248114
  0
LINE
  5
194
330
15F
100
AcDbEntity
  8
AM_4
100
AcDbLine
 10
-0.6348229681387969
 20
-0.0950000000000005
 30
0.0
 11
-1.014028369756694
 21
-0.0950000000000006
 31
0.0
  0
ARC
  5
195
330
15F
100
AcDbEntity
  8
AM_4
100
AcDbCircle
 10
-1.009548611111111
 20
-0.0000000000000006
 30
0.0
 40
0.0951055636517794
100
AcDbArc
 50
92.69980284171403
 51
267.300197158287
  0
LINE
  5
196
330
15F
100
AcDbEntity
  8
AM_4
100
AcDbLine
 10
-1.014028369756696
 20
0.0949999999999993
 30
0.0
 11
-0.6348229681387971
 21
0.0949999999999995
 31
0.0
  0
ARC
  5
197
330
15F
100
AcDbEntity
  8
AM_4
100
AcDbCircle
 10
-0.0000000000000043
 20
0.0000000000000017
 30
0.0
 40
0.6418918918918873
100
AcDbArc
 50
143.5110413751886
 51
171.4889586248115
  0
LINE
  5
198
330
15F
100
AcDbEntity
  8
AM_4
100
AcDbLine
 10
-0.516062769836637
 20
0.3817124814111929
 30
0.0
 11
-0.7842014807832203
 21
0.6498511923577761
 31
0.0
  0
ARC
  5
199
330
15F
100
AcDbEntity
  8
AM_4
100
AcDbCircle
 10
-0.7138586688541276
 20
0.7138586688541275
 30
0.0
 40
0.0951055636517795
100
AcDbArc
 50
47.69980284171321
 51
222.3001971582869
  0
LINE
  5
19A
330
15F
100
AcDbEntity
  8
AM_4
100
AcDbLine
 10
-0.6498511923577763
 20
0.7842014807832203
 30
0.0
 11
-0.3817124814111931
 21
0.5160627698366371
 31
0.0
  0
LINE
  5
19B
330
15F
100
AcDbEntity
  8
AM_4
100
AcDbLine
 10
-0.330704787980121
 20
0.5501450209568158
 30
0.0
 11
-0.3241665804314351
 21
0.5343603916191675
 31
0.0
  0
ARC
  5
19C
330
15F
100
AcDbEntity
  8
AM_4
100
AcDbCircle
 10
0.0000000000000034
 20
-0.0000000000000101
 30
0.0
 40
0.5937500000000104
100
AcDbArc
 50
103.2931037786542
 51
121.7068962213457
  0
LINE
  5
19D
330
15F
100
AcDbEntity
  8
AM_4
100
AcDbLine
 10
-0.0950000000000004
 20
0.6348229681387969
 30
0.0
 11
-0.095
 21
0.8560714141077778
 31
0.0
  0
LINE
  5
19E
330
15F
100
AcDbEntity
  8
AM_4
100
AcDbLine
 10
0.0949999999999999
 20
0.8560714141077778
 30
0.0
 11
0.095
 21
0.6348229681387971
 31
0.0
  0
ARC
  5
19F
330
15F
100
AcDbEntity
  8
AM_4
100
AcDbCircle
 10
-0.0000000000000012
 20
-0.0000000000000033
 30
0.0
 40
0.6418918918918953
100
AcDbArc
 50
53.51104137518874
 51
81.48895862481127
  0
ENDBLK
  5
162
330
15F
100
AcDbEntity
  8
0
100
AcDbBlockEnd
  0
BLOCK
  5
1A2
330
1A0
100
AcDbEntity
  8
0
100
AcDbBlockBegin
  2
7_070881I_0_in_072308_0
 70
     2
 10
0.0
 20
0.0
 30
0.0
  3
7_070881I_0_in_072308_0
  1

  0
ATTDEF
  5
1A4
330
1A0
100
AcDbEntity
  8
AM_6
100
AcDbText
 10
6.52714375
 20
1.52714375
 30
0.0
 40
0.5
  1
Imperial Insert -Inch
100
AcDbAttributeDefinition
  3

  2
NN
 70
     8
280
     0
  0
ATTDEF
  5
1A5
330
1A0
100
AcDbEntity
  8
AM_6
100
AcDbText
 10
6.52714375
 20
1.02714375
 30
0.0
 40
0.5
  1
Imperial Bearings
100
AcDbAttributeDefinition
  3

  2
NT
 70
     8
280
     0
  0
ATTDEF
  5
1A6
330
1A0
100
AcDbEntity
  8
AM_6
100
AcDbText
 10
6.52714375
 20
0.5271437500000002
 30
0.0
 40
0.5
  1
070881I
100
AcDbAttributeDefinition
  3

  2
NB
 70
     8
280
     0
  0
ATTDEF
  5
1A7
330
1A0
100
AcDbEntity
  8
AM_6
100
AcDbText
 10
6.52714375
 20
0.0271437500000002
 30
0.0
 40
0.5
  1
$PN.I
100
AcDbAttributeDefinition
  3

  2
NBSYN
 70
     8
280
     0
  0
ATTDEF
  5
1A8
330
1A0
100
AcDbEntity
  8
AM_6
100
AcDbText
 10
6.52714375
 20
-0.4728562499999998
 30
0.0
 40
0.5
  1
070881
100
AcDbAttributeDefinition
  3

  2
LINA
 70
     8
280
     0
  0
ATTDEF
  5
1A9
330
1A0
100
AcDbEntity
  8
AM_6
100
AcDbText
 10
6.52714375
 20
-0.9728562499999998
 30
0.0
 40
0.5
  1
1-3/16
100
AcDbAttributeDefinition
  3

  2
SS
 70
     8
280
     0
  0
ATTDEF
  5
1AA
330
1A0
100
AcDbEntity
  8
AM_6
100
AcDbText
 10
6.52714375
 20
-1.47285625
 30
0.0
 40
0.5
  1
1.187500
100
AcDbAttributeDefinition
  3

  2
SS1
 70
     8
280
     0
  0
ATTDEF
  5
1AB
330
1A0
100
AcDbEntity
  8
AM_6
100
AcDbText
 10
6.52714375
 20
-1.97285625
 30
0.0
 40
0.5
  1
070881
100
AcDbAttributeDefinition
  3

  2
PN
 70
     8
280
     0
  0
ATTDEF
  5
1AC
330
1A0
100
AcDbEntity
  8
AM_6
100
AcDbText
 10
6.52714375
 20
-2.47285625
 30
0.0
 40
0.5
  1
INS-IP-103R
100
AcDbAttributeDefinition
  3

  2
DESCRIPTION
 70
     8
280
     0
  0
ATTDEF
  5
1AD
330
1A0
100
AcDbEntity
  8
AM_6
100
AcDbText
 10
6.52714375
 20
-2.97285625
 30
0.0
 40
0.5
  1
Contact Seal
100
AcDbAttributeDefinition
  3

  2
ST
 70
     8
280
     0
  0
ATTDEF
  5
1AE
330
1A0
100
AcDbEntity
  8
AM_6
100
AcDbText
 10
6.52714375
 20
-3.47285625
 30
0.0
 40
0.5
  1
3.1496
100
AcDbAttributeDefinition
  3

  2
A
 70
     8
280
     0
  0
ATTDEF
  5
1AF
330
1A0
100
AcDbEntity
  8
AM_6
100
AcDbText
 10
6.52714375
 20
-3.97285625
 30
0.0
 40
0.5
  1
61/64
100
AcDbAttributeDefinition
  3

  2
B
 70
     8
280
     0
  0
ATTDEF
  5
1B0
330
1A0
100
AcDbEntity
  8
AM_6
100
AcDbText
 10
6.52714375
 20
-4.47285625
 30
0.0
 40
0.5
  1
2-5/8
100
AcDbAttributeDefinition
  3

  2
C
 70
     8
280
     0
  0
ATTDEF
  5
1B1
330
1A0
100
AcDbEntity
  8
AM_6
100
AcDbText
 10
6.52714375
 20
-4.97285625
 30
0.0
 40
0.5
  1
0.970
100
AcDbAttributeDefinition
  3

  2
D
 70
     8
280
     0
  0
ATTDEF
  5
1B2
330
1A0
100
AcDbEntity
  8
AM_6
100
AcDbText
 10
6.52714375
 20
-5.47285625
 30
0.0
 40
0.5
  1
2-23/32
100
AcDbAttributeDefinition
  3

  2
E
 70
     8
280
     0
  0
ATTDEF
  5
1B3
330
1A0
100
AcDbEntity
  8
AM_6
100
AcDbText
 10
6.52714375
 20
-5.97285625
 30
0.0
 40
0.5
  1
0.1900
100
AcDbAttributeDefinition
  3

  2
NDM
 70
     8
280
     0
  0
ATTDEF
  5
1B4
330
1A0
100
AcDbEntity
  8
AM_6
100
AcDbText
 10
6.52714375
 20
-6.47285625
 30
0.0
 40
0.5
  1
0.101
100
AcDbAttributeDefinition
  3

  2
H
 70
     8
280
     0
  0
ATTDEF
  5
1B5
330
1A0
100
AcDbEntity
  8
AM_6
100
AcDbText
 10
6.52714375
 20
-6.97285625
 30
0.0
 40
0.5
  1
0.1450
100
AcDbAttributeDefinition
  3

  2
KDM
 70
     8
280
     0
  0
ATTDEF
  5
1B6
330
1A0
100
AcDbEntity
  8
AM_6
100
AcDbText
 10
6.52714375
 20
-7.47285625
 30
0.0
 40
0.5
  1
2.22
100
AcDbAttributeDefinition
  3

  2
AL
 70
     8
280
     0
  0
ATTDEF
  5
1B7
330
1A0
100
AcDbEntity
  8
AM_6
100
AcDbText
 10
6.52714375
 20
-7.97285625
 30
0.0
 40
0.5
  1
0.38
100
AcDbAttributeDefinition
  3

  2
BL
 70
     8
280
     0
  0
ATTDEF
  5
1B8
330
1A0
100
AcDbEntity
  8
AM_6
100
AcDbText
 10
6.52714375
 20
-8.47285625
 30
0.0
 40
0.5
  1
0.07
100
AcDbAttributeDefinition
  3

  2
CL
 70
     8
280
     0
  0
ATTDEF
  5
1B9
330
1A0
100
AcDbEntity
  8
AM_6
100
AcDbText
 10
6.52714375
 20
-8.97285625
 30
0.0
 40
0.5
  1
0.44
100
AcDbAttributeDefinition
  3

  2
DL
 70
     8
280
     0
  0
ATTDEF
  5
1BA
330
1A0
100
AcDbEntity
  8
AM_6
100
AcDbText
 10
6.52714375
 20
-9.47285625
 30
0.0
 40
0.5
  1
0.8000
100
AcDbAttributeDefinition
  3

  2
LL
 70
     8
280
     0
  0
ATTDEF
  5
1BB
330
1A0
100
AcDbEntity
  8
AM_6
100
AcDbText
 10
6.52714375
 20
-9.97285625
 30
0.0
 40
0.5
  1
0.020
100
AcDbAttributeDefinition
  3

  2
Y
 70
     8
280
     0
  0
ATTDEF
  5
1BC
330
1A0
100
AcDbEntity
  8
AM_6
100
AcDbText
 10
6.52714375
 20
-10.47285625
 30
0.0
 40
0.5
  1
0.020000
100
AcDbAttributeDefinition
  3

  2
Y1
 70
     8
280
     0
  0
ATTDEF
  5
1BD
330
1A0
100
AcDbEntity
  8
AM_6
100
AcDbText
 10
6.52714375
 20
-10.97285625
 30
0.0
 40
0.5
  1
1-51/64
100
AcDbAttributeDefinition
  3

  2
Z
 70
     8
280
     0
  0
ATTDEF
  5
1BE
330
1A0
100
AcDbEntity
  8
AM_6
100
AcDbText
 10
6.52714375
 20
-11.47285625
 30
0.0
 40
0.5
  1
1.796875
100
AcDbAttributeDefinition
  3

  2
Z1
 70
     8
280
     0
  0
ATTDEF
  5
1BF
330
1A0
100
AcDbEntity
  8
AM_6
100
AcDbText
 10
6.52714375
 20
-11.97285625
 30
0.0
 40
0.5
  1
baldor
100
AcDbAttributeDefinition
  3

  2
COMPANY
 70
     8
280
     0
  0
CIRCLE
  5
1C0
330
1A0
100
AcDbEntity
  8
AM_9
100
AcDbCircle
 10
0.0
 20
0.0
 30
0.0
 40
0.8984375
  0
CIRCLE
  5
1C1
330
1A0
100
AcDbEntity
  8
AM_9
100
AcDbCircle
 10
0.0
 20
0.0
 30
0.0
 40
0.9752270299145298
  0
CIRCLE
  5
1C2
330
1A0
100
AcDbEntity
  8
AM_9
100
AcDbCircle
 10
0.0
 20
0.0
 30
0.0
 40
1.207007578016766
  0
CIRCLE
  5
1C3
330
1A0
100
AcDbEntity
  8
AM_9
100
AcDbCircle
 10
0.0
 20
0.0
 30
0.0
 40
0.9982638888888888
  0
CIRCLE
  5
1C4
330
1A0
100
AcDbEntity
  8
AM_9
100
AcDbCircle
 10
0.0
 20
0.0
 30
0.0
 40
1.293610118395209
  0
CIRCLE
  5
1C5
330
1A0
100
AcDbEntity
  8
AM_9
100
AcDbCircle
 10
0.0
 20
0.0
 30
0.0
 40
1.3748
  0
CIRCLE
  5
1C6
330
1A0
100
AcDbEntity
  8
AM_9
100
AcDbCircle
 10
0.0
 20
0.0
 30
0.0
 40
1.52714375
  0
CIRCLE
  5
1C7
330
1A0
100
AcDbEntity
  8
AM_9
100
AcDbCircle
 10
0.0
 20
-1.009548611111111
 30
0.0
 40
0.0724499999999999
  0
LINE
  5
1C8
330
1A0
100
AcDbEntity
  8
AM_9
100
AcDbLine
 10
0.818640950495035
 20
-1.087341527345923
 30
0.0
 11
0.6505382386916237
 21
-0.9192388155425117
 31
0.0
  0
LINE
  5
1C9
330
1A0
100
AcDbEntity
  8
AM_9
100
AcDbLine
 10
0.650538238691624
 20
0.9192388155425117
 30
0.0
 11
0.8186409504950352
 21
1.087341527345923
 31
0.0
  0
LINE
  5
1CA
330
1A0
100
AcDbEntity
  8
AM_9
100
AcDbLine
 10
1.087341527345923
 20
0.8186409504950346
 30
0.0
 11
0.9192388155425123
 21
0.6505382386916234
 31
0.0
  0
LINE
  5
1CB
330
1A0
100
AcDbEntity
  8
AM_9
100
AcDbLine
 10
0.9192388155425123
 20
0.6505382386916234
 30
0.0
 11
0.650538238691624
 21
0.9192388155425117
 31
0.0
  0
LINE
  5
1CC
330
1A0
100
AcDbEntity
  8
AM_9
100
AcDbLine
 10
-0.6505382386916237
 20
0.9192388155425117
 30
0.0
 11
-0.9192388155425117
 21
0.650538238691624
 31
0.0
  0
LINE
  5
1CD
330
1A0
100
AcDbEntity
  8
AM_9
100
AcDbLine
 10
0.6505382386916237
 20
-0.9192388155425117
 30
0.0
 11
0.9192388155425119
 21
-0.6505382386916239
 31
0.0
  0
LINE
  5
1CE
330
1A0
100
AcDbEntity
  8
AM_9
100
AcDbLine
 10
0.9192388155425119
 20
-0.6505382386916239
 30
0.0
 11
1.087341527345923
 21
-0.8186409504950352
 31
0.0
  0
LINE
  5
1CF
330
1A0
100
AcDbEntity
  8
AM_9
100
AcDbLine
 10
-0.9192388155425117
 20
0.650538238691624
 30
0.0
 11
-1.087341527345923
 21
0.8186409504950352
 31
0.0
  0
LINE
  5
1D0
330
1A0
100
AcDbEntity
  8
AM_9
100
AcDbLine
 10
-0.8186409504950352
 20
1.087341527345923
 30
0.0
 11
-0.6505382386916237
 21
0.9192388155425117
 31
0.0
  0
LINE
  5
1D1
330
1A0
100
AcDbEntity
  8
AM_9
100
AcDbLine
 10
-1.087341527345923
 20
-0.818640950495035
 30
0.0
 11
-0.9192388155425121
 21
-0.6505382386916243
 31
0.0
  0
LINE
  5
1D2
330
1A0
100
AcDbEntity
  8
AM_9
100
AcDbLine
 10
-0.9192388155425121
 20
-0.6505382386916243
 30
0.0
 11
-0.650538238691624
 21
-0.9192388155425117
 31
0.0
  0
LINE
  5
1D3
330
1A0
100
AcDbEntity
  8
AM_9
100
AcDbLine
 10
-0.650538238691624
 20
-0.9192388155425117
 30
0.0
 11
-0.8186409504950352
 21
-1.087341527345923
 31
0.0
  0
ARC
  5
1D4
330
1A0
100
AcDbEntity
  8
AM_9
100
AcDbCircle
 10
-0.0000000000000004
 20
0.0000000000000007
 30
0.0
 40
0.6266490765171496
100
AcDbArc
 50
103.7803397075217
 51
121.2196602924783
  0
CIRCLE
  5
1D5
330
1A0
100
AcDbEntity
  8
AM_9
100
AcDbCircle
 10
0.0
 20
1.009548611111111
 30
0.0
 40
0.0724499999999999
  0
ARC
  5
1D6
330
1A0
100
AcDbEntity
  8
AM_9
100
AcDbCircle
 10
0.0000000000000004
 20
0.0000000000000003
 30
0.0
 40
1.311090561259646
100
AcDbArc
 50
143.3325033106765
 51
216.6674966893235
  0
ARC
  5
1D7
330
1A0
100
AcDbEntity
  8
AM_9
100
AcDbCircle
 10
0.0
 20
0.0000000000000016
 30
0.0
 40
1.311090561259647
100
AcDbArc
 50
233.3325033106765
 51
306.6674966893236
  0
ARC
  5
1D8
330
1A0
100
AcDbEntity
  8
AM_9
100
AcDbCircle
 10
-0.0000000000000011
 20
-0.0000000000000004
 30
0.0
 40
1.311090561259647
100
AcDbArc
 50
323.3325033106765
 51
36.66749668932349
  0
ARC
  5
1D9
330
1A0
100
AcDbEntity
  8
AM_9
100
AcDbCircle
 10
0.0000000000000001
 20
-0.0000000000000013
 30
0.0
 40
1.311090561259647
100
AcDbArc
 50
53.33250331067649
 51
126.6674966893235
  0
ARC
  5
1DA
330
1A0
100
AcDbEntity
  8
AM_5
100
AcDbCircle
 10
0.0
 20
-1.009548611111111
 30
0.0
 40
0.0949999999999999
100
AcDbArc
 50
75.00000000000003
 51
14.99999999999994
  0
ARC
  5
1DB
330
1A0
100
AcDbEntity
  8
AM_5
100
AcDbCircle
 10
0.0
 20
1.009548611111111
 30
0.0
 40
0.0950000000000001
100
AcDbArc
 50
75.0
 51
14.99999999999994
  0
CIRCLE
  5
1DC
330
1A0
100
AcDbEntity
  8
AM_4
100
AcDbCircle
 10
0.0
 20
0.0
 30
0.0
 40
1.5248
  0
LINE
  5
1DD
330
1A0
100
AcDbEntity
  8
AM_4
100
AcDbLine
 10
0.8284088841127804
 20
-1.097109460963668
 30
0.0
 11
0.818640950495035
 21
-1.087341527345923
 31
0.0
  0
LINE
  5
1DE
330
1A0
100
AcDbEntity
  8
AM_4
100
AcDbLine
 10
0.8186409504950352
 20
1.087341527345923
 30
0.0
 11
0.8284088841127804
 21
1.097109460963668
 31
0.0
  0
LINE
  5
1DF
330
1A0
100
AcDbEntity
  8
AM_4
100
AcDbLine
 10
1.097109460963669
 20
0.8284088841127797
 30
0.0
 11
1.087341527345923
 21
0.8186409504950346
 31
0.0
  0
LINE
  5
1E0
330
1A0
100
AcDbEntity
  8
AM_4
100
AcDbLine
 10
1.087341527345923
 20
-0.8186409504950352
 30
0.0
 11
1.097109460963668
 21
-0.8284088841127804
 31
0.0
  0
LINE
  5
1E1
330
1A0
100
AcDbEntity
  8
AM_4
100
AcDbLine
 10
-1.087341527345923
 20
0.8186409504950352
 30
0.0
 11
-1.097109460963668
 21
0.8284088841127804
 31
0.0
  0
LINE
  5
1E2
330
1A0
100
AcDbEntity
  8
AM_4
100
AcDbLine
 10
-0.8186409504950352
 20
-1.087341527345923
 30
0.0
 11
-0.8284088841127804
 21
-1.097109460963668
 31
0.0
  0
LINE
  5
1E3
330
1A0
100
AcDbEntity
  8
AM_4
100
AcDbLine
 10
-0.8284088841127804
 20
1.097109460963668
 30
0.0
 11
-0.8186409504950352
 21
1.087341527345923
 31
0.0
  0
LINE
  5
1E4
330
1A0
100
AcDbEntity
  8
AM_4
100
AcDbLine
 10
-1.097109460963668
 20
-0.8284088841127802
 30
0.0
 11
-1.087341527345923
 21
-0.818640950495035
 31
0.0
  0
CIRCLE
  5
1E5
330
1A0
100
AcDbEntity
  8
AM_4
100
AcDbCircle
 10
0.0
 20
0.0
 30
0.0
 40
1.392436966032342
  0
ARC
  5
1E6
330
1A0
100
AcDbEntity
  8
AM_4
100
AcDbCircle
 10
-0.0000000000000001
 20
0.0000000000000009
 30
0.0
 40
1.374740138576369
100
AcDbArc
 50
307.0558394045187
 51
322.9441605954813
  0
ARC
  5
1E7
330
1A0
100
AcDbEntity
  8
AM_4
100
AcDbCircle
 10
-0.0000000000000169
 20
-0.0000000000000171
 30
0.0
 40
1.374740138576344
100
AcDbArc
 50
217.0558394045185
 51
232.9441605954814
  0
ARC
  5
1E8
330
1A0
100
AcDbEntity
  8
AM_4
100
AcDbCircle
 10
-0.0000000000000091
 20
0.0000000000000087
 30
0.0
 40
1.374740138576356
100
AcDbArc
 50
127.0558394045186
 51
142.9441605954813
  0
ARC
  5
1E9
330
1A0
100
AcDbEntity
  8
AM_4
100
AcDbCircle
 10
-0.0000000000000069
 20
-0.0000000000000089
 30
0.0
 40
1.374740138576379
100
AcDbArc
 50
37.05583940451876
 51
52.94416059548131
  0
ARC
  5
1EA
330
1A0
100
AcDbEntity
  8
AM_4
100
AcDbCircle
 10
0.0
 20
0.0
 30
0.0
 40
1.361060102610601
100
AcDbArc
 50
143.0245310004395
 51
216.9754689995605
  0
ARC
  5
1EB
330
1A0
100
AcDbEntity
  8
AM_4
100
AcDbCircle
 10
0.0000000000000002
 20
0.0000000000000004
 30
0.0
 40
1.361060102610601
100
AcDbArc
 50
233.0245310004395
 51
306.9754689995605
  0
ARC
  5
1EC
330
1A0
100
AcDbEntity
  8
AM_4
100
AcDbCircle
 10
0.0000000000000004
 20
-0.0000000000000001
 30
0.0
 40
1.3610601026106
100
AcDbArc
 50
323.0245310004395
 51
36.97546899956054
  0
ARC
  5
1ED
330
1A0
100
AcDbEntity
  8
AM_4
100
AcDbCircle
 10
-0.0000000000000001
 20
-0.0000000000000004
 30
0.0
 40
1.361060102610601
100
AcDbArc
 50
53.02453100043946
 51
126.9754689995605
  0
LINE
  5
1EE
330
1A0
100
AcDbEntity
  8
AM_4
100
AcDbLine
 10
-0.1365224824326899
 20
0.577841391984354
 30
0.0
 11
-0.1486294692542904
 21
0.6070702437685345
 31
0.0
  0
ARC
  5
1EF
330
1A0
100
AcDbEntity
  8
AM_4
100
AcDbCircle
 10
0.0000000000000006
 20
0.0000000000000001
 30
0.0
 40
0.6250000000000002
100
AcDbArc
 50
121.2428473134998
 51
103.7571526865003
  0
LINE
  5
1F0
330
1A0
100
AcDbEntity
  8
AM_4
100
AcDbLine
 10
-0.3241665804314349
 20
0.5343603916191675
 30
0.0
 11
-0.3120595936098343
 21
0.505131539834987
 31
0.0
  0
ARC
  5
1F1
330
1A0
100
AcDbEntity
  8
AM_4
100
AcDbCircle
 10
-0.0000000000000007
 20
-0.0000000000000002
 30
0.0
 40
0.5937499999999998
100
AcDbArc
 50
121.7068962213459
 51
103.293103778654
  0
ARC
  5
1F2
330
1A0
100
AcDbEntity
  8
AM_5
100
AcDbCircle
 10
0.0
 20
1.009548611111111
 30
0.0
 40
0.095
100
AcDbArc
 50
165.0
 51
105.0
  0
ARC
  5
1F3
330
1A0
100
AcDbEntity
  8
AM_5
100
AcDbCircle
 10
0.0
 20
-1.009548611111111
 30
0.0
 40
0.095
100
AcDbArc
 50
165.0
 51
105.0
  0
ARC
  5
1F4
330
1A0
100
AcDbEntity
  8
AM_5
100
AcDbCircle
 10
0.0
 20
1.009548611111111
 30
0.0
 40
0.0950000000000001
100
AcDbArc
 50
105.0
 51
15.00000000000007
  0
ARC
  5
1F5
330
1A0
100
AcDbEntity
  8
AM_5
100
AcDbCircle
 10
0.0
 20
-1.009548611111111
 30
0.0
 40
0.095
100
AcDbArc
 50
105.0
 51
15.00000000000007
  0
ENDBLK
  5
1A3
330
1A0
100
AcDbEntity
  8
0
100
AcDbBlockEnd
  0
BLOCK
  5
1F8
330
1F6
100
AcDbEntity
  8
0
100
AcDbBlockBegin
  2
8_B072308_0_in_072308_0
 70
     2
 10
0.0
 20
0.0
 30
0.0
  3
8_B072308_0_in_072308_0
  1

  0
ATTDEF
  5
1FA
330
1F6
100
AcDbEntity
  8
AM_6
100
AcDbText
 10
7.75625
 20
2.75625
 30
0.0
 40
0.5
  1
SFC - 102 - 204 -(Contact Seal)Housing
100
AcDbAttributeDefinition
  3

  2
NN
 70
     8
280
     0
  0
ATTDEF
  5
1FB
330
1F6
100
AcDbEntity
  8
AM_6
100
AcDbText
 10
7.75625
 20
2.25625
 30
0.0
 40
0.5
  1
Steal Imperial Piloted Flange Bearings
100
AcDbAttributeDefinition
  3

  2
NT
 70
     8
280
     0
  0
ATTDEF
  5
1FC
330
1F6
100
AcDbEntity
  8
AM_6
100
AcDbText
 10
7.75625
 20
1.75625
 30
0.0
 40
0.5
  1
B072308
100
AcDbAttributeDefinition
  3

  2
NB
 70
     8
280
     0
  0
ATTDEF
  5
1FD
330
1F6
100
AcDbEntity
  8
AM_6
100
AcDbText
 10
7.75625
 20
1.25625
 30
0.0
 40
0.5
  1
$PN.
100
AcDbAttributeDefinition
  3

  2
NBSYN
 70
     8
280
     0
  0
ATTDEF
  5
1FE
330
1F6
100
AcDbEntity
  8
AM_6
100
AcDbText
 10
7.75625
 20
0.7562500000000001
 30
0.0
 40
0.5
  1
B072308
100
AcDbAttributeDefinition
  3

  2
LINA
 70
     8
280
     0
  0
ATTDEF
  5
1FF
330
1F6
100
AcDbEntity
  8
AM_6
100
AcDbText
 10
7.75625
 20
0.2562500000000001
 30
0.0
 40
0.5
  1
1-3/16
100
AcDbAttributeDefinition
  3

  2
SS
 70
     8
280
     0
  0
ATTDEF
  5
200
330
1F6
100
AcDbEntity
  8
AM_6
100
AcDbText
 10
7.75625
 20
-0.2437499999999999
 30
0.0
 40
0.5
  1
B072308
100
AcDbAttributeDefinition
  3

  2
PN
 70
     8
280
     0
  0
ATTDEF
  5
201
330
1F6
100
AcDbEntity
  8
AM_6
100
AcDbText
 10
7.75625
 20
-0.7437499999999999
 30
0.0
 40
0.5
  1
Expansion
100
AcDbAttributeDefinition
  3

  2
TYPE
 70
     8
280
     0
  0
ATTDEF
  5
202
330
1F6
100
AcDbEntity
  8
AM_6
100
AcDbText
 10
7.75625
 20
-1.24375
 30
0.0
 40
0.5
  1
Expansion
100
AcDbAttributeDefinition
  3

  2
EF
 70
     8
280
     0
  0
ATTDEF
  5
203
330
1F6
100
AcDbEntity
  8
AM_6
100
AcDbText
 10
7.75625
 20
-1.74375
 30
0.0
 40
0.5
  1
SFC-IP-103RE
100
AcDbAttributeDefinition
  3

  2
DESCRIPTION
 70
     8
280
     0
  0
ATTDEF
  5
204
330
1F6
100
AcDbEntity
  8
AM_6
100
AcDbText
 10
7.75625
 20
-2.24375
 30
0.0
 40
0.5
  1
Contact Seal
100
AcDbAttributeDefinition
  3

  2
ST
 70
     8
280
     0
  0
ATTDEF
  5
205
330
1F6
100
AcDbEntity
  8
AM_6
100
AcDbText
 10
7.75625
 20
-2.74375
 30
0.0
 40
0.5
  1
2.630
100
AcDbAttributeDefinition
  3

  2
A
 70
     8
280
     0
  0
ATTDEF
  5
206
330
1F6
100
AcDbEntity
  8
AM_6
100
AcDbText
 10
7.75625
 20
-3.24375
 30
0.0
 40
0.5
  1
5.2500
100
AcDbAttributeDefinition
  3

  2
B
 70
     8
280
     0
  0
ATTDEF
  5
207
330
1F6
100
AcDbEntity
  8
AM_6
100
AcDbText
 10
7.75625
 20
-3.74375
 30
0.0
 40
0.5
  1
1.9400
100
AcDbAttributeDefinition
  3

  2
C
 70
     8
280
     0
  0
ATTDEF
  5
208
330
1F6
100
AcDbEntity
  8
AM_6
100
AcDbText
 10
7.75625
 20
-4.24375
 30
0.0
 40
0.5
  1
3.0900
100
AcDbAttributeDefinition
  3

  2
D
 70
     8
280
     0
  0
ATTDEF
  5
209
330
1F6
100
AcDbEntity
  8
AM_6
100
AcDbText
 10
7.75625
 20
-4.74375
 30
0.0
 40
0.5
  1
4.3800
100
AcDbAttributeDefinition
  3

  2
DD
 70
     8
280
     0
  0
ATTDEF
  5
20A
330
1F6
100
AcDbEntity
  8
AM_6
100
AcDbText
 10
7.75625
 20
-5.24375
 30
0.0
 40
0.5
  1
0.0000
100
AcDbAttributeDefinition
  3

  2
E
 70
     8
280
     0
  0
ATTDEF
  5
20B
330
1F6
100
AcDbEntity
  8
AM_6
100
AcDbText
 10
7.75625
 20
-5.74375
 30
0.0
 40
0.5
  1
0.4375
100
AcDbAttributeDefinition
  3

  2
F
 70
     8
280
     0
  0
ATTDEF
  5
20C
330
1F6
100
AcDbEntity
  8
AM_6
100
AcDbText
 10
7.75625
 20
-6.24375
 30
0.0
 40
0.5
  1
1.61
100
AcDbAttributeDefinition
  3

  2
G
 70
     8
280
     0
  0
ATTDEF
  5
20D
330
1F6
100
AcDbEntity
  8
AM_6
100
AcDbText
 10
7.75625
 20
-6.74375
 30
0.0
 40
0.5
  1
0.50
100
AcDbAttributeDefinition
  3

  2
H
 70
     8
280
     0
  0
ATTDEF
  5
20E
330
1F6
100
AcDbEntity
  8
AM_6
100
AcDbText
 10
7.75625
 20
-7.24375
 30
0.0
 40
0.5
  1
3.625
100
AcDbAttributeDefinition
  3

  2
K
 70
     8
280
     0
  0
ATTDEF
  5
20F
330
1F6
100
AcDbEntity
  8
AM_6
100
AcDbText
 10
7.75625
 20
-7.74375
 30
0.0
 40
0.5
  1
2.72
100
AcDbAttributeDefinition
  3

  2
L
 70
     8
280
     0
  0
ATTDEF
  5
210
330
1F6
100
AcDbEntity
  8
AM_6
100
AcDbText
 10
7.75625
 20
-8.24375
 30
0.0
 40
0.5
  1
0.4375
100
AcDbAttributeDefinition
  3

  2
M
 70
     8
280
     0
  0
ATTDEF
  5
211
330
1F6
100
AcDbEntity
  8
AM_6
100
AcDbText
 10
7.75625
 20
-8.74375
 30
0.0
 40
0.5
  1
2.78
100
AcDbAttributeDefinition
  3

  2
N
 70
     8
280
     0
  0
ATTDEF
  5
212
330
1F6
100
AcDbEntity
  8
AM_6
100
AcDbText
 10
7.75625
 20
-9.24375
 30
0.0
 40
0.5
  1
1.02
100
AcDbAttributeDefinition
  3

  2
P
 70
     8
280
     0
  0
ATTDEF
  5
213
330
1F6
100
AcDbEntity
  8
AM_6
100
AcDbText
 10
7.75625
 20
-9.74375
 30
0.0
 40
0.5
  1
1.17
100
AcDbAttributeDefinition
  3

  2
Q
 70
     8
280
     0
  0
ATTDEF
  5
214
330
1F6
100
AcDbEntity
  8
AM_6
100
AcDbText
 10
7.75625
 20
-10.24375
 30
0.0
 40
0.5
  1
0.19
100
AcDbAttributeDefinition
  3

  2
X
 70
     8
280
     0
  0
ATTDEF
  5
215
330
1F6
100
AcDbEntity
  8
AM_6
100
AcDbText
 10
7.75625
 20
-10.74375
 30
0.0
 40
0.5
  1
0.020
100
AcDbAttributeDefinition
  3

  2
Y
 70
     8
280
     0
  0
ATTDEF
  5
216
330
1F6
100
AcDbEntity
  8
AM_6
100
AcDbText
 10
7.75625
 20
-11.24375
 30
0.0
 40
0.5
  1
1.80
100
AcDbAttributeDefinition
  3

  2
Z
 70
     8
280
     0
  0
ATTDEF
  5
217
330
1F6
100
AcDbEntity
  8
AM_6
100
AcDbText
 10
7.75625
 20
-11.74375
 30
0.0
 40
0.5
  1
3.1496
100
AcDbAttributeDefinition
  3

  2
BORE
 70
     8
280
     0
  0
ATTDEF
  5
218
330
1F6
100
AcDbEntity
  8
AM_6
100
AcDbText
 10
7.75625
 20
-12.24375
 30
0.0
 40
0.5
  1
0.0606667
100
AcDbAttributeDefinition
  3

  2
O
 70
     8
280
     0
  0
ATTDEF
  5
219
330
1F6
100
AcDbEntity
  8
AM_6
100
AcDbText
 10
7.75625
 20
-12.74375
 30
0.0
 40
0.5
  1
baldor
100
AcDbAttributeDefinition
  3

  2
COMPANY
 70
     8
280
     0
  0
CIRCLE
  5
21A
330
1F6
100
AcDbEntity
  8
AM_9
100
AcDbCircle
 10
0.0
 20
0.0
 30
0.0
 40
1.721875
  0
CIRCLE
  5
21B
330
1F6
100
AcDbEntity
  8
AM_9
100
AcDbCircle
 10
0.0
 20
0.0
 30
0.0
 40
1.762732300305345
  0
LINE
  5
21C
330
1F6
100
AcDbEntity
  8
AM_9
100
AcDbLine
 10
0.1709070446471687
 20
2.174999999999999
 30
0.0
 11
-0.170898361484619
 21
2.174999999999999
 31
0.0
  0
LINE
  5
21D
330
1F6
100
AcDbEntity
  8
AM_9
100
AcDbLine
 10
0.1708983614846182
 20
-2.174999999999999
 30
0.0
 11
-0.170907044647168
 21
-2.174999999999999
 31
0.0
  0
LINE
  5
21E
330
1F6
100
AcDbEntity
  8
AM_9
100
AcDbLine
 10
0.0407866623736526
 20
-1.8125
 30
0.0
 11
-0.0407764933287362
 21
-1.8125
 31
0.0
  0
LINE
  5
21F
330
1F6
100
AcDbEntity
  8
AM_9
100
AcDbLine
 10
0.0407764933287363
 20
1.8125
 30
0.0
 11
-0.0407866623736525
 21
1.8125
 31
0.0
  0
ARC
  5
220
330
1F6
100
AcDbEntity
  8
AM_5
100
AcDbCircle
 10
2.19
 20
0.0000000000000005
 30
0.0
 40
0.2187499999999998
100
AcDbArc
 50
75.0
 51
14.9999999999999
  0
ARC
  5
221
330
1F6
100
AcDbEntity
  8
AM_5
100
AcDbCircle
 10
-2.19
 20
0.0000000000000006
 30
0.0
 40
0.2187499999999998
100
AcDbArc
 50
75.0
 51
14.9999999999999
  0
LINE
  5
222
330
1F6
100
AcDbEntity
  8
AM_7
100
AcDbLine
 10
-2.75625
 20
0.0
 30
0.0
 11
2.75625
 21
0.0
 31
0.0
  0
LINE
  5
223
330
1F6
100
AcDbEntity
  8
AM_7
100
AcDbLine
 10
0.0
 20
-2.75625
 30
0.0
 11
0.0
 21
2.75625
 31
0.0
  0
LINE
  5
224
330
1F6
100
AcDbEntity
  8
AM_7
100
AcDbLine
 10
-1.778251350798539
 20
-1.548563850798539
 30
0.0
 11
-1.318876350798539
 21
-1.548563850798539
 31
0.0
  0
LINE
  5
225
330
1F6
100
AcDbEntity
  8
AM_7
100
AcDbLine
 10
-1.548563850798539
 20
-1.778251350798539
 30
0.0
 11
-1.548563850798539
 21
-1.318876350798539
 31
0.0
  0
LINE
  5
226
330
1F6
100
AcDbEntity
  8
AM_7
100
AcDbLine
 10
-1.778251350798539
 20
1.548563850798539
 30
0.0
 11
-1.318876350798539
 21
1.548563850798539
 31
0.0
  0
LINE
  5
227
330
1F6
100
AcDbEntity
  8
AM_7
100
AcDbLine
 10
-1.548563850798539
 20
1.318876350798539
 30
0.0
 11
-1.548563850798539
 21
1.778251350798539
 31
0.0
  0
LINE
  5
228
330
1F6
100
AcDbEntity
  8
AM_7
100
AcDbLine
 10
-2.19
 20
-0.2296875
 30
0.0
 11
-2.19
 21
0.2296875
 31
0.0
  0
LINE
  5
229
330
1F6
100
AcDbEntity
  8
AM_7
100
AcDbLine
 10
2.19
 20
-0.2296875
 30
0.0
 11
2.19
 21
0.2296875
 31
0.0
  0
LINE
  5
22A
330
1F6
100
AcDbEntity
  8
AM_7
100
AcDbLine
 10
1.318876350798539
 20
-1.548563850798539
 30
0.0
 11
1.778251350798539
 21
-1.548563850798539
 31
0.0
  0
LINE
  5
22B
330
1F6
100
AcDbEntity
  8
AM_7
100
AcDbLine
 10
1.548563850798539
 20
-1.778251350798539
 30
0.0
 11
1.548563850798539
 21
-1.318876350798539
 31
0.0
  0
LINE
  5
22C
330
1F6
100
AcDbEntity
  8
AM_7
100
AcDbLine
 10
1.318876350798539
 20
1.548563850798539
 30
0.0
 11
1.778251350798539
 21
1.548563850798539
 31
0.0
  0
LINE
  5
22D
330
1F6
100
AcDbEntity
  8
AM_7
100
AcDbLine
 10
1.548563850798539
 20
1.318876350798539
 30
0.0
 11
1.548563850798539
 21
1.778251350798539
 31
0.0
  0
CIRCLE
  5
22E
330
1F6
100
AcDbEntity
  8
AM_4
100
AcDbCircle
 10
-2.19
 20
0.0
 30
0.0
 40
0.1800999999999998
  0
CIRCLE
  5
22F
330
1F6
100
AcDbEntity
  8
AM_4
100
AcDbCircle
 10
2.19
 20
0.0
 30
0.0
 40
0.1801000000000001
  0
CIRCLE
  5
230
330
1F6
100
AcDbEntity
  8
AM_4
100
AcDbCircle
 10
0.0
 20
0.0
 30
0.0
 40
2.625
  0
CIRCLE
  5
231
330
1F6
100
AcDbEntity
  8
AM_4
100
AcDbCircle
 10
-1.548563850798539
 20
-1.548563850798539
 30
0.0
 40
0.21875
  0
CIRCLE
  5
232
330
1F6
100
AcDbEntity
  8
AM_4
100
AcDbCircle
 10
-1.548563850798539
 20
1.548563850798539
 30
0.0
 40
0.21875
  0
CIRCLE
  5
233
330
1F6
100
AcDbEntity
  8
AM_4
100
AcDbCircle
 10
1.548563850798539
 20
-1.548563850798539
 30
0.0
 40
0.21875
  0
CIRCLE
  5
234
330
1F6
100
AcDbEntity
  8
AM_4
100
AcDbCircle
 10
1.548563850798539
 20
1.548563850798539
 30
0.0
 40
0.21875
  0
LINE
  5
235
330
1F6
100
AcDbEntity
  8
AM_4
100
AcDbLine
 10
-0.5
 20
2.174999999999999
 30
0.0
 11
-0.5
 21
1.742169983095794
 31
0.0
  0
LINE
  5
236
330
1F6
100
AcDbEntity
  8
AM_4
100
AcDbLine
 10
0.5
 20
2.174999999999999
 30
0.0
 11
0.5
 21
1.742169983095794
 31
0.0
  0
LINE
  5
237
330
1F6
100
AcDbEntity
  8
AM_4
100
AcDbLine
 10
-0.170898361484619
 20
2.174999999999999
 30
0.0
 11
-0.5
 21
2.174999999999999
 31
0.0
  0
LINE
  5
238
330
1F6
100
AcDbEntity
  8
AM_4
100
AcDbLine
 10
0.5
 20
2.174999999999999
 30
0.0
 11
0.1709070446471687
 21
2.174999999999999
 31
0.0
  0
LINE
  5
239
330
1F6
100
AcDbEntity
  8
AM_4
100
AcDbLine
 10
-0.5
 20
-1.742169983095794
 30
0.0
 11
-0.5
 21
-2.174999999999999
 31
0.0
  0
LINE
  5
23A
330
1F6
100
AcDbEntity
  8
AM_4
100
AcDbLine
 10
0.5
 20
-1.742169983095794
 30
0.0
 11
0.5
 21
-2.174999999999999
 31
0.0
  0
LINE
  5
23B
330
1F6
100
AcDbEntity
  8
AM_4
100
AcDbLine
 10
-0.170907044647168
 20
-2.174999999999999
 30
0.0
 11
-0.5
 21
-2.174999999999999
 31
0.0
  0
LINE
  5
23C
330
1F6
100
AcDbEntity
  8
AM_4
100
AcDbLine
 10
0.5
 20
-2.174999999999999
 30
0.0
 11
0.1708983614846182
 21
-2.174999999999999
 31
0.0
  0
ARC
  5
23D
330
1F6
100
AcDbEntity
  8
AM_4
100
AcDbCircle
 10
-1.548563850798538
 20
1.548563850798539
 30
0.0
 40
0.5512500000000002
100
AcDbArc
 50
273.7327956953525
 51
356.2672043046475
  0
ARC
  5
23E
330
1F6
100
AcDbEntity
  8
AM_4
100
AcDbCircle
 10
0.0000000000000004
 20
0.0000000000000001
 30
0.0
 40
1.8125
100
AcDbArc
 50
146.5720899295522
 51
213.4279100704478
  0
ARC
  5
23F
330
1F6
100
AcDbEntity
  8
AM_4
100
AcDbCircle
 10
-1.548563850798539
 20
-1.548563850798538
 30
0.0
 40
0.55125
100
AcDbArc
 50
3.732795695352555
 51
86.26720430464745
  0
ARC
  5
240
330
1F6
100
AcDbEntity
  8
AM_4
100
AcDbCircle
 10
0.0000000000000074
 20
0.0000000000000175
 30
0.0
 40
1.812500000000019
100
AcDbArc
 50
236.5720899295523
 51
253.9866055760514
  0
LINE
  5
241
330
1F6
100
AcDbEntity
  8
AM_4
100
AcDbLine
 10
-0.0407764933287362
 20
-1.8125
 30
0.0
 11
-0.5
 21
-1.8125
 31
0.0
  0
LINE
  5
242
330
1F6
100
AcDbEntity
  8
AM_4
100
AcDbLine
 10
0.5
 20
-1.8125
 30
0.0
 11
0.0407866623736526
 21
-1.8125
 31
0.0
  0
ARC
  5
243
330
1F6
100
AcDbEntity
  8
AM_4
100
AcDbCircle
 10
-0.0000000000000006
 20
0.0000000000000053
 30
0.0
 40
1.812500000000005
100
AcDbArc
 50
286.0133944239485
 51
303.4279100704477
  0
ARC
  5
244
330
1F6
100
AcDbEntity
  8
AM_4
100
AcDbCircle
 10
1.548563850798537
 20
-1.548563850798538
 30
0.0
 40
0.5512499999999987
100
AcDbArc
 50
93.73279569535242
 51
176.2672043046477
  0
ARC
  5
245
330
1F6
100
AcDbEntity
  8
AM_4
100
AcDbCircle
 10
-0.0000000000000011
 20
0.0000000000000001
 30
0.0
 40
1.812500000000001
100
AcDbArc
 50
326.5720899295522
 51
33.42791007044771
  0
ARC
  5
246
330
1F6
100
AcDbEntity
  8
AM_4
100
AcDbCircle
 10
1.54856385079854
 20
1.548563850798538
 30
0.0
 40
0.5512500000000011
100
AcDbArc
 50
183.7327956953524
 51
266.2672043046474
  0
ARC
  5
247
330
1F6
100
AcDbEntity
  8
AM_4
100
AcDbCircle
 10
-0.0000000000000032
 20
-0.0000000000000082
 30
0.0
 40
1.812500000000009
100
AcDbArc
 50
56.57208992955228
 51
73.98660557605147
  0
LINE
  5
248
330
1F6
100
AcDbEntity
  8
AM_4
100
AcDbLine
 10
-0.0407866623736525
 20
1.8125
 30
0.0
 11
-0.5
 21
1.8125
 31
0.0
  0
LINE
  5
249
330
1F6
100
AcDbEntity
  8
AM_4
100
AcDbLine
 10
0.5
 20
1.8125
 30
0.0
 11
0.0407764933287363
 21
1.8125
 31
0.0
  0
ARC
  5
24A
330
1F6
100
AcDbEntity
  8
AM_4
100
AcDbCircle
 10
-0.000000000000005
 20
0.0000000000000115
 30
0.0
 40
1.812499999999987
100
AcDbArc
 50
106.0133944239485
 51
123.4279100704478
  0
CIRCLE
  5
24B
330
1F6
100
AcDbEntity
  8
AM_4
100
AcDbCircle
 10
0.0
 20
0.0
 30
0.0
 40
1.5748
  0
ARC
  5
24C
330
1F6
100
AcDbEntity
  8
AM_5
100
AcDbCircle
 10
2.19
 20
0.0000000000000003
 30
0.0
 40
0.2187499999999999
100
AcDbArc
 50
165.0000000000001
 51
105.0
  0
ARC
  5
24D
330
1F6
100
AcDbEntity
  8
AM_5
100
AcDbCircle
 10
-2.19
 20
0.0000000000000003
 30
0.0
 40
0.2187499999999999
100
AcDbArc
 50
165.0000000000001
 51
105.0
  0
ENDBLK
  5
1F9
330
1F6
100
AcDbEntity
  8
0
100
AcDbBlockEnd
  0
ENDSEC
  0
SECTION
  2
ENTITIES
  0
INSERT
  5
6F
330
1F
100
AcDbEntity
  8
0
100
AcDbBlockReference
  2
1_072308_0
 10
0.0
 20
0.0
 30
0.0
  0
POINT
  5
24F
330
1F
100
AcDbEntity
  8
ConnectionPoints
100
AcDbPoint
 10
0.0
 20
1.99375
 30
0.6349999999999996
  0
POINT
  5
250
330
1F
100
AcDbEntity
  8
ConnectionPoints
100
AcDbPoint
 10
0.0
 20
-1.009548611111111
 30
1.319000033333333
  0
POINT
  5
251
330
1F
100
AcDbEntity
  8
ConnectionPoints
100
AcDbPoint
 10
0.0
 20
1.009548611111111
 30
1.319000033333333
  0
POINT
  5
252
330
1F
100
AcDbEntity
  8
ConnectionPoints
100
AcDbPoint
 10
0.0
 20
0.0
 30
1.188333333333333
  0
POINT
  5
253
330
1F
100
AcDbEntity
  8
ConnectionPoints
100
AcDbPoint
 10
0.0
 20
0.0
 30
1.42
  0
POINT
  5
254
330
1F
100
AcDbEntity
  8
ConnectionPoints
100
AcDbPoint
 10
0.0
 20
0.0
 30
1.387333333333333
  0
POINT
  5
255
330
1F
100
AcDbEntity
  8
ConnectionPoints
100
AcDbPoint
 10
0.0
 20
1.009548611111111
 30
1.188333333333333
  0
POINT
  5
256
330
1F
100
AcDbEntity
  8
ConnectionPoints
100
AcDbPoint
 10
0.0
 20
1.009548611111111
 30
1.319
  0
POINT
  5
257
330
1F
100
AcDbEntity
  8
ConnectionPoints
100
AcDbPoint
 10
0.0
 20
-1.009548611111111
 30
1.188333333333333
  0
POINT
  5
258
330
1F
100
AcDbEntity
  8
ConnectionPoints
100
AcDbPoint
 10
0.0
 20
-1.009548611111111
 30
1.319
  0
POINT
  5
259
330
1F
100
AcDbEntity
  8
ConnectionPoints
100
AcDbPoint
 10
0.0
 20
0.0
 30
1.188333333333333
  0
POINT
  5
25A
330
1F
100
AcDbEntity
  8
ConnectionPoints
100
AcDbPoint
 10
0.0
 20
1.99375
 30
0.6349999999999996
  0
POINT
  5
25B
330
1F
100
AcDbEntity
  8
ConnectionPoints
100
AcDbPoint
 10
0.0
 20
-1.99375
 30
0.6349999999999991
  0
POINT
  5
25C
330
1F
100
AcDbEntity
  8
ConnectionPoints
100
AcDbPoint
 10
0.0
 20
0.0
 30
1.42
  0
POINT
  5
25D
330
1F
100
AcDbEntity
  8
ConnectionPoints
100
AcDbPoint
 10
0.0
 20
0.0
 30
1.61
  0
ENDSEC
  0
SECTION
  2
OBJECTS
  0
DICTIONARY
  5
C
330
0
100
AcDbDictionary
281
     1
  3
ACAD_DETAILVIEWSTYLE
350
265
  3
ACAD_GROUP
350
D
  3
ACAD_LAYOUT
350
1A
  3
ACAD_MATERIAL
350
43
  3
ACAD_MLEADERSTYLE
350
6B
  3
ACAD_MLINESTYLE
350
17
  3
ACAD_PLOTSETTINGS
350
19
  3
ACAD_PLOTSTYLENAME
350
E
  3
ACAD_SCALELIST
350
47
  3
ACAD_SECTIONVIEWSTYLE
350
266
  3
ACAD_TABLESTYLE
350
69
  3
ACAD_VISUALSTYLE
350
2A
  3
ACDB_RECOMPOSE_DATA
350
262
  3
AcDbVariableDictionary
350
25E
  0
SUN
  5
6D
330
29
100
AcDbSun
 90
        1
290
     0
 63
     7
421
 16777215
 40
1.0
291
     1
 91
  2455826
 92
 54000000
292
     0
 70
     2
 71
   256
280
     1
  0
DICTIONARY
  5
265
102
{ACAD_REACTORS
330
C
102
}
330
C
100
AcDbDictionary
281
     1
  0
DICTIONARY
  5
D
102
{ACAD_REACTORS
330
C
102
}
330
C
100
AcDbDictionary
281
     1
  0
DICTIONARY
  5
1A
102
{ACAD_REACTORS
330
C
102
}
330
C
100
AcDbDictionary
281
     1
  3
Layout1
350
1E
  3
Layout2
350
26
  3
Model
350
22
  0
DICTIONARY
  5
43
102
{ACAD_REACTORS
330
C
102
}
330
C
100
AcDbDictionary
281
     1
  3
ByBlock
350
45
  3
ByLayer
350
44
  3
Global
350
46
  0
DICTIONARY
  5
6B
102
{ACAD_REACTORS
330
C
102
}
330
C
100
AcDbDictionary
281
     1
  3
Standard
350
6C
  0
DICTIONARY
  5
17
102
{ACAD_REACTORS
330
C
102
}
330
C
100
AcDbDictionary
281
     1
  3
Standard
350
18
  0
DICTIONARY
  5
19
102
{ACAD_REACTORS
330
C
102
}
330
C
100
AcDbDictionary
281
     1
  0
ACDBDICTIONARYWDFLT
  5
E
102
{ACAD_REACTORS
330
C
102
}
330
C
100
AcDbDictionary
281
     1
  3
Normal
350
F
100
AcDbDictionaryWithDefault
340
F
  0
DICTIONARY
  5
47
102
{ACAD_REACTORS
330
C
102
}
330
C
100
AcDbDictionary
281
     1
  3
A0
350
48
  3
A1
350
49
  3
A2
350
4A
  3
A3
350
4B
  3
A4
350
4C
  3
A5
350
4D
  3
A6
350
4E
  3
A7
350
4F
  3
A8
350
50
  3
A9
350
51
  3
B0
350
52
  3
B1
350
53
  3
B2
350
54
  3
B3
350
55
  3
B4
350
56
  3
B5
350
57
  3
B6
350
58
  3
B7
350
59
  3
B8
350
5A
  3
B9
350
5B
  3
C0
350
5C
  3
C1
350
5D
  3
C2
350
5E
  3
C3
350
5F
  3
C4
350
60
  3
C5
350
61
  3
C6
350
62
  3
C7
350
63
  3
C8
350
64
  3
C9
350
65
  3
D0
350
66
  3
D1
350
67
  3
D2
350
68
  0
DICTIONARY
  5
266
102
{ACAD_REACTORS
330
C
102
}
330
C
100
AcDbDictionary
281
     1
  0
DICTIONARY
  5
69
102
{ACAD_REACTORS
330
C
102
}
330
C
100
AcDbDictionary
281
     1
  3
Standard
350
6A
  0
DICTIONARY
  5
2A
102
{ACAD_REACTORS
330
C
102
}
330
C
100
AcDbDictionary
281
     1
  3
2dWireframe
350
2F
  3
Basic
350
32
  3
Brighten
350
36
  3
ColorChange
350
3A
  3
Conceptual
350
34
  3
Dim
350
35
  3
EdgeColorOff
350
3D
  3
Facepattern
350
39
  3
Flat
350
2B
  3
FlatWithEdges
350
2C
  3
Gouraud
350
2D
  3
GouraudWithEdges
350
2E
  3
Hidden
350
31
  3
JitterOff
350
3B
  3
Linepattern
350
38
  3
OverhangOff
350
3C
  3
Realistic
350
33
  3
Shaded
350
42
  3
Shaded with edges
350
41
  3
Shades of Gray
350
3E
  3
Sketchy
350
3F
  3
Thicken
350
37
  3
Wireframe
350
30
  3
X-Ray
350
40
  0
XRECORD
  5
262
102
{ACAD_REACTORS
330
C
102
}
330
C
100
AcDbXrecord
280
     1
 90
        1
330
6A
  0
DICTIONARY
  5
25E
102
{ACAD_REACTORS
330
C
102
}
330
C
100
AcDbDictionary
281
     1
  3
CANNOSCALE
350
25F
  3
CMLEADERSTYLE
350
264
  3
CTABLESTYLE
350
263
  0
LAYOUT
  5
1E
102
{ACAD_REACTORS
330
1A
102
}
330
1A
100
AcDbPlotSettings
  1

  2
none_device
  4

  6

 40
0.0
 41
0.0
 42
0.0
 43
0.0
 44
0.0
 45
0.0
 46
0.0
 47
0.0
 48
0.0
 49
0.0
140
0.0
141
0.0
142
1.0
143
1.0
 70
   688
 72
     0
 73
     0
 74
     5
  7

 75
    16
 76
     0
 77
     2
 78
   300
147
1.0
148
0.0
149
0.0
100
AcDbLayout
  1
Layout1
 70
     1
 71
     1
 10
0.0
 20
0.0
 11
12.0
 21
9.0
 12
0.0
 22
0.0
 32
0.0
 14
1.000000000000000E+20
 24
1.000000000000000E+20
 34
1.000000000000000E+20
 15
-1.000000000000000E+20
 25
-1.000000000000000E+20
 35
-1.000000000000000E+20
146
0.0
 13
0.0
 23
0.0
 33
0.0
 16
1.0
 26
0.0
 36
0.0
 17
0.0
 27
1.0
 37
0.0
 76
     0
330
1B
  0
LAYOUT
  5
26
102
{ACAD_REACTORS
330
1A
102
}
330
1A
100
AcDbPlotSettings
  1

  2
none_device
  4

  6

 40
0.0
 41
0.0
 42
0.0
 43
0.0
 44
0.0
 45
0.0
 46
0.0
 47
0.0
 48
0.0
 49
0.0
140
0.0
141
0.0
142
1.0
143
1.0
 70
   688
 72
     0
 73
     0
 74
     5
  7

 75
    16
 76
     0
 77
     2
 78
   300
147
1.0
148
0.0
149
0.0
100
AcDbLayout
  1
Layout2
 70
     1
 71
     2
 10
0.0
 20
0.0
 11
0.0
 21
0.0
 12
0.0
 22
0.0
 32
0.0
 14
0.0
 24
0.0
 34
0.0
 15
0.0
 25
0.0
 35
0.0
146
0.0
 13
0.0
 23
0.0
 33
0.0
 16
1.0
 26
0.0
 36
0.0
 17
0.0
 27
1.0
 37
0.0
 76
     0
330
23
  0
LAYOUT
  5
22
102
{ACAD_REACTORS
330
1A
102
}
330
1A
100
AcDbPlotSettings
  1

  2
none_device
  4
Letter_(8.50_x_11.00_Inches)
  6

 40
6.35
 41
6.35
 42
6.35000508
 43
6.35000508
 44
215.9
 45
279.4
 46
0.0
 47
0.0
 48
0.0
 49
0.0
140
0.0
141
0.0
142
1.0
143
1.0
 70
  1712
 72
     0
 73
     0
 74
     0
  7

 75
     0
 76
     0
 77
     2
 78
   300
147
1.0
148
0.0
149
0.0
100
AcDbLayout
  1
Model
 70
     1
 71
     0
 10
0.0
 20
0.0
 11
12.0
 21
9.0
 12
0.0
 22
0.0
 32
0.0
 14
1.000000000000000E+20
 24
1.000000000000000E+20
 34
1.000000000000000E+20
 15
-1.000000000000000E+20
 25
-1.000000000000000E+20
 35
-1.000000000000000E+20
146
0.0
 13
0.0
 23
0.0
 33
0.0
 16
1.0
 26
0.0
 36
0.0
 17
0.0
 27
1.0
 37
0.0
 76
     0
330
1F
331
29
  0
MATERIAL
  5
45
102
{ACAD_REACTORS
330
43
102
}
330
43
100
AcDbMaterial
  1
ByBlock
 72
     1
 94
      127
  0
MATERIAL
  5
44
102
{ACAD_REACTORS
330
43
102
}
330
43
100
AcDbMaterial
  1
ByLayer
 72
     1
 94
      127
  0
MATERIAL
  5
46
102
{ACAD_REACTORS
330
43
102
}
330
43
100
AcDbMaterial
  1
Global
 72
     1
 94
      127
  0
MLEADERSTYLE
  5
6C
102
{ACAD_REACTORS
330
6B
102
}
330
6B
100
AcDbMLeaderStyle
179
     2
170
     2
171
     1
172
     0
 90
        2
 40
0.0
 41
0.0
173
     1
 91
-1056964608
340
14
 92
       -2
290
     1
 42
0.09
291
     1
 43
0.36
  3
Standard
341
0
 44
0.18
300

342
11
174
     1
178
     6
175
     1
176
     0
 93
-1056964608
 45
0.18
292
     0
297
     0
 46
0.18
343
0
 94
-1056964608
 47
1.0
 49
1.0
140
1.0
293
     1
141
0.0
294
     1
177
     0
142
1.0
295
     0
296
     0
143
0.125
271
     0
272
     9
273
     9
298
     0
  0
MLINESTYLE
  5
18
102
{ACAD_REACTORS
330
17
102
}
330
17
100
AcDbMlineStyle
  2
Standard
 70
     0
  3

 62
   256
 51
90.0
 52
90.0
 71
     2
 49
0.5
 62
   256
  6
BYLAYER
 49
-0.5
 62
   256
  6
BYLAYER
  0
ACDBPLACEHOLDER
  5
F
102
{ACAD_REACTORS
330
E
102
}
330
E
  0
SCALE
  5
48
102
{ACAD_REACTORS
330
47
102
}
330
47
100
AcDbScale
 70
     0
300
1:1
140
1.0
141
1.0
290
     1
  0
SCALE
  5
49
102
{ACAD_REACTORS
330
47
102
}
330
47
100
AcDbScale
 70
     0
300
1:2
140
1.0
141
2.0
290
     0
  0
SCALE
  5
4A
102
{ACAD_REACTORS
330
47
102
}
330
47
100
AcDbScale
 70
     0
300
1:4
140
1.0
141
4.0
290
     0
  0
SCALE
  5
4B
102
{ACAD_REACTORS
330
47
102
}
330
47
100
AcDbScale
 70
     0
300
1:5
140
1.0
141
5.0
290
     0
  0
SCALE
  5
4C
102
{ACAD_REACTORS
330
47
102
}
330
47
100
AcDbScale
 70
     0
300
1:8
140
1.0
141
8.0
290
     0
  0
SCALE
  5
4D
102
{ACAD_REACTORS
330
47
102
}
330
47
100
AcDbScale
 70
     0
300
1:10
140
1.0
141
10.0
290
     0
  0
SCALE
  5
4E
102
{ACAD_REACTORS
330
47
102
}
330
47
100
AcDbScale
 70
     0
300
1:16
140
1.0
141
16.0
290
     0
  0
SCALE
  5
4F
102
{ACAD_REACTORS
330
47
102
}
330
47
100
AcDbScale
 70
     0
300
1:20
140
1.0
141
20.0
290
     0
  0
SCALE
  5
50
102
{ACAD_REACTORS
330
47
102
}
330
47
100
AcDbScale
 70
     0
300
1:30
140
1.0
141
30.0
290
     0
  0
SCALE
  5
51
102
{ACAD_REACTORS
330
47
102
}
330
47
100
AcDbScale
 70
     0
300
1:40
140
1.0
141
40.0
290
     0
  0
SCALE
  5
52
102
{ACAD_REACTORS
330
47
102
}
330
47
100
AcDbScale
 70
     0
300
1:50
140
1.0
141
50.0
290
     0
  0
SCALE
  5
53
102
{ACAD_REACTORS
330
47
102
}
330
47
100
AcDbScale
 70
     0
300
1:100
140
1.0
141
100.0
290
     0
  0
SCALE
  5
54
102
{ACAD_REACTORS
330
47
102
}
330
47
100
AcDbScale
 70
     0
300
2:1
140
2.0
141
1.0
290
     0
  0
SCALE
  5
55
102
{ACAD_REACTORS
330
47
102
}
330
47
100
AcDbScale
 70
     0
300
4:1
140
4.0
141
1.0
290
     0
  0
SCALE
  5
56
102
{ACAD_REACTORS
330
47
102
}
330
47
100
AcDbScale
 70
     0
300
8:1
140
8.0
141
1.0
290
     0
  0
SCALE
  5
57
102
{ACAD_REACTORS
330
47
102
}
330
47
100
AcDbScale
 70
     0
300
10:1
140
10.0
141
1.0
290
     0
  0
SCALE
  5
58
102
{ACAD_REACTORS
330
47
102
}
330
47
100
AcDbScale
 70
     0
300
100:1
140
100.0
141
1.0
290
     0
  0
SCALE
  5
59
102
{ACAD_REACTORS
330
47
102
}
330
47
100
AcDbScale
 70
     0
300
1/128" = 1'-0"
140
0.0078125
141
12.0
290
     0
  0
SCALE
  5
5A
102
{ACAD_REACTORS
330
47
102
}
330
47
100
AcDbScale
 70
     0
300
1/64" = 1'-0"
140
0.015625
141
12.0
290
     0
  0
SCALE
  5
5B
102
{ACAD_REACTORS
330
47
102
}
330
47
100
AcDbScale
 70
     0
300
1/32" = 1'-0"
140
0.03125
141
12.0
290
     0
  0
SCALE
  5
5C
102
{ACAD_REACTORS
330
47
102
}
330
47
100
AcDbScale
 70
     0
300
1/16" = 1'-0"
140
0.0625
141
12.0
290
     0
  0
SCALE
  5
5D
102
{ACAD_REACTORS
330
47
102
}
330
47
100
AcDbScale
 70
     0
300
3/32" = 1'-0"
140
0.09375
141
12.0
290
     0
  0
SCALE
  5
5E
102
{ACAD_REACTORS
330
47
102
}
330
47
100
AcDbScale
 70
     0
300
1/8" = 1'-0"
140
0.125
141
12.0
290
     0
  0
SCALE
  5
5F
102
{ACAD_REACTORS
330
47
102
}
330
47
100
AcDbScale
 70
     0
300
3/16" = 1'-0"
140
0.1875
141
12.0
290
     0
  0
SCALE
  5
60
102
{ACAD_REACTORS
330
47
102
}
330
47
100
AcDbScale
 70
     0
300
1/4" = 1'-0"
140
0.25
141
12.0
290
     0
  0
SCALE
  5
61
102
{ACAD_REACTORS
330
47
102
}
330
47
100
AcDbScale
 70
     0
300
3/8" = 1'-0"
140
0.375
141
12.0
290
     0
  0
SCALE
  5
62
102
{ACAD_REACTORS
330
47
102
}
330
47
100
AcDbScale
 70
     0
300
1/2" = 1'-0"
140
0.5
141
12.0
290
     0
  0
SCALE
  5
63
102
{ACAD_REACTORS
330
47
102
}
330
47
100
AcDbScale
 70
     0
300
3/4" = 1'-0"
140
0.75
141
12.0
290
     0
  0
SCALE
  5
64
102
{ACAD_REACTORS
330
47
102
}
330
47
100
AcDbScale
 70
     0
300
1" = 1'-0"
140
1.0
141
12.0
290
     0
  0
SCALE
  5
65
102
{ACAD_REACTORS
330
47
102
}
330
47
100
AcDbScale
 70
     0
300
1-1/2" = 1'-0"
140
1.5
141
12.0
290
     0
  0
SCALE
  5
66
102
{ACAD_REACTORS
330
47
102
}
330
47
100
AcDbScale
 70
     0
300
3" = 1'-0"
140
3.0
141
12.0
290
     0
  0
SCALE
  5
67
102
{ACAD_REACTORS
330
47
102
}
330
47
100
AcDbScale
 70
     0
300
6" = 1'-0"
140
6.0
141
12.0
290
     0
  0
SCALE
  5
68
102
{ACAD_REACTORS
330
47
102
}
330
47
100
AcDbScale
 70
     0
300
1'-0" = 1'-0"
140
12.0
141
12.0
290
     0
  0
TABLESTYLE
  5
6A
102
{ACAD_REACTORS
330
69
102
}
102
{ACAD_XDICTIONARY
360
260
102
}
330
69
100
AcDbTableStyle
  3
Standard
 70
     0
 71
     0
 40
0.06
 41
0.06
280
     0
281
     0
  7
Standard
140
0.18
170
     2
 62
     0
 63
   257
283
     0
 90
        4
 91
        0
  1

274
    -2
284
     1
 64
     0
275
    -2
285
     1
 65
     0
276
    -2
286
     1
 66
     0
277
    -2
287
     1
 67
     0
278
    -2
288
     1
 68
     0
279
    -2
289
     1
 69
     0
  7
Standard
140
0.25
170
     5
 62
     0
 63
   257
283
     0
 90
        4
 91
        0
  1

274
    -2
284
     1
 64
     0
275
    -2
285
     1
 65
     0
276
    -2
286
     1
 66
     0
277
    -2
287
     1
 67
     0
278
    -2
288
     1
 68
     0
279
    -2
289
     1
 69
     0
  7
Standard
140
0.18
170
     5
 62
     0
 63
   257
283
     0
 90
        4
 91
        0
  1

274
    -2
284
     1
 64
     0
275
    -2
285
     1
 65
     0
276
    -2
286
     1
 66
     0
277
    -2
287
     1
 67
     0
278
    -2
288
     1
 68
     0
279
    -2
289
     1
 69
     0
  0
VISUALSTYLE
  5
2F
102
{ACAD_REACTORS
330
2A
102
}
330
2A
100
AcDbVisualStyle
  2
2dWireframe
 70
     4
177
     3
291
     0
 70
    58
 90
        0
176
     1
 90
        2
176
     1
 90
        0
176
     1
 90
        0
176
     1
 40
0.6
176
     1
 40
30.0
176
     1
 62
     7
420
 16777215
176
     1
 90
        1
176
     1
 90
        4
176
     1
 62
     7
176
     1
 62
   257
176
     1
 90
        1
176
     1
 90
        1
176
     1
 40
1.0
176
     1
 90
        0
176
     1
 62
   257
176
     1
 40
1.0
176
     1
 90
        1
176
     1
 90
        6
176
     1
 90
        2
176
     1
 62
     7
176
     1
 90
        5
176
     1
 90
        0
176
     1
 90
        0
176
     1
290
     0
176
     1
 90
        1
176
     1
 40
0.0
176
     1
 90
        0
176
     1
290
     1
176
     1
290
     1
176
     1
290
     0
176
     1
290
     0
176
     1
290
     0
176
     1
290
     0
176
     1
290
     0
176
     1
290
     0
176
     1
290
     0
176
     1
 90
       50
176
     1
 40
0.0
176
     1
 40
1.0
176
     1
 90
        0
176
     1
 62
    18
420
        0
176
     1
 90
       50
176
     1
 90
        3
176
     1
 62
     5
420
      255
176
     1
290
     0
176
     1
 90
       50
176
     1
 90
       50
176
     1
 90
       50
176
     1
290
     0
176
     1
 90
       50
176
     1
 62
   256
176
     0
 40
1.0
176
     0
 90
        2
176
     1
  1
strokes_ogs.tif
176
     1
290
     0
176
     1
 40
1.0
176
     1
 40
1.0
176
     1
  0
VISUALSTYLE
  5
32
102
{ACAD_REACTORS
330
2A
102
}
330
2A
100
AcDbVisualStyle
  2
Basic
 70
     7
177
     3
291
     1
 70
    58
 90
        1
176
     1
 90
        0
176
     1
 90
        1
176
     1
 90
        0
176
     1
 40
0.6
176
     1
 40
30.0
176
     1
 62
     7
420
 16777215
176
     1
 90
        0
176
     1
 90
        4
176
     1
 62
     7
176
     1
 62
   257
176
     1
 90
        1
176
     1
 90
        1
176
     1
 40
1.0
176
     1
 90
        8
176
     1
 62
     7
176
     1
 40
1.0
176
     1
 90
        1
176
     1
 90
        6
176
     1
 90
        2
176
     1
 62
     7
176
     1
 90
        5
176
     1
 90
        0
176
     1
 90
        0
176
     1
290
     0
176
     1
 90
        1
176
     1
 40
0.0
176
     1
 90
        0
176
     1
290
     0
176
     1
290
     1
176
     1
290
     1
176
     1
290
     0
176
     1
290
     0
176
     1
290
     0
176
     1
290
     0
176
     1
290
     0
176
     1
290
     0
176
     1
 90
       50
176
     1
 40
0.0
176
     1
 40
1.0
176
     1
 90
        0
176
     1
 62
    18
420
        0
176
     1
 90
       50
176
     1
 90
        3
176
     1
 62
     5
420
      255
176
     1
290
     0
176
     1
 90
       50
176
     1
 90
       50
176
     1
 90
       50
176
     1
290
     0
176
     1
 90
       50
176
     1
 62
   256
176
     0
 40
1.0
176
     0
 90
        2
176
     1
  1
strokes_ogs.tif
176
     1
290
     0
176
     1
 40
1.0
176
     1
 40
1.0
176
     1
  0
VISUALSTYLE
  5
36
102
{ACAD_REACTORS
330
2A
102
}
330
2A
100
AcDbVisualStyle
  2
Brighten
 70
    12
177
     3
291
     1
 70
    58
 90
        2
176
     1
 90
        2
176
     1
 90
        0
176
     1
 90
        0
176
     1
 40
0.6
176
     1
 40
30.0
176
     1
 62
     7
420
 16777215
176
     1
 90
        1
176
     1
 90
        4
176
     1
 62
     7
176
     1
 62
   257
176
     1
 90
        1
176
     1
 90
        1
176
     1
 40
1.0
176
     1
 90
        8
176
     1
 62
     7
176
     1
 40
1.0
176
     1
 90
        1
176
     1
 90
        6
176
     1
 90
        2
176
     1
 62
     7
176
     1
 90
        5
176
     1
 90
        0
176
     1
 90
        0
176
     1
290
     0
176
     1
 90
        1
176
     1
 40
50.0
176
     1
 90
        0
176
     1
290
     0
176
     1
290
     1
176
     1
290
     1
176
     1
290
     0
176
     1
290
     0
176
     1
290
     0
176
     1
290
     0
176
     1
290
     0
176
     1
290
     0
176
     1
 90
       50
176
     1
 40
0.0
176
     1
 40
1.0
176
     1
 90
        0
176
     1
 62
    18
420
        0
176
     1
 90
       50
176
     1
 90
        3
176
     1
 62
     5
420
      255
176
     1
290
     0
176
     1
 90
       50
176
     1
 90
       50
176
     1
 90
       50
176
     1
290
     0
176
     1
 90
       50
176
     1
 62
   256
176
     0
 40
1.0
176
     0
 90
        2
176
     1
  1
strokes_ogs.tif
176
     1
290
     0
176
     1
 40
1.0
176
     1
 40
1.0
176
     1
  0
VISUALSTYLE
  5
3A
102
{ACAD_REACTORS
330
2A
102
}
330
2A
100
AcDbVisualStyle
  2
ColorChange
 70
    16
177
     3
291
     1
 70
    58
 90
        2
176
     1
 90
        2
176
     1
 90
        3
176
     1
 90
        0
176
     1
 40
0.6
176
     1
 40
30.0
176
     1
 62
     8
420
  8421504
176
     1
 90
        1
176
     1
 90
        4
176
     1
 62
     7
176
     1
 62
   257
176
     1
 90
        1
176
     1
 90
        1
176
     1
 40
1.0
176
     1
 90
        8
176
     1
 62
     8
420
  8421504
176
     1
 40
1.0
176
     1
 90
        1
176
     1
 90
        6
176
     1
 90
        2
176
     1
 62
     7
176
     1
 90
        5
176
     1
 90
        0
176
     1
 90
        0
176
     1
290
     0
176
     1
 90
        1
176
     1
 40
0.0
176
     1
 90
        0
176
     1
290
     0
176
     1
290
     1
176
     1
290
     1
176
     1
290
     0
176
     1
290
     0
176
     1
290
     0
176
     1
290
     0
176
     1
290
     0
176
     1
290
     0
176
     1
 90
       50
176
     1
 40
0.0
176
     1
 40
1.0
176
     1
 90
        0
176
     1
 62
    18
420
        0
176
     1
 90
       50
176
     1
 90
        3
176
     1
 62
     5
420
      255
176
     1
290
     0
176
     1
 90
       50
176
     1
 90
       50
176
     1
 90
       50
176
     1
290
     0
176
     1
 90
       50
176
     1
 62
   256
176
     0
 40
1.0
176
     0
 90
        2
176
     1
  1
strokes_ogs.tif
176
     1
290
     0
176
     1
 40
1.0
176
     1
 40
1.0
176
     1
  0
VISUALSTYLE
  5
34
102
{ACAD_REACTORS
330
2A
102
}
330
2A
100
AcDbVisualStyle
  2
Conceptual
 70
     9
177
     3
291
     0
 70
    58
 90
        3
176
     1
 90
        2
176
     1
 90
        0
176
     1
 90
        0
176
     1
 40
0.6
176
     1
 40
30.0
176
     1
 62
     7
420
 16777215
176
     1
 90
        2
176
     1
 90
        2
176
     1
 62
     7
176
     1
 62
   257
176
     1
 90
        1
176
     1
 90
        1
176
     1
 40
179.0
176
     1
 90
        8
176
     1
 62
     7
176
     1
 40
1.0
176
     1
 90
        1
176
     1
 90
        6
176
     1
 90
        2
176
     1
 62
     7
176
     1
 90
        3
176
     1
 90
        0
176
     1
 90
        0
176
     1
290
     0
176
     1
 90
        1
176
     1
 40
0.0
176
     1
 90
        0
176
     1
290
     0
176
     1
290
     1
176
     1
290
     1
176
     1
290
     0
176
     1
290
     0
176
     1
290
     0
176
     1
290
     0
176
     1
290
     0
176
     1
290
     0
176
     1
 90
       50
176
     1
 40
0.0
176
     1
 40
1.0
176
     1
 90
        0
176
     1
 62
    18
420
        0
176
     1
 90
       50
176
     1
 90
        3
176
     1
 62
     5
420
      255
176
     1
290
     0
176
     1
 90
       50
176
     1
 90
       50
176
     1
 90
       50
176
     1
290
     0
176
     1
 90
       50
176
     1
 62
   256
176
     0
 40
1.0
176
     0
 90
        2
176
     1
  1
strokes_ogs.tif
176
     1
290
     0
176
     1
 40
1.0
176
     1
 40
1.0
176
     1
  0
VISUALSTYLE
  5
35
102
{ACAD_REACTORS
330
2A
102
}
330
2A
100
AcDbVisualStyle
  2
Dim
 70
    11
177
     3
291
     1
 70
    58
 90
        2
176
     1
 90
        2
176
     1
 90
        0
176
     1
 90
        0
176
     1
 40
0.6
176
     1
 40
30.0
176
     1
 62
     7
420
 16777215
176
     1
 90
        1
176
     1
 90
        4
176
     1
 62
     7
176
     1
 62
   257
176
     1
 90
        1
176
     1
 90
        1
176
     1
 40
1.0
176
     1
 90
        8
176
     1
 62
     7
176
     1
 40
1.0
176
     1
 90
        1
176
     1
 90
        6
176
     1
 90
        2
176
     1
 62
     7
176
     1
 90
        5
176
     1
 90
        0
176
     1
 90
        0
176
     1
290
     0
176
     1
 90
        1
176
     1
 40
-50.0
176
     1
 90
        0
176
     1
290
     0
176
     1
290
     1
176
     1
290
     1
176
     1
290
     0
176
     1
290
     0
176
     1
290
     0
176
     1
290
     0
176
     1
290
     0
176
     1
290
     0
176
     1
 90
       50
176
     1
 40
0.0
176
     1
 40
1.0
176
     1
 90
        0
176
     1
 62
    18
420
        0
176
     1
 90
       50
176
     1
 90
        3
176
     1
 62
     5
420
      255
176
     1
290
     0
176
     1
 90
       50
176
     1
 90
       50
176
     1
 90
       50
176
     1
290
     0
176
     1
 90
       50
176
     1
 62
   256
176
     0
 40
1.0
176
     0
 90
        2
176
     1
  1
strokes_ogs.tif
176
     1
290
     0
176
     1
 40
1.0
176
     1
 40
1.0
176
     1
  0
VISUALSTYLE
  5
3D
102
{ACAD_REACTORS
330
2A
102
}
330
2A
100
AcDbVisualStyle
  2
EdgeColorOff
 70
    22
177
     3
291
     1
 70
    58
 90
        2
176
     0
 90
        2
176
     0
 90
        0
176
     0
 90
        0
176
     0
 40
0.6
176
     0
 40
30.0
176
     0
 62
     7
420
 16777215
176
     0
 90
        1
176
     0
 90
        4
176
     0
 62
     7
176
     0
 62
   257
176
     0
 90
        1
176
     0
 90
        1
176
     0
 40
1.0
176
     0
 90
        8
176
     2
 62
     7
176
     0
 40
1.0
176
     0
 90
        1
176
     0
 90
        6
176
     0
 90
        2
176
     0
 62
     7
176
     0
 90
        5
176
     0
 90
        0
176
     0
 90
        0
176
     0
290
     0
176
     0
 90
        1
176
     0
 40
0.0
176
     0
 90
        0
176
     0
290
     0
176
     0
290
     1
176
     0
290
     1
176
     0
290
     0
176
     0
290
     0
176
     0
290
     0
176
     0
290
     0
176
     0
290
     0
176
     0
290
     0
176
     0
 90
       50
176
     0
 40
0.0
176
     0
 40
1.0
176
     0
 90
        0
176
     0
 62
    18
420
        0
176
     0
 90
       50
176
     0
 90
        3
176
     0
 62
     5
420
      255
176
     0
290
     0
176
     0
 90
       50
176
     0
 90
       50
176
     0
 90
       50
176
     0
290
     0
176
     0
 90
       50
176
     0
 62
   256
176
     0
 40
1.0
176
     0
 90
        2
176
     0
  1
strokes_ogs.tif
176
     0
290
     0
176
     0
 40
1.0
176
     0
 40
1.0
176
     0
  0
VISUALSTYLE
  5
39
102
{ACAD_REACTORS
330
2A
102
}
330
2A
100
AcDbVisualStyle
  2
Facepattern
 70
    15
177
     3
291
     1
 70
    58
 90
        2
176
     1
 90
        2
176
     1
 90
        0
176
     1
 90
        0
176
     1
 40
0.6
176
     1
 40
30.0
176
     1
 62
     7
420
 16777215
176
     1
 90
        1
176
     1
 90
        4
176
     1
 62
     7
176
     1
 62
   257
176
     1
 90
        1
176
     1
 90
        1
176
     1
 40
1.0
176
     1
 90
        8
176
     1
 62
     7
176
     1
 40
1.0
176
     1
 90
        1
176
     1
 90
        6
176
     1
 90
        2
176
     1
 62
     7
176
     1
 90
        5
176
     1
 90
        0
176
     1
 90
        0
176
     1
290
     0
176
     1
 90
        1
176
     1
 40
0.0
176
     1
 90
        0
176
     1
290
     0
176
     1
290
     1
176
     1
290
     1
176
     1
290
     0
176
     1
290
     0
176
     1
290
     0
176
     1
290
     0
176
     1
290
     0
176
     1
290
     0
176
     1
 90
       50
176
     1
 40
0.0
176
     1
 40
1.0
176
     1
 90
        0
176
     1
 62
    18
420
        0
176
     1
 90
       50
176
     1
 90
        3
176
     1
 62
     5
420
      255
176
     1
290
     0
176
     1
 90
       50
176
     1
 90
       50
176
     1
 90
       50
176
     1
290
     0
176
     1
 90
       50
176
     1
 62
   256
176
     0
 40
1.0
176
     0
 90
        2
176
     1
  1
strokes_ogs.tif
176
     1
290
     0
176
     1
 40
1.0
176
     1
 40
1.0
176
     1
  0
VISUALSTYLE
  5
2B
102
{ACAD_REACTORS
330
2A
102
}
330
2A
100
AcDbVisualStyle
  2
Flat
 70
     0
177
     3
291
     1
 70
    58
 90
        2
176
     1
 90
        1
176
     1
 90
        1
176
     1
 90
        2
176
     1
 40
0.6
176
     1
 40
30.0
176
     1
 62
     7
420
 16777215
176
     1
 90
        0
176
     1
 90
        0
176
     1
 62
     7
176
     1
 62
   257
176
     1
 90
        1
176
     1
 90
        1
176
     1
 40
1.0
176
     1
 90
        8
176
     1
 62
     7
176
     1
 40
1.0
176
     1
 90
        1
176
     1
 90
        6
176
     1
 90
        2
176
     1
 62
     7
176
     1
 90
        5
176
     1
 90
        0
176
     1
 90
        0
176
     1
290
     0
176
     1
 90
       13
176
     1
 40
0.0
176
     1
 90
        0
176
     1
290
     0
176
     1
290
     1
176
     1
290
     1
176
     1
290
     0
176
     1
290
     0
176
     1
290
     0
176
     1
290
     0
176
     1
290
     0
176
     1
290
     0
176
     1
 90
       50
176
     1
 40
0.0
176
     1
 40
1.0
176
     1
 90
        0
176
     1
 62
    18
420
        0
176
     1
 90
       50
176
     1
 90
        3
176
     1
 62
     5
420
      255
176
     1
290
     0
176
     1
 90
       50
176
     1
 90
       50
176
     1
 90
       50
176
     1
290
     0
176
     1
 90
       50
176
     1
 62
   256
176
     0
 40
1.0
176
     0
 90
        2
176
     1
  1
strokes_ogs.tif
176
     1
290
     0
176
     1
 40
1.0
176
     1
 40
1.0
176
     1
  0
VISUALSTYLE
  5
2C
102
{ACAD_REACTORS
330
2A
102
}
330
2A
100
AcDbVisualStyle
  2
FlatWithEdges
 70
     1
177
     3
291
     1
 70
    58
 90
        2
176
     1
 90
        1
176
     1
 90
        1
176
     1
 90
        2
176
     1
 40
0.6
176
     1
 40
30.0
176
     1
 62
     7
420
 16777215
176
     1
 90
        1
176
     1
 90
        0
176
     1
 62
     7
176
     1
 62
   257
176
     1
 90
        1
176
     1
 90
        1
176
     1
 40
1.0
176
     1
 90
        0
176
     1
 62
   257
176
     1
 40
1.0
176
     1
 90
        1
176
     1
 90
        6
176
     1
 90
        2
176
     1
 62
     7
176
     1
 90
        5
176
     1
 90
        0
176
     1
 90
        0
176
     1
290
     0
176
     1
 90
       13
176
     1
 40
0.0
176
     1
 90
        0
176
     1
290
     0
176
     1
290
     1
176
     1
290
     1
176
     1
290
     0
176
     1
290
     0
176
     1
290
     0
176
     1
290
     0
176
     1
290
     0
176
     1
290
     0
176
     1
 90
       50
176
     1
 40
0.0
176
     1
 40
1.0
176
     1
 90
        0
176
     1
 62
    18
420
        0
176
     1
 90
       50
176
     1
 90
        3
176
     1
 62
     5
420
      255
176
     1
290
     0
176
     1
 90
       50
176
     1
 90
       50
176
     1
 90
       50
176
     1
290
     0
176
     1
 90
       50
176
     1
 62
   256
176
     0
 40
1.0
176
     0
 90
        2
176
     1
  1
strokes_ogs.tif
176
     1
290
     0
176
     1
 40
1.0
176
     1
 40
1.0
176
     1
  0
VISUALSTYLE
  5
2D
102
{ACAD_REACTORS
330
2A
102
}
330
2A
100
AcDbVisualStyle
  2
Gouraud
 70
     2
177
     3
291
     1
 70
    58
 90
        2
176
     1
 90
        2
176
     1
 90
        1
176
     1
 90
        2
176
     1
 40
0.6
176
     1
 40
30.0
176
     1
 62
     7
420
 16777215
176
     1
 90
        0
176
     1
 90
        0
176
     1
 62
     7
176
     1
 62
   257
176
     1
 90
        1
176
     1
 90
        1
176
     1
 40
1.0
176
     1
 90
        0
176
     1
 62
     7
176
     1
 40
1.0
176
     1
 90
        1
176
     1
 90
        6
176
     1
 90
        2
176
     1
 62
     7
176
     1
 90
        5
176
     1
 90
        0
176
     1
 90
        0
176
     1
290
     0
176
     1
 90
       13
176
     1
 40
0.0
176
     1
 90
        0
176
     1
290
     0
176
     1
290
     1
176
     1
290
     1
176
     1
290
     0
176
     1
290
     0
176
     1
290
     0
176
     1
290
     0
176
     1
290
     0
176
     1
290
     0
176
     1
 90
       50
176
     1
 40
0.0
176
     1
 40
1.0
176
     1
 90
        0
176
     1
 62
    18
420
        0
176
     1
 90
       50
176
     1
 90
        3
176
     1
 62
     5
420
      255
176
     1
290
     0
176
     1
 90
       50
176
     1
 90
       50
176
     1
 90
       50
176
     1
290
     0
176
     1
 90
       50
176
     1
 62
   256
176
     0
 40
1.0
176
     0
 90
        2
176
     1
  1
strokes_ogs.tif
176
     1
290
     0
176
     1
 40
1.0
176
     1
 40
1.0
176
     1
  0
VISUALSTYLE
  5
2E
102
{ACAD_REACTORS
330
2A
102
}
330
2A
100
AcDbVisualStyle
  2
GouraudWithEdges
 70
     3
177
     3
291
     1
 70
    58
 90
        2
176
     1
 90
        2
176
     1
 90
        1
176
     1
 90
        2
176
     1
 40
0.6
176
     1
 40
30.0
176
     1
 62
     7
420
 16777215
176
     1
 90
        1
176
     1
 90
        0
176
     1
 62
     7
176
     1
 62
   257
176
     1
 90
        1
176
     1
 90
        1
176
     1
 40
1.0
176
     1
 90
        0
176
     1
 62
   257
176
     1
 40
1.0
176
     1
 90
        1
176
     1
 90
        6
176
     1
 90
        2
176
     1
 62
     7
176
     1
 90
        5
176
     1
 90
        0
176
     1
 90
        0
176
     1
290
     0
176
     1
 90
       13
176
     1
 40
0.0
176
     1
 90
        0
176
     1
290
     0
176
     1
290
     1
176
     1
290
     1
176
     1
290
     0
176
     1
290
     0
176
     1
290
     0
176
     1
290
     0
176
     1
290
     0
176
     1
290
     0
176
     1
 90
       50
176
     1
 40
0.0
176
     1
 40
1.0
176
     1
 90
        0
176
     1
 62
    18
420
        0
176
     1
 90
       50
176
     1
 90
        3
176
     1
 62
     5
420
      255
176
     1
290
     0
176
     1
 90
       50
176
     1
 90
       50
176
     1
 90
       50
176
     1
290
     0
176
     1
 90
       50
176
     1
 62
   256
176
     0
 40
1.0
176
     0
 90
        2
176
     1
  1
strokes_ogs.tif
176
     1
290
     0
176
     1
 40
1.0
176
     1
 40
1.0
176
     1
  0
VISUALSTYLE
  5
31
102
{ACAD_REACTORS
330
2A
102
}
330
2A
100
AcDbVisualStyle
  2
Hidden
 70
     6
177
     3
291
     0
 70
    58
 90
        1
176
     1
 90
        2
176
     1
 90
        2
176
     1
 90
        0
176
     1
 40
0.6
176
     1
 40
30.0
176
     1
 62
     7
420
 16777215
176
     1
 90
        2
176
     1
 90
        2
176
     1
 62
     7
176
     1
 62
   257
176
     1
 90
        2
176
     1
 90
        1
176
     1
 40
40.0
176
     1
 90
        0
176
     1
 62
   257
176
     1
 40
1.0
176
     1
 90
        1
176
     1
 90
        6
176
     1
 90
        2
176
     1
 62
     7
176
     1
 90
        3
176
     1
 90
        0
176
     1
 90
        0
176
     1
290
     0
176
     1
 90
        1
176
     1
 40
0.0
176
     1
 90
        0
176
     1
290
     0
176
     1
290
     1
176
     1
290
     1
176
     1
290
     0
176
     1
290
     0
176
     1
290
     0
176
     1
290
     0
176
     1
290
     0
176
     1
290
     0
176
     1
 90
       50
176
     1
 40
0.0
176
     1
 40
1.0
176
     1
 90
        0
176
     1
 62
    18
420
        0
176
     1
 90
       50
176
     1
 90
        3
176
     1
 62
     5
420
      255
176
     1
290
     0
176
     1
 90
       50
176
     1
 90
       50
176
     1
 90
       50
176
     1
290
     0
176
     1
 90
       50
176
     1
 62
   256
176
     0
 40
1.0
176
     0
 90
        2
176
     1
  1
strokes_ogs.tif
176
     1
290
     0
176
     1
 40
1.0
176
     1
 40
1.0
176
     1
  0
VISUALSTYLE
  5
3B
102
{ACAD_REACTORS
330
2A
102
}
330
2A
100
AcDbVisualStyle
  2
JitterOff
 70
    20
177
     3
291
     1
 70
    58
 90
        2
176
     0
 90
        2
176
     0
 90
        0
176
     0
 90
        0
176
     0
 40
0.6
176
     0
 40
30.0
176
     0
 62
     7
420
 16777215
176
     0
 90
        1
176
     0
 90
        4
176
     0
 62
     7
176
     0
 62
   257
176
     0
 90
        1
176
     0
 90
        1
176
     0
 40
1.0
176
     0
 90
       10
176
     2
 62
     7
176
     0
 40
1.0
176
     0
 90
        1
176
     0
 90
        6
176
     0
 90
        2
176
     0
 62
     7
176
     0
 90
        5
176
     0
 90
        0
176
     0
 90
        0
176
     0
290
     0
176
     0
 90
        1
176
     0
 40
0.0
176
     0
 90
        0
176
     0
290
     0
176
     0
290
     1
176
     0
290
     1
176
     0
290
     0
176
     0
290
     0
176
     0
290
     0
176
     0
290
     0
176
     0
290
     0
176
     0
290
     0
176
     0
 90
       50
176
     0
 40
0.0
176
     0
 40
1.0
176
     0
 90
        0
176
     0
 62
    18
420
        0
176
     0
 90
       50
176
     0
 90
        3
176
     0
 62
     5
420
      255
176
     0
290
     0
176
     0
 90
       50
176
     0
 90
       50
176
     0
 90
       50
176
     0
290
     0
176
     0
 90
       50
176
     0
 62
   256
176
     0
 40
1.0
176
     0
 90
        2
176
     0
  1
strokes_ogs.tif
176
     0
290
     0
176
     0
 40
1.0
176
     0
 40
1.0
176
     0
  0
VISUALSTYLE
  5
38
102
{ACAD_REACTORS
330
2A
102
}
330
2A
100
AcDbVisualStyle
  2
Linepattern
 70
    14
177
     3
291
     1
 70
    58
 90
        2
176
     1
 90
        2
176
     1
 90
        0
176
     1
 90
        0
176
     1
 40
0.6
176
     1
 40
30.0
176
     1
 62
     7
420
 16777215
176
     1
 90
        1
176
     1
 90
        4
176
     1
 62
     7
176
     1
 62
   257
176
     1
 90
        7
176
     1
 90
        7
176
     1
 40
1.0
176
     1
 90
        8
176
     1
 62
     7
176
     1
 40
1.0
176
     1
 90
        1
176
     1
 90
        6
176
     1
 90
        2
176
     1
 62
     7
176
     1
 90
        5
176
     1
 90
        0
176
     1
 90
        0
176
     1
290
     0
176
     1
 90
        1
176
     1
 40
0.0
176
     1
 90
        0
176
     1
290
     0
176
     1
290
     1
176
     1
290
     1
176
     1
290
     0
176
     1
290
     0
176
     1
290
     0
176
     1
290
     0
176
     1
290
     0
176
     1
290
     0
176
     1
 90
       50
176
     1
 40
0.0
176
     1
 40
1.0
176
     1
 90
        0
176
     1
 62
    18
420
        0
176
     1
 90
       50
176
     1
 90
        3
176
     1
 62
     5
420
      255
176
     1
290
     0
176
     1
 90
       50
176
     1
 90
       50
176
     1
 90
       50
176
     1
290
     0
176
     1
 90
       50
176
     1
 62
   256
176
     0
 40
1.0
176
     0
 90
        2
176
     1
  1
strokes_ogs.tif
176
     1
290
     0
176
     1
 40
1.0
176
     1
 40
1.0
176
     1
  0
VISUALSTYLE
  5
3C
102
{ACAD_REACTORS
330
2A
102
}
330
2A
100
AcDbVisualStyle
  2
OverhangOff
 70
    21
177
     3
291
     1
 70
    58
 90
        2
176
     0
 90
        2
176
     0
 90
        0
176
     0
 90
        0
176
     0
 40
0.6
176
     0
 40
30.0
176
     0
 62
     7
420
 16777215
176
     0
 90
        1
176
     0
 90
        4
176
     0
 62
     7
176
     0
 62
   257
176
     0
 90
        1
176
     0
 90
        1
176
     0
 40
1.0
176
     0
 90
        9
176
     2
 62
     7
176
     0
 40
1.0
176
     0
 90
        1
176
     0
 90
        6
176
     0
 90
        2
176
     0
 62
     7
176
     0
 90
        5
176
     0
 90
        0
176
     0
 90
        0
176
     0
290
     0
176
     0
 90
        1
176
     0
 40
0.0
176
     0
 90
        0
176
     0
290
     0
176
     0
290
     1
176
     0
290
     1
176
     0
290
     0
176
     0
290
     0
176
     0
290
     0
176
     0
290
     0
176
     0
290
     0
176
     0
290
     0
176
     0
 90
       50
176
     0
 40
0.0
176
     0
 40
1.0
176
     0
 90
        0
176
     0
 62
    18
420
        0
176
     0
 90
       50
176
     0
 90
        3
176
     0
 62
     5
420
      255
176
     0
290
     0
176
     0
 90
       50
176
     0
 90
       50
176
     0
 90
       50
176
     0
290
     0
176
     0
 90
       50
176
     0
 62
   256
176
     0
 40
1.0
176
     0
 90
        2
176
     0
  1
strokes_ogs.tif
176
     0
290
     0
176
     0
 40
1.0
176
     0
 40
1.0
176
     0
  0
VISUALSTYLE
  5
33
102
{ACAD_REACTORS
330
2A
102
}
330
2A
100
AcDbVisualStyle
  2
Realistic
 70
     8
177
     3
291
     0
 70
    58
 90
        2
176
     1
 90
        3
176
     1
 90
        0
176
     1
 90
        2
176
     1
 40
0.6
176
     1
 40
30.0
176
     1
 62
     7
420
 16777215
176
     1
 90
        0
176
     1
 90
        0
176
     1
 62
     7
176
     1
 62
   257
176
     1
 90
        1
176
     1
 90
        1
176
     1
 40
1.0
176
     1
 90
        8
176
     1
 62
   257
176
     1
 40
1.0
176
     1
 90
        1
176
     1
 90
        6
176
     1
 90
        2
176
     1
 62
     7
176
     1
 90
        3
176
     1
 90
        0
176
     1
 90
        0
176
     1
290
     0
176
     1
 90
       13
176
     1
 40
0.0
176
     1
 90
        0
176
     1
290
     0
176
     1
290
     1
176
     1
290
     1
176
     1
290
     0
176
     1
290
     0
176
     1
290
     0
176
     1
290
     0
176
     1
290
     0
176
     1
290
     0
176
     1
 90
       50
176
     1
 40
0.0
176
     1
 40
1.0
176
     1
 90
        0
176
     1
 62
    18
420
        0
176
     1
 90
       50
176
     1
 90
        3
176
     1
 62
     5
420
      255
176
     1
290
     0
176
     1
 90
       50
176
     1
 90
       50
176
     1
 90
       50
176
     1
290
     0
176
     1
 90
       50
176
     1
 62
   256
176
     0
 40
1.0
176
     0
 90
        2
176
     1
  1
strokes_ogs.tif
176
     1
290
     0
176
     1
 40
1.0
176
     1
 40
1.0
176
     1
  0
VISUALSTYLE
  5
42
102
{ACAD_REACTORS
330
2A
102
}
330
2A
100
AcDbVisualStyle
  2
Shaded
 70
    27
177
     3
291
     0
 70
    58
 90
        2
176
     1
 90
        2
176
     1
 90
        1
176
     1
 90
        2
176
     1
 40
0.6
176
     1
 40
30.0
176
     1
 62
     7
420
 16777215
176
     1
 90
        0
176
     1
 90
        4
176
     1
 62
     7
176
     1
 62
   257
176
     1
 90
        1
176
     1
 90
        1
176
     1
 40
1.0
176
     1
 90
        8
176
     1
 62
   257
176
     1
 40
1.0
176
     1
 90
        1
176
     1
 90
        6
176
     1
 90
        2
176
     1
 62
     8
420
  7895160
176
     1
 90
        3
176
     1
 90
        0
176
     1
 90
        0
176
     1
290
     0
176
     1
 90
        5
176
     1
 40
0.0
176
     1
 90
        0
176
     1
290
     0
176
     1
290
     1
176
     1
290
     1
176
     1
290
     0
176
     1
290
     0
176
     1
290
     0
176
     1
290
     0
176
     1
290
     0
176
     1
290
     0
176
     1
 90
       50
176
     1
 40
0.0
176
     1
 40
1.0
176
     1
 90
        0
176
     1
 62
    18
420
        0
176
     1
 90
       50
176
     1
 90
        3
176
     1
 62
     5
420
      255
176
     1
290
     0
176
     1
 90
       50
176
     1
 90
       50
176
     1
 90
       50
176
     1
290
     0
176
     1
 90
       50
176
     1
 62
   256
176
     0
 40
1.0
176
     0
 90
        2
176
     1
  1
strokes_ogs.tif
176
     1
290
     0
176
     1
 40
1.0
176
     1
 40
1.0
176
     1
  0
VISUALSTYLE
  5
41
102
{ACAD_REACTORS
330
2A
102
}
330
2A
100
AcDbVisualStyle
  2
Shaded with edges
 70
    26
177
     3
291
     0
 70
    58
 90
        2
176
     1
 90
        2
176
     1
 90
        1
176
     1
 90
        2
176
     1
 40
0.6
176
     1
 40
30.0
176
     1
 62
     7
420
 16777215
176
     1
 90
        1
176
     1
 90
       10
176
     1
 62
     7
176
     1
 62
   257
176
     1
 90
        2
176
     1
 90
        1
176
     1
 40
1.0
176
     1
 90
        8
176
     1
 62
   257
176
     1
 40
1.0
176
     1
 90
        1
176
     1
 90
        6
176
     1
 90
        2
176
     1
 62
     7
176
     1
 90
        3
176
     1
 90
        0
176
     1
 90
        0
176
     1
290
     0
176
     1
 90
        5
176
     1
 40
0.0
176
     1
 90
        0
176
     1
290
     0
176
     1
290
     1
176
     1
290
     1
176
     1
290
     0
176
     1
290
     0
176
     1
290
     0
176
     1
290
     0
176
     1
290
     0
176
     1
290
     0
176
     1
 90
       50
176
     1
 40
0.0
176
     1
 40
1.0
176
     1
 90
        0
176
     1
 62
    18
420
        0
176
     1
 90
       50
176
     1
 90
        3
176
     1
 62
     5
420
      255
176
     1
290
     0
176
     1
 90
       50
176
     1
 90
       50
176
     1
 90
       50
176
     1
290
     0
176
     1
 90
       50
176
     1
 62
   256
176
     0
 40
1.0
176
     0
 90
        2
176
     1
  1
strokes_ogs.tif
176
     1
290
     0
176
     1
 40
1.0
176
     1
 40
1.0
176
     1
  0
VISUALSTYLE
  5
3E
102
{ACAD_REACTORS
330
2A
102
}
330
2A
100
AcDbVisualStyle
  2
Shades of Gray
 70
    23
177
     3
291
     0
 70
    58
 90
        2
176
     1
 90
        2
176
     1
 90
        3
176
     1
 90
        0
176
     1
 40
0.6
176
     1
 40
30.0
176
     1
 62
     7
420
 16777215
176
     1
 90
        2
176
     1
 90
        2
176
     1
 62
     7
176
     1
 62
     7
176
     1
 90
        1
176
     1
 90
        1
176
     1
 40
40.0
176
     1
 90
        8
176
     1
 62
     7
176
     1
 40
1.0
176
     1
 90
        1
176
     1
 90
        6
176
     1
 90
        2
176
     1
 62
     7
176
     1
 90
        3
176
     1
 90
        0
176
     1
 90
        0
176
     1
290
     0
176
     1
 90
        1
176
     1
 40
0.0
176
     1
 90
        0
176
     1
290
     0
176
     1
290
     1
176
     1
290
     1
176
     1
290
     0
176
     1
290
     0
176
     1
290
     0
176
     1
290
     0
176
     1
290
     0
176
     1
290
     0
176
     1
 90
       50
176
     1
 40
0.0
176
     1
 40
1.0
176
     1
 90
        0
176
     1
 62
    18
420
        0
176
     1
 90
       50
176
     1
 90
        3
176
     1
 62
     5
420
      255
176
     1
290
     0
176
     1
 90
       50
176
     1
 90
       50
176
     1
 90
       50
176
     1
290
     0
176
     1
 90
       50
176
     1
 62
   256
176
     0
 40
1.0
176
     0
 90
        2
176
     1
  1
strokes_ogs.tif
176
     1
290
     0
176
     1
 40
1.0
176
     1
 40
1.0
176
     1
  0
VISUALSTYLE
  5
3F
102
{ACAD_REACTORS
330
2A
102
}
330
2A
100
AcDbVisualStyle
  2
Sketchy
 70
    24
177
     3
291
     0
 70
    58
 90
        1
176
     1
 90
        2
176
     1
 90
        2
176
     1
 90
        0
176
     1
 40
0.6
176
     1
 40
30.0
176
     1
 62
     7
420
 16777215
176
     1
 90
        2
176
     1
 90
        2
176
     1
 62
     7
176
     1
 62
     7
176
     1
 90
        1
176
     1
 90
        1
176
     1
 40
40.0
176
     1
 90
       11
176
     1
 62
     7
176
     1
 40
1.0
176
     1
 90
        1
176
     1
 90
        6
176
     1
 90
        2
176
     1
 62
     7
176
     1
 90
        6
176
     1
 90
        0
176
     1
 90
        0
176
     1
290
     0
176
     1
 90
        1
176
     1
 40
0.0
176
     1
 90
        0
176
     1
290
     0
176
     1
290
     1
176
     1
290
     1
176
     1
290
     0
176
     1
290
     0
176
     1
290
     0
176
     1
290
     0
176
     1
290
     0
176
     1
290
     0
176
     1
 90
       50
176
     1
 40
0.0
176
     1
 40
1.0
176
     1
 90
        0
176
     1
 62
    18
420
        0
176
     1
 90
       50
176
     1
 90
        3
176
     1
 62
     5
420
      255
176
     1
290
     0
176
     1
 90
       50
176
     1
 90
       50
176
     1
 90
       50
176
     1
290
     0
176
     1
 90
       50
176
     1
 62
   256
176
     0
 40
1.0
176
     0
 90
        2
176
     1
  1
strokes_ogs.tif
176
     1
290
     0
176
     1
 40
1.0
176
     1
 40
1.0
176
     1
  0
VISUALSTYLE
  5
37
102
{ACAD_REACTORS
330
2A
102
}
330
2A
100
AcDbVisualStyle
  2
Thicken
 70
    13
177
     3
291
     1
 70
    58
 90
        2
176
     1
 90
        2
176
     1
 90
        0
176
     1
 90
        0
176
     1
 40
0.6
176
     1
 40
30.0
176
     1
 62
     7
420
 16777215
176
     1
 90
        1
176
     1
 90
        4
176
     1
 62
     7
176
     1
 62
   257
176
     1
 90
        1
176
     1
 90
        1
176
     1
 40
1.0
176
     1
 90
       12
176
     1
 62
     7
176
     1
 40
1.0
176
     1
 90
        1
176
     1
 90
        6
176
     1
 90
        2
176
     1
 62
     7
176
     1
 90
        5
176
     1
 90
        0
176
     1
 90
        0
176
     1
290
     0
176
     1
 90
        1
176
     1
 40
0.0
176
     1
 90
        0
176
     1
290
     0
176
     1
290
     1
176
     1
290
     1
176
     1
290
     0
176
     1
290
     0
176
     1
290
     0
176
     1
290
     0
176
     1
290
     0
176
     1
290
     0
176
     1
 90
       50
176
     1
 40
0.0
176
     1
 40
1.0
176
     1
 90
        0
176
     1
 62
    18
420
        0
176
     1
 90
       50
176
     1
 90
        3
176
     1
 62
     5
420
      255
176
     1
290
     0
176
     1
 90
       50
176
     1
 90
       50
176
     1
 90
       50
176
     1
290
     0
176
     1
 90
       50
176
     1
 62
   256
176
     0
 40
1.0
176
     0
 90
        2
176
     1
  1
strokes_ogs.tif
176
     1
290
     0
176
     1
 40
1.0
176
     1
 40
1.0
176
     1
  0
VISUALSTYLE
  5
30
102
{ACAD_REACTORS
330
2A
102
}
330
2A
100
AcDbVisualStyle
  2
Wireframe
 70
     5
177
     3
291
     0
 70
    58
 90
        0
176
     1
 90
        2
176
     1
 90
        0
176
     1
 90
        0
176
     1
 40
0.6
176
     1
 40
30.0
176
     1
 62
     7
420
 16777215
176
     1
 90
        1
176
     1
 90
        4
176
     1
 62
     7
176
     1
 62
   257
176
     1
 90
        1
176
     1
 90
        1
176
     1
 40
1.0
176
     1
 90
        0
176
     1
 62
   257
176
     1
 40
1.0
176
     1
 90
        1
176
     1
 90
        6
176
     1
 90
        2
176
     1
 62
     7
176
     1
 90
        3
176
     1
 90
        0
176
     1
 90
        0
176
     1
290
     0
176
     1
 90
        1
176
     1
 40
0.0
176
     1
 90
        0
176
     1
290
     0
176
     1
290
     1
176
     1
290
     1
176
     1
290
     0
176
     1
290
     0
176
     1
290
     0
176
     1
290
     0
176
     1
290
     0
176
     1
290
     0
176
     1
 90
       50
176
     1
 40
0.0
176
     1
 40
1.0
176
     1
 90
        0
176
     1
 62
    18
420
        0
176
     1
 90
       50
176
     1
 90
        3
176
     1
 62
     5
420
      255
176
     1
290
     0
176
     1
 90
       50
176
     1
 90
       50
176
     1
 90
       50
176
     1
290
     0
176
     1
 90
       50
176
     1
 62
   256
176
     0
 40
1.0
176
     0
 90
        2
176
     1
  1
strokes_ogs.tif
176
     1
290
     0
176
     1
 40
1.0
176
     1
 40
1.0
176
     1
  0
VISUALSTYLE
  5
40
102
{ACAD_REACTORS
330
2A
102
}
330
2A
100
AcDbVisualStyle
  2
X-Ray
 70
    25
177
     3
291
     0
 70
    58
 90
        2
176
     1
 90
        2
176
     1
 90
        1
176
     1
 90
        1
176
     1
 40
0.5
176
     1
 40
30.0
176
     1
 62
     7
420
 16777215
176
     1
 90
        1
176
     1
 90
        0
176
     1
 62
     7
176
     1
 62
   257
176
     1
 90
        1
176
     1
 90
        1
176
     1
 40
1.0
176
     1
 90
        8
176
     1
 62
     7
176
     1
 40
1.0
176
     1
 90
        1
176
     1
 90
        6
176
     1
 90
        2
176
     1
 62
     7
176
     1
 90
        3
176
     1
 90
        0
176
     1
 90
        0
176
     1
290
     0
176
     1
 90
       13
176
     1
 40
0.0
176
     1
 90
        0
176
     1
290
     0
176
     1
290
     1
176
     1
290
     1
176
     1
290
     0
176
     1
290
     0
176
     1
290
     0
176
     1
290
     0
176
     1
290
     0
176
     1
290
     0
176
     1
 90
       50
176
     1
 40
0.0
176
     1
 40
1.0
176
     1
 90
        0
176
     1
 62
    18
420
        0
176
     1
 90
       50
176
     1
 90
        3
176
     1
 62
     5
420
      255
176
     1
290
     0
176
     1
 90
       50
176
     1
 90
       50
176
     1
 90
       50
176
     1
290
     0
176
     1
 90
       50
176
     1
 62
   256
176
     0
 40
1.0
176
     0
 90
        2
176
     1
  1
strokes_ogs.tif
176
     1
290
     0
176
     1
 40
1.0
176
     1
 40
1.0
176
     1
  0
DICTIONARYVAR
  5
25F
102
{ACAD_REACTORS
330
25E
102
}
330
25E
100
DictionaryVariables
280
     0
  1
1:1
  0
DICTIONARYVAR
  5
264
102
{ACAD_REACTORS
330
25E
102
}
330
25E
100
DictionaryVariables
280
     0
  1
Standard
  0
DICTIONARYVAR
  5
263
102
{ACAD_REACTORS
330
25E
102
}
330
25E
100
DictionaryVariables
280
     0
  1
Standard
  0
DICTIONARY
  5
260
330
6A
100
AcDbDictionary
280
     1
281
     1
  3
ACAD_ROUNDTRIP_2008_TABLESTYLE_CELLSTYLEMAP
360
261
  0
CELLSTYLEMAP
  5
261
102
{ACAD_REACTORS
330
260
102
}
330
260
100
AcDbCellStyleMap
 90
        3
300
CELLSTYLE
  1
TABLEFORMAT_BEGIN
 90
        5
170
     1
 91
        0
 92
    32768
 62
   257
 93
        1
300
CONTENTFORMAT
  1
CONTENTFORMAT_BEGIN
 90
        0
 91
        0
 92
        4
 93
        0
300

 40
0.0
140
1.0
 94
        5
 62
     0
340
11
144
0.25
309
CONTENTFORMAT_END
171
     1
301
MARGIN
  1
CELLMARGIN_BEGIN
 40
0.06
 40
0.06
 40
0.06
 40
0.06
 40
0.06
 40
0.06
309
CELLMARGIN_END
 94
        6
 95
        1
302
GRIDFORMAT
  1
GRIDFORMAT_BEGIN
 90
        0
 91
        1
 62
     0
 92
       -2
340
14
 93
        0
 40
0.045
309
GRIDFORMAT_END
 95
        2
302
GRIDFORMAT
  1
GRIDFORMAT_BEGIN
 90
        0
 91
        1
 62
     0
 92
       -2
340
14
 93
        0
 40
0.045
309
GRIDFORMAT_END
 95
        4
302
GRIDFORMAT
  1
GRIDFORMAT_BEGIN
 90
        0
 91
        1
 62
     0
 92
       -2
340
14
 93
        0
 40
0.045
309
GRIDFORMAT_END
 95
        8
302
GRIDFORMAT
  1
GRIDFORMAT_BEGIN
 90
        0
 91
        1
 62
     0
 92
       -2
340
14
 93
        0
 40
0.045
309
GRIDFORMAT_END
 95
       16
302
GRIDFORMAT
  1
GRIDFORMAT_BEGIN
 90
        0
 91
        1
 62
     0
 92
       -2
340
14
 93
        0
 40
0.045
309
GRIDFORMAT_END
 95
       32
302
GRIDFORMAT
  1
GRIDFORMAT_BEGIN
 90
        0
 91
        1
 62
     0
 92
       -2
340
14
 93
        0
 40
0.045
309
GRIDFORMAT_END
309
TABLEFORMAT_END
  1
CELLSTYLE_BEGIN
 90
        1
 91
        1
300
_TITLE
309
CELLSTYLE_END
300
CELLSTYLE
  1
TABLEFORMAT_BEGIN
 90
        5
170
     1
 91
        0
 92
        0
 62
   257
 93
        1
300
CONTENTFORMAT
  1
CONTENTFORMAT_BEGIN
 90
        0
 91
        0
 92
        4
 93
        0
300

 40
0.0
140
1.0
 94
        5
 62
     0
340
11
144
0.18
309
CONTENTFORMAT_END
171
     1
301
MARGIN
  1
CELLMARGIN_BEGIN
 40
0.06
 40
0.06
 40
0.06
 40
0.06
 40
0.06
 40
0.06
309
CELLMARGIN_END
 94
        6
 95
        1
302
GRIDFORMAT
  1
GRIDFORMAT_BEGIN
 90
        0
 91
        1
 62
     0
 92
       -2
340
14
 93
        0
 40
0.045
309
GRIDFORMAT_END
 95
        2
302
GRIDFORMAT
  1
GRIDFORMAT_BEGIN
 90
        0
 91
        1
 62
     0
 92
       -2
340
14
 93
        0
 40
0.045
309
GRIDFORMAT_END
 95
        4
302
GRIDFORMAT
  1
GRIDFORMAT_BEGIN
 90
        0
 91
        1
 62
     0
 92
       -2
340
14
 93
        0
 40
0.045
309
GRIDFORMAT_END
 95
        8
302
GRIDFORMAT
  1
GRIDFORMAT_BEGIN
 90
        0
 91
        1
 62
     0
 92
       -2
340
14
 93
        0
 40
0.045
309
GRIDFORMAT_END
 95
       16
302
GRIDFORMAT
  1
GRIDFORMAT_BEGIN
 90
        0
 91
        1
 62
     0
 92
       -2
340
14
 93
        0
 40
0.045
309
GRIDFORMAT_END
 95
       32
302
GRIDFORMAT
  1
GRIDFORMAT_BEGIN
 90
        0
 91
        1
 62
     0
 92
       -2
340
14
 93
        0
 40
0.045
309
GRIDFORMAT_END
309
TABLEFORMAT_END
  1
CELLSTYLE_BEGIN
 90
        2
 91
        1
300
_HEADER
309
CELLSTYLE_END
300
CELLSTYLE
  1
TABLEFORMAT_BEGIN
 90
        5
170
     1
 91
        0
 92
        0
 62
   257
 93
        1
300
CONTENTFORMAT
  1
CONTENTFORMAT_BEGIN
 90
        0
 91
        0
 92
        4
 93
        0
300

 40
0.0
140
1.0
 94
        2
 62
     0
340
11
144
0.18
309
CONTENTFORMAT_END
171
     1
301
MARGIN
  1
CELLMARGIN_BEGIN
 40
0.06
 40
0.06
 40
0.06
 40
0.06
 40
0.06
 40
0.06
309
CELLMARGIN_END
 94
        6
 95
        1
302
GRIDFORMAT
  1
GRIDFORMAT_BEGIN
 90
        0
 91
        1
 62
     0
 92
       -2
340
14
 93
        0
 40
0.045
309
GRIDFORMAT_END
 95
        2
302
GRIDFORMAT
  1
GRIDFORMAT_BEGIN
 90
        0
 91
        1
 62
     0
 92
       -2
340
14
 93
        0
 40
0.045
309
GRIDFORMAT_END
 95
        4
302
GRIDFORMAT
  1
GRIDFORMAT_BEGIN
 90
        0
 91
        1
 62
     0
 92
       -2
340
14
 93
        0
 40
0.045
309
GRIDFORMAT_END
 95
        8
302
GRIDFORMAT
  1
GRIDFORMAT_BEGIN
 90
        0
 91
        1
 62
     0
 92
       -2
340
14
 93
        0
 40
0.045
309
GRIDFORMAT_END
 95
       16
302
GRIDFORMAT
  1
GRIDFORMAT_BEGIN
 90
        0
 91
        1
 62
     0
 92
       -2
340
14
 93
        0
 40
0.045
309
GRIDFORMAT_END
 95
       32
302
GRIDFORMAT
  1
GRIDFORMAT_BEGIN
 90
        0
 91
        1
 62
     0
 92
       -2
340
14
 93
        0
 40
0.045
309
GRIDFORMAT_END
309
TABLEFORMAT_END
  1
CELLSTYLE_BEGIN
 90
        3
 91
        2
300
_DATA
309
CELLSTYLE_END
  0
ENDSEC
  0
EOF