0
SECTION
  2
HEADER
  9
$ACADVER
  1
AC1027
  9
$ACADMAINTVER
 70
     8
  9
$DWGCODEPAGE
  3
ANSI_1252
  9
$REQUIREDVERSIONS
160
                 0
  9
$COMMENTS
  1
File was created by Cadenas
  9
$CUSTOMPROPERTYTAG
  1
NN
  9
$CUSTOMPROPERTY
  1
Steel IMPERIAL-HD Piloted Flange 2-7/16 thru 5 Inch Bore
  9
$CUSTOMPROPERTYTAG
  1
NT
  9
$CUSTOMPROPERTY
  1
Steal Imperial Piloted Flange Bearing-Inch-207-500
  9
$CUSTOMPROPERTYTAG
  1
NB
  9
$CUSTOMPROPERTY
  1
072305
  9
$CUSTOMPROPERTYTAG
  1
NBSYN
  9
$CUSTOMPROPERTY
  1
$PN.
  9
$CUSTOMPROPERTYTAG
  1
LINA
  9
$CUSTOMPROPERTY
  1
072305
  9
$CUSTOMPROPERTYTAG
  1
SS
  9
$CUSTOMPROPERTY
  1
4-15/16
  9
$CUSTOMPROPERTYTAG
  1
PN
  9
$CUSTOMPROPERTY
  1
072305
  9
$CUSTOMPROPERTYTAG
  1
TYPE
  9
$CUSTOMPROPERTY
  1
Non-Expansion
  9
$CUSTOMPROPERTYTAG
  1
EF
  9
$CUSTOMPROPERTY
  1
Non-Expansion
  9
$CUSTOMPROPERTYTAG
  1
DESCRIPTION
  9
$CUSTOMPROPERTY
  1
SFC-IP-415R
  9
$CUSTOMPROPERTYTAG
  1
ST
  9
$CUSTOMPROPERTY
  1
Contact Seal
  9
$CUSTOMPROPERTYTAG
  1
A
  9
$CUSTOMPROPERTY
  1
5.98
  9
$CUSTOMPROPERTYTAG
  1
B
  9
$CUSTOMPROPERTY
  1
14.75
  9
$CUSTOMPROPERTYTAG
  1
C
  9
$CUSTOMPROPERTY
  1
4.64
  9
$CUSTOMPROPERTYTAG
  1
D
  9
$CUSTOMPROPERTY
  1
6.38
  9
$CUSTOMPROPERTYTAG
  1
DD
  9
$CUSTOMPROPERTY
  1
12.750
  9
$CUSTOMPROPERTYTAG
  1
E
  9
$CUSTOMPROPERTY
  1
2.06
  9
$CUSTOMPROPERTYTAG
  1
F
  9
$CUSTOMPROPERTY
  1
0.875
  9
$CUSTOMPROPERTYTAG
  1
G
  9
$CUSTOMPROPERTY
  1
2.98
  9
$CUSTOMPROPERTYTAG
  1
H
  9
$CUSTOMPROPERTY
  1
1.03
  9
$CUSTOMPROPERTYTAG
  1
K
  9
$CUSTOMPROPERTY
  1
11.000
  9
$CUSTOMPROPERTYTAG
  1
L
  9
$CUSTOMPROPERTY
  1
7.54
  9
$CUSTOMPROPERTYTAG
  1
M
  9
$CUSTOMPROPERTY
  1
0.875
  9
$CUSTOMPROPERTYTAG
  1
N
  9
$CUSTOMPROPERTY
  1
6.08
  9
$CUSTOMPROPERTYTAG
  1
P
  9
$CUSTOMPROPERTY
  1
2.88
  9
$CUSTOMPROPERTYTAG
  1
Q
  9
$CUSTOMPROPERTY
  1
3.10
  9
$CUSTOMPROPERTYTAG
  1
X
  9
$CUSTOMPROPERTY
  1
0.38
  9
$CUSTOMPROPERTYTAG
  1
Y
  9
$CUSTOMPROPERTY
  1
0.036
  9
$CUSTOMPROPERTYTAG
  1
Z
  9
$CUSTOMPROPERTY
  1
5.84
  9
$CUSTOMPROPERTYTAG
  1
COMPANY
  9
$CUSTOMPROPERTY
  1
baldor
  9
$INSBASE
 10
0.0
 20
0.0
 30
0.0
  9
$EXTMIN
 10
1.000000000000000E+20
 20
1.000000000000000E+20
 30
1.000000000000000E+20
  9
$EXTMAX
 10
-1.000000000000000E+20
 20
-1.000000000000000E+20
 30
-1.000000000000000E+20
  9
$LIMMIN
 10
0.0
 20
0.0
  9
$LIMMAX
 10
12.0
 20
9.0
  9
$ORTHOMODE
 70
     0
  9
$REGENMODE
 70
     1
  9
$FILLMODE
 70
     1
  9
$QTEXTMODE
 70
     0
  9
$MIRRTEXT
 70
     1
  9
$LTSCALE
 40
1.0
  9
$ATTMODE
 70
     1
  9
$TEXTSIZE
 40
0.2
  9
$TRACEWID
 40
0.05
  9
$TEXTSTYLE
  7
Standard
  9
$CLAYER
  8
0
  9
$CELTYPE
  6
ByLayer
  9
$CECOLOR
 62
   256
  9
$CELTSCALE
 40
1.0
  9
$DISPSILH
 70
     0
  9
$DIMSCALE
 40
1.0
  9
$DIMASZ
 40
0.18
  9
$DIMEXO
 40
0.0625
  9
$DIMDLI
 40
0.38
  9
$DIMRND
 40
0.0
  9
$DIMDLE
 40
0.0
  9
$DIMEXE
 40
0.18
  9
$DIMTP
 40
0.0
  9
$DIMTM
 40
0.0
  9
$DIMTXT
 40
0.18
  9
$DIMCEN
 40
0.09
  9
$DIMTSZ
 40
0.0
  9
$DIMTOL
 70
     0
  9
$DIMLIM
 70
     0
  9
$DIMTIH
 70
     1
  9
$DIMTOH
 70
     1
  9
$DIMSE1
 70
     0
  9
$DIMSE2
 70
     0
  9
$DIMTAD
 70
     0
  9
$DIMZIN
 70
     0
  9
$DIMBLK
  1

  9
$DIMASO
 70
     1
  9
$DIMSHO
 70
     1
  9
$DIMPOST
  1

  9
$DIMAPOST
  1

  9
$DIMALT
 70
     0
  9
$DIMALTD
 70
     2
  9
$DIMALTF
 40
25.4
  9
$DIMLFAC
 40
1.0
  9
$DIMTOFL
 70
     0
  9
$DIMTVP
 40
0.0
  9
$DIMTIX
 70
     0
  9
$DIMSOXD
 70
     0
  9
$DIMSAH
 70
     0
  9
$DIMBLK1
  1

  9
$DIMBLK2
  1

  9
$DIMSTYLE
  2
Standard
  9
$DIMCLRD
 70
     0
  9
$DIMCLRE
 70
     0
  9
$DIMCLRT
 70
     0
  9
$DIMTFAC
 40
1.0
  9
$DIMGAP
 40
0.09
  9
$DIMJUST
 70
     0
  9
$DIMSD1
 70
     0
  9
$DIMSD2
 70
     0
  9
$DIMTOLJ
 70
     1
  9
$DIMTZIN
 70
     0
  9
$DIMALTZ
 70
     0
  9
$DIMALTTZ
 70
     0
  9
$DIMUPT
 70
     0
  9
$DIMDEC
 70
     4
  9
$DIMTDEC
 70
     4
  9
$DIMALTU
 70
     2
  9
$DIMALTTD
 70
     2
  9
$DIMTXSTY
  7
Standard
  9
$DIMAUNIT
 70
     0
  9
$DIMADEC
 70
     0
  9
$DIMALTRND
 40
0.0
  9
$DIMAZIN
 70
     0
  9
$DIMDSEP
 70
    46
  9
$DIMATFIT
 70
     3
  9
$DIMFRAC
 70
     0
  9
$DIMLDRBLK
  1

  9
$DIMLUNIT
 70
     2
  9
$DIMLWD
 70
    -2
  9
$DIMLWE
 70
    -2
  9
$DIMTMOVE
 70
     0
  9
$DIMFXL
 40
1.0
  9
$DIMFXLON
 70
     0
  9
$DIMJOGANG
 40
0.7853981633974483
  9
$DIMTFILL
 70
     0
  9
$DIMTFILLCLR
 70
     0
  9
$DIMARCSYM
 70
     0
  9
$DIMLTYPE
  6

  9
$DIMLTEX1
  6

  9
$DIMLTEX2
  6

  9
$DIMTXTDIRECTION
 70
     0
  9
$LUNITS
 70
     2
  9
$LUPREC
 70
     4
  9
$SKETCHINC
 40
0.1
  9
$FILLETRAD
 40
0.5
  9
$AUNITS
 70
     0
  9
$AUPREC
 70
     0
  9
$MENU
  1
.
  9
$ELEVATION
 40
0.0
  9
$PELEVATION
 40
0.0
  9
$THICKNESS
 40
0.0
  9
$LIMCHECK
 70
     0
  9
$CHAMFERA
 40
0.0
  9
$CHAMFERB
 40
0.0
  9
$CHAMFERC
 40
0.0
  9
$CHAMFERD
 40
0.0
  9
$SKPOLY
 70
     0
  9
$TDCREATE
 40
2458168.897555683
  9
$TDUCREATE
 40
2458168.855889016
  9
$TDUPDATE
 40
2458168.897555868
  9
$TDUUPDATE
 40
2458168.855889201
  9
$TDINDWG
 40
0.0000000116
  9
$TDUSRTIMER
 40
0.0000000116
  9
$USRTIMER
 70
     1
  9
$ANGBASE
 50
0.0
  9
$ANGDIR
 70
     0
  9
$PDMODE
 70
     0
  9
$PDSIZE
 40
0.0
  9
$PLINEWID
 40
0.0
  9
$SPLFRAME
 70
     0
  9
$SPLINETYPE
 70
     6
  9
$SPLINESEGS
 70
     8
  9
$HANDSEED
  5
273
  9
$SURFTAB1
 70
     6
  9
$SURFTAB2
 70
     6
  9
$SURFTYPE
 70
     6
  9
$SURFU
 70
     6
  9
$SURFV
 70
     6
  9
$UCSBASE
  2

  9
$UCSNAME
  2

  9
$UCSORG
 10
0.0
 20
0.0
 30
0.0
  9
$UCSXDIR
 10
1.0
 20
0.0
 30
0.0
  9
$UCSYDIR
 10
0.0
 20
1.0
 30
0.0
  9
$UCSORTHOREF
  2

  9
$UCSORTHOVIEW
 70
     0
  9
$UCSORGTOP
 10
0.0
 20
0.0
 30
0.0
  9
$UCSORGBOTTOM
 10
0.0
 20
0.0
 30
0.0
  9
$UCSORGLEFT
 10
0.0
 20
0.0
 30
0.0
  9
$UCSORGRIGHT
 10
0.0
 20
0.0
 30
0.0
  9
$UCSORGFRONT
 10
0.0
 20
0.0
 30
0.0
  9
$UCSORGBACK
 10
0.0
 20
0.0
 30
0.0
  9
$PUCSBASE
  2

  9
$PUCSNAME
  2

  9
$PUCSORG
 10
0.0
 20
0.0
 30
0.0
  9
$PUCSXDIR
 10
1.0
 20
0.0
 30
0.0
  9
$PUCSYDIR
 10
0.0
 20
1.0
 30
0.0
  9
$PUCSORTHOREF
  2

  9
$PUCSORTHOVIEW
 70
     0
  9
$PUCSORGTOP
 10
0.0
 20
0.0
 30
0.0
  9
$PUCSORGBOTTOM
 10
0.0
 20
0.0
 30
0.0
  9
$PUCSORGLEFT
 10
0.0
 20
0.0
 30
0.0
  9
$PUCSORGRIGHT
 10
0.0
 20
0.0
 30
0.0
  9
$PUCSORGFRONT
 10
0.0
 20
0.0
 30
0.0
  9
$PUCSORGBACK
 10
0.0
 20
0.0
 30
0.0
  9
$USERI1
 70
     0
  9
$USERI2
 70
     0
  9
$USERI3
 70
     0
  9
$USERI4
 70
     0
  9
$USERI5
 70
     0
  9
$USERR1
 40
0.0
  9
$USERR2
 40
0.0
  9
$USERR3
 40
0.0
  9
$USERR4
 40
0.0
  9
$USERR5
 40
0.0
  9
$WORLDVIEW
 70
     1
  9
$SHADEDGE
 70
     3
  9
$SHADEDIF
 70
    70
  9
$TILEMODE
 70
     1
  9
$MAXACTVP
 70
    64
  9
$PINSBASE
 10
0.0
 20
0.0
 30
0.0
  9
$PLIMCHECK
 70
     0
  9
$PEXTMIN
 10
1.000000000000000E+20
 20
1.000000000000000E+20
 30
1.000000000000000E+20
  9
$PEXTMAX
 10
-1.000000000000000E+20
 20
-1.000000000000000E+20
 30
-1.000000000000000E+20
  9
$PLIMMIN
 10
0.0
 20
0.0
  9
$PLIMMAX
 10
12.0
 20
9.0
  9
$UNITMODE
 70
     0
  9
$VISRETAIN
 70
     1
  9
$PLINEGEN
 70
     0
  9
$PSLTSCALE
 70
     1
  9
$TREEDEPTH
 70
  3020
  9
$CMLSTYLE
  2
Standard
  9
$CMLJUST
 70
     0
  9
$CMLSCALE
 40
1.0
  9
$PROXYGRAPHICS
 70
     1
  9
$MEASUREMENT
 70
     0
  9
$CELWEIGHT
370
    -1
  9
$ENDCAPS
280
     0
  9
$JOINSTYLE
280
     0
  9
$LWDISPLAY
290
     0
  9
$INSUNITS
 70
     1
  9
$HYPERLINKBASE
  1

  9
$STYLESHEET
  1

  9
$XEDIT
290
     1
  9
$CEPSNTYPE
380
     0
  9
$PSTYLEMODE
290
     1
  9
$FINGERPRINTGUID
  2
{D06A6110-1BF1-4D11-BDA7-5B8E3EA87D29}
  9
$VERSIONGUID
  2
{FAEB1C32-E019-11D5-929B-00C0DF256EC4}
  9
$EXTNAMES
290
     1
  9
$PSVPSCALE
 40
0.0
  9
$OLESTARTUP
290
     0
  9
$SORTENTS
280
   127
  9
$INDEXCTL
280
     0
  9
$HIDETEXT
280
     1
  9
$XCLIPFRAME
280
     2
  9
$HALOGAP
280
     0
  9
$OBSCOLOR
 70
   257
  9
$OBSLTYPE
280
     0
  9
$INTERSECTIONDISPLAY
280
     0
  9
$INTERSECTIONCOLOR
 70
   257
  9
$DIMASSOC
280
     2
  9
$PROJECTNAME
  1

  9
$CAMERADISPLAY
290
     0
  9
$LENSLENGTH
 40
50.0
  9
$CAMERAHEIGHT
 40
0.0
  9
$STEPSPERSEC
 40
2.0
  9
$STEPSIZE
 40
6.0
  9
$3DDWFPREC
 40
2.0
  9
$PSOLWIDTH
 40
0.25
  9
$PSOLHEIGHT
 40
4.0
  9
$LOFTANG1
 40
1.570796326794897
  9
$LOFTANG2
 40
1.570796326794897
  9
$LOFTMAG1
 40
0.0
  9
$LOFTMAG2
 40
0.0
  9
$LOFTPARAM
 70
     7
  9
$LOFTNORMALS
280
     1
  9
$LATITUDE
 40
37.795
  9
$LONGITUDE
 40
-122.394
  9
$NORTHDIRECTION
 40
0.0
  9
$TIMEZONE
 70
 -8000
  9
$LIGHTGLYPHDISPLAY
280
     1
  9
$TILEMODELIGHTSYNCH
280
     1
  9
$CMATERIAL
347
44
  9
$SOLIDHIST
280
     0
  9
$SHOWHIST
280
     1
  9
$DWFFRAME
280
     2
  9
$DGNFRAME
280
     2
  9
$REALWORLDSCALE
290
     1
  9
$INTERFERECOLOR
 62
   256
  9
$CSHADOW
280
     0
  9
$SHADOWPLANELOCATION
 40
0.0
  0
ENDSEC
  0
SECTION
  2
CLASSES
  0
CLASS
  1
ACDBDICTIONARYWDFLT
  2
AcDbDictionaryWithDefault
  3
ObjectDBX Classes
 90
        0
 91
        4
280
     0
281
     0
  0
CLASS
  1
VISUALSTYLE
  2
AcDbVisualStyle
  3
ObjectDBX Classes
 90
     4095
 91
        4
280
     0
281
     0
  0
CLASS
  1
MATERIAL
  2
AcDbMaterial
  3
ObjectDBX Classes
 90
     1153
 91
        4
280
     0
281
     0
  0
CLASS
  1
SCALE
  2
AcDbScale
  3
ObjectDBX Classes
 90
     1153
 91
        4
280
     0
281
     0
  0
CLASS
  1
TABLESTYLE
  2
AcDbTableStyle
  3
ObjectDBX Classes
 90
     4095
 91
        4
280
     0
281
     0
  0
CLASS
  1
MLEADERSTYLE
  2
AcDbMLeaderStyle
  3
ACDB_MLEADERSTYLE_CLASS
 90
     4095
 91
        4
280
     0
281
     0
  0
CLASS
  1
SUN
  2
AcDbSun
  3
SCENEOE
 90
     1153
 91
        4
280
     0
281
     0
  0
CLASS
  1
DICTIONARYVAR
  2
AcDbDictionaryVar
  3
ObjectDBX Classes
 90
        0
 91
        4
280
     0
281
     0
  0
CLASS
  1
CELLSTYLEMAP
  2
AcDbCellStyleMap
  3
ObjectDBX Classes
 90
     1152
 91
        4
280
     0
281
     0
  0
ENDSEC
  0
SECTION
  2
TABLES
  0
TABLE
  2
VPORT
  5
8
330
0
100
AcDbSymbolTable
 70
     1
  0
VPORT
  5
29
330
8
100
AcDbSymbolTableRecord
100
AcDbViewportTableRecord
  2
*Active
 70
     0
 10
0.0
 20
0.0
 11
1.0
 21
1.0
 12
0.0
 22
0.0
 13
0.0
 23
0.0
 14
0.5
 24
0.5
 15
0.5
 25
0.5
 16
0.0
 26
0.0
 36
1.0
 17
0.0
 27
0.0
 37
0.0
 40
15.79725
 41
1.0
 42
50.0
 43
0.0
 44
0.0
 50
0.0
 51
0.0
 71
     0
 72
   100
 73
     1
 74
     3
 75
     0
 76
     0
 77
     0
 78
     0
281
     0
 65
     1
110
0.0
120
0.0
130
0.0
111
1.0
121
0.0
131
0.0
112
0.0
122
1.0
132
0.0
 79
     0
146
0.0
348
2F
 60
     3
 61
     5
292
     1
282
     1
141
0.0
142
0.0
 63
   250
361
6D
  0
ENDTAB
  0
TABLE
  2
LTYPE
  5
5
330
0
100
AcDbSymbolTable
 70
     3
  0
LTYPE
  5
14
330
5
100
AcDbSymbolTableRecord
100
AcDbLinetypeTableRecord
  2
ByBlock
 70
     0
  3

 72
    65
 73
     0
 40
0.0
  0
LTYPE
  5
15
330
5
100
AcDbSymbolTableRecord
100
AcDbLinetypeTableRecord
  2
ByLayer
 70
     0
  3

 72
    65
 73
     0
 40
0.0
  0
LTYPE
  5
16
330
5
100
AcDbSymbolTableRecord
100
AcDbLinetypeTableRecord
  2
Continuous
 70
     0
  3
Solid line
 72
    65
 73
     0
 40
0.0
  0
LTYPE
  5
9D
330
5
100
AcDbSymbolTableRecord
100
AcDbLinetypeTableRecord
  2
Dashed
 70
     0
  3

 72
    65
 73
     2
 40
2.0
 49
1.0
 74
     0
 49
-1.0
 74
     0
  0
LTYPE
  5
131
330
5
100
AcDbSymbolTableRecord
100
AcDbLinetypeTableRecord
  2
Center
 70
     0
  3

 72
    65
 73
     4
 40
1.5
 49
0.45
 74
     0
 49
-0.5
 74
     0
 49
0.05
 74
     0
 49
-0.5
 74
     0
  0
ENDTAB
  0
TABLE
  2
LAYER
  5
2
330
0
100
AcDbSymbolTable
 70
     7
  0
LAYER
  5
10
330
2
100
AcDbSymbolTableRecord
100
AcDbLayerTableRecord
  2
0
 70
     0
 62
     7
  6
Continuous
370
    -3
390
F
347
46
348
0
  0
LAYER
  5
72
330
2
100
AcDbSymbolTableRecord
100
AcDbLayerTableRecord
  2
AM_6
 70
     0
 62
    -2
  6
Continuous
370
    35
390
F
347
46
348
0
  0
LAYER
  5
9E
330
2
100
AcDbSymbolTableRecord
100
AcDbLayerTableRecord
  2
AM_9
 70
     0
 62
     6
  6
Dashed
370
    25
390
F
347
46
348
0
  0
LAYER
  5
B6
330
2
100
AcDbSymbolTableRecord
100
AcDbLayerTableRecord
  2
AM_4
 70
     0
 62
     7
  6
Continuous
370
    50
390
F
347
46
348
0
  0
LAYER
  5
12E
330
2
100
AcDbSymbolTableRecord
100
AcDbLayerTableRecord
  2
AM_5
 70
     0
 62
     3
  6
Continuous
370
    25
390
F
347
46
348
0
  0
LAYER
  5
132
330
2
100
AcDbSymbolTableRecord
100
AcDbLayerTableRecord
  2
AM_7
 70
     0
 62
     7
  6
Center
370
    25
390
F
347
46
348
0
  0
LAYER
  5
25A
330
2
100
AcDbSymbolTableRecord
100
AcDbLayerTableRecord
  2
ConnectionPoints
 70
     0
 62
     7
  6
Continuous
370
    50
390
F
347
46
348
0
  0
ENDTAB
  0
TABLE
  2
STYLE
  5
3
330
0
100
AcDbSymbolTable
 70
     1
  0
STYLE
  5
11
330
3
100
AcDbSymbolTableRecord
100
AcDbTextStyleTableRecord
  2
Standard
 70
     0
 40
0.0
 41
1.0
 50
0.0
 71
     0
 42
0.2
  3
txt
  4

  0
ENDTAB
  0
TABLE
  2
VIEW
  5
6
330
0
100
AcDbSymbolTable
 70
     0
  0
ENDTAB
  0
TABLE
  2
UCS
  5
7
330
0
100
AcDbSymbolTable
 70
     0
  0
ENDTAB
  0
TABLE
  2
APPID
  5
9
330
0
100
AcDbSymbolTable
 70
     1
  0
APPID
  5
12
330
9
100
AcDbSymbolTableRecord
100
AcDbRegAppTableRecord
  2
ACAD
 70
     0
  0
ENDTAB
  0
TABLE
  2
DIMSTYLE
  5
A
330
0
100
AcDbSymbolTable
 70
     1
100
AcDbDimStyleTable
  0
DIMSTYLE
105
27
330
A
100
AcDbSymbolTableRecord
100
AcDbDimStyleTableRecord
  2
Standard
 70
     0
178
     0
340
11
  0
ENDTAB
  0
TABLE
  2
BLOCK_RECORD
  5
1
330
0
100
AcDbSymbolTable
 70
     9
  0
BLOCK_RECORD
  5
1F
330
1
100
AcDbSymbolTableRecord
100
AcDbBlockTableRecord
  2
*Model_Space
340
22
 70
     0
280
     1
281
     0
  0
BLOCK_RECORD
  5
1B
330
1
100
AcDbSymbolTableRecord
100
AcDbBlockTableRecord
  2
*Paper_Space
340
1E
 70
     0
280
     1
281
     0
  0
BLOCK_RECORD
  5
23
330
1
100
AcDbSymbolTableRecord
100
AcDbBlockTableRecord
  2
*Paper_Space0
340
26
 70
     0
280
     1
281
     0
  0
BLOCK_RECORD
  5
6E
330
1
100
AcDbSymbolTableRecord
100
AcDbBlockTableRecord
  2
1_072305_0
340
0
102
{BLKREFS
331
6F
102
}
 70
     0
280
     1
281
     0
  0
BLOCK_RECORD
  5
91
330
1
100
AcDbSymbolTableRecord
100
AcDbBlockTableRecord
  2
2_405015E_Inch_1_0_in_072305_0
340
0
102
{BLKREFS
331
92
102
}
 70
     0
280
     1
281
     0
  0
BLOCK_RECORD
  5
D0
330
1
100
AcDbSymbolTableRecord
100
AcDbBlockTableRecord
  2
3_405015E_Inch_2_0_in_072305_0
340
0
102
{BLKREFS
331
D1
102
}
 70
     0
280
     1
281
     0
  0
BLOCK_RECORD
  5
11E
330
1
100
AcDbSymbolTableRecord
100
AcDbBlockTableRecord
  2
4_ASME_B18_3_5_16_1_0_in_072305_0
340
0
102
{BLKREFS
331
11F
102
}
 70
     0
280
     1
281
     0
  0
BLOCK_RECORD
  5
13E
330
1
100
AcDbSymbolTableRecord
100
AcDbBlockTableRecord
  2
5_ASME_B18_3_5_16_2_0_in_072305_0
340
0
102
{BLKREFS
331
13F
102
}
 70
     0
280
     1
281
     0
  0
BLOCK_RECORD
  5
15B
330
1
100
AcDbSymbolTableRecord
100
AcDbBlockTableRecord
  2
6_070910LW_0_in_072305_0
340
0
102
{BLKREFS
331
15C
102
}
 70
     0
280
     1
281
     0
  0
BLOCK_RECORD
  5
1A6
330
1
100
AcDbSymbolTableRecord
100
AcDbBlockTableRecord
  2
7_070910I_0_in_072305_0
340
0
102
{BLKREFS
331
1A7
102
}
 70
     0
280
     1
281
     0
  0
BLOCK_RECORD
  5
1FE
330
1
100
AcDbSymbolTableRecord
100
AcDbBlockTableRecord
  2
8_B072305_0_in_072305_0
340
0
102
{BLKREFS
331
1FF
102
}
 70
     0
280
     1
281
     0
  0
ENDTAB
  0
ENDSEC
  0
SECTION
  2
BLOCKS
  0
BLOCK
  5
20
330
1F
100
AcDbEntity
  8
0
100
AcDbBlockBegin
  2
*Model_Space
 70
     0
 10
0.0
 20
0.0
 30
0.0
  3
*Model_Space
  1

  0
ENDBLK
  5
21
330
1F
100
AcDbEntity
  8
0
100
AcDbBlockEnd
  0
BLOCK
  5
1C
330
1B
100
AcDbEntity
 67
     1
  8
0
100
AcDbBlockBegin
  2
*Paper_Space
 70
     0
 10
0.0
 20
0.0
 30
0.0
  3
*Paper_Space
  1

  0
ENDBLK
  5
1D
330
1B
100
AcDbEntity
 67
     1
  8
0
100
AcDbBlockEnd
  0
BLOCK
  5
24
330
23
100
AcDbEntity
  8
0
100
AcDbBlockBegin
  2
*Paper_Space0
 70
     0
 10
0.0
 20
0.0
 30
0.0
  3
*Paper_Space0
  1

  0
ENDBLK
  5
25
330
23
100
AcDbEntity
  8
0
100
AcDbBlockEnd
  0
BLOCK
  5
70
330
6E
100
AcDbEntity
  8
0
100
AcDbBlockBegin
  2
1_072305_0
 70
     2
 10
0.0
 20
0.0
 30
0.0
  3
1_072305_0
  1

  0
ATTDEF
  5
73
330
6E
100
AcDbEntity
  8
AM_6
100
AcDbText
 10
12.74375
 20
7.74375
 30
0.0
 40
0.5
  1
Steel IMPERIAL-HD Piloted Flange 2-7/16 thru 5 Inch Bore
100
AcDbAttributeDefinition
  3

  2
NN
 70
     8
280
     0
  0
ATTDEF
  5
74
330
6E
100
AcDbEntity
  8
AM_6
100
AcDbText
 10
12.74375
 20
7.24375
 30
0.0
 40
0.5
  1
Steal Imperial Piloted Flange Bearing-Inch-207-500
100
AcDbAttributeDefinition
  3

  2
NT
 70
     8
280
     0
  0
ATTDEF
  5
75
330
6E
100
AcDbEntity
  8
AM_6
100
AcDbText
 10
12.74375
 20
6.74375
 30
0.0
 40
0.5
  1
072305
100
AcDbAttributeDefinition
  3

  2
NB
 70
     8
280
     0
  0
ATTDEF
  5
76
330
6E
100
AcDbEntity
  8
AM_6
100
AcDbText
 10
12.74375
 20
6.24375
 30
0.0
 40
0.5
  1
$PN.
100
AcDbAttributeDefinition
  3

  2
NBSYN
 70
     8
280
     0
  0
ATTDEF
  5
77
330
6E
100
AcDbEntity
  8
AM_6
100
AcDbText
 10
12.74375
 20
5.74375
 30
0.0
 40
0.5
  1
072305
100
AcDbAttributeDefinition
  3

  2
LINA
 70
     8
280
     0
  0
ATTDEF
  5
78
330
6E
100
AcDbEntity
  8
AM_6
100
AcDbText
 10
12.74375
 20
5.24375
 30
0.0
 40
0.5
  1
4-15/16
100
AcDbAttributeDefinition
  3

  2
SS
 70
     8
280
     0
  0
ATTDEF
  5
79
330
6E
100
AcDbEntity
  8
AM_6
100
AcDbText
 10
12.74375
 20
4.74375
 30
0.0
 40
0.5
  1
072305
100
AcDbAttributeDefinition
  3

  2
PN
 70
     8
280
     0
  0
ATTDEF
  5
7A
330
6E
100
AcDbEntity
  8
AM_6
100
AcDbText
 10
12.74375
 20
4.24375
 30
0.0
 40
0.5
  1
Non-Expansion
100
AcDbAttributeDefinition
  3

  2
TYPE
 70
     8
280
     0
  0
ATTDEF
  5
7B
330
6E
100
AcDbEntity
  8
AM_6
100
AcDbText
 10
12.74375
 20
3.74375
 30
0.0
 40
0.5
  1
Non-Expansion
100
AcDbAttributeDefinition
  3

  2
EF
 70
     8
280
     0
  0
ATTDEF
  5
7C
330
6E
100
AcDbEntity
  8
AM_6
100
AcDbText
 10
12.74375
 20
3.24375
 30
0.0
 40
0.5
  1
SFC-IP-415R
100
AcDbAttributeDefinition
  3

  2
DESCRIPTION
 70
     8
280
     0
  0
ATTDEF
  5
7D
330
6E
100
AcDbEntity
  8
AM_6
100
AcDbText
 10
12.74375
 20
2.74375
 30
0.0
 40
0.5
  1
Contact Seal
100
AcDbAttributeDefinition
  3

  2
ST
 70
     8
280
     0
  0
ATTDEF
  5
7E
330
6E
100
AcDbEntity
  8
AM_6
100
AcDbText
 10
12.74375
 20
2.24375
 30
0.0
 40
0.5
  1
5.98
100
AcDbAttributeDefinition
  3

  2
A
 70
     8
280
     0
  0
ATTDEF
  5
7F
330
6E
100
AcDbEntity
  8
AM_6
100
AcDbText
 10
12.74375
 20
1.74375
 30
0.0
 40
0.5
  1
14.75
100
AcDbAttributeDefinition
  3

  2
B
 70
     8
280
     0
  0
ATTDEF
  5
80
330
6E
100
AcDbEntity
  8
AM_6
100
AcDbText
 10
12.74375
 20
1.24375
 30
0.0
 40
0.5
  1
4.64
100
AcDbAttributeDefinition
  3

  2
C
 70
     8
280
     0
  0
ATTDEF
  5
81
330
6E
100
AcDbEntity
  8
AM_6
100
AcDbText
 10
12.74375
 20
0.7437500000000004
 30
0.0
 40
0.5
  1
6.38
100
AcDbAttributeDefinition
  3

  2
D
 70
     8
280
     0
  0
ATTDEF
  5
82
330
6E
100
AcDbEntity
  8
AM_6
100
AcDbText
 10
12.74375
 20
0.2437500000000004
 30
0.0
 40
0.5
  1
12.750
100
AcDbAttributeDefinition
  3

  2
DD
 70
     8
280
     0
  0
ATTDEF
  5
83
330
6E
100
AcDbEntity
  8
AM_6
100
AcDbText
 10
12.74375
 20
-0.2562499999999996
 30
0.0
 40
0.5
  1
2.06
100
AcDbAttributeDefinition
  3

  2
E
 70
     8
280
     0
  0
ATTDEF
  5
84
330
6E
100
AcDbEntity
  8
AM_6
100
AcDbText
 10
12.74375
 20
-0.7562499999999996
 30
0.0
 40
0.5
  1
0.875
100
AcDbAttributeDefinition
  3

  2
F
 70
     8
280
     0
  0
ATTDEF
  5
85
330
6E
100
AcDbEntity
  8
AM_6
100
AcDbText
 10
12.74375
 20
-1.25625
 30
0.0
 40
0.5
  1
2.98
100
AcDbAttributeDefinition
  3

  2
G
 70
     8
280
     0
  0
ATTDEF
  5
86
330
6E
100
AcDbEntity
  8
AM_6
100
AcDbText
 10
12.74375
 20
-1.75625
 30
0.0
 40
0.5
  1
1.03
100
AcDbAttributeDefinition
  3

  2
H
 70
     8
280
     0
  0
ATTDEF
  5
87
330
6E
100
AcDbEntity
  8
AM_6
100
AcDbText
 10
12.74375
 20
-2.25625
 30
0.0
 40
0.5
  1
11.000
100
AcDbAttributeDefinition
  3

  2
K
 70
     8
280
     0
  0
ATTDEF
  5
88
330
6E
100
AcDbEntity
  8
AM_6
100
AcDbText
 10
12.74375
 20
-2.75625
 30
0.0
 40
0.5
  1
7.54
100
AcDbAttributeDefinition
  3

  2
L
 70
     8
280
     0
  0
ATTDEF
  5
89
330
6E
100
AcDbEntity
  8
AM_6
100
AcDbText
 10
12.74375
 20
-3.25625
 30
0.0
 40
0.5
  1
0.875
100
AcDbAttributeDefinition
  3

  2
M
 70
     8
280
     0
  0
ATTDEF
  5
8A
330
6E
100
AcDbEntity
  8
AM_6
100
AcDbText
 10
12.74375
 20
-3.75625
 30
0.0
 40
0.5
  1
6.08
100
AcDbAttributeDefinition
  3

  2
N
 70
     8
280
     0
  0
ATTDEF
  5
8B
330
6E
100
AcDbEntity
  8
AM_6
100
AcDbText
 10
12.74375
 20
-4.25625
 30
0.0
 40
0.5
  1
2.88
100
AcDbAttributeDefinition
  3

  2
P
 70
     8
280
     0
  0
ATTDEF
  5
8C
330
6E
100
AcDbEntity
  8
AM_6
100
AcDbText
 10
12.74375
 20
-4.75625
 30
0.0
 40
0.5
  1
3.10
100
AcDbAttributeDefinition
  3

  2
Q
 70
     8
280
     0
  0
ATTDEF
  5
8D
330
6E
100
AcDbEntity
  8
AM_6
100
AcDbText
 10
12.74375
 20
-5.25625
 30
0.0
 40
0.5
  1
0.38
100
AcDbAttributeDefinition
  3

  2
X
 70
     8
280
     0
  0
ATTDEF
  5
8E
330
6E
100
AcDbEntity
  8
AM_6
100
AcDbText
 10
12.74375
 20
-5.75625
 30
0.0
 40
0.5
  1
0.036
100
AcDbAttributeDefinition
  3

  2
Y
 70
     8
280
     0
  0
ATTDEF
  5
8F
330
6E
100
AcDbEntity
  8
AM_6
100
AcDbText
 10
12.74375
 20
-6.25625
 30
0.0
 40
0.5
  1
5.84
100
AcDbAttributeDefinition
  3

  2
Z
 70
     8
280
     0
  0
ATTDEF
  5
90
330
6E
100
AcDbEntity
  8
AM_6
100
AcDbText
 10
12.74375
 20
-6.75625
 30
0.0
 40
0.5
  1
baldor
100
AcDbAttributeDefinition
  3

  2
COMPANY
 70
     8
280
     0
  0
INSERT
  5
92
330
6E
100
AcDbEntity
  8
0
100
AcDbBlockReference
  2
2_405015E_Inch_1_0_in_072305_0
 10
0.0
 20
0.0
 30
0.0
  0
INSERT
  5
D1
330
6E
100
AcDbEntity
  8
0
100
AcDbBlockReference
  2
3_405015E_Inch_2_0_in_072305_0
 10
0.0
 20
0.0
 30
0.0
  0
INSERT
  5
11F
330
6E
100
AcDbEntity
  8
0
100
AcDbBlockReference
  2
4_ASME_B18_3_5_16_1_0_in_072305_0
 10
0.0
 20
0.0
 30
0.0
  0
INSERT
  5
13F
330
6E
100
AcDbEntity
  8
0
100
AcDbBlockReference
  2
5_ASME_B18_3_5_16_2_0_in_072305_0
 10
0.0
 20
0.0
 30
0.0
  0
INSERT
  5
15C
330
6E
100
AcDbEntity
  8
0
100
AcDbBlockReference
  2
6_070910LW_0_in_072305_0
 10
0.0
 20
0.0
 30
0.0
  0
INSERT
  5
1A7
330
6E
100
AcDbEntity
  8
0
100
AcDbBlockReference
  2
7_070910I_0_in_072305_0
 10
0.0
 20
0.0
 30
0.0
  0
INSERT
  5
1FF
330
6E
100
AcDbEntity
  8
0
100
AcDbBlockReference
  2
8_B072305_0_in_072305_0
 10
0.0
 20
0.0
 30
0.0
  0
ENDBLK
  5
71
330
6E
100
AcDbEntity
  8
0
100
AcDbBlockEnd
  0
BLOCK
  5
93
330
91
100
AcDbEntity
  8
0
100
AcDbBlockBegin
  2
2_405015E_Inch_1_0_in_072305_0
 70
     2
 10
0.0
 20
0.0
 30
0.0
  3
2_405015E_Inch_1_0_in_072305_0
  1

  0
ATTDEF
  5
95
330
91
100
AcDbEntity
  8
AM_6
100
AcDbText
 10
5.218750000000003
 20
-5.773784518034462
 30
0.0
 40
0.5
  1
405015E -Inch
100
AcDbAttributeDefinition
  3

  2
NN
 70
     8
280
     0
  0
ATTDEF
  5
96
330
91
100
AcDbEntity
  8
AM_6
100
AcDbText
 10
5.218750000000003
 20
-6.273784518034462
 30
0.0
 40
0.5
  1
Grease Fitting
100
AcDbAttributeDefinition
  3

  2
NT
 70
     8
280
     0
  0
ATTDEF
  5
97
330
91
100
AcDbEntity
  8
AM_6
100
AcDbText
 10
5.218750000000003
 20
-6.773784518034462
 30
0.0
 40
0.5
  1
405015E-Inch
100
AcDbAttributeDefinition
  3

  2
NB
 70
     8
280
     0
  0
ATTDEF
  5
98
330
91
100
AcDbEntity
  8
AM_6
100
AcDbText
 10
5.218750000000003
 20
-7.273784518034462
 30
0.0
 40
0.5
  1
$MN.-Inch
100
AcDbAttributeDefinition
  3

  2
NBSYN
 70
     8
280
     0
  0
ATTDEF
  5
99
330
91
100
AcDbEntity
  8
AM_6
100
AcDbText
 10
5.218750000000003
 20
-7.773784518034462
 30
0.0
 40
0.5
  1
405015E
100
AcDbAttributeDefinition
  3

  2
LINA
 70
     8
280
     0
  0
ATTDEF
  5
9A
330
91
100
AcDbEntity
  8
AM_6
100
AcDbText
 10
5.218750000000003
 20
-8.273784518034462
 30
0.0
 40
0.5
  1
405015E
100
AcDbAttributeDefinition
  3

  2
MN
 70
     8
280
     0
  0
ATTDEF
  5
9B
330
91
100
AcDbEntity
  8
AM_6
100
AcDbText
 10
5.218750000000003
 20
-8.773784518034462
 30
0.0
 40
0.5
  1
1/8 x 27PTF
100
AcDbAttributeDefinition
  3

  2
T
 70
     8
280
     0
  0
ATTDEF
  5
9C
330
91
100
AcDbEntity
  8
AM_6
100
AcDbText
 10
5.218750000000003
 20
-9.273784518034462
 30
0.0
 40
0.5
  1
baldor
100
AcDbAttributeDefinition
  3

  2
COMPANY
 70
     8
280
     0
  0
ELLIPSE
  5
9F
330
91
100
AcDbEntity
  8
AM_9
100
AcDbEllipse
 10
0.0
 20
-5.938533950039231
 30
0.0
 11
0.161902872472269
 21
0.0
 31
0.0
210
0.0
220
0.0
230
1.0
 40
0.9072338509570871
 41
0.0
 42
6.283185307179586
  0
LWPOLYLINE
  5
A0
330
91
100
AcDbEntity
  8
AM_9
100
AcDbPolyline
 90
        4
 70
     0
 43
0.0
 10
0.0
 20
-6.282972945943183
 10
-0.0544416102741496
 20
-6.251658421673218
 10
-0.0818700010907651
 20
-6.236534545617535
 10
-0.109375
 20
-6.221869154209821
  0
LWPOLYLINE
  5
A1
330
91
100
AcDbEntity
  8
AM_9
100
AcDbPolyline
 90
        3
 70
     0
 43
0.0
 10
0.0751503464252559
 20
-6.24019484879829
 10
0.0546875
 20
-6.251520732875583
 10
0.0
 20
-6.282972945943183
  0
LINE
  5
A2
330
91
100
AcDbEntity
  8
AM_9
100
AcDbLine
 10
0.109375
 20
-6.221869154209821
 30
0.0
 11
0.0751503464252559
 21
-6.24019484879829
 31
0.0
  0
LWPOLYLINE
  5
A3
330
91
100
AcDbEntity
  8
AM_9
100
AcDbPolyline
 90
        4
 70
     0
 43
0.0
 10
-0.109375
 20
-6.221869154209821
 10
-0.1367187499999999
 20
-6.207802219181834
 10
-0.1640625
 20
-6.194231014805643
 10
-0.21875
 20
-6.168393509803304
  0
LWPOLYLINE
  5
A4
330
91
100
AcDbEntity
  8
AM_9
100
AcDbPolyline
 90
        4
 70
     0
 43
0.0
 10
0.21875
 20
-6.168393509803304
 10
0.1643083897258504
 20
-6.194111113604279
 10
0.1368799989092349
 20
-6.20772076489938
 10
0.109375
 20
-6.221869154209821
  0
LINE
  5
A5
330
91
100
AcDbEntity
  8
AM_9
100
AcDbLine
 10
0.0
 20
-6.317407458978893
 30
0.0
 11
0.0
 21
-6.282972945943183
 31
0.0
  0
LINE
  5
A6
330
91
100
AcDbEntity
  8
AM_9
100
AcDbLine
 10
-0.1981659056522148
 20
-5.941831208611319
 30
0.0
 11
-0.205283950441035
 21
-6.037417778430416
 31
0.0
  0
LINE
  5
A7
330
91
100
AcDbEntity
  8
AM_9
100
AcDbLine
 10
0.205283950441035
 20
-6.037417778430416
 30
0.0
 11
0.1981659056522148
 21
-5.941831208611319
 31
0.0
  0
ELLIPSE
  5
A8
330
91
100
AcDbEntity
  8
AM_9
100
AcDbEllipse
 10
0.0
 20
-6.092062660362565
 30
0.0
 11
-0.2187499999999952
 21
2.678914873134776E-17
 31
0.0
210
0.0
220
0.0
230
1.0
 40
0.9072338509570838
 41
1.271570228951051
 42
1.870022424638743
  0
ELLIPSE
  5
A9
330
91
100
AcDbEntity
  8
AM_9
100
AcDbEllipse
 10
0.0
 20
-6.092062660362553
 30
0.0
 11
-0.213750000000011
 21
2.617682533177602E-17
 31
0.0
210
0.0
220
0.0
230
1.0
 40
0.9072338509570721
 41
1.173393071169726
 42
1.968199582420068
  0
ELLIPSE
  5
AA
330
91
100
AcDbEntity
  8
AM_9
100
AcDbEllipse
 10
0.0
 20
-6.099767781999348
 30
0.0
 11
-0.1725340532830164
 21
2.112932760969649E-17
 31
0.0
210
0.0
220
0.0
230
1.0
 40
0.9072338509570849
 41
0.7020082777469518
 42
2.439584375842842
  0
LINE
  5
AB
330
91
100
AcDbEntity
  8
AM_9
100
AcDbLine
 10
0.0400572686922916
 20
-6.224283503983196
 30
0.0
 11
0.0453296028629548
 21
-6.222309406994777
 31
0.0
  0
LINE
  5
AC
330
91
100
AcDbEntity
  8
AM_9
100
AcDbLine
 10
-0.0453296028629548
 20
-6.222309406994777
 30
0.0
 11
-0.0400572686922916
 21
-6.224283503983196
 31
0.0
  0
ELLIPSE
  5
AD
330
91
100
AcDbEntity
  8
AM_9
100
AcDbEllipse
 10
0.0000000000000008
 20
-6.122664558812137
 30
0.0
 11
-0.1188200907348967
 21
1.770557339659565E-9
 31
0.0
210
0.0
220
0.0
230
1.0
 40
0.9072338509570906
 41
6.216733602311766
 42
9.491229698461233
  0
ELLIPSE
  5
AE
330
91
100
AcDbEntity
  8
AM_9
100
AcDbEllipse
 10
-0.0000000000000008
 20
-6.136228453743244
 30
0.0
 11
-0.1049999999999994
 21
1.285879139104714E-17
 31
0.0
210
0.0
220
0.0
230
1.0
 40
0.9072338509570901
 41
5.610663446347508
 42
10.09729982160145
  0
LINE
  5
AF
330
91
100
AcDbEntity
  8
AM_9
100
AcDbLine
 10
-0.105
 20
-6.136228453743243
 30
0.0
 11
-0.105
 21
-6.148847251852009
 31
0.0
  0
LINE
  5
B0
330
91
100
AcDbEntity
  8
AM_9
100
AcDbLine
 10
0.105
 20
-6.148847251852009
 30
0.0
 11
0.105
 21
-6.136228453743243
 31
0.0
  0
ELLIPSE
  5
B1
330
91
100
AcDbEntity
  8
AM_9
100
AcDbEllipse
 10
0.0
 20
-6.174084848069543
 30
0.0
 11
-0.1349999999999993
 21
1.653273178848919E-17
 31
0.0
210
0.0
220
0.0
230
1.0
 40
0.907233850957085
 41
1.058108283367293
 42
2.083484370222501
  0
ELLIPSE
  5
B2
330
91
100
AcDbEntity
  8
AM_9
100
AcDbEllipse
 10
-0.0000000000000007
 20
-6.050000000000002
 30
0.0
 11
-0.2057518972230686
 21
2.519734023527262E-17
 31
0.0
210
0.0
220
0.0
230
1.0
 40
0.9072338509570886
 41
0.0
 42
6.283185307179586
  0
ELLIPSE
  5
B3
330
91
100
AcDbEntity
  8
AM_9
100
AcDbEllipse
 10
-0.0000000000000216
 20
-5.95397715244716
 30
0.0
 11
-0.1986176267812372
 21
2.959633296930334E-9
 31
0.0
210
0.0
220
0.0
230
1.0
 40
0.9072338509570772
 41
0.0
 42
6.283185307179586
  0
ELLIPSE
  5
B4
330
91
100
AcDbEntity
  8
AM_9
100
AcDbEllipse
 10
0.0
 20
-6.050000000000005
 30
0.0
 11
-0.2187500000000028
 21
3.259629037943365E-9
 31
0.0
210
0.0
220
0.0
230
1.0
 40
0.9072338509570806
 41
0.0
 42
6.283185307179586
  0
ELLIPSE
  5
B5
330
91
100
AcDbEntity
  8
AM_9
100
AcDbEllipse
 10
0.0000000000000015
 20
-6.14884725185201
 30
0.0
 11
-0.1050000000000017
 21
1.285879139104742E-17
 31
0.0
210
0.0
220
0.0
230
1.0
 40
0.907233850957087
 41
0.0
 42
6.283185307179586
  0
LWPOLYLINE
  5
B7
330
91
100
AcDbEntity
  8
AM_4
100
AcDbPolyline
 90
        4
 70
     0
 43
0.0
 10
-0.1093749999999999
 20
-6.263931814572377
 10
-0.0820312499999999
 20
-6.277998749600365
 10
-0.0546874999999999
 20
-6.291569953976555
 10
0.0
 20
-6.317407458978893
  0
LINE
  5
B8
330
91
100
AcDbEntity
  8
AM_4
100
AcDbLine
 10
0.0648714804594667
 20
-6.286571227429441
 30
0.0
 11
0.109375
 21
-6.263931814572377
 31
0.0
  0
LWPOLYLINE
  5
B9
330
91
100
AcDbEntity
  8
AM_4
100
AcDbPolyline
 90
        3
 70
     0
 43
0.0
 10
0.0
 20
-6.317407458978893
 10
0.0544416102741496
 20
-6.291689855177918
 10
0.0648714804594667
 20
-6.286571227429441
  0
LWPOLYLINE
  5
BA
330
91
100
AcDbEntity
  8
AM_4
100
AcDbPolyline
 90
        4
 70
     0
 43
0.0
 10
0.109375
 20
-6.263931814572377
 10
0.13671875
 20
-6.249353890565396
 10
0.1640625
 20
-6.234280235906615
 10
0.21875
 20
-6.202828022839015
  0
LWPOLYLINE
  5
BB
330
91
100
AcDbEntity
  8
AM_4
100
AcDbPolyline
 90
        4
 70
     0
 43
0.0
 10
-0.21875
 20
-6.202828022839015
 10
-0.1643083897258504
 20
-6.23414254710898
 10
-0.1368799989092348
 20
-6.249266423164664
 10
-0.1093749999999999
 20
-6.263931814572377
  0
ELLIPSE
  5
BC
330
91
100
AcDbEntity
  8
AM_4
100
AcDbEllipse
 10
-0.0000000000000021
 20
-6.09206266036256
 30
0.0
 11
-0.2187499999999978
 21
2.678914873134809E-17
 31
0.0
210
0.0
220
0.0
230
1.0
 40
0.9072338509570891
 41
1.870022424638745
 42
7.554755536130653
  0
LINE
  5
BD
330
91
100
AcDbEntity
  8
AM_4
100
AcDbLine
 10
-0.21875
 20
-6.202828022839015
 30
0.0
 11
-0.21875
 21
-5.939234637523548
 31
0.0
  0
LWPOLYLINE
  5
BE
330
91
100
AcDbEntity
  8
AM_4
100
AcDbPolyline
 90
        4
 70
     0
 43
0.0
 10
-0.1093749999999999
 20
-5.920193506152742
 10
-0.1367187499999999
 20
-5.934260441180729
 10
-0.1640625
 20
-5.947831645556919
 10
-0.21875
 20
-5.973669150559258
  0
LWPOLYLINE
  5
BF
330
91
100
AcDbEntity
  8
AM_4
100
AcDbPolyline
 90
        4
 70
     0
 43
0.0
 10
0.0
 20
-5.85908971441938
 10
-0.0544416102741496
 20
-5.890404238689345
 10
-0.0818700010907651
 20
-5.905528114745027
 10
-0.1093749999999999
 20
-5.920193506152742
  0
LWPOLYLINE
  5
C0
330
91
100
AcDbEntity
  8
AM_4
100
AcDbPolyline
 90
        4
 70
     0
 43
0.0
 10
-0.109375
 20
-5.878130845790186
 10
-0.08203125
 20
-5.864063910762198
 10
-0.0546875
 20
-5.850492706386007
 10
0.0
 20
-5.82465520138367
  0
LWPOLYLINE
  5
C1
330
91
100
AcDbEntity
  8
AM_4
100
AcDbPolyline
 90
        4
 70
     0
 43
0.0
 10
-0.21875
 20
-5.939234637523548
 10
-0.1643083897258504
 20
-5.907920113253583
 10
-0.1368799989092349
 20
-5.892796237197899
 10
-0.109375
 20
-5.878130845790186
  0
LINE
  5
C2
330
91
100
AcDbEntity
  8
AM_4
100
AcDbLine
 10
0.0
 20
-5.85908971441938
 30
0.0
 11
0.0
 21
-5.82465520138367
 31
0.0
  0
LWPOLYLINE
  5
C3
330
91
100
AcDbEntity
  8
AM_4
100
AcDbPolyline
 90
        4
 70
     0
 43
0.0
 10
0.109375
 20
-5.920193506152742
 10
0.08203125
 20
-5.90561558214576
 10
0.0546875
 20
-5.890541927486979
 10
0.0
 20
-5.85908971441938
  0
LWPOLYLINE
  5
C4
330
91
100
AcDbEntity
  8
AM_4
100
AcDbPolyline
 90
        4
 70
     0
 43
0.0
 10
0.21875
 20
-5.973669150559258
 10
0.1643083897258504
 20
-5.947951546758283
 10
0.1368799989092349
 20
-5.934341895463183
 10
0.109375
 20
-5.920193506152742
  0
LINE
  5
C5
330
91
100
AcDbEntity
  8
AM_4
100
AcDbLine
 10
0.21875
 20
-6.202828022839015
 30
0.0
 11
0.21875
 21
-5.939234637523548
 31
0.0
  0
LWPOLYLINE
  5
C6
330
91
100
AcDbEntity
  8
AM_4
100
AcDbPolyline
 90
        4
 70
     0
 43
0.0
 10
0.109375
 20
-5.878130845790186
 10
0.1367187499999999
 20
-5.892708769797168
 10
0.1640625
 20
-5.907782424455947
 10
0.21875
 20
-5.939234637523548
  0
LWPOLYLINE
  5
C7
330
91
100
AcDbEntity
  8
AM_4
100
AcDbPolyline
 90
        4
 70
     0
 43
0.0
 10
0.0
 20
-5.82465520138367
 10
0.0544416102741496
 20
-5.850372805184644
 10
0.0818700010907651
 20
-5.863982456479746
 10
0.109375
 20
-5.878130845790186
  0
ELLIPSE
  5
C8
330
91
100
AcDbEntity
  8
AM_4
100
AcDbEllipse
 10
0.0000000000000001
 20
-6.09206266036256
 30
0.0
 11
-0.2137500000000001
 21
2.617682533177469E-17
 31
0.0
210
0.0
220
0.0
230
1.0
 40
0.9072338509570891
 41
1.968199582420088
 42
7.456578378349292
  0
ELLIPSE
  5
C9
330
91
100
AcDbEntity
  8
AM_4
100
AcDbEllipse
 10
0.0
 20
-6.099767781999349
 30
0.0
 11
-0.1725340532830151
 21
2.112932760969633E-17
 31
0.0
210
0.0
220
0.0
230
1.0
 40
0.9072338509570866
 41
2.439584375842844
 42
6.985193584926536
  0
ELLIPSE
  5
CA
330
91
100
AcDbEntity
  8
AM_4
100
AcDbEllipse
 10
0.0000000000000004
 20
-6.122664558812136
 30
0.0
 11
-0.1188200907348975
 21
1.455126437928903E-17
 31
0.0
210
0.0
220
0.0
230
1.0
 40
0.9072338509570849
 41
3.208044374869621
 42
6.216733585899759
  0
ELLIPSE
  5
CB
330
91
100
AcDbEntity
  8
AM_4
100
AcDbEllipse
 10
-0.0000000000000006
 20
-6.136228453743241
 30
0.0
 11
-0.1049999999999991
 21
1.285879139104709E-17
 31
0.0
210
0.0
220
0.0
230
1.0
 40
0.9072338509570762
 41
3.814114514421849
 42
5.610663446347527
  0
ELLIPSE
  5
CC
330
91
100
AcDbEntity
  8
AM_4
100
AcDbEllipse
 10
-0.0000000000000005
 20
-6.174084848069543
 30
0.0
 11
-0.1349999999999996
 21
1.653273178848922E-17
 31
0.0
210
0.0
220
0.0
230
1.0
 40
0.9072338509570896
 41
2.083484370222504
 42
7.341293590546879
  0
LINE
  5
CD
330
91
100
AcDbEntity
  8
AM_4
100
AcDbLine
 10
0.0503657139055237
 20
-6.288911097968594
 30
0.0
 11
0.0662203964945647
 21
-6.280814496912062
 31
0.0
  0
LINE
  5
CE
330
91
100
AcDbEntity
  8
AM_4
100
AcDbLine
 10
-0.0662203964945647
 20
-6.280814496912062
 30
0.0
 11
-0.0503657139055237
 21
-6.288911097968594
 31
0.0
  0
ELLIPSE
  5
CF
330
91
100
AcDbEntity
  8
AM_4
100
AcDbEllipse
 10
0.0000000000000001
 20
-6.207734976359588
 30
0.0
 11
-0.1026779019331878
 21
1.257441639456443E-17
 31
0.0
210
0.0
220
0.0
230
1.0
 40
0.9072338509570916
 41
0.0
 42
6.283185307179586
  0
ENDBLK
  5
94
330
91
100
AcDbEntity
  8
0
100
AcDbBlockEnd
  0
BLOCK
  5
D2
330
D0
100
AcDbEntity
  8
0
100
AcDbBlockBegin
  2
3_405015E_Inch_2_0_in_072305_0
 70
     2
 10
0.0
 20
0.0
 30
0.0
  3
3_405015E_Inch_2_0_in_072305_0
  1

  0
ATTDEF
  5
D4
330
D0
100
AcDbEntity
  8
AM_6
100
AcDbText
 10
5.21875
 20
6.317407458978892
 30
0.0
 40
0.5
  1
405015E -Inch
100
AcDbAttributeDefinition
  3

  2
NN
 70
     8
280
     0
  0
ATTDEF
  5
D5
330
D0
100
AcDbEntity
  8
AM_6
100
AcDbText
 10
5.21875
 20
5.817407458978892
 30
0.0
 40
0.5
  1
Grease Fitting
100
AcDbAttributeDefinition
  3

  2
NT
 70
     8
280
     0
  0
ATTDEF
  5
D6
330
D0
100
AcDbEntity
  8
AM_6
100
AcDbText
 10
5.21875
 20
5.317407458978892
 30
0.0
 40
0.5
  1
405015E-Inch
100
AcDbAttributeDefinition
  3

  2
NB
 70
     8
280
     0
  0
ATTDEF
  5
D7
330
D0
100
AcDbEntity
  8
AM_6
100
AcDbText
 10
5.21875
 20
4.817407458978892
 30
0.0
 40
0.5
  1
$MN.-Inch
100
AcDbAttributeDefinition
  3

  2
NBSYN
 70
     8
280
     0
  0
ATTDEF
  5
D8
330
D0
100
AcDbEntity
  8
AM_6
100
AcDbText
 10
5.21875
 20
4.317407458978892
 30
0.0
 40
0.5
  1
405015E
100
AcDbAttributeDefinition
  3

  2
LINA
 70
     8
280
     0
  0
ATTDEF
  5
D9
330
D0
100
AcDbEntity
  8
AM_6
100
AcDbText
 10
5.21875
 20
3.817407458978892
 30
0.0
 40
0.5
  1
405015E
100
AcDbAttributeDefinition
  3

  2
MN
 70
     8
280
     0
  0
ATTDEF
  5
DA
330
D0
100
AcDbEntity
  8
AM_6
100
AcDbText
 10
5.21875
 20
3.317407458978892
 30
0.0
 40
0.5
  1
1/8 x 27PTF
100
AcDbAttributeDefinition
  3

  2
T
 70
     8
280
     0
  0
ATTDEF
  5
DB
330
D0
100
AcDbEntity
  8
AM_6
100
AcDbText
 10
5.21875
 20
2.817407458978892
 30
0.0
 40
0.5
  1
baldor
100
AcDbAttributeDefinition
  3

  2
COMPANY
 70
     8
280
     0
  0
ELLIPSE
  5
DC
330
D0
100
AcDbEntity
  8
AM_9
100
AcDbEllipse
 10
0.0
 20
5.93853395003923
 30
0.0
 11
-0.161902872472269
 21
1.982738345459263E-17
 31
0.0
210
0.0
220
0.0
230
1.0
 40
0.9072338509570871
 41
0.0
 42
6.283185307179586
  0
ELLIPSE
  5
DD
330
D0
100
AcDbEntity
  8
AM_9
100
AcDbEllipse
 10
0.0
 20
6.049999999999999
 30
0.0
 11
0.2187500000000039
 21
0.0
 31
0.0
210
0.0
220
0.0
230
1.0
 40
0.9072338509570843
 41
1.047197551196608
 42
3.141592653589793
  0
LWPOLYLINE
  5
DE
330
D0
100
AcDbEntity
  8
AM_9
100
AcDbPolyline
 90
        4
 70
     0
 43
0.0
 10
0.0
 20
6.282972945943182
 10
0.0544416102741496
 20
6.251658421673217
 10
0.0818700010907651
 20
6.236534545617533
 10
0.109375
 20
6.22186915420982
  0
LWPOLYLINE
  5
DF
330
D0
100
AcDbEntity
  8
AM_9
100
AcDbPolyline
 90
        3
 70
     0
 43
0.0
 10
-0.0751503464252559
 20
6.240194848798289
 10
-0.0546875
 20
6.251520732875581
 10
0.0
 20
6.282972945943182
  0
LINE
  5
E0
330
D0
100
AcDbEntity
  8
AM_9
100
AcDbLine
 10
-0.109375
 20
6.22186915420982
 30
0.0
 11
-0.0751503464252559
 21
6.240194848798289
 31
0.0
  0
ELLIPSE
  5
E1
330
D0
100
AcDbEntity
  8
AM_9
100
AcDbEllipse
 10
0.0000000000000021
 20
6.050000000000002
 30
0.0
 11
0.2187499999999978
 21
0.0
 31
0.0
210
0.0
220
0.0
230
1.0
 40
0.9072338509570891
 41
0.0
 42
1.047197551196606
  0
LWPOLYLINE
  5
E2
330
D0
100
AcDbEntity
  8
AM_9
100
AcDbPolyline
 90
        4
 70
     0
 43
0.0
 10
0.109375
 20
6.22186915420982
 10
0.1367187499999999
 20
6.207802219181833
 10
0.1640625
 20
6.194231014805642
 10
0.21875
 20
6.168393509803304
  0
LWPOLYLINE
  5
E3
330
D0
100
AcDbEntity
  8
AM_9
100
AcDbPolyline
 90
        4
 70
     0
 43
0.0
 10
-0.21875
 20
6.168393509803304
 10
-0.1643083897258504
 20
6.194111113604278
 10
-0.1368799989092349
 20
6.20772076489938
 10
-0.109375
 20
6.22186915420982
  0
LINE
  5
E4
330
D0
100
AcDbEntity
  8
AM_9
100
AcDbLine
 10
0.0
 20
6.317407458978892
 30
0.0
 11
0.0
 21
6.282972945943182
 31
0.0
  0
LINE
  5
E5
330
D0
100
AcDbEntity
  8
AM_9
100
AcDbLine
 10
0.1981659056522148
 20
5.941831208611318
 30
0.0
 11
0.205283950441035
 21
6.037417778430415
 31
0.0
  0
LINE
  5
E6
330
D0
100
AcDbEntity
  8
AM_9
100
AcDbLine
 10
-0.205283950441035
 20
6.037417778430415
 30
0.0
 11
-0.1981659056522148
 21
5.941831208611318
 31
0.0
  0
ELLIPSE
  5
E7
330
D0
100
AcDbEntity
  8
AM_9
100
AcDbEllipse
 10
0.0
 20
5.953977152447149
 30
0.0
 11
0.1986176267812153
 21
0.0
 31
0.0
210
0.0
220
0.0
230
1.0
 40
0.9072338509570881
 41
3.307000180587183
 42
4.71238898038469
  0
ELLIPSE
  5
E8
330
D0
100
AcDbEntity
  8
AM_9
100
AcDbEllipse
 10
-0.0000000000000738
 20
5.95397715244728
 30
0.0
 11
0.1986176267811413
 21
0.0
 31
0.0
210
0.0
220
0.0
230
1.0
 40
0.9072338509571531
 41
4.71238898038469
 42
9.590185487767533
  0
ELLIPSE
  5
E9
330
D0
100
AcDbEntity
  8
AM_9
100
AcDbEllipse
 10
0.0
 20
6.050000000000003
 30
0.0
 11
0.2187499999999997
 21
0.0
 31
0.0
210
0.0
220
0.0
230
1.0
 40
0.9072338509570934
 41
4.18879020478639
 42
6.283185307179586
  0
ELLIPSE
  5
EA
330
D0
100
AcDbEntity
  8
AM_9
100
AcDbEllipse
 10
-0.0000000000000018
 20
6.050000000000002
 30
0.0
 11
0.2187499999999983
 21
0.0
 31
0.0
210
0.0
220
0.0
230
1.0
 40
0.9072338509570912
 41
3.141592653589793
 42
4.188790204786395
  0
ELLIPSE
  5
EB
330
D0
100
AcDbEntity
  8
AM_9
100
AcDbEllipse
 10
0.0
 20
6.092062660362548
 30
0.0
 11
0.2187500000000156
 21
0.0
 31
0.0
210
0.0
220
0.0
230
1.0
 40
0.907233850957068
 41
1.271570228951077
 42
1.870022424638716
  0
ELLIPSE
  5
EC
330
D0
100
AcDbEntity
  8
AM_9
100
AcDbEllipse
 10
0.0
 20
6.092062660362552
 30
0.0
 11
0.2137500000000091
 21
0.0
 31
0.0
210
0.0
220
0.0
230
1.0
 40
0.9072338509570799
 41
1.173393071168222
 42
1.96819958242157
  0
ELLIPSE
  5
ED
330
D0
100
AcDbEntity
  8
AM_9
100
AcDbEllipse
 10
0.0
 20
6.099767781999347
 30
0.0
 11
0.1725340532830158
 21
0.0
 31
0.0
210
0.0
220
0.0
230
1.0
 40
0.9072338509570878
 41
0.7020082777475247
 42
2.439584375842268
  0
ELLIPSE
  5
EE
330
D0
100
AcDbEntity
  8
AM_9
100
AcDbEllipse
 10
0.0000000000000006
 20
6.122664558812136
 30
0.0
 11
0.118820090734897
 21
0.0
 31
0.0
210
0.0
220
0.0
230
1.0
 40
0.9072338509570886
 41
6.216733585899661
 42
7.462565534117634
  0
LINE
  5
EF
330
D0
100
AcDbEntity
  8
AM_9
100
AcDbLine
 10
-0.0400572686922918
 20
6.224283503983195
 30
0.0
 11
-0.0453296028629551
 21
6.222309406994775
 31
0.0
  0
LINE
  5
F0
330
D0
100
AcDbEntity
  8
AM_9
100
AcDbLine
 10
0.0453296028629551
 20
6.222309406994775
 30
0.0
 11
0.0400572686922918
 21
6.224283503983195
 31
0.0
  0
ELLIPSE
  5
F1
330
D0
100
AcDbEntity
  8
AM_9
100
AcDbEllipse
 10
0.0
 20
6.136228453743237
 30
0.0
 11
0.1050000000000076
 21
0.0
 31
0.0
210
0.0
220
0.0
230
1.0
 40
0.9072338509570617
 41
1.179380226938075
 42
1.962212426651719
  0
ELLIPSE
  5
F2
330
D0
100
AcDbEntity
  8
AM_9
100
AcDbEllipse
 10
-0.0000000000000009
 20
6.136228453743242
 30
0.0
 11
0.1049999999999992
 21
0.0
 31
0.0
210
0.0
220
0.0
230
1.0
 40
0.907233850957092
 41
1.962212426651747
 42
3.814114514418274
  0
ELLIPSE
  5
F3
330
D0
100
AcDbEntity
  8
AM_9
100
AcDbEllipse
 10
0.0
 20
6.122664558812143
 30
0.0
 11
0.1188200907348884
 21
0.0
 31
0.0
210
0.0
220
0.0
230
1.0
 40
0.9072338509571016
 41
1.179380226938013
 42
3.208044374869783
  0
ELLIPSE
  5
F4
330
D0
100
AcDbEntity
  8
AM_9
100
AcDbEllipse
 10
-0.0000000000000001
 20
6.148847251852009
 30
0.0
 11
0.1050000000000003
 21
0.0
 31
0.0
210
0.0
220
0.0
230
1.0
 40
0.9072338509570912
 41
4.71238898038469
 42
9.42477796076938
  0
ELLIPSE
  5
F5
330
D0
100
AcDbEntity
  8
AM_9
100
AcDbEllipse
 10
-0.0000000000000015
 20
6.136228453743243
 30
0.0
 11
0.1050000000000018
 21
1.564621925354031E-9
 31
0.0
210
0.0
220
0.0
230
1.0
 40
0.9072338509570863
 41
5.610663431054036
 42
7.462565520175833
  0
LINE
  5
F6
330
D0
100
AcDbEntity
  8
AM_9
100
AcDbLine
 10
0.105
 20
6.136228453743242
 30
0.0
 11
0.105
 21
6.148847251852009
 31
0.0
  0
LINE
  5
F7
330
D0
100
AcDbEntity
  8
AM_9
100
AcDbLine
 10
-0.105
 20
6.148847251852009
 30
0.0
 11
-0.105
 21
6.136228453743242
 31
0.0
  0
ELLIPSE
  5
F8
330
D0
100
AcDbEntity
  8
AM_9
100
AcDbEllipse
 10
0.0000000000000001
 20
6.148847251852009
 30
0.0
 11
0.1050000000000003
 21
1.564621925354008E-9
 31
0.0
210
0.0
220
0.0
230
1.0
 40
0.9072338509570911
 41
3.141592638688632
 42
4.712388966865851
  0
ELLIPSE
  5
F9
330
D0
100
AcDbEntity
  8
AM_9
100
AcDbEllipse
 10
0.0
 20
6.174084848069541
 30
0.0
 11
0.1350000000000003
 21
0.0
 31
0.0
210
0.0
220
0.0
230
1.0
 40
0.9072338509570849
 41
1.058108283367295
 42
2.083484370222498
  0
ELLIPSE
  5
FA
330
D0
100
AcDbEntity
  8
AM_9
100
AcDbEllipse
 10
0.0000000000000004
 20
6.050000000000002
 30
0.0
 11
0.2057518972230694
 21
0.0
 31
0.0
210
0.0
220
0.0
230
1.0
 40
0.9072338509570894
 41
0.0
 42
6.283185307179586
  0
LWPOLYLINE
  5
FB
330
D0
100
AcDbEntity
  8
AM_4
100
AcDbPolyline
 90
        4
 70
     0
 43
0.0
 10
0.1093749999999999
 20
6.263931814572376
 10
0.0820312499999999
 20
6.277998749600364
 10
0.0546874999999999
 20
6.291569953976553
 10
0.0
 20
6.317407458978892
  0
LINE
  5
FC
330
D0
100
AcDbEntity
  8
AM_4
100
AcDbLine
 10
-0.0648714804594669
 20
6.28657122742944
 30
0.0
 11
-0.109375
 21
6.263931814572376
 31
0.0
  0
LWPOLYLINE
  5
FD
330
D0
100
AcDbEntity
  8
AM_4
100
AcDbPolyline
 90
        3
 70
     0
 43
0.0
 10
0.0
 20
6.317407458978892
 10
-0.0544416102741496
 20
6.291689855177917
 10
-0.0648714804594669
 20
6.28657122742944
  0
LWPOLYLINE
  5
FE
330
D0
100
AcDbEntity
  8
AM_4
100
AcDbPolyline
 90
        4
 70
     0
 43
0.0
 10
0.21875
 20
6.202828022839014
 10
0.1643083897258504
 20
6.234142547108979
 10
0.1368799989092348
 20
6.249266423164663
 10
0.1093749999999999
 20
6.263931814572376
  0
LWPOLYLINE
  5
FF
330
D0
100
AcDbEntity
  8
AM_4
100
AcDbPolyline
 90
        4
 70
     0
 43
0.0
 10
-0.109375
 20
6.263931814572376
 10
-0.13671875
 20
6.249353890565394
 10
-0.1640625
 20
6.234280235906614
 10
-0.21875
 20
6.202828022839014
  0
ELLIPSE
  5
100
330
D0
100
AcDbEntity
  8
AM_4
100
AcDbEllipse
 10
0.0000000000000023
 20
6.092062660362558
 30
0.0
 11
0.2187499999999975
 21
3.259629011154138E-9
 31
0.0
210
0.0
220
0.0
230
1.0
 40
0.9072338509570903
 41
5.235987741737648
 42
6.283187037607677
  0
ELLIPSE
  5
101
330
D0
100
AcDbEntity
  8
AM_4
100
AcDbEllipse
 10
0.0000000000000023
 20
6.09206266036256
 30
0.0
 11
0.2187499999999975
 21
0.0
 31
0.0
210
0.0
220
0.0
230
1.0
 40
0.9072338509570903
 41
0.0
 42
1.271570228951063
  0
ELLIPSE
  5
102
330
D0
100
AcDbEntity
  8
AM_4
100
AcDbEllipse
 10
-0.0000000000000255
 20
6.092062660362601
 30
0.0
 11
0.2187499999999343
 21
3.259629011153197E-9
 31
0.0
210
0.0
220
0.0
230
1.0
 40
0.9072338509571413
 41
1.87002241086735
 42
2.094395088147892
  0
LINE
  5
103
330
D0
100
AcDbEntity
  8
AM_4
100
AcDbLine
 10
0.21875
 20
6.202828022839014
 30
0.0
 11
0.21875
 21
5.939234637523547
 31
0.0
  0
LWPOLYLINE
  5
104
330
D0
100
AcDbEntity
  8
AM_4
100
AcDbPolyline
 90
        4
 70
     0
 43
0.0
 10
0.1093749999999999
 20
5.920193506152741
 10
0.1367187499999999
 20
5.934260441180728
 10
0.1640625
 20
5.947831645556918
 10
0.21875
 20
5.973669150559258
  0
LWPOLYLINE
  5
105
330
D0
100
AcDbEntity
  8
AM_4
100
AcDbPolyline
 90
        4
 70
     0
 43
0.0
 10
0.109375
 20
5.878130845790185
 10
0.08203125
 20
5.864063910762197
 10
0.0546875
 20
5.850492706386007
 10
0.0
 20
5.824655201383669
  0
LWPOLYLINE
  5
106
330
D0
100
AcDbEntity
  8
AM_4
100
AcDbPolyline
 90
        4
 70
     0
 43
0.0
 10
0.21875
 20
5.939234637523547
 10
0.1643083897258504
 20
5.907920113253581
 10
0.1368799989092349
 20
5.892796237197898
 10
0.109375
 20
5.878130845790185
  0
LINE
  5
107
330
D0
100
AcDbEntity
  8
AM_4
100
AcDbLine
 10
0.0
 20
5.859089714419379
 30
0.0
 11
0.0
 21
5.824655201383669
 31
0.0
  0
LWPOLYLINE
  5
108
330
D0
100
AcDbEntity
  8
AM_4
100
AcDbPolyline
 90
        4
 70
     0
 43
0.0
 10
-0.21875
 20
5.973669150559258
 10
-0.1643083897258504
 20
5.947951546758281
 10
-0.1368799989092349
 20
5.934341895463182
 10
-0.109375
 20
5.920193506152741
  0
LINE
  5
109
330
D0
100
AcDbEntity
  8
AM_4
100
AcDbLine
 10
-0.21875
 20
6.202828022839014
 30
0.0
 11
-0.21875
 21
5.939234637523547
 31
0.0
  0
LWPOLYLINE
  5
10A
330
D0
100
AcDbEntity
  8
AM_4
100
AcDbPolyline
 90
        4
 70
     0
 43
0.0
 10
-0.109375
 20
5.878130845790185
 10
-0.1367187499999999
 20
5.892708769797166
 10
-0.1640625
 20
5.907782424455946
 10
-0.21875
 20
5.939234637523547
  0
LWPOLYLINE
  5
10B
330
D0
100
AcDbEntity
  8
AM_4
100
AcDbPolyline
 90
        4
 70
     0
 43
0.0
 10
0.0
 20
5.824655201383669
 10
-0.0544416102741496
 20
5.850372805184644
 10
-0.0818700010907651
 20
5.863982456479744
 10
-0.109375
 20
5.878130845790185
  0
LWPOLYLINE
  5
10C
330
D0
100
AcDbEntity
  8
AM_4
100
AcDbPolyline
 90
        4
 70
     0
 43
0.0
 10
-0.109375
 20
5.920193506152741
 10
-0.08203125
 20
5.905615582145759
 10
-0.0546875
 20
5.890541927486979
 10
0.0
 20
5.859089714419379
  0
LWPOLYLINE
  5
10D
330
D0
100
AcDbEntity
  8
AM_4
100
AcDbPolyline
 90
        4
 70
     0
 43
0.0
 10
0.0
 20
5.859089714419379
 10
0.0544416102741496
 20
5.890404238689344
 10
0.0818700010907651
 20
5.905528114745027
 10
0.1093749999999999
 20
5.920193506152741
  0
ELLIPSE
  5
10E
330
D0
100
AcDbEntity
  8
AM_4
100
AcDbEllipse
 10
0.0
 20
6.092062660362559
 30
0.0
 11
0.2187499999999989
 21
0.0
 31
0.0
210
0.0
220
0.0
230
1.0
 40
0.9072338509570925
 41
2.094395102393198
 42
5.235987755982991
  0
ELLIPSE
  5
10F
330
D0
100
AcDbEntity
  8
AM_4
100
AcDbEllipse
 10
0.0000000000000016
 20
6.09206266036256
 30
0.0
 11
0.2137500000000021
 21
3.185123205184968E-9
 31
0.0
210
0.0
220
0.0
230
1.0
 40
0.9072338509570889
 41
2.836570188151
 42
6.300298761146342
  0
ELLIPSE
  5
110
330
D0
100
AcDbEntity
  8
AM_4
100
AcDbEllipse
 10
-0.0000000000000008
 20
6.092062660362559
 30
0.0
 11
0.2137499999999992
 21
0.0
 31
0.0
210
0.0
220
0.0
230
1.0
 40
0.9072338509570886
 41
1.968199582421584
 42
2.836570204313733
  0
ELLIPSE
  5
111
330
D0
100
AcDbEntity
  8
AM_4
100
AcDbEllipse
 10
-0.0000000000000034
 20
6.092062660362559
 30
0.0
 11
0.213750000000003
 21
0.0
 31
0.0
210
0.0
220
0.0
230
1.0
 40
0.9072338509570849
 41
0.017113470390747
 42
1.173393071168191
  0
ELLIPSE
  5
112
330
D0
100
AcDbEntity
  8
AM_4
100
AcDbEllipse
 10
-0.0000000000000006
 20
6.099767781999348
 30
0.0
 11
0.1725340532830148
 21
0.0
 31
0.0
210
0.0
220
0.0
230
1.0
 40
0.9072338509570879
 41
2.439584375842271
 42
4.71238898038469
  0
ELLIPSE
  5
113
330
D0
100
AcDbEntity
  8
AM_4
100
AcDbEllipse
 10
0.0000000000000006
 20
6.099767781999348
 30
0.0
 11
0.1725340532830148
 21
0.0
 31
0.0
210
0.0
220
0.0
230
1.0
 40
0.9072338509570879
 41
4.71238898038469
 42
6.985193584927108
  0
ELLIPSE
  5
114
330
D0
100
AcDbEntity
  8
AM_4
100
AcDbEllipse
 10
-0.0000000000000011
 20
6.122664558812136
 30
0.0
 11
0.1188200907348987
 21
1.770557325108330E-9
 31
0.0
210
0.0
220
0.0
230
1.0
 40
0.9072338509570832
 41
4.71238896686586
 42
6.216733569487635
  0
ELLIPSE
  5
115
330
D0
100
AcDbEntity
  8
AM_4
100
AcDbEllipse
 10
0.000000000000001
 20
6.122664558812136
 30
0.0
 11
0.1188200907348987
 21
0.0
 31
0.0
210
0.0
220
0.0
230
1.0
 40
0.9072338509570829
 41
3.208044374869727
 42
4.71238898038469
  0
ELLIPSE
  5
116
330
D0
100
AcDbEntity
  8
AM_4
100
AcDbEllipse
 10
0.0000000000000026
 20
6.136228453743238
 30
0.0
 11
0.1049999999999955
 21
0.0
 31
0.0
210
0.0
220
0.0
230
1.0
 40
0.9072338509570819
 41
4.71238898038469
 42
5.610663446351127
  0
ELLIPSE
  5
117
330
D0
100
AcDbEntity
  8
AM_4
100
AcDbEllipse
 10
-0.0000000000000026
 20
6.136228453743238
 30
0.0
 11
0.1049999999999956
 21
0.0
 31
0.0
210
0.0
220
0.0
230
1.0
 40
0.9072338509570812
 41
3.814114514418252
 42
4.71238898038469
  0
ELLIPSE
  5
118
330
D0
100
AcDbEntity
  8
AM_4
100
AcDbEllipse
 10
-0.0000000000000001
 20
6.207734976359587
 30
0.0
 11
0.1026779019331877
 21
0.0
 31
0.0
210
0.0
220
0.0
230
1.0
 40
0.9072338509570924
 41
4.71238898038469
 42
8.366669677402086
  0
ELLIPSE
  5
119
330
D0
100
AcDbEntity
  8
AM_4
100
AcDbEllipse
 10
0.0000000000000008
 20
6.174084848069541
 30
0.0
 11
0.134999999999999
 21
0.0
 31
0.0
210
0.0
220
0.0
230
1.0
 40
0.907233850957087
 41
4.71238898038469
 42
7.341293590546883
  0
LINE
  5
11A
330
D0
100
AcDbEntity
  8
AM_4
100
AcDbLine
 10
-0.0503657139055239
 20
6.288911097968593
 30
0.0
 11
-0.0662203964945649
 21
6.280814496912061
 31
0.0
  0
LINE
  5
11B
330
D0
100
AcDbEntity
  8
AM_4
100
AcDbLine
 10
0.0662203964945649
 20
6.280814496912061
 30
0.0
 11
0.0503657139055239
 21
6.288911097968593
 31
0.0
  0
ELLIPSE
  5
11C
330
D0
100
AcDbEntity
  8
AM_4
100
AcDbEllipse
 10
0.0000000000000001
 20
6.207734976359587
 30
0.0
 11
0.1026779019331877
 21
0.0
 31
0.0
210
0.0
220
0.0
230
1.0
 40
0.9072338509570922
 41
2.083484370222499
 42
4.71238898038469
  0
ELLIPSE
  5
11D
330
D0
100
AcDbEntity
  8
AM_4
100
AcDbEllipse
 10
-0.0000000000000008
 20
6.174084848069541
 30
0.0
 11
0.134999999999999
 21
0.0
 31
0.0
210
0.0
220
0.0
230
1.0
 40
0.907233850957087
 41
2.083484370222496
 42
4.71238898038469
  0
ENDBLK
  5
D3
330
D0
100
AcDbEntity
  8
0
100
AcDbBlockEnd
  0
BLOCK
  5
120
330
11E
100
AcDbEntity
  8
0
100
AcDbBlockBegin
  2
4_ASME_B18_3_5_16_1_0_in_072305_0
 70
     2
 10
0.0
 20
0.0
 30
0.0
  3
4_ASME_B18_3_5_16_1_0_in_072305_0
  1

  0
ATTDEF
  5
122
330
11E
100
AcDbEntity
  8
AM_6
100
AcDbText
 10
5.287175
 20
-3.004277777777778
 30
0.0
 40
0.5
  1
ANSI/ASME-B18.3-1998
100
AcDbAttributeDefinition
  3

  2
NN
 70
     8
280
     0
  0
ATTDEF
  5
123
330
11E
100
AcDbEntity
  8
AM_6
100
AcDbText
 10
5.287175
 20
-3.504277777777778
 30
0.0
 40
0.5
  1
Socket Button Head Cap Screws
100
AcDbAttributeDefinition
  3

  2
NT
 70
     8
280
     0
  0
ATTDEF
  5
124
330
11E
100
AcDbEntity
  8
AM_6
100
AcDbText
 10
5.287175
 20
-4.004277777777778
 30
0.0
 40
0.5
  1
ASME-B18.3-5/16
100
AcDbAttributeDefinition
  3

  2
NB
 70
     8
280
     0
  0
ATTDEF
  5
125
330
11E
100
AcDbEntity
  8
AM_6
100
AcDbText
 10
5.287175
 20
-4.504277777777778
 30
0.0
 40
0.5
  1
ASME-B18.3-$NS.
100
AcDbAttributeDefinition
  3

  2
NBSYN
 70
     8
280
     0
  0
ATTDEF
  5
126
330
11E
100
AcDbEntity
  8
AM_6
100
AcDbText
 10
5.287175
 20
-5.004277777777778
 30
0.0
 40
0.5
  1
ASME-B18.3-5/16
100
AcDbAttributeDefinition
  3

  2
LINA
 70
     8
280
     0
  0
ATTDEF
  5
127
330
11E
100
AcDbEntity
  8
AM_6
100
AcDbText
 10
5.287175
 20
-5.504277777777778
 30
0.0
 40
0.5
  1
5/16
100
AcDbAttributeDefinition
  3

  2
NS
 70
     8
280
     0
  0
ATTDEF
  5
128
330
11E
100
AcDbEntity
  8
AM_6
100
AcDbText
 10
5.287175
 20
-6.004277777777778
 30
0.0
 40
0.5
  1
0.547
100
AcDbAttributeDefinition
  3

  2
A
 70
     8
280
     0
  0
ATTDEF
  5
129
330
11E
100
AcDbEntity
  8
AM_6
100
AcDbText
 10
5.287175
 20
-6.504277777777778
 30
0.0
 40
0.5
  1
0.166
100
AcDbAttributeDefinition
  3

  2
H
 70
     8
280
     0
  0
ATTDEF
  5
12A
330
11E
100
AcDbEntity
  8
AM_6
100
AcDbText
 10
5.287175
 20
-7.004277777777778
 30
0.0
 40
0.5
  1
1.000
100
AcDbAttributeDefinition
  3

  2
L
 70
     8
280
     0
  0
ATTDEF
  5
12B
330
11E
100
AcDbEntity
  8
AM_6
100
AcDbText
 10
5.287175
 20
-7.504277777777778
 30
0.0
 40
0.5
  1
0.031
100
AcDbAttributeDefinition
  3

  2
S
 70
     8
280
     0
  0
ATTDEF
  5
12C
330
11E
100
AcDbEntity
  8
AM_6
100
AcDbText
 10
5.287175
 20
-8.004277777777778
 30
0.0
 40
0.5
  1
0.187500
100
AcDbAttributeDefinition
  3

  2
J
 70
     8
280
     0
  0
ATTDEF
  5
12D
330
11E
100
AcDbEntity
  8
AM_6
100
AcDbText
 10
5.287175
 20
-8.504277777777778
 30
0.0
 40
0.5
  1
baldor
100
AcDbAttributeDefinition
  3

  2
COMPANY
 70
     8
280
     0
  0
ARC
  5
12F
330
11E
100
AcDbEntity
  8
AM_5
100
AcDbCircle
 10
0.0000000000000001
 20
-3.277777777777778
 30
0.0
 40
0.1232
100
AcDbArc
 50
75.0
 51
14.99999999999994
  0
ARC
  5
130
330
11E
100
AcDbEntity
  8
AM_5
100
AcDbCircle
 10
0.0000000000000006
 20
-3.277777777777777
 30
0.0
 40
0.1264999999999995
100
AcDbArc
 50
75.0000000000001
 51
15.0
  0
LINE
  5
133
330
11E
100
AcDbEntity
  8
AM_7
100
AcDbLine
 10
-0.2871749999999998
 20
-3.277777777777778
 30
0.0
 11
0.2871749999999998
 21
-3.277777777777778
 31
0.0
  0
CIRCLE
  5
134
330
11E
100
AcDbEntity
  8
AM_4
100
AcDbCircle
 10
0.0
 20
-3.277777777777778
 30
0.0
 40
0.1385
  0
LINE
  5
135
330
11E
100
AcDbEntity
  8
AM_4
100
AcDbLine
 10
-0.09375
 20
-3.331904365514305
 30
0.0
 11
-0.09375
 21
-3.223651190041251
 31
0.0
  0
LINE
  5
136
330
11E
100
AcDbEntity
  8
AM_4
100
AcDbLine
 10
-0.09375
 20
-3.223651190041251
 30
0.0
 11
0.0
 21
-3.169524602304723
 31
0.0
  0
LINE
  5
137
330
11E
100
AcDbEntity
  8
AM_4
100
AcDbLine
 10
0.0
 20
-3.169524602304723
 30
0.0
 11
0.09375
 21
-3.223651190041251
 31
0.0
  0
LINE
  5
138
330
11E
100
AcDbEntity
  8
AM_4
100
AcDbLine
 10
0.09375
 20
-3.223651190041251
 30
0.0
 11
0.09375
 21
-3.331904365514305
 31
0.0
  0
LINE
  5
139
330
11E
100
AcDbEntity
  8
AM_4
100
AcDbLine
 10
0.09375
 20
-3.331904365514305
 30
0.0
 11
0.0
 21
-3.386030953250833
 31
0.0
  0
LINE
  5
13A
330
11E
100
AcDbEntity
  8
AM_4
100
AcDbLine
 10
0.0
 20
-3.386030953250833
 30
0.0
 11
-0.09375
 21
-3.331904365514305
 31
0.0
  0
ARC
  5
13B
330
11E
100
AcDbEntity
  8
AM_5
100
AcDbCircle
 10
0.0000000000000001
 20
-3.277777777777778
 30
0.0
 40
0.1232000000000001
100
AcDbArc
 50
254.9999999999999
 51
194.9999999999999
  0
ARC
  5
13C
330
11E
100
AcDbEntity
  8
AM_5
100
AcDbCircle
 10
-0.0000000000000001
 20
-3.277777777777778
 30
0.0
 40
0.1265000000000001
100
AcDbArc
 50
345.0000000000001
 51
285.0
  0
CIRCLE
  5
13D
330
11E
100
AcDbEntity
  8
AM_4
100
AcDbCircle
 10
0.0
 20
-3.277777777777778
 30
0.0
 40
0.2734999999999999
  0
ENDBLK
  5
121
330
11E
100
AcDbEntity
  8
0
100
AcDbBlockEnd
  0
BLOCK
  5
140
330
13E
100
AcDbEntity
  8
0
100
AcDbBlockBegin
  2
5_ASME_B18_3_5_16_2_0_in_072305_0
 70
     2
 10
0.0
 20
0.0
 30
0.0
  3
5_ASME_B18_3_5_16_2_0_in_072305_0
  1

  0
ATTDEF
  5
142
330
13E
100
AcDbEntity
  8
AM_6
100
AcDbText
 10
5.287175
 20
3.551277777777778
 30
0.0
 40
0.5
  1
ANSI/ASME-B18.3-1998
100
AcDbAttributeDefinition
  3

  2
NN
 70
     8
280
     0
  0
ATTDEF
  5
143
330
13E
100
AcDbEntity
  8
AM_6
100
AcDbText
 10
5.287175
 20
3.051277777777778
 30
0.0
 40
0.5
  1
Socket Button Head Cap Screws
100
AcDbAttributeDefinition
  3

  2
NT
 70
     8
280
     0
  0
ATTDEF
  5
144
330
13E
100
AcDbEntity
  8
AM_6
100
AcDbText
 10
5.287175
 20
2.551277777777778
 30
0.0
 40
0.5
  1
ASME-B18.3-5/16
100
AcDbAttributeDefinition
  3

  2
NB
 70
     8
280
     0
  0
ATTDEF
  5
145
330
13E
100
AcDbEntity
  8
AM_6
100
AcDbText
 10
5.287175
 20
2.051277777777778
 30
0.0
 40
0.5
  1
ASME-B18.3-$NS.
100
AcDbAttributeDefinition
  3

  2
NBSYN
 70
     8
280
     0
  0
ATTDEF
  5
146
330
13E
100
AcDbEntity
  8
AM_6
100
AcDbText
 10
5.287175
 20
1.551277777777778
 30
0.0
 40
0.5
  1
ASME-B18.3-5/16
100
AcDbAttributeDefinition
  3

  2
LINA
 70
     8
280
     0
  0
ATTDEF
  5
147
330
13E
100
AcDbEntity
  8
AM_6
100
AcDbText
 10
5.287175
 20
1.051277777777778
 30
0.0
 40
0.5
  1
5/16
100
AcDbAttributeDefinition
  3

  2
NS
 70
     8
280
     0
  0
ATTDEF
  5
148
330
13E
100
AcDbEntity
  8
AM_6
100
AcDbText
 10
5.287175
 20
0.5512777777777775
 30
0.0
 40
0.5
  1
0.547
100
AcDbAttributeDefinition
  3

  2
A
 70
     8
280
     0
  0
ATTDEF
  5
149
330
13E
100
AcDbEntity
  8
AM_6
100
AcDbText
 10
5.287175
 20
0.0512777777777775
 30
0.0
 40
0.5
  1
0.166
100
AcDbAttributeDefinition
  3

  2
H
 70
     8
280
     0
  0
ATTDEF
  5
14A
330
13E
100
AcDbEntity
  8
AM_6
100
AcDbText
 10
5.287175
 20
-0.4487222222222225
 30
0.0
 40
0.5
  1
1.000
100
AcDbAttributeDefinition
  3

  2
L
 70
     8
280
     0
  0
ATTDEF
  5
14B
330
13E
100
AcDbEntity
  8
AM_6
100
AcDbText
 10
5.287175
 20
-0.9487222222222225
 30
0.0
 40
0.5
  1
0.031
100
AcDbAttributeDefinition
  3

  2
S
 70
     8
280
     0
  0
ATTDEF
  5
14C
330
13E
100
AcDbEntity
  8
AM_6
100
AcDbText
 10
5.287175
 20
-1.448722222222222
 30
0.0
 40
0.5
  1
0.187500
100
AcDbAttributeDefinition
  3

  2
J
 70
     8
280
     0
  0
ATTDEF
  5
14D
330
13E
100
AcDbEntity
  8
AM_6
100
AcDbText
 10
5.287175
 20
-1.948722222222222
 30
0.0
 40
0.5
  1
baldor
100
AcDbAttributeDefinition
  3

  2
COMPANY
 70
     8
280
     0
  0
ARC
  5
14E
330
13E
100
AcDbEntity
  8
AM_5
100
AcDbCircle
 10
-0.0000000000000001
 20
3.277777777777778
 30
0.0
 40
0.1232
100
AcDbArc
 50
75.00000000000001
 51
14.99999999999994
  0
ARC
  5
14F
330
13E
100
AcDbEntity
  8
AM_5
100
AcDbCircle
 10
0.0
 20
3.277777777777778
 30
0.0
 40
0.1265000000000001
100
AcDbArc
 50
75.00000000000001
 51
14.99999999999994
  0
LINE
  5
150
330
13E
100
AcDbEntity
  8
AM_7
100
AcDbLine
 10
-0.2871749999999998
 20
3.277777777777778
 30
0.0
 11
0.2871749999999998
 21
3.277777777777778
 31
0.0
  0
LINE
  5
151
330
13E
100
AcDbEntity
  8
AM_4
100
AcDbLine
 10
0.09375
 20
3.331904365514305
 30
0.0
 11
0.09375
 21
3.223651190041251
 31
0.0
  0
LINE
  5
152
330
13E
100
AcDbEntity
  8
AM_4
100
AcDbLine
 10
0.09375
 20
3.223651190041251
 30
0.0
 11
0.0
 21
3.169524602304723
 31
0.0
  0
LINE
  5
153
330
13E
100
AcDbEntity
  8
AM_4
100
AcDbLine
 10
0.0
 20
3.169524602304723
 30
0.0
 11
-0.09375
 21
3.223651190041251
 31
0.0
  0
CIRCLE
  5
154
330
13E
100
AcDbEntity
  8
AM_4
100
AcDbCircle
 10
0.0
 20
3.277777777777778
 30
0.0
 40
0.1385
  0
LINE
  5
155
330
13E
100
AcDbEntity
  8
AM_4
100
AcDbLine
 10
-0.09375
 20
3.223651190041251
 30
0.0
 11
-0.09375
 21
3.331904365514305
 31
0.0
  0
LINE
  5
156
330
13E
100
AcDbEntity
  8
AM_4
100
AcDbLine
 10
-0.09375
 20
3.331904365514305
 30
0.0
 11
0.0
 21
3.386030953250833
 31
0.0
  0
LINE
  5
157
330
13E
100
AcDbEntity
  8
AM_4
100
AcDbLine
 10
0.0
 20
3.386030953250833
 30
0.0
 11
0.09375
 21
3.331904365514305
 31
0.0
  0
ARC
  5
158
330
13E
100
AcDbEntity
  8
AM_5
100
AcDbCircle
 10
0.0000000000000001
 20
3.277777777777778
 30
0.0
 40
0.1232000000000001
100
AcDbArc
 50
254.9999999999999
 51
194.9999999999999
  0
ARC
  5
159
330
13E
100
AcDbEntity
  8
AM_5
100
AcDbCircle
 10
-0.0000000000000001
 20
3.277777777777778
 30
0.0
 40
0.1265000000000001
100
AcDbArc
 50
345.0000000000001
 51
285.0
  0
CIRCLE
  5
15A
330
13E
100
AcDbEntity
  8
AM_4
100
AcDbCircle
 10
0.0
 20
3.277777777777778
 30
0.0
 40
0.2734999999999999
  0
ENDBLK
  5
141
330
13E
100
AcDbEntity
  8
0
100
AcDbBlockEnd
  0
BLOCK
  5
15D
330
15B
100
AcDbEntity
  8
0
100
AcDbBlockBegin
  2
6_070910LW_0_in_072305_0
 70
     2
 10
0.0
 20
0.0
 30
0.0
  3
6_070910LW_0_in_072305_0
  1

  0
ATTDEF
  5
15F
330
15B
100
AcDbEntity
  8
AM_6
100
AcDbText
 10
8.8125
 20
3.8125
 30
0.0
 40
0.5
  1
Imperial Insert Lockwasher -Inch
100
AcDbAttributeDefinition
  3

  2
NN
 70
     8
280
     0
  0
ATTDEF
  5
160
330
15B
100
AcDbEntity
  8
AM_6
100
AcDbText
 10
8.8125
 20
3.3125
 30
0.0
 40
0.5
  1
Imperial Bearings
100
AcDbAttributeDefinition
  3

  2
NT
 70
     8
280
     0
  0
ATTDEF
  5
161
330
15B
100
AcDbEntity
  8
AM_6
100
AcDbText
 10
8.8125
 20
2.8125
 30
0.0
 40
0.5
  1
070910LW
100
AcDbAttributeDefinition
  3

  2
NB
 70
     8
280
     0
  0
ATTDEF
  5
162
330
15B
100
AcDbEntity
  8
AM_6
100
AcDbText
 10
8.8125
 20
2.3125
 30
0.0
 40
0.5
  1
$PN.LW
100
AcDbAttributeDefinition
  3

  2
NBSYN
 70
     8
280
     0
  0
ATTDEF
  5
163
330
15B
100
AcDbEntity
  8
AM_6
100
AcDbText
 10
8.8125
 20
1.8125
 30
0.0
 40
0.5
  1
070910
100
AcDbAttributeDefinition
  3

  2
LINA
 70
     8
280
     0
  0
ATTDEF
  5
164
330
15B
100
AcDbEntity
  8
AM_6
100
AcDbText
 10
8.8125
 20
1.3125
 30
0.0
 40
0.5
  1
4-15/16
100
AcDbAttributeDefinition
  3

  2
SS
 70
     8
280
     0
  0
ATTDEF
  5
165
330
15B
100
AcDbEntity
  8
AM_6
100
AcDbText
 10
8.8125
 20
0.8125
 30
0.0
 40
0.5
  1
4.937500
100
AcDbAttributeDefinition
  3

  2
SS1
 70
     8
280
     0
  0
ATTDEF
  5
166
330
15B
100
AcDbEntity
  8
AM_6
100
AcDbText
 10
8.8125
 20
0.3125
 30
0.0
 40
0.5
  1
070910
100
AcDbAttributeDefinition
  3

  2
PN
 70
     8
280
     0
  0
ATTDEF
  5
167
330
15B
100
AcDbEntity
  8
AM_6
100
AcDbText
 10
8.8125
 20
-0.1875
 30
0.0
 40
0.5
  1
INS-IP-415R
100
AcDbAttributeDefinition
  3

  2
DESCRIPTION
 70
     8
280
     0
  0
ATTDEF
  5
168
330
15B
100
AcDbEntity
  8
AM_6
100
AcDbText
 10
8.8125
 20
-0.6875
 30
0.0
 40
0.5
  1
9.0551
100
AcDbAttributeDefinition
  3

  2
A
 70
     8
280
     0
  0
ATTDEF
  5
169
330
15B
100
AcDbEntity
  8
AM_6
100
AcDbText
 10
8.8125
 20
-1.1875
 30
0.0
 40
0.5
  1
2-19/32
100
AcDbAttributeDefinition
  3

  2
B
 70
     8
280
     0
  0
ATTDEF
  5
16A
330
15B
100
AcDbEntity
  8
AM_6
100
AcDbText
 10
8.8125
 20
-1.6875
 30
0.0
 40
0.5
  1
5-63/64
100
AcDbAttributeDefinition
  3

  2
C
 70
     8
280
     0
  0
ATTDEF
  5
16B
330
15B
100
AcDbEntity
  8
AM_6
100
AcDbText
 10
8.8125
 20
-2.1875
 30
0.0
 40
0.5
  1
2.107
100
AcDbAttributeDefinition
  3

  2
D
 70
     8
280
     0
  0
ATTDEF
  5
16C
330
15B
100
AcDbEntity
  8
AM_6
100
AcDbText
 10
8.8125
 20
-2.6875
 30
0.0
 40
0.5
  1
7-5/8
100
AcDbAttributeDefinition
  3

  2
E
 70
     8
280
     0
  0
ATTDEF
  5
16D
330
15B
100
AcDbEntity
  8
AM_6
100
AcDbText
 10
8.8125
 20
-3.1875
 30
0.0
 40
0.5
  1
0.3125
100
AcDbAttributeDefinition
  3

  2
NDM
 70
     8
280
     0
  0
ATTDEF
  5
16E
330
15B
100
AcDbEntity
  8
AM_6
100
AcDbText
 10
8.8125
 20
-3.6875
 30
0.0
 40
0.5
  1
0.2580
100
AcDbAttributeDefinition
  3

  2
KDM
 70
     8
280
     0
  0
ATTDEF
  5
16F
330
15B
100
AcDbEntity
  8
AM_6
100
AcDbText
 10
8.8125
 20
-4.1875
 30
0.0
 40
0.5
  1
6.80
100
AcDbAttributeDefinition
  3

  2
AL
 70
     8
280
     0
  0
ATTDEF
  5
170
330
15B
100
AcDbEntity
  8
AM_6
100
AcDbText
 10
8.8125
 20
-4.6875
 30
0.0
 40
0.5
  1
0.50
100
AcDbAttributeDefinition
  3

  2
BL
 70
     8
280
     0
  0
ATTDEF
  5
171
330
15B
100
AcDbEntity
  8
AM_6
100
AcDbText
 10
8.8125
 20
-5.1875
 30
0.0
 40
0.5
  1
0.07
100
AcDbAttributeDefinition
  3

  2
CL
 70
     8
280
     0
  0
ATTDEF
  5
172
330
15B
100
AcDbEntity
  8
AM_6
100
AcDbText
 10
8.8125
 20
-5.6875
 30
0.0
 40
0.5
  1
0.50
100
AcDbAttributeDefinition
  3

  2
DL
 70
     8
280
     0
  0
ATTDEF
  5
173
330
15B
100
AcDbEntity
  8
AM_6
100
AcDbText
 10
8.8125
 20
-6.1875
 30
0.0
 40
0.5
  1
baldor
100
AcDbAttributeDefinition
  3

  2
COMPANY
 70
     8
280
     0
  0
ARC
  5
174
330
15B
100
AcDbEntity
  8
AM_9
100
AcDbCircle
 10
0.0000000000002132
 20
-0.0000000000005302
 30
0.0
 40
2.598684210526887
100
AcDbArc
 50
109.7429365971102
 51
115.2570634028896
  0
LINE
  5
175
330
15B
100
AcDbEntity
  8
AM_9
100
AcDbLine
 10
0.1562500000000016
 20
-3.053304644641539
 30
0.0
 11
0.1562500000000019
 21
-3.277777777777778
 31
0.0
  0
LINE
  5
176
330
15B
100
AcDbEntity
  8
AM_9
100
AcDbLine
 10
-0.1562499999999978
 20
-3.277777777777778
 30
0.0
 11
-0.1562499999999983
 21
-3.053304644641537
 31
0.0
  0
LINE
  5
177
330
15B
100
AcDbEntity
  8
AM_9
100
AcDbLine
 10
-0.1562500000000006
 20
3.053304644641539
 30
0.0
 11
-0.1562500000000006
 21
3.277777777777778
 31
0.0
  0
LINE
  5
178
330
15B
100
AcDbEntity
  8
AM_9
100
AcDbLine
 10
0.1562499999999989
 20
3.277777777777778
 30
0.0
 11
0.1562499999999996
 21
3.053304644641538
 31
0.0
  0
LINE
  5
179
330
15B
100
AcDbEntity
  8
AM_7
100
AcDbLine
 10
-3.277822198076477
 20
-0.16406250662983
 30
0.0
 11
-3.277822198076477
 21
0.1640625066298247
 31
0.0
  0
LINE
  5
17A
330
15B
100
AcDbEntity
  8
AM_7
100
AcDbLine
 10
-2.4818328104135
 20
2.317770303783673
 30
0.0
 11
-2.153707797153846
 21
2.317770303783673
 31
0.0
  0
LINE
  5
17B
330
15B
100
AcDbEntity
  8
AM_7
100
AcDbLine
 10
-2.317770303783673
 20
2.153707797153846
 30
0.0
 11
-2.317770303783673
 21
2.4818328104135
 31
0.0
  0
LINE
  5
17C
330
15B
100
AcDbEntity
  8
AM_7
100
AcDbLine
 10
2.153707797153845
 20
-2.317770303783672
 30
0.0
 11
2.4818328104135
 21
-2.317770303783672
 31
0.0
  0
LINE
  5
17D
330
15B
100
AcDbEntity
  8
AM_7
100
AcDbLine
 10
2.317770303783673
 20
-2.481832810413499
 30
0.0
 11
2.317770303783673
 21
-2.153707797153845
 31
0.0
  0
LINE
  5
17E
330
15B
100
AcDbEntity
  8
AM_7
100
AcDbLine
 10
3.277822198076477
 20
-0.164062506629826
 30
0.0
 11
3.277822198076477
 21
0.1640625066298287
 31
0.0
  0
LINE
  5
17F
330
15B
100
AcDbEntity
  8
AM_7
100
AcDbLine
 10
2.153707797153845
 20
2.317770303783674
 30
0.0
 11
2.481832810413499
 21
2.317770303783674
 31
0.0
  0
LINE
  5
180
330
15B
100
AcDbEntity
  8
AM_7
100
AcDbLine
 10
2.317770303783672
 20
2.153707797153847
 30
0.0
 11
2.317770303783672
 21
2.481832810413501
 31
0.0
  0
LINE
  5
181
330
15B
100
AcDbEntity
  8
AM_7
100
AcDbLine
 10
-2.481832810413499
 20
-2.317770303783674
 30
0.0
 11
-2.153707797153843
 21
-2.317770303783674
 31
0.0
  0
LINE
  5
182
330
15B
100
AcDbEntity
  8
AM_7
100
AcDbLine
 10
-2.317770303783671
 20
-2.481832810413501
 30
0.0
 11
-2.317770303783671
 21
-2.153707797153846
 31
0.0
  0
ARC
  5
183
330
15B
100
AcDbEntity
  8
AM_4
100
AcDbCircle
 10
-2.317770303783673
 20
2.317770303783672
 30
0.0
 40
0.1562500063141213
100
AcDbArc
 50
44.98371138834149
 51
225.0162886116589
  0
LINE
  5
184
330
15B
100
AcDbEntity
  8
AM_4
100
AcDbLine
 10
0.1562500000000019
 20
-2.664341219375501
 30
0.0
 11
0.1562500000000016
 21
-3.053304644641539
 31
0.0
  0
LINE
  5
185
330
15B
100
AcDbEntity
  8
AM_4
100
AcDbLine
 10
1.99445917817565
 20
-1.773488309054852
 30
0.0
 11
2.428224328449638
 21
-2.20725345932884
 31
0.0
  0
ARC
  5
186
330
15B
100
AcDbEntity
  8
AM_4
100
AcDbCircle
 10
-0.0000000000000098
 20
0.0000000000000042
 30
0.0
 40
2.668918918918929
100
AcDbArc
 50
318.3562606150473
 51
356.6437393849527
  0
CIRCLE
  5
187
330
15B
100
AcDbEntity
  8
AM_4
100
AcDbCircle
 10
0.0
 20
0.0
 30
0.0
 40
3.8125
  0
ARC
  5
188
330
15B
100
AcDbEntity
  8
AM_4
100
AcDbCircle
 10
0.0000000000000044
 20
0.0000000000000024
 30
0.0
 40
2.668918918918923
100
AcDbArc
 50
183.3562606150472
 51
221.6437393849528
  0
ARC
  5
189
330
15B
100
AcDbEntity
  8
AM_4
100
AcDbCircle
 10
2.317770303783672
 20
2.317770303783673
 30
0.0
 40
0.1562500063141213
100
AcDbArc
 50
314.9837113883412
 51
135.0162886116588
  0
ARC
  5
18A
330
15B
100
AcDbEntity
  8
AM_4
100
AcDbCircle
 10
0.0000000000000018
 20
0.0000000000000023
 30
0.0
 40
2.668918918918916
100
AcDbArc
 50
3.356260615046983
 51
41.64373938495284
  0
LINE
  5
18B
330
15B
100
AcDbEntity
  8
AM_4
100
AcDbLine
 10
2.428224328449637
 20
2.207253459328842
 30
0.0
 11
1.994459178175649
 21
1.773488309054854
 31
0.0
  0
LINE
  5
18C
330
15B
100
AcDbEntity
  8
AM_4
100
AcDbLine
 10
1.773488309054854
 20
1.994459178175648
 30
0.0
 11
2.20725345932884
 21
2.428224328449638
 31
0.0
  0
LINE
  5
18D
330
15B
100
AcDbEntity
  8
AM_4
100
AcDbLine
 10
2.6643412193755
 20
0.1562499999999997
 30
0.0
 11
3.277777777777778
 21
0.1562500000000014
 31
0.0
  0
ARC
  5
18E
330
15B
100
AcDbEntity
  8
AM_4
100
AcDbCircle
 10
3.277822198076477
 20
0.0000000000000013
 30
0.0
 40
0.1562500063141213
100
AcDbArc
 50
269.9837113883418
 51
90.0162886116582
  0
LINE
  5
18F
330
15B
100
AcDbEntity
  8
AM_4
100
AcDbLine
 10
3.277777777777778
 20
-0.1562499999999986
 30
0.0
 11
2.664341219375501
 21
-0.1562499999999995
 31
0.0
  0
ARC
  5
190
330
15B
100
AcDbEntity
  8
AM_4
100
AcDbCircle
 10
2.317770303783673
 20
-2.317770303783671
 30
0.0
 40
0.1562500063141213
100
AcDbArc
 50
224.9837113883415
 51
45.01628861165864
  0
LINE
  5
191
330
15B
100
AcDbEntity
  8
AM_4
100
AcDbLine
 10
2.207253459328842
 20
-2.428224328449637
 30
0.0
 11
1.773488309054854
 21
-1.994459178175649
 31
0.0
  0
ARC
  5
192
330
15B
100
AcDbEntity
  8
AM_4
100
AcDbCircle
 10
0.0000000000000044
 20
-0.0000000000000115
 30
0.0
 40
2.668918918918907
100
AcDbArc
 50
273.3562606150471
 51
311.6437393849529
  0
LINE
  5
193
330
15B
100
AcDbEntity
  8
AM_4
100
AcDbLine
 10
-0.1562499999999983
 20
-3.053304644641537
 30
0.0
 11
-0.1562499999999986
 21
-2.664341219375501
 31
0.0
  0
ARC
  5
194
330
15B
100
AcDbEntity
  8
AM_4
100
AcDbCircle
 10
-0.0000000000000013
 20
-0.000000000000004
 30
0.0
 40
2.668918918918915
100
AcDbArc
 50
228.3562606150471
 51
266.6437393849529
  0
LINE
  5
195
330
15B
100
AcDbEntity
  8
AM_4
100
AcDbLine
 10
-1.773488309054854
 20
-1.994459178175648
 30
0.0
 11
-2.20725345932884
 21
-2.428224328449638
 31
0.0
  0
ARC
  5
196
330
15B
100
AcDbEntity
  8
AM_4
100
AcDbCircle
 10
-2.317770303783671
 20
-2.317770303783674
 30
0.0
 40
0.1562500063141216
100
AcDbArc
 50
134.9837113883414
 51
315.0162886116588
  0
LINE
  5
197
330
15B
100
AcDbEntity
  8
AM_4
100
AcDbLine
 10
-2.428224328449636
 20
-2.207253459328842
 30
0.0
 11
-1.994459178175648
 21
-1.773488309054854
 31
0.0
  0
LINE
  5
198
330
15B
100
AcDbEntity
  8
AM_4
100
AcDbLine
 10
-2.664341219375501
 20
-0.1562500000000019
 30
0.0
 11
-3.277777777777778
 21
-0.1562500000000025
 31
0.0
  0
ARC
  5
199
330
15B
100
AcDbEntity
  8
AM_4
100
AcDbCircle
 10
-3.277822198076477
 20
-0.0000000000000026
 30
0.0
 40
0.1562500063141211
100
AcDbArc
 50
89.98371138834166
 51
270.0162886116584
  0
LINE
  5
19A
330
15B
100
AcDbEntity
  8
AM_4
100
AcDbLine
 10
-3.277777777777778
 20
0.1562499999999973
 30
0.0
 11
-2.664341219375501
 21
0.1562499999999984
 31
0.0
  0
ARC
  5
19B
330
15B
100
AcDbEntity
  8
AM_4
100
AcDbCircle
 10
-0.0000000000000053
 20
0.000000000000002
 30
0.0
 40
2.668918918918914
100
AcDbArc
 50
138.3562606150471
 51
176.6437393849529
  0
LINE
  5
19C
330
15B
100
AcDbEntity
  8
AM_4
100
AcDbLine
 10
-1.994459178175649
 20
1.773488309054853
 30
0.0
 11
-2.428224328449637
 21
2.207253459328841
 31
0.0
  0
LINE
  5
19D
330
15B
100
AcDbEntity
  8
AM_4
100
AcDbLine
 10
-2.207253459328842
 20
2.428224328449637
 30
0.0
 11
-1.773488309054854
 21
1.99445917817565
 31
0.0
  0
ARC
  5
19E
330
15B
100
AcDbEntity
  8
AM_4
100
AcDbCircle
 10
0.0000000000000138
 20
-0.0000000000000204
 30
0.0
 40
2.668918918918944
100
AcDbArc
 50
115.184455246721
 51
131.6437393849528
  0
LINE
  5
19F
330
15B
100
AcDbEntity
  8
AM_4
100
AcDbLine
 10
-1.135715182424772
 20
2.415218255183825
 30
0.0
 11
-1.10880719629487
 21
2.350256630132865
 31
0.0
  0
ARC
  5
1A0
330
15B
100
AcDbEntity
  8
AM_4
100
AcDbCircle
 10
0.0000000000000201
 20
-0.0000000000000635
 30
0.0
 40
2.468750000000066
100
AcDbArc
 50
109.5977068733108
 51
115.402293126689
  0
LINE
  5
1A1
330
15B
100
AcDbEntity
  8
AM_4
100
AcDbLine
 10
-0.8778373131670477
 20
2.445927488224137
 30
0.0
 11
-0.9047452992969507
 21
2.510889113275097
 31
0.0
  0
ARC
  5
1A2
330
15B
100
AcDbEntity
  8
AM_4
100
AcDbCircle
 10
-0.0000000000000037
 20
0.0000000000000129
 30
0.0
 40
2.668918918918906
100
AcDbArc
 50
93.35626061504712
 51
109.8155447532792
  0
LINE
  5
1A3
330
15B
100
AcDbEntity
  8
AM_4
100
AcDbLine
 10
-0.1562500000000011
 20
2.6643412193755
 30
0.0
 11
-0.1562500000000006
 21
3.053304644641539
 31
0.0
  0
LINE
  5
1A4
330
15B
100
AcDbEntity
  8
AM_4
100
AcDbLine
 10
0.1562499999999996
 20
3.053304644641538
 30
0.0
 11
0.1562499999999997
 21
2.664341219375501
 31
0.0
  0
ARC
  5
1A5
330
15B
100
AcDbEntity
  8
AM_4
100
AcDbCircle
 10
-0.0000000000000033
 20
-0.0000000000000071
 30
0.0
 40
2.668918918918926
100
AcDbArc
 50
48.35626061504718
 51
86.64373938495278
  0
ENDBLK
  5
15E
330
15B
100
AcDbEntity
  8
0
100
AcDbBlockEnd
  0
BLOCK
  5
1A8
330
1A6
100
AcDbEntity
  8
0
100
AcDbBlockBegin
  2
7_070910I_0_in_072305_0
 70
     2
 10
0.0
 20
0.0
 30
0.0
  3
7_070910I_0_in_072305_0
  1

  0
ATTDEF
  5
1AA
330
1A6
100
AcDbEntity
  8
AM_6
100
AcDbText
 10
9.47755
 20
4.477550000000001
 30
0.0
 40
0.5
  1
Imperial Insert -Inch
100
AcDbAttributeDefinition
  3

  2
NN
 70
     8
280
     0
  0
ATTDEF
  5
1AB
330
1A6
100
AcDbEntity
  8
AM_6
100
AcDbText
 10
9.47755
 20
3.977550000000001
 30
0.0
 40
0.5
  1
Imperial Bearings
100
AcDbAttributeDefinition
  3

  2
NT
 70
     8
280
     0
  0
ATTDEF
  5
1AC
330
1A6
100
AcDbEntity
  8
AM_6
100
AcDbText
 10
9.47755
 20
3.477550000000001
 30
0.0
 40
0.5
  1
070910I
100
AcDbAttributeDefinition
  3

  2
NB
 70
     8
280
     0
  0
ATTDEF
  5
1AD
330
1A6
100
AcDbEntity
  8
AM_6
100
AcDbText
 10
9.47755
 20
2.977550000000001
 30
0.0
 40
0.5
  1
$PN.I
100
AcDbAttributeDefinition
  3

  2
NBSYN
 70
     8
280
     0
  0
ATTDEF
  5
1AE
330
1A6
100
AcDbEntity
  8
AM_6
100
AcDbText
 10
9.47755
 20
2.477550000000001
 30
0.0
 40
0.5
  1
070910
100
AcDbAttributeDefinition
  3

  2
LINA
 70
     8
280
     0
  0
ATTDEF
  5
1AF
330
1A6
100
AcDbEntity
  8
AM_6
100
AcDbText
 10
9.47755
 20
1.977550000000001
 30
0.0
 40
0.5
  1
4-15/16
100
AcDbAttributeDefinition
  3

  2
SS
 70
     8
280
     0
  0
ATTDEF
  5
1B0
330
1A6
100
AcDbEntity
  8
AM_6
100
AcDbText
 10
9.47755
 20
1.477550000000001
 30
0.0
 40
0.5
  1
4.937500
100
AcDbAttributeDefinition
  3

  2
SS1
 70
     8
280
     0
  0
ATTDEF
  5
1B1
330
1A6
100
AcDbEntity
  8
AM_6
100
AcDbText
 10
9.47755
 20
0.9775500000000008
 30
0.0
 40
0.5
  1
070910
100
AcDbAttributeDefinition
  3

  2
PN
 70
     8
280
     0
  0
ATTDEF
  5
1B2
330
1A6
100
AcDbEntity
  8
AM_6
100
AcDbText
 10
9.47755
 20
0.4775500000000008
 30
0.0
 40
0.5
  1
INS-IP-415R
100
AcDbAttributeDefinition
  3

  2
DESCRIPTION
 70
     8
280
     0
  0
ATTDEF
  5
1B3
330
1A6
100
AcDbEntity
  8
AM_6
100
AcDbText
 10
9.47755
 20
-0.0224499999999992
 30
0.0
 40
0.5
  1
Contact Seal
100
AcDbAttributeDefinition
  3

  2
ST
 70
     8
280
     0
  0
ATTDEF
  5
1B4
330
1A6
100
AcDbEntity
  8
AM_6
100
AcDbText
 10
9.47755
 20
-0.5224499999999992
 30
0.0
 40
0.5
  1
9.0551
100
AcDbAttributeDefinition
  3

  2
A
 70
     8
280
     0
  0
ATTDEF
  5
1B5
330
1A6
100
AcDbEntity
  8
AM_6
100
AcDbText
 10
9.47755
 20
-1.022449999999999
 30
0.0
 40
0.5
  1
2-19/32
100
AcDbAttributeDefinition
  3

  2
B
 70
     8
280
     0
  0
ATTDEF
  5
1B6
330
1A6
100
AcDbEntity
  8
AM_6
100
AcDbText
 10
9.47755
 20
-1.522449999999999
 30
0.0
 40
0.5
  1
5-63/64
100
AcDbAttributeDefinition
  3

  2
C
 70
     8
280
     0
  0
ATTDEF
  5
1B7
330
1A6
100
AcDbEntity
  8
AM_6
100
AcDbText
 10
9.47755
 20
-2.022449999999999
 30
0.0
 40
0.5
  1
2.107
100
AcDbAttributeDefinition
  3

  2
D
 70
     8
280
     0
  0
ATTDEF
  5
1B8
330
1A6
100
AcDbEntity
  8
AM_6
100
AcDbText
 10
9.47755
 20
-2.522449999999999
 30
0.0
 40
0.5
  1
7-5/8
100
AcDbAttributeDefinition
  3

  2
E
 70
     8
280
     0
  0
ATTDEF
  5
1B9
330
1A6
100
AcDbEntity
  8
AM_6
100
AcDbText
 10
9.47755
 20
-3.022449999999999
 30
0.0
 40
0.5
  1
0.3125
100
AcDbAttributeDefinition
  3

  2
NDM
 70
     8
280
     0
  0
ATTDEF
  5
1BA
330
1A6
100
AcDbEntity
  8
AM_6
100
AcDbText
 10
9.47755
 20
-3.522449999999999
 30
0.0
 40
0.5
  1
0.166
100
AcDbAttributeDefinition
  3

  2
H
 70
     8
280
     0
  0
ATTDEF
  5
1BB
330
1A6
100
AcDbEntity
  8
AM_6
100
AcDbText
 10
9.47755
 20
-4.022449999999999
 30
0.0
 40
0.5
  1
0.2580
100
AcDbAttributeDefinition
  3

  2
KDM
 70
     8
280
     0
  0
ATTDEF
  5
1BC
330
1A6
100
AcDbEntity
  8
AM_6
100
AcDbText
 10
9.47755
 20
-4.522449999999999
 30
0.0
 40
0.5
  1
6.80
100
AcDbAttributeDefinition
  3

  2
AL
 70
     8
280
     0
  0
ATTDEF
  5
1BD
330
1A6
100
AcDbEntity
  8
AM_6
100
AcDbText
 10
9.47755
 20
-5.022449999999999
 30
0.0
 40
0.5
  1
0.50
100
AcDbAttributeDefinition
  3

  2
BL
 70
     8
280
     0
  0
ATTDEF
  5
1BE
330
1A6
100
AcDbEntity
  8
AM_6
100
AcDbText
 10
9.47755
 20
-5.522449999999999
 30
0.0
 40
0.5
  1
0.07
100
AcDbAttributeDefinition
  3

  2
CL
 70
     8
280
     0
  0
ATTDEF
  5
1BF
330
1A6
100
AcDbEntity
  8
AM_6
100
AcDbText
 10
9.47755
 20
-6.022449999999999
 30
0.0
 40
0.5
  1
0.50
100
AcDbAttributeDefinition
  3

  2
DL
 70
     8
280
     0
  0
ATTDEF
  5
1C0
330
1A6
100
AcDbEntity
  8
AM_6
100
AcDbText
 10
9.47755
 20
-6.522449999999999
 30
0.0
 40
0.5
  1
1.0000
100
AcDbAttributeDefinition
  3

  2
LL
 70
     8
280
     0
  0
ATTDEF
  5
1C1
330
1A6
100
AcDbEntity
  8
AM_6
100
AcDbText
 10
9.47755
 20
-7.022449999999999
 30
0.0
 40
0.5
  1
0.036
100
AcDbAttributeDefinition
  3

  2
Y
 70
     8
280
     0
  0
ATTDEF
  5
1C2
330
1A6
100
AcDbEntity
  8
AM_6
100
AcDbText
 10
9.47755
 20
-7.522449999999999
 30
0.0
 40
0.5
  1
0.036000
100
AcDbAttributeDefinition
  3

  2
Y1
 70
     8
280
     0
  0
ATTDEF
  5
1C3
330
1A6
100
AcDbEntity
  8
AM_6
100
AcDbText
 10
9.47755
 20
-8.02245
 30
0.0
 40
0.5
  1
5-27/32
100
AcDbAttributeDefinition
  3

  2
Z
 70
     8
280
     0
  0
ATTDEF
  5
1C4
330
1A6
100
AcDbEntity
  8
AM_6
100
AcDbText
 10
9.47755
 20
-8.52245
 30
0.0
 40
0.5
  1
5.843750
100
AcDbAttributeDefinition
  3

  2
Z1
 70
     8
280
     0
  0
ATTDEF
  5
1C5
330
1A6
100
AcDbEntity
  8
AM_6
100
AcDbText
 10
9.47755
 20
-9.02245
 30
0.0
 40
0.5
  1
baldor
100
AcDbAttributeDefinition
  3

  2
COMPANY
 70
     8
280
     0
  0
CIRCLE
  5
1C6
330
1A6
100
AcDbEntity
  8
AM_9
100
AcDbCircle
 10
0.0
 20
0.0
 30
0.0
 40
2.921874999999999
  0
CIRCLE
  5
1C7
330
1A6
100
AcDbEntity
  8
AM_9
100
AcDbCircle
 10
0.0
 20
0.0
 30
0.0
 40
3.171607905982905
  0
CIRCLE
  5
1C8
330
1A6
100
AcDbEntity
  8
AM_9
100
AcDbCircle
 10
0.0
 20
0.0
 30
0.0
 40
3.970314520938919
  0
CIRCLE
  5
1C9
330
1A6
100
AcDbEntity
  8
AM_9
100
AcDbCircle
 10
0.0
 20
0.0
 30
0.0
 40
3.246527777777778
  0
CIRCLE
  5
1CA
330
1A6
100
AcDbEntity
  8
AM_9
100
AcDbCircle
 10
0.0
 20
0.0
 30
0.0
 40
4.056917061317362
  0
CIRCLE
  5
1CB
330
1A6
100
AcDbEntity
  8
AM_9
100
AcDbCircle
 10
0.0
 20
0.0
 30
0.0
 40
4.32755
  0
CIRCLE
  5
1CC
330
1A6
100
AcDbEntity
  8
AM_9
100
AcDbCircle
 10
0.0
 20
0.0
 30
0.0
 40
4.397862499999999
  0
LINE
  5
1CD
330
1A6
100
AcDbEntity
  8
AM_9
100
AcDbLine
 10
2.580939751330898
 20
-2.227386360737625
 30
0.0
 11
2.868013213792979
 21
-2.514459823199706
 31
0.0
  0
LINE
  5
1CE
330
1A6
100
AcDbEntity
  8
AM_9
100
AcDbLine
 10
2.868013213792979
 20
2.514459823199705
 30
0.0
 11
2.580939751330898
 21
2.227386360737624
 31
0.0
  0
LINE
  5
1CF
330
1A6
100
AcDbEntity
  8
AM_9
100
AcDbLine
 10
-2.227386360737625
 20
-2.580939751330898
 30
0.0
 11
-2.514459823199706
 21
-2.868013213792979
 31
0.0
  0
LINE
  5
1D0
330
1A6
100
AcDbEntity
  8
AM_9
100
AcDbLine
 10
2.514459823199705
 20
-2.86801321379298
 30
0.0
 11
2.227386360737623
 21
-2.580939751330899
 31
0.0
  0
LINE
  5
1D1
330
1A6
100
AcDbEntity
  8
AM_9
100
AcDbLine
 10
-2.868013213792981
 20
-2.514459823199704
 30
0.0
 11
-2.5809397513309
 21
-2.227386360737623
 31
0.0
  0
LINE
  5
1D2
330
1A6
100
AcDbEntity
  8
AM_9
100
AcDbLine
 10
-2.580939751330899
 20
2.227386360737625
 30
0.0
 11
-2.868013213792979
 21
2.514459823199705
 31
0.0
  0
LINE
  5
1D3
330
1A6
100
AcDbEntity
  8
AM_9
100
AcDbLine
 10
2.227386360737624
 20
2.580939751330899
 30
0.0
 11
2.514459823199705
 21
2.868013213792979
 31
0.0
  0
LINE
  5
1D4
330
1A6
100
AcDbEntity
  8
AM_9
100
AcDbLine
 10
-2.514459823199705
 20
2.868013213792979
 30
0.0
 11
-2.227386360737624
 21
2.580939751330899
 31
0.0
  0
LINE
  5
1D5
330
1A6
100
AcDbEntity
  8
AM_9
100
AcDbLine
 10
-2.473034854291239
 20
2.335291257777284
 30
0.0
 11
-2.580939751330899
 21
2.227386360737625
 31
0.0
  0
LINE
  5
1D6
330
1A6
100
AcDbEntity
  8
AM_9
100
AcDbLine
 10
-2.227386360737624
 20
2.580939751330899
 30
0.0
 11
-2.335291257777284
 21
2.473034854291239
 31
0.0
  0
ARC
  5
1D7
330
1A6
100
AcDbEntity
  8
AM_9
100
AcDbCircle
 10
0.0000000000000062
 20
-0.0000000000000002
 30
0.0
 40
3.764215561259651
100
AcDbArc
 50
138.8080965191768
 51
221.1919034808231
  0
LINE
  5
1D8
330
1A6
100
AcDbEntity
  8
AM_9
100
AcDbLine
 10
-2.335291257777283
 20
-2.47303485429124
 30
0.0
 11
-2.227386360737625
 21
-2.580939751330898
 31
0.0
  0
LINE
  5
1D9
330
1A6
100
AcDbEntity
  8
AM_9
100
AcDbLine
 10
-2.5809397513309
 20
-2.227386360737623
 30
0.0
 11
-2.473034854291238
 21
-2.335291257777285
 31
0.0
  0
ARC
  5
1DA
330
1A6
100
AcDbEntity
  8
AM_9
100
AcDbCircle
 10
0.0000000000000002
 20
0.000000000000008
 30
0.0
 40
3.764215561259652
100
AcDbArc
 50
228.8080965191769
 51
311.191903480823
  0
LINE
  5
1DB
330
1A6
100
AcDbEntity
  8
AM_9
100
AcDbLine
 10
2.47303485429124
 20
-2.335291257777282
 30
0.0
 11
2.580939751330898
 21
-2.227386360737625
 31
0.0
  0
LINE
  5
1DC
330
1A6
100
AcDbEntity
  8
AM_9
100
AcDbLine
 10
2.227386360737623
 20
-2.580939751330899
 30
0.0
 11
2.335291257777285
 21
-2.473034854291238
 31
0.0
  0
ARC
  5
1DD
330
1A6
100
AcDbEntity
  8
AM_9
100
AcDbCircle
 10
-0.000000000000008
 20
0.0000000000000004
 30
0.0
 40
3.764215561259652
100
AcDbArc
 50
318.8080965191768
 51
41.19190348082314
  0
LINE
  5
1DE
330
1A6
100
AcDbEntity
  8
AM_9
100
AcDbLine
 10
2.335291257777283
 20
2.47303485429124
 30
0.0
 11
2.227386360737624
 21
2.580939751330899
 31
0.0
  0
LINE
  5
1DF
330
1A6
100
AcDbEntity
  8
AM_9
100
AcDbLine
 10
2.580939751330898
 20
2.227386360737624
 30
0.0
 11
2.473034854291238
 21
2.335291257777284
 31
0.0
  0
ARC
  5
1E0
330
1A6
100
AcDbEntity
  8
AM_9
100
AcDbCircle
 10
0.0000000000001237
 20
-0.0000000000002753
 30
0.0
 40
2.605540897097927
100
AcDbArc
 50
109.7501976101996
 51
115.2498023898007
  0
ARC
  5
1E1
330
1A6
100
AcDbEntity
  8
AM_9
100
AcDbCircle
 10
-0.0000000000000002
 20
-0.0000000000000071
 30
0.0
 40
3.764215561259651
100
AcDbArc
 50
48.80809651917685
 51
131.1919034808232
  0
CIRCLE
  5
1E2
330
1A6
100
AcDbEntity
  8
AM_4
100
AcDbCircle
 10
0.0
 20
0.0
 30
0.0
 40
4.477550000000001
  0
LINE
  5
1E3
330
1A6
100
AcDbEntity
  8
AM_4
100
AcDbLine
 10
-2.879191962120257
 20
-2.525638571526981
 30
0.0
 11
-2.868013213792981
 21
-2.514459823199704
 31
0.0
  0
LINE
  5
1E4
330
1A6
100
AcDbEntity
  8
AM_4
100
AcDbLine
 10
2.514459823199705
 20
2.868013213792979
 30
0.0
 11
2.525638571526982
 21
2.879191962120257
 31
0.0
  0
LINE
  5
1E5
330
1A6
100
AcDbEntity
  8
AM_4
100
AcDbLine
 10
-2.514459823199706
 20
-2.868013213792979
 30
0.0
 11
-2.525638571526983
 21
-2.879191962120256
 31
0.0
  0
LINE
  5
1E6
330
1A6
100
AcDbEntity
  8
AM_4
100
AcDbLine
 10
2.525638571526982
 20
-2.879191962120257
 30
0.0
 11
2.514459823199705
 21
-2.86801321379298
 31
0.0
  0
LINE
  5
1E7
330
1A6
100
AcDbEntity
  8
AM_4
100
AcDbLine
 10
2.868013213792979
 20
-2.514459823199706
 30
0.0
 11
2.879191962120256
 21
-2.525638571526983
 31
0.0
  0
LINE
  5
1E8
330
1A6
100
AcDbEntity
  8
AM_4
100
AcDbLine
 10
2.879191962120257
 20
2.525638571526982
 30
0.0
 11
2.868013213792979
 21
2.514459823199705
 31
0.0
  0
LINE
  5
1E9
330
1A6
100
AcDbEntity
  8
AM_4
100
AcDbLine
 10
-2.525638571526982
 20
2.879191962120256
 30
0.0
 11
-2.514459823199705
 21
2.868013213792979
 31
0.0
  0
LINE
  5
1EA
330
1A6
100
AcDbEntity
  8
AM_4
100
AcDbLine
 10
-2.868013213792979
 20
2.514459823199705
 30
0.0
 11
-2.879191962120256
 21
2.525638571526983
 31
0.0
  0
CIRCLE
  5
1EB
330
1A6
100
AcDbEntity
  8
AM_4
100
AcDbCircle
 10
0.0
 20
0.0
 30
0.0
 40
3.88790558158918
  0
ARC
  5
1EC
330
1A6
100
AcDbEntity
  8
AM_4
100
AcDbCircle
 10
-0.0000000000000968
 20
0.0000000000000959
 30
0.0
 40
3.829960384746009
100
AcDbArc
 50
311.2573669414268
 51
318.7426330585732
  0
ARC
  5
1ED
330
1A6
100
AcDbEntity
  8
AM_4
100
AcDbCircle
 10
-0.0000000000000404
 20
-0.0000000000000422
 30
0.0
 40
3.829960384745814
100
AcDbArc
 50
221.2573669414266
 51
228.7426330585733
  0
ARC
  5
1EE
330
1A6
100
AcDbEntity
  8
AM_4
100
AcDbCircle
 10
0.0000000000000431
 20
-0.0000000000000462
 30
0.0
 40
3.829960384745935
100
AcDbArc
 50
131.2573669414267
 51
138.7426330585732
  0
ARC
  5
1EF
330
1A6
100
AcDbEntity
  8
AM_4
100
AcDbCircle
 10
-0.0000000000000027
 20
-0.0000000000000027
 30
0.0
 40
3.829960384745876
100
AcDbArc
 50
41.25736694142669
 51
48.7426330585733
  0
ARC
  5
1F0
330
1A6
100
AcDbEntity
  8
AM_4
100
AcDbCircle
 10
0.0
 20
-0.0000000000000002
 30
0.0
 40
3.814185102610598
100
AcDbArc
 50
318.7581345960849
 51
41.24186540391509
  0
ARC
  5
1F1
330
1A6
100
AcDbEntity
  8
AM_4
100
AcDbCircle
 10
0.0000000000000002
 20
0.0000000000000018
 30
0.0
 40
3.814185102610601
100
AcDbArc
 50
228.7581345960849
 51
311.241865403915
  0
ARC
  5
1F2
330
1A6
100
AcDbEntity
  8
AM_4
100
AcDbCircle
 10
-0.0000000000000018
 20
-0.0000000000000002
 30
0.0
 40
3.814185102610598
100
AcDbArc
 50
138.7581345960849
 51
221.2418654039151
  0
LINE
  5
1F3
330
1A6
100
AcDbEntity
  8
AM_4
100
AcDbLine
 10
-2.335291257777284
 20
2.473034854291239
 30
0.0
 11
-2.473034854291239
 21
2.335291257777284
 31
0.0
  0
LINE
  5
1F4
330
1A6
100
AcDbEntity
  8
AM_4
100
AcDbLine
 10
-2.473034854291238
 20
-2.335291257777285
 30
0.0
 11
-2.335291257777283
 21
-2.47303485429124
 31
0.0
  0
LINE
  5
1F5
330
1A6
100
AcDbEntity
  8
AM_4
100
AcDbLine
 10
2.335291257777285
 20
-2.473034854291238
 30
0.0
 11
2.47303485429124
 21
-2.335291257777282
 31
0.0
  0
LINE
  5
1F6
330
1A6
100
AcDbEntity
  8
AM_4
100
AcDbLine
 10
2.473034854291238
 20
2.335291257777284
 30
0.0
 11
2.335291257777283
 21
2.47303485429124
 31
0.0
  0
ARC
  5
1F7
330
1A6
100
AcDbEntity
  8
AM_4
100
AcDbCircle
 10
0.0000000000000002
 20
-0.0000000000000004
 30
0.0
 40
3.814185102610599
100
AcDbArc
 50
48.75813459608493
 51
131.2418654039151
  0
ARC
  5
1F8
330
1A6
100
AcDbEntity
  8
AM_4
100
AcDbCircle
 10
0.0000000000000033
 20
0.0000000000000016
 30
0.0
 40
2.598684210526315
100
AcDbArc
 50
115.2570634028904
 51
109.7429365971097
  0
LINE
  5
1F9
330
1A6
100
AcDbEntity
  8
AM_4
100
AcDbLine
 10
-0.8280529813979896
 20
2.325737479273597
 30
0.0
 11
-0.8778373131670475
 21
2.445927488224138
 31
0.0
  0
ARC
  5
1FA
330
1A6
100
AcDbEntity
  8
AM_4
100
AcDbCircle
 10
0.0000000000000114
 20
0.000000000000005
 30
0.0
 40
2.46875
100
AcDbArc
 50
115.4022931266895
 51
109.5977068733111
  0
LINE
  5
1FB
330
1A6
100
AcDbEntity
  8
AM_4
100
AcDbLine
 10
-1.108807196294869
 20
2.350256630132865
 30
0.0
 11
-1.059022864525811
 21
2.230066621182323
 31
0.0
  0
CIRCLE
  5
1FC
330
1A6
100
AcDbEntity
  8
AM_5
100
AcDbCircle
 10
0.0000000000000004
 20
3.277777777777777
 30
0.0
 40
0.1562500000000004
  0
CIRCLE
  5
1FD
330
1A6
100
AcDbEntity
  8
AM_5
100
AcDbCircle
 10
0.0000000000000004
 20
-3.277777777777778
 30
0.0
 40
0.1562500000000004
  0
ENDBLK
  5
1A9
330
1A6
100
AcDbEntity
  8
0
100
AcDbBlockEnd
  0
BLOCK
  5
200
330
1FE
100
AcDbEntity
  8
0
100
AcDbBlockBegin
  2
8_B072305_0_in_072305_0
 70
     2
 10
0.0
 20
0.0
 30
0.0
  3
8_B072305_0_in_072305_0
  1

  0
ATTDEF
  5
202
330
1FE
100
AcDbEntity
  8
AM_6
100
AcDbText
 10
12.74375
 20
7.74375
 30
0.0
 40
0.5
  1
SFC-207-500-(Contact Seal)-Housing
100
AcDbAttributeDefinition
  3

  2
NN
 70
     8
280
     0
  0
ATTDEF
  5
203
330
1FE
100
AcDbEntity
  8
AM_6
100
AcDbText
 10
12.74375
 20
7.24375
 30
0.0
 40
0.5
  1
Steal Imperial Piloted Flange Bearing-Inch-207-500
100
AcDbAttributeDefinition
  3

  2
NT
 70
     8
280
     0
  0
ATTDEF
  5
204
330
1FE
100
AcDbEntity
  8
AM_6
100
AcDbText
 10
12.74375
 20
6.74375
 30
0.0
 40
0.5
  1
B072305
100
AcDbAttributeDefinition
  3

  2
NB
 70
     8
280
     0
  0
ATTDEF
  5
205
330
1FE
100
AcDbEntity
  8
AM_6
100
AcDbText
 10
12.74375
 20
6.24375
 30
0.0
 40
0.5
  1
$PN.
100
AcDbAttributeDefinition
  3

  2
NBSYN
 70
     8
280
     0
  0
ATTDEF
  5
206
330
1FE
100
AcDbEntity
  8
AM_6
100
AcDbText
 10
12.74375
 20
5.74375
 30
0.0
 40
0.5
  1
B072305
100
AcDbAttributeDefinition
  3

  2
LINA
 70
     8
280
     0
  0
ATTDEF
  5
207
330
1FE
100
AcDbEntity
  8
AM_6
100
AcDbText
 10
12.74375
 20
5.24375
 30
0.0
 40
0.5
  1
4-15/16
100
AcDbAttributeDefinition
  3

  2
SS
 70
     8
280
     0
  0
ATTDEF
  5
208
330
1FE
100
AcDbEntity
  8
AM_6
100
AcDbText
 10
12.74375
 20
4.74375
 30
0.0
 40
0.5
  1
4.93750
100
AcDbAttributeDefinition
  3

  2
SS1
 70
     8
280
     0
  0
ATTDEF
  5
209
330
1FE
100
AcDbEntity
  8
AM_6
100
AcDbText
 10
12.74375
 20
4.24375
 30
0.0
 40
0.5
  1
072305
100
AcDbAttributeDefinition
  3

  2
PN1
 70
     8
280
     0
  0
ATTDEF
  5
20A
330
1FE
100
AcDbEntity
  8
AM_6
100
AcDbText
 10
12.74375
 20
3.74375
 30
0.0
 40
0.5
  1
072336
100
AcDbAttributeDefinition
  3

  2
PN2
 70
     8
280
     0
  0
ATTDEF
  5
20B
330
1FE
100
AcDbEntity
  8
AM_6
100
AcDbText
 10
12.74375
 20
3.24375
 30
0.0
 40
0.5
  1
Non-Expansion
100
AcDbAttributeDefinition
  3

  2
TYPE
 70
     8
280
     0
  0
ATTDEF
  5
20C
330
1FE
100
AcDbEntity
  8
AM_6
100
AcDbText
 10
12.74375
 20
2.74375
 30
0.0
 40
0.5
  1
Contact Seal
100
AcDbAttributeDefinition
  3

  2
ST
 70
     8
280
     0
  0
ATTDEF
  5
20D
330
1FE
100
AcDbEntity
  8
AM_6
100
AcDbText
 10
12.74375
 20
2.24375
 30
0.0
 40
0.5
  1
SFC-IP-415R
100
AcDbAttributeDefinition
  3

  2
DESCRIPTIONS
 70
     8
280
     0
  0
ATTDEF
  5
20E
330
1FE
100
AcDbEntity
  8
AM_6
100
AcDbText
 10
12.74375
 20
1.74375
 30
0.0
 40
0.5
  1
5.98
100
AcDbAttributeDefinition
  3

  2
A
 70
     8
280
     0
  0
ATTDEF
  5
20F
330
1FE
100
AcDbEntity
  8
AM_6
100
AcDbText
 10
12.74375
 20
1.24375
 30
0.0
 40
0.5
  1
5.980
100
AcDbAttributeDefinition
  3

  2
A1
 70
     8
280
     0
  0
ATTDEF
  5
210
330
1FE
100
AcDbEntity
  8
AM_6
100
AcDbText
 10
12.74375
 20
0.7437500000000004
 30
0.0
 40
0.5
  1
14.75
100
AcDbAttributeDefinition
  3

  2
B
 70
     8
280
     0
  0
ATTDEF
  5
211
330
1FE
100
AcDbEntity
  8
AM_6
100
AcDbText
 10
12.74375
 20
0.2437500000000004
 30
0.0
 40
0.5
  1
14.7500
100
AcDbAttributeDefinition
  3

  2
B1
 70
     8
280
     0
  0
ATTDEF
  5
212
330
1FE
100
AcDbEntity
  8
AM_6
100
AcDbText
 10
12.74375
 20
-0.2562499999999996
 30
0.0
 40
0.5
  1
4.64
100
AcDbAttributeDefinition
  3

  2
C
 70
     8
280
     0
  0
ATTDEF
  5
213
330
1FE
100
AcDbEntity
  8
AM_6
100
AcDbText
 10
12.74375
 20
-0.7562499999999996
 30
0.0
 40
0.5
  1
4.6400
100
AcDbAttributeDefinition
  3

  2
C1
 70
     8
280
     0
  0
ATTDEF
  5
214
330
1FE
100
AcDbEntity
  8
AM_6
100
AcDbText
 10
12.74375
 20
-1.25625
 30
0.0
 40
0.5
  1
6.38
100
AcDbAttributeDefinition
  3

  2
D
 70
     8
280
     0
  0
ATTDEF
  5
215
330
1FE
100
AcDbEntity
  8
AM_6
100
AcDbText
 10
12.74375
 20
-1.75625
 30
0.0
 40
0.5
  1
6.3800
100
AcDbAttributeDefinition
  3

  2
D1
 70
     8
280
     0
  0
ATTDEF
  5
216
330
1FE
100
AcDbEntity
  8
AM_6
100
AcDbText
 10
12.74375
 20
-2.25625
 30
0.0
 40
0.5
  1
12.750
100
AcDbAttributeDefinition
  3

  2
DD
 70
     8
280
     0
  0
ATTDEF
  5
217
330
1FE
100
AcDbEntity
  8
AM_6
100
AcDbText
 10
12.74375
 20
-2.75625
 30
0.0
 40
0.5
  1
12.7500
100
AcDbAttributeDefinition
  3

  2
DD1
 70
     8
280
     0
  0
ATTDEF
  5
218
330
1FE
100
AcDbEntity
  8
AM_6
100
AcDbText
 10
12.74375
 20
-3.25625
 30
0.0
 40
0.5
  1
2.0600
100
AcDbAttributeDefinition
  3

  2
E
 70
     8
280
     0
  0
ATTDEF
  5
219
330
1FE
100
AcDbEntity
  8
AM_6
100
AcDbText
 10
12.74375
 20
-3.75625
 30
0.0
 40
0.5
  1
2.0600
100
AcDbAttributeDefinition
  3

  2
E1
 70
     8
280
     0
  0
ATTDEF
  5
21A
330
1FE
100
AcDbEntity
  8
AM_6
100
AcDbText
 10
12.74375
 20
-4.25625
 30
0.0
 40
0.5
  1
0.8750
100
AcDbAttributeDefinition
  3

  2
F
 70
     8
280
     0
  0
ATTDEF
  5
21B
330
1FE
100
AcDbEntity
  8
AM_6
100
AcDbText
 10
12.74375
 20
-4.75625
 30
0.0
 40
0.5
  1
0.87500
100
AcDbAttributeDefinition
  3

  2
F1
 70
     8
280
     0
  0
ATTDEF
  5
21C
330
1FE
100
AcDbEntity
  8
AM_6
100
AcDbText
 10
12.74375
 20
-5.25625
 30
0.0
 40
0.5
  1
2.98
100
AcDbAttributeDefinition
  3

  2
G
 70
     8
280
     0
  0
ATTDEF
  5
21D
330
1FE
100
AcDbEntity
  8
AM_6
100
AcDbText
 10
12.74375
 20
-5.75625
 30
0.0
 40
0.5
  1
2.98
100
AcDbAttributeDefinition
  3

  2
G1
 70
     8
280
     0
  0
ATTDEF
  5
21E
330
1FE
100
AcDbEntity
  8
AM_6
100
AcDbText
 10
12.74375
 20
-6.25625
 30
0.0
 40
0.5
  1
1.03
100
AcDbAttributeDefinition
  3

  2
H
 70
     8
280
     0
  0
ATTDEF
  5
21F
330
1FE
100
AcDbEntity
  8
AM_6
100
AcDbText
 10
12.74375
 20
-6.75625
 30
0.0
 40
0.5
  1
1.03
100
AcDbAttributeDefinition
  3

  2
H1
 70
     8
280
     0
  0
ATTDEF
  5
220
330
1FE
100
AcDbEntity
  8
AM_6
100
AcDbText
 10
12.74375
 20
-7.25625
 30
0.0
 40
0.5
  1
11.000
100
AcDbAttributeDefinition
  3

  2
K
 70
     8
280
     0
  0
ATTDEF
  5
221
330
1FE
100
AcDbEntity
  8
AM_6
100
AcDbText
 10
12.74375
 20
-7.75625
 30
0.0
 40
0.5
  1
11.000
100
AcDbAttributeDefinition
  3

  2
K1
 70
     8
280
     0
  0
ATTDEF
  5
222
330
1FE
100
AcDbEntity
  8
AM_6
100
AcDbText
 10
12.74375
 20
-8.25625
 30
0.0
 40
0.5
  1
7.54
100
AcDbAttributeDefinition
  3

  2
L
 70
     8
280
     0
  0
ATTDEF
  5
223
330
1FE
100
AcDbEntity
  8
AM_6
100
AcDbText
 10
12.74375
 20
-8.75625
 30
0.0
 40
0.5
  1
7.54
100
AcDbAttributeDefinition
  3

  2
L1
 70
     8
280
     0
  0
ATTDEF
  5
224
330
1FE
100
AcDbEntity
  8
AM_6
100
AcDbText
 10
12.74375
 20
-9.25625
 30
0.0
 40
0.5
  1
0.8750
100
AcDbAttributeDefinition
  3

  2
M
 70
     8
280
     0
  0
ATTDEF
  5
225
330
1FE
100
AcDbEntity
  8
AM_6
100
AcDbText
 10
12.74375
 20
-9.75625
 30
0.0
 40
0.5
  1
0.8750
100
AcDbAttributeDefinition
  3

  2
M1
 70
     8
280
     0
  0
ATTDEF
  5
226
330
1FE
100
AcDbEntity
  8
AM_6
100
AcDbText
 10
12.74375
 20
-10.25625
 30
0.0
 40
0.5
  1
6.08
100
AcDbAttributeDefinition
  3

  2
N
 70
     8
280
     0
  0
ATTDEF
  5
227
330
1FE
100
AcDbEntity
  8
AM_6
100
AcDbText
 10
12.74375
 20
-10.75625
 30
0.0
 40
0.5
  1
6.08
100
AcDbAttributeDefinition
  3

  2
N1
 70
     8
280
     0
  0
ATTDEF
  5
228
330
1FE
100
AcDbEntity
  8
AM_6
100
AcDbText
 10
12.74375
 20
-11.25625
 30
0.0
 40
0.5
  1
2.88
100
AcDbAttributeDefinition
  3

  2
P
 70
     8
280
     0
  0
ATTDEF
  5
229
330
1FE
100
AcDbEntity
  8
AM_6
100
AcDbText
 10
12.74375
 20
-11.75625
 30
0.0
 40
0.5
  1
2.88
100
AcDbAttributeDefinition
  3

  2
P1
 70
     8
280
     0
  0
ATTDEF
  5
22A
330
1FE
100
AcDbEntity
  8
AM_6
100
AcDbText
 10
12.74375
 20
-12.25625
 30
0.0
 40
0.5
  1
3.10
100
AcDbAttributeDefinition
  3

  2
Q
 70
     8
280
     0
  0
ATTDEF
  5
22B
330
1FE
100
AcDbEntity
  8
AM_6
100
AcDbText
 10
12.74375
 20
-12.75625
 30
0.0
 40
0.5
  1
3.10
100
AcDbAttributeDefinition
  3

  2
Q1
 70
     8
280
     0
  0
ATTDEF
  5
22C
330
1FE
100
AcDbEntity
  8
AM_6
100
AcDbText
 10
12.74375
 20
-13.25625
 30
0.0
 40
0.5
  1
0.38
100
AcDbAttributeDefinition
  3

  2
X
 70
     8
280
     0
  0
ATTDEF
  5
22D
330
1FE
100
AcDbEntity
  8
AM_6
100
AcDbText
 10
12.74375
 20
-13.75625
 30
0.0
 40
0.5
  1
0.38
100
AcDbAttributeDefinition
  3

  2
X1
 70
     8
280
     0
  0
ATTDEF
  5
22E
330
1FE
100
AcDbEntity
  8
AM_6
100
AcDbText
 10
12.74375
 20
-14.25625
 30
0.0
 40
0.5
  1
0.036
100
AcDbAttributeDefinition
  3

  2
Y
 70
     8
280
     0
  0
ATTDEF
  5
22F
330
1FE
100
AcDbEntity
  8
AM_6
100
AcDbText
 10
12.74375
 20
-14.75625
 30
0.0
 40
0.5
  1
0.036
100
AcDbAttributeDefinition
  3

  2
Y1
 70
     8
280
     0
  0
ATTDEF
  5
230
330
1FE
100
AcDbEntity
  8
AM_6
100
AcDbText
 10
12.74375
 20
-15.25625
 30
0.0
 40
0.5
  1
5.84
100
AcDbAttributeDefinition
  3

  2
Z
 70
     8
280
     0
  0
ATTDEF
  5
231
330
1FE
100
AcDbEntity
  8
AM_6
100
AcDbText
 10
12.74375
 20
-15.75625
 30
0.0
 40
0.5
  1
5.84
100
AcDbAttributeDefinition
  3

  2
Z1
 70
     8
280
     0
  0
ATTDEF
  5
232
330
1FE
100
AcDbEntity
  8
AM_6
100
AcDbText
 10
12.74375
 20
-16.25625
 30
0.0
 40
0.5
  1
9.0551
100
AcDbAttributeDefinition
  3

  2
BORE
 70
     8
280
     0
  0
ATTDEF
  5
233
330
1FE
100
AcDbEntity
  8
AM_6
100
AcDbText
 10
12.74375
 20
-16.75625
 30
0.0
 40
0.5
  1
0.1851670
100
AcDbAttributeDefinition
  3

  2
O
 70
     8
280
     0
  0
ATTDEF
  5
234
330
1FE
100
AcDbEntity
  8
AM_6
100
AcDbText
 10
12.74375
 20
-17.25625
 30
0.0
 40
0.5
  1
baldor
100
AcDbAttributeDefinition
  3

  2
COMPANY
 70
     8
280
     0
  0
CIRCLE
  5
235
330
1FE
100
AcDbEntity
  8
AM_9
100
AcDbCircle
 10
0.0
 20
0.0
 30
0.0
 40
5.224999999999999
  0
CIRCLE
  5
236
330
1FE
100
AcDbEntity
  8
AM_9
100
AcDbCircle
 10
0.0
 20
0.0
 30
0.0
 40
5.261317600271417
  0
ARC
  5
237
330
1FE
100
AcDbEntity
  8
AM_9
100
AcDbCircle
 10
0.0000000000000115
 20
0.0
 30
0.0
 40
5.499999999999997
100
AcDbArc
 50
79.20633371669392
 51
280.7936662833061
  0
ARC
  5
238
330
1FE
100
AcDbEntity
  8
AM_5
100
AcDbCircle
 10
6.375
 20
0.0
 30
0.0
 40
0.4375000000000002
100
AcDbArc
 50
75.00000000000001
 51
15.0
  0
ARC
  5
239
330
1FE
100
AcDbEntity
  8
AM_5
100
AcDbCircle
 10
-6.374999999999999
 20
0.0000000000000008
 30
0.0
 40
0.4374999999999995
100
AcDbArc
 50
75.0
 51
14.9999999999999
  0
LINE
  5
23A
330
1FE
100
AcDbEntity
  8
AM_7
100
AcDbLine
 10
-7.74375
 20
0.0
 30
0.0
 11
7.74375
 21
0.0
 31
0.0
  0
LINE
  5
23B
330
1FE
100
AcDbEntity
  8
AM_7
100
AcDbLine
 10
0.0
 20
-7.74375
 30
0.0
 11
0.0
 21
7.74375
 31
0.0
  0
LINE
  5
23C
330
1FE
100
AcDbEntity
  8
AM_7
100
AcDbLine
 10
-3.646874999999999
 20
-5.520911949125796
 30
0.0
 11
-2.728124999999999
 21
-5.520911949125796
 31
0.0
  0
LINE
  5
23D
330
1FE
100
AcDbEntity
  8
AM_7
100
AcDbLine
 10
-3.187499999999999
 20
-5.980286949125795
 30
0.0
 11
-3.187499999999999
 21
-5.061536949125796
 31
0.0
  0
LINE
  5
23E
330
1FE
100
AcDbEntity
  8
AM_7
100
AcDbLine
 10
-3.646874999999999
 20
5.520911949125796
 30
0.0
 11
-2.728124999999999
 21
5.520911949125796
 31
0.0
  0
LINE
  5
23F
330
1FE
100
AcDbEntity
  8
AM_7
100
AcDbLine
 10
-3.187499999999999
 20
5.061536949125796
 30
0.0
 11
-3.187499999999999
 21
5.980286949125795
 31
0.0
  0
LINE
  5
240
330
1FE
100
AcDbEntity
  8
AM_7
100
AcDbLine
 10
2.728124999999999
 20
5.520911949125796
 30
0.0
 11
3.646874999999999
 21
5.520911949125796
 31
0.0
  0
LINE
  5
241
330
1FE
100
AcDbEntity
  8
AM_7
100
AcDbLine
 10
3.187499999999999
 20
5.061536949125796
 30
0.0
 11
3.187499999999999
 21
5.980286949125795
 31
0.0
  0
LINE
  5
242
330
1FE
100
AcDbEntity
  8
AM_7
100
AcDbLine
 10
2.728124999999999
 20
-5.520911949125796
 30
0.0
 11
3.646874999999999
 21
-5.520911949125796
 31
0.0
  0
LINE
  5
243
330
1FE
100
AcDbEntity
  8
AM_7
100
AcDbLine
 10
3.187499999999999
 20
-5.980286949125795
 30
0.0
 11
3.187499999999999
 21
-5.061536949125796
 31
0.0
  0
LINE
  5
244
330
1FE
100
AcDbEntity
  8
AM_7
100
AcDbLine
 10
6.375
 20
-0.4593749999999999
 30
0.0
 11
6.375
 21
0.4593749999999999
 31
0.0
  0
LINE
  5
245
330
1FE
100
AcDbEntity
  8
AM_7
100
AcDbLine
 10
-6.375
 20
-0.4593749999999999
 30
0.0
 11
-6.375
 21
0.4593749999999999
 31
0.0
  0
CIRCLE
  5
246
330
1FE
100
AcDbEntity
  8
AM_4
100
AcDbCircle
 10
-6.375
 20
0.0
 30
0.0
 40
0.3773499999999992
  0
CIRCLE
  5
247
330
1FE
100
AcDbEntity
  8
AM_4
100
AcDbCircle
 10
6.375
 20
0.0
 30
0.0
 40
0.3773500000000003
  0
CIRCLE
  5
248
330
1FE
100
AcDbEntity
  8
AM_4
100
AcDbCircle
 10
0.0
 20
0.0
 30
0.0
 40
7.375
  0
CIRCLE
  5
249
330
1FE
100
AcDbEntity
  8
AM_4
100
AcDbCircle
 10
-3.187499999999999
 20
-5.520911949125796
 30
0.0
 40
0.4375
  0
CIRCLE
  5
24A
330
1FE
100
AcDbEntity
  8
AM_4
100
AcDbCircle
 10
-3.187499999999999
 20
5.520911949125796
 30
0.0
 40
0.4375
  0
CIRCLE
  5
24B
330
1FE
100
AcDbEntity
  8
AM_4
100
AcDbCircle
 10
3.187499999999999
 20
5.520911949125796
 30
0.0
 40
0.4375
  0
CIRCLE
  5
24C
330
1FE
100
AcDbEntity
  8
AM_4
100
AcDbCircle
 10
3.187499999999999
 20
-5.520911949125796
 30
0.0
 40
0.4375
  0
LINE
  5
24D
330
1FE
100
AcDbEntity
  8
AM_4
100
AcDbLine
 10
-1.03
 20
-5.402693772554576
 30
0.0
 11
-1.03
 21
-6.600000000000001
 31
0.0
  0
LINE
  5
24E
330
1FE
100
AcDbEntity
  8
AM_4
100
AcDbLine
 10
1.03
 20
-6.600000000000003
 30
0.0
 11
-1.03
 21
-6.600000000000001
 31
0.0
  0
LINE
  5
24F
330
1FE
100
AcDbEntity
  8
AM_4
100
AcDbLine
 10
1.03
 20
-5.402693772554576
 30
0.0
 11
1.03
 21
-6.600000000000003
 31
0.0
  0
LINE
  5
250
330
1FE
100
AcDbEntity
  8
AM_4
100
AcDbLine
 10
-1.03
 20
6.600000000000001
 30
0.0
 11
-1.03
 21
5.402693772554576
 31
0.0
  0
LINE
  5
251
330
1FE
100
AcDbEntity
  8
AM_4
100
AcDbLine
 10
1.03
 20
6.600000000000001
 30
0.0
 11
1.03
 21
5.402693772554576
 31
0.0
  0
LINE
  5
252
330
1FE
100
AcDbEntity
  8
AM_4
100
AcDbLine
 10
1.03
 20
6.600000000000001
 30
0.0
 11
-1.03
 21
6.600000000000001
 31
0.0
  0
CIRCLE
  5
253
330
1FE
100
AcDbEntity
  8
AM_4
100
AcDbCircle
 10
0.0
 20
0.0
 30
0.0
 40
4.52755
  0
ARC
  5
254
330
1FE
100
AcDbEntity
  8
AM_4
100
AcDbCircle
 10
0.0
 20
0.0
 30
0.0
 40
5.5
100
AcDbArc
 50
280.7936662833062
 51
79.20633371669379
  0
ARC
  5
255
330
1FE
100
AcDbEntity
  8
AM_4
100
AcDbCircle
 10
0.0
 20
0.0
 30
0.0
 40
5.5
100
AcDbArc
 50
100.7936662833062
 51
259.2063337166937
  0
LINE
  5
256
330
1FE
100
AcDbEntity
  8
AM_4
100
AcDbLine
 10
1.03
 20
-5.5
 30
0.0
 11
-1.03
 21
-5.5
 31
0.0
  0
LINE
  5
257
330
1FE
100
AcDbEntity
  8
AM_4
100
AcDbLine
 10
1.03
 20
5.5
 30
0.0
 11
-1.03
 21
5.5
 31
0.0
  0
ARC
  5
258
330
1FE
100
AcDbEntity
  8
AM_5
100
AcDbCircle
 10
6.375
 20
-0.0000000000000004
 30
0.0
 40
0.4375000000000001
100
AcDbArc
 50
164.9999999999999
 51
105.0
  0
ARC
  5
259
330
1FE
100
AcDbEntity
  8
AM_5
100
AcDbCircle
 10
-6.375
 20
-0.0000000000000004
 30
0.0
 40
0.4375000000000001
100
AcDbArc
 50
164.9999999999999
 51
105.0
  0
ENDBLK
  5
201
330
1FE
100
AcDbEntity
  8
0
100
AcDbBlockEnd
  0
ENDSEC
  0
SECTION
  2
ENTITIES
  0
INSERT
  5
6F
330
1F
100
AcDbEntity
  8
0
100
AcDbBlockReference
  2
1_072305_0
 10
0.0
 20
0.0
 30
0.0
  0
POINT
  5
25B
330
1F
100
AcDbEntity
  8
ConnectionPoints
100
AcDbPoint
 10
0.0
 20
6.050000000000002
 30
1.285000000000001
  0
POINT
  5
25C
330
1F
100
AcDbEntity
  8
ConnectionPoints
100
AcDbPoint
 10
0.0
 20
-3.277777777777778
 30
2.814000333333333
  0
POINT
  5
25D
330
1F
100
AcDbEntity
  8
ConnectionPoints
100
AcDbPoint
 10
0.0
 20
3.277777777777778
 30
2.814000333333333
  0
POINT
  5
25E
330
1F
100
AcDbEntity
  8
ConnectionPoints
100
AcDbPoint
 10
0.0
 20
0.0
 30
2.558833333333333
  0
POINT
  5
25F
330
1F
100
AcDbEntity
  8
ConnectionPoints
100
AcDbPoint
 10
0.0
 20
0.0
 30
2.98
  0
POINT
  5
260
330
1F
100
AcDbEntity
  8
ConnectionPoints
100
AcDbPoint
 10
0.0
 20
0.0
 30
2.757833333333333
  0
POINT
  5
261
330
1F
100
AcDbEntity
  8
ConnectionPoints
100
AcDbPoint
 10
0.0
 20
3.277777777777778
 30
2.558833333333333
  0
POINT
  5
262
330
1F
100
AcDbEntity
  8
ConnectionPoints
100
AcDbPoint
 10
0.0
 20
3.277777777777778
 30
2.814
  0
POINT
  5
263
330
1F
100
AcDbEntity
  8
ConnectionPoints
100
AcDbPoint
 10
0.0
 20
-3.277777777777778
 30
2.558833333333333
  0
POINT
  5
264
330
1F
100
AcDbEntity
  8
ConnectionPoints
100
AcDbPoint
 10
0.0
 20
-3.277777777777778
 30
2.814
  0
POINT
  5
265
330
1F
100
AcDbEntity
  8
ConnectionPoints
100
AcDbPoint
 10
0.0
 20
0.0
 30
2.558833333333333
  0
POINT
  5
266
330
1F
100
AcDbEntity
  8
ConnectionPoints
100
AcDbPoint
 10
0.0
 20
6.050000000000002
 30
1.285000000000001
  0
POINT
  5
267
330
1F
100
AcDbEntity
  8
ConnectionPoints
100
AcDbPoint
 10
0.0
 20
-6.050000000000003
 30
1.285000000000001
  0
POINT
  5
268
330
1F
100
AcDbEntity
  8
ConnectionPoints
100
AcDbPoint
 10
0.0
 20
0.0
 30
2.6
  0
POINT
  5
269
330
1F
100
AcDbEntity
  8
ConnectionPoints
100
AcDbPoint
 10
0.0
 20
0.0
 30
2.98
  0
ENDSEC
  0
SECTION
  2
OBJECTS
  0
DICTIONARY
  5
C
330
0
100
AcDbDictionary
281
     1
  3
ACAD_DETAILVIEWSTYLE
350
271
  3
ACAD_GROUP
350
D
  3
ACAD_LAYOUT
350
1A
  3
ACAD_MATERIAL
350
43
  3
ACAD_MLEADERSTYLE
350
6B
  3
ACAD_MLINESTYLE
350
17
  3
ACAD_PLOTSETTINGS
350
19
  3
ACAD_PLOTSTYLENAME
350
E
  3
ACAD_SCALELIST
350
47
  3
ACAD_SECTIONVIEWSTYLE
350
272
  3
ACAD_TABLESTYLE
350
69
  3
ACAD_VISUALSTYLE
350
2A
  3
ACDB_RECOMPOSE_DATA
350
26E
  3
AcDbVariableDictionary
350
26A
  0
SUN
  5
6D
330
29
100
AcDbSun
 90
        1
290
     0
 63
     7
421
 16777215
 40
1.0
291
     1
 91
  2455826
 92
 54000000
292
     0
 70
     2
 71
   256
280
     1
  0
DICTIONARY
  5
271
102
{ACAD_REACTORS
330
C
102
}
330
C
100
AcDbDictionary
281
     1
  0
DICTIONARY
  5
D
102
{ACAD_REACTORS
330
C
102
}
330
C
100
AcDbDictionary
281
     1
  0
DICTIONARY
  5
1A
102
{ACAD_REACTORS
330
C
102
}
330
C
100
AcDbDictionary
281
     1
  3
Layout1
350
1E
  3
Layout2
350
26
  3
Model
350
22
  0
DICTIONARY
  5
43
102
{ACAD_REACTORS
330
C
102
}
330
C
100
AcDbDictionary
281
     1
  3
ByBlock
350
45
  3
ByLayer
350
44
  3
Global
350
46
  0
DICTIONARY
  5
6B
102
{ACAD_REACTORS
330
C
102
}
330
C
100
AcDbDictionary
281
     1
  3
Standard
350
6C
  0
DICTIONARY
  5
17
102
{ACAD_REACTORS
330
C
102
}
330
C
100
AcDbDictionary
281
     1
  3
Standard
350
18
  0
DICTIONARY
  5
19
102
{ACAD_REACTORS
330
C
102
}
330
C
100
AcDbDictionary
281
     1
  0
ACDBDICTIONARYWDFLT
  5
E
102
{ACAD_REACTORS
330
C
102
}
330
C
100
AcDbDictionary
281
     1
  3
Normal
350
F
100
AcDbDictionaryWithDefault
340
F
  0
DICTIONARY
  5
47
102
{ACAD_REACTORS
330
C
102
}
330
C
100
AcDbDictionary
281
     1
  3
A0
350
48
  3
A1
350
49
  3
A2
350
4A
  3
A3
350
4B
  3
A4
350
4C
  3
A5
350
4D
  3
A6
350
4E
  3
A7
350
4F
  3
A8
350
50
  3
A9
350
51
  3
B0
350
52
  3
B1
350
53
  3
B2
350
54
  3
B3
350
55
  3
B4
350
56
  3
B5
350
57
  3
B6
350
58
  3
B7
350
59
  3
B8
350
5A
  3
B9
350
5B
  3
C0
350
5C
  3
C1
350
5D
  3
C2
350
5E
  3
C3
350
5F
  3
C4
350
60
  3
C5
350
61
  3
C6
350
62
  3
C7
350
63
  3
C8
350
64
  3
C9
350
65
  3
D0
350
66
  3
D1
350
67
  3
D2
350
68
  0
DICTIONARY
  5
272
102
{ACAD_REACTORS
330
C
102
}
330
C
100
AcDbDictionary
281
     1
  0
DICTIONARY
  5
69
102
{ACAD_REACTORS
330
C
102
}
330
C
100
AcDbDictionary
281
     1
  3
Standard
350
6A
  0
DICTIONARY
  5
2A
102
{ACAD_REACTORS
330
C
102
}
330
C
100
AcDbDictionary
281
     1
  3
2dWireframe
350
2F
  3
Basic
350
32
  3
Brighten
350
36
  3
ColorChange
350
3A
  3
Conceptual
350
34
  3
Dim
350
35
  3
EdgeColorOff
350
3D
  3
Facepattern
350
39
  3
Flat
350
2B
  3
FlatWithEdges
350
2C
  3
Gouraud
350
2D
  3
GouraudWithEdges
350
2E
  3
Hidden
350
31
  3
JitterOff
350
3B
  3
Linepattern
350
38
  3
OverhangOff
350
3C
  3
Realistic
350
33
  3
Shaded
350
42
  3
Shaded with edges
350
41
  3
Shades of Gray
350
3E
  3
Sketchy
350
3F
  3
Thicken
350
37
  3
Wireframe
350
30
  3
X-Ray
350
40
  0
XRECORD
  5
26E
102
{ACAD_REACTORS
330
C
102
}
330
C
100
AcDbXrecord
280
     1
 90
        1
330
6A
  0
DICTIONARY
  5
26A
102
{ACAD_REACTORS
330
C
102
}
330
C
100
AcDbDictionary
281
     1
  3
CANNOSCALE
350
26B
  3
CMLEADERSTYLE
350
270
  3
CTABLESTYLE
350
26F
  0
LAYOUT
  5
1E
102
{ACAD_REACTORS
330
1A
102
}
330
1A
100
AcDbPlotSettings
  1

  2
none_device
  4

  6

 40
0.0
 41
0.0
 42
0.0
 43
0.0
 44
0.0
 45
0.0
 46
0.0
 47
0.0
 48
0.0
 49
0.0
140
0.0
141
0.0
142
1.0
143
1.0
 70
   688
 72
     0
 73
     0
 74
     5
  7

 75
    16
 76
     0
 77
     2
 78
   300
147
1.0
148
0.0
149
0.0
100
AcDbLayout
  1
Layout1
 70
     1
 71
     1
 10
0.0
 20
0.0
 11
12.0
 21
9.0
 12
0.0
 22
0.0
 32
0.0
 14
1.000000000000000E+20
 24
1.000000000000000E+20
 34
1.000000000000000E+20
 15
-1.000000000000000E+20
 25
-1.000000000000000E+20
 35
-1.000000000000000E+20
146
0.0
 13
0.0
 23
0.0
 33
0.0
 16
1.0
 26
0.0
 36
0.0
 17
0.0
 27
1.0
 37
0.0
 76
     0
330
1B
  0
LAYOUT
  5
26
102
{ACAD_REACTORS
330
1A
102
}
330
1A
100
AcDbPlotSettings
  1

  2
none_device
  4

  6

 40
0.0
 41
0.0
 42
0.0
 43
0.0
 44
0.0
 45
0.0
 46
0.0
 47
0.0
 48
0.0
 49
0.0
140
0.0
141
0.0
142
1.0
143
1.0
 70
   688
 72
     0
 73
     0
 74
     5
  7

 75
    16
 76
     0
 77
     2
 78
   300
147
1.0
148
0.0
149
0.0
100
AcDbLayout
  1
Layout2
 70
     1
 71
     2
 10
0.0
 20
0.0
 11
0.0
 21
0.0
 12
0.0
 22
0.0
 32
0.0
 14
0.0
 24
0.0
 34
0.0
 15
0.0
 25
0.0
 35
0.0
146
0.0
 13
0.0
 23
0.0
 33
0.0
 16
1.0
 26
0.0
 36
0.0
 17
0.0
 27
1.0
 37
0.0
 76
     0
330
23
  0
LAYOUT
  5
22
102
{ACAD_REACTORS
330
1A
102
}
330
1A
100
AcDbPlotSettings
  1

  2
none_device
  4
Letter_(8.50_x_11.00_Inches)
  6

 40
6.35
 41
6.35
 42
6.35000508
 43
6.35000508
 44
215.9
 45
279.4
 46
0.0
 47
0.0
 48
0.0
 49
0.0
140
0.0
141
0.0
142
1.0
143
1.0
 70
  1712
 72
     0
 73
     0
 74
     0
  7

 75
     0
 76
     0
 77
     2
 78
   300
147
1.0
148
0.0
149
0.0
100
AcDbLayout
  1
Model
 70
     1
 71
     0
 10
0.0
 20
0.0
 11
12.0
 21
9.0
 12
0.0
 22
0.0
 32
0.0
 14
1.000000000000000E+20
 24
1.000000000000000E+20
 34
1.000000000000000E+20
 15
-1.000000000000000E+20
 25
-1.000000000000000E+20
 35
-1.000000000000000E+20
146
0.0
 13
0.0
 23
0.0
 33
0.0
 16
1.0
 26
0.0
 36
0.0
 17
0.0
 27
1.0
 37
0.0
 76
     0
330
1F
331
29
  0
MATERIAL
  5
45
102
{ACAD_REACTORS
330
43
102
}
330
43
100
AcDbMaterial
  1
ByBlock
 72
     1
 94
      127
  0
MATERIAL
  5
44
102
{ACAD_REACTORS
330
43
102
}
330
43
100
AcDbMaterial
  1
ByLayer
 72
     1
 94
      127
  0
MATERIAL
  5
46
102
{ACAD_REACTORS
330
43
102
}
330
43
100
AcDbMaterial
  1
Global
 72
     1
 94
      127
  0
MLEADERSTYLE
  5
6C
102
{ACAD_REACTORS
330
6B
102
}
330
6B
100
AcDbMLeaderStyle
179
     2
170
     2
171
     1
172
     0
 90
        2
 40
0.0
 41
0.0
173
     1
 91
-1056964608
340
14
 92
       -2
290
     1
 42
0.09
291
     1
 43
0.36
  3
Standard
341
0
 44
0.18
300

342
11
174
     1
178
     6
175
     1
176
     0
 93
-1056964608
 45
0.18
292
     0
297
     0
 46
0.18
343
0
 94
-1056964608
 47
1.0
 49
1.0
140
1.0
293
     1
141
0.0
294
     1
177
     0
142
1.0
295
     0
296
     0
143
0.125
271
     0
272
     9
273
     9
298
     0
  0
MLINESTYLE
  5
18
102
{ACAD_REACTORS
330
17
102
}
330
17
100
AcDbMlineStyle
  2
Standard
 70
     0
  3

 62
   256
 51
90.0
 52
90.0
 71
     2
 49
0.5
 62
   256
  6
BYLAYER
 49
-0.5
 62
   256
  6
BYLAYER
  0
ACDBPLACEHOLDER
  5
F
102
{ACAD_REACTORS
330
E
102
}
330
E
  0
SCALE
  5
48
102
{ACAD_REACTORS
330
47
102
}
330
47
100
AcDbScale
 70
     0
300
1:1
140
1.0
141
1.0
290
     1
  0
SCALE
  5
49
102
{ACAD_REACTORS
330
47
102
}
330
47
100
AcDbScale
 70
     0
300
1:2
140
1.0
141
2.0
290
     0
  0
SCALE
  5
4A
102
{ACAD_REACTORS
330
47
102
}
330
47
100
AcDbScale
 70
     0
300
1:4
140
1.0
141
4.0
290
     0
  0
SCALE
  5
4B
102
{ACAD_REACTORS
330
47
102
}
330
47
100
AcDbScale
 70
     0
300
1:5
140
1.0
141
5.0
290
     0
  0
SCALE
  5
4C
102
{ACAD_REACTORS
330
47
102
}
330
47
100
AcDbScale
 70
     0
300
1:8
140
1.0
141
8.0
290
     0
  0
SCALE
  5
4D
102
{ACAD_REACTORS
330
47
102
}
330
47
100
AcDbScale
 70
     0
300
1:10
140
1.0
141
10.0
290
     0
  0
SCALE
  5
4E
102
{ACAD_REACTORS
330
47
102
}
330
47
100
AcDbScale
 70
     0
300
1:16
140
1.0
141
16.0
290
     0
  0
SCALE
  5
4F
102
{ACAD_REACTORS
330
47
102
}
330
47
100
AcDbScale
 70
     0
300
1:20
140
1.0
141
20.0
290
     0
  0
SCALE
  5
50
102
{ACAD_REACTORS
330
47
102
}
330
47
100
AcDbScale
 70
     0
300
1:30
140
1.0
141
30.0
290
     0
  0
SCALE
  5
51
102
{ACAD_REACTORS
330
47
102
}
330
47
100
AcDbScale
 70
     0
300
1:40
140
1.0
141
40.0
290
     0
  0
SCALE
  5
52
102
{ACAD_REACTORS
330
47
102
}
330
47
100
AcDbScale
 70
     0
300
1:50
140
1.0
141
50.0
290
     0
  0
SCALE
  5
53
102
{ACAD_REACTORS
330
47
102
}
330
47
100
AcDbScale
 70
     0
300
1:100
140
1.0
141
100.0
290
     0
  0
SCALE
  5
54
102
{ACAD_REACTORS
330
47
102
}
330
47
100
AcDbScale
 70
     0
300
2:1
140
2.0
141
1.0
290
     0
  0
SCALE
  5
55
102
{ACAD_REACTORS
330
47
102
}
330
47
100
AcDbScale
 70
     0
300
4:1
140
4.0
141
1.0
290
     0
  0
SCALE
  5
56
102
{ACAD_REACTORS
330
47
102
}
330
47
100
AcDbScale
 70
     0
300
8:1
140
8.0
141
1.0
290
     0
  0
SCALE
  5
57
102
{ACAD_REACTORS
330
47
102
}
330
47
100
AcDbScale
 70
     0
300
10:1
140
10.0
141
1.0
290
     0
  0
SCALE
  5
58
102
{ACAD_REACTORS
330
47
102
}
330
47
100
AcDbScale
 70
     0
300
100:1
140
100.0
141
1.0
290
     0
  0
SCALE
  5
59
102
{ACAD_REACTORS
330
47
102
}
330
47
100
AcDbScale
 70
     0
300
1/128" = 1'-0"
140
0.0078125
141
12.0
290
     0
  0
SCALE
  5
5A
102
{ACAD_REACTORS
330
47
102
}
330
47
100
AcDbScale
 70
     0
300
1/64" = 1'-0"
140
0.015625
141
12.0
290
     0
  0
SCALE
  5
5B
102
{ACAD_REACTORS
330
47
102
}
330
47
100
AcDbScale
 70
     0
300
1/32" = 1'-0"
140
0.03125
141
12.0
290
     0
  0
SCALE
  5
5C
102
{ACAD_REACTORS
330
47
102
}
330
47
100
AcDbScale
 70
     0
300
1/16" = 1'-0"
140
0.0625
141
12.0
290
     0
  0
SCALE
  5
5D
102
{ACAD_REACTORS
330
47
102
}
330
47
100
AcDbScale
 70
     0
300
3/32" = 1'-0"
140
0.09375
141
12.0
290
     0
  0
SCALE
  5
5E
102
{ACAD_REACTORS
330
47
102
}
330
47
100
AcDbScale
 70
     0
300
1/8" = 1'-0"
140
0.125
141
12.0
290
     0
  0
SCALE
  5
5F
102
{ACAD_REACTORS
330
47
102
}
330
47
100
AcDbScale
 70
     0
300
3/16" = 1'-0"
140
0.1875
141
12.0
290
     0
  0
SCALE
  5
60
102
{ACAD_REACTORS
330
47
102
}
330
47
100
AcDbScale
 70
     0
300
1/4" = 1'-0"
140
0.25
141
12.0
290
     0
  0
SCALE
  5
61
102
{ACAD_REACTORS
330
47
102
}
330
47
100
AcDbScale
 70
     0
300
3/8" = 1'-0"
140
0.375
141
12.0
290
     0
  0
SCALE
  5
62
102
{ACAD_REACTORS
330
47
102
}
330
47
100
AcDbScale
 70
     0
300
1/2" = 1'-0"
140
0.5
141
12.0
290
     0
  0
SCALE
  5
63
102
{ACAD_REACTORS
330
47
102
}
330
47
100
AcDbScale
 70
     0
300
3/4" = 1'-0"
140
0.75
141
12.0
290
     0
  0
SCALE
  5
64
102
{ACAD_REACTORS
330
47
102
}
330
47
100
AcDbScale
 70
     0
300
1" = 1'-0"
140
1.0
141
12.0
290
     0
  0
SCALE
  5
65
102
{ACAD_REACTORS
330
47
102
}
330
47
100
AcDbScale
 70
     0
300
1-1/2" = 1'-0"
140
1.5
141
12.0
290
     0
  0
SCALE
  5
66
102
{ACAD_REACTORS
330
47
102
}
330
47
100
AcDbScale
 70
     0
300
3" = 1'-0"
140
3.0
141
12.0
290
     0
  0
SCALE
  5
67
102
{ACAD_REACTORS
330
47
102
}
330
47
100
AcDbScale
 70
     0
300
6" = 1'-0"
140
6.0
141
12.0
290
     0
  0
SCALE
  5
68
102
{ACAD_REACTORS
330
47
102
}
330
47
100
AcDbScale
 70
     0
300
1'-0" = 1'-0"
140
12.0
141
12.0
290
     0
  0
TABLESTYLE
  5
6A
102
{ACAD_REACTORS
330
69
102
}
102
{ACAD_XDICTIONARY
360
26C
102
}
330
69
100
AcDbTableStyle
  3
Standard
 70
     0
 71
     0
 40
0.06
 41
0.06
280
     0
281
     0
  7
Standard
140
0.18
170
     2
 62
     0
 63
   257
283
     0
 90
        4
 91
        0
  1

274
    -2
284
     1
 64
     0
275
    -2
285
     1
 65
     0
276
    -2
286
     1
 66
     0
277
    -2
287
     1
 67
     0
278
    -2
288
     1
 68
     0
279
    -2
289
     1
 69
     0
  7
Standard
140
0.25
170
     5
 62
     0
 63
   257
283
     0
 90
        4
 91
        0
  1

274
    -2
284
     1
 64
     0
275
    -2
285
     1
 65
     0
276
    -2
286
     1
 66
     0
277
    -2
287
     1
 67
     0
278
    -2
288
     1
 68
     0
279
    -2
289
     1
 69
     0
  7
Standard
140
0.18
170
     5
 62
     0
 63
   257
283
     0
 90
        4
 91
        0
  1

274
    -2
284
     1
 64
     0
275
    -2
285
     1
 65
     0
276
    -2
286
     1
 66
     0
277
    -2
287
     1
 67
     0
278
    -2
288
     1
 68
     0
279
    -2
289
     1
 69
     0
  0
VISUALSTYLE
  5
2F
102
{ACAD_REACTORS
330
2A
102
}
330
2A
100
AcDbVisualStyle
  2
2dWireframe
 70
     4
177
     3
291
     0
 70
    58
 90
        0
176
     1
 90
        2
176
     1
 90
        0
176
     1
 90
        0
176
     1
 40
0.6
176
     1
 40
30.0
176
     1
 62
     7
420
 16777215
176
     1
 90
        1
176
     1
 90
        4
176
     1
 62
     7
176
     1
 62
   257
176
     1
 90
        1
176
     1
 90
        1
176
     1
 40
1.0
176
     1
 90
        0
176
     1
 62
   257
176
     1
 40
1.0
176
     1
 90
        1
176
     1
 90
        6
176
     1
 90
        2
176
     1
 62
     7
176
     1
 90
        5
176
     1
 90
        0
176
     1
 90
        0
176
     1
290
     0
176
     1
 90
        1
176
     1
 40
0.0
176
     1
 90
        0
176
     1
290
     1
176
     1
290
     1
176
     1
290
     0
176
     1
290
     0
176
     1
290
     0
176
     1
290
     0
176
     1
290
     0
176
     1
290
     0
176
     1
290
     0
176
     1
 90
       50
176
     1
 40
0.0
176
     1
 40
1.0
176
     1
 90
        0
176
     1
 62
    18
420
        0
176
     1
 90
       50
176
     1
 90
        3
176
     1
 62
     5
420
      255
176
     1
290
     0
176
     1
 90
       50
176
     1
 90
       50
176
     1
 90
       50
176
     1
290
     0
176
     1
 90
       50
176
     1
 62
   256
176
     0
 40
1.0
176
     0
 90
        2
176
     1
  1
strokes_ogs.tif
176
     1
290
     0
176
     1
 40
1.0
176
     1
 40
1.0
176
     1
  0
VISUALSTYLE
  5
32
102
{ACAD_REACTORS
330
2A
102
}
330
2A
100
AcDbVisualStyle
  2
Basic
 70
     7
177
     3
291
     1
 70
    58
 90
        1
176
     1
 90
        0
176
     1
 90
        1
176
     1
 90
        0
176
     1
 40
0.6
176
     1
 40
30.0
176
     1
 62
     7
420
 16777215
176
     1
 90
        0
176
     1
 90
        4
176
     1
 62
     7
176
     1
 62
   257
176
     1
 90
        1
176
     1
 90
        1
176
     1
 40
1.0
176
     1
 90
        8
176
     1
 62
     7
176
     1
 40
1.0
176
     1
 90
        1
176
     1
 90
        6
176
     1
 90
        2
176
     1
 62
     7
176
     1
 90
        5
176
     1
 90
        0
176
     1
 90
        0
176
     1
290
     0
176
     1
 90
        1
176
     1
 40
0.0
176
     1
 90
        0
176
     1
290
     0
176
     1
290
     1
176
     1
290
     1
176
     1
290
     0
176
     1
290
     0
176
     1
290
     0
176
     1
290
     0
176
     1
290
     0
176
     1
290
     0
176
     1
 90
       50
176
     1
 40
0.0
176
     1
 40
1.0
176
     1
 90
        0
176
     1
 62
    18
420
        0
176
     1
 90
       50
176
     1
 90
        3
176
     1
 62
     5
420
      255
176
     1
290
     0
176
     1
 90
       50
176
     1
 90
       50
176
     1
 90
       50
176
     1
290
     0
176
     1
 90
       50
176
     1
 62
   256
176
     0
 40
1.0
176
     0
 90
        2
176
     1
  1
strokes_ogs.tif
176
     1
290
     0
176
     1
 40
1.0
176
     1
 40
1.0
176
     1
  0
VISUALSTYLE
  5
36
102
{ACAD_REACTORS
330
2A
102
}
330
2A
100
AcDbVisualStyle
  2
Brighten
 70
    12
177
     3
291
     1
 70
    58
 90
        2
176
     1
 90
        2
176
     1
 90
        0
176
     1
 90
        0
176
     1
 40
0.6
176
     1
 40
30.0
176
     1
 62
     7
420
 16777215
176
     1
 90
        1
176
     1
 90
        4
176
     1
 62
     7
176
     1
 62
   257
176
     1
 90
        1
176
     1
 90
        1
176
     1
 40
1.0
176
     1
 90
        8
176
     1
 62
     7
176
     1
 40
1.0
176
     1
 90
        1
176
     1
 90
        6
176
     1
 90
        2
176
     1
 62
     7
176
     1
 90
        5
176
     1
 90
        0
176
     1
 90
        0
176
     1
290
     0
176
     1
 90
        1
176
     1
 40
50.0
176
     1
 90
        0
176
     1
290
     0
176
     1
290
     1
176
     1
290
     1
176
     1
290
     0
176
     1
290
     0
176
     1
290
     0
176
     1
290
     0
176
     1
290
     0
176
     1
290
     0
176
     1
 90
       50
176
     1
 40
0.0
176
     1
 40
1.0
176
     1
 90
        0
176
     1
 62
    18
420
        0
176
     1
 90
       50
176
     1
 90
        3
176
     1
 62
     5
420
      255
176
     1
290
     0
176
     1
 90
       50
176
     1
 90
       50
176
     1
 90
       50
176
     1
290
     0
176
     1
 90
       50
176
     1
 62
   256
176
     0
 40
1.0
176
     0
 90
        2
176
     1
  1
strokes_ogs.tif
176
     1
290
     0
176
     1
 40
1.0
176
     1
 40
1.0
176
     1
  0
VISUALSTYLE
  5
3A
102
{ACAD_REACTORS
330
2A
102
}
330
2A
100
AcDbVisualStyle
  2
ColorChange
 70
    16
177
     3
291
     1
 70
    58
 90
        2
176
     1
 90
        2
176
     1
 90
        3
176
     1
 90
        0
176
     1
 40
0.6
176
     1
 40
30.0
176
     1
 62
     8
420
  8421504
176
     1
 90
        1
176
     1
 90
        4
176
     1
 62
     7
176
     1
 62
   257
176
     1
 90
        1
176
     1
 90
        1
176
     1
 40
1.0
176
     1
 90
        8
176
     1
 62
     8
420
  8421504
176
     1
 40
1.0
176
     1
 90
        1
176
     1
 90
        6
176
     1
 90
        2
176
     1
 62
     7
176
     1
 90
        5
176
     1
 90
        0
176
     1
 90
        0
176
     1
290
     0
176
     1
 90
        1
176
     1
 40
0.0
176
     1
 90
        0
176
     1
290
     0
176
     1
290
     1
176
     1
290
     1
176
     1
290
     0
176
     1
290
     0
176
     1
290
     0
176
     1
290
     0
176
     1
290
     0
176
     1
290
     0
176
     1
 90
       50
176
     1
 40
0.0
176
     1
 40
1.0
176
     1
 90
        0
176
     1
 62
    18
420
        0
176
     1
 90
       50
176
     1
 90
        3
176
     1
 62
     5
420
      255
176
     1
290
     0
176
     1
 90
       50
176
     1
 90
       50
176
     1
 90
       50
176
     1
290
     0
176
     1
 90
       50
176
     1
 62
   256
176
     0
 40
1.0
176
     0
 90
        2
176
     1
  1
strokes_ogs.tif
176
     1
290
     0
176
     1
 40
1.0
176
     1
 40
1.0
176
     1
  0
VISUALSTYLE
  5
34
102
{ACAD_REACTORS
330
2A
102
}
330
2A
100
AcDbVisualStyle
  2
Conceptual
 70
     9
177
     3
291
     0
 70
    58
 90
        3
176
     1
 90
        2
176
     1
 90
        0
176
     1
 90
        0
176
     1
 40
0.6
176
     1
 40
30.0
176
     1
 62
     7
420
 16777215
176
     1
 90
        2
176
     1
 90
        2
176
     1
 62
     7
176
     1
 62
   257
176
     1
 90
        1
176
     1
 90
        1
176
     1
 40
179.0
176
     1
 90
        8
176
     1
 62
     7
176
     1
 40
1.0
176
     1
 90
        1
176
     1
 90
        6
176
     1
 90
        2
176
     1
 62
     7
176
     1
 90
        3
176
     1
 90
        0
176
     1
 90
        0
176
     1
290
     0
176
     1
 90
        1
176
     1
 40
0.0
176
     1
 90
        0
176
     1
290
     0
176
     1
290
     1
176
     1
290
     1
176
     1
290
     0
176
     1
290
     0
176
     1
290
     0
176
     1
290
     0
176
     1
290
     0
176
     1
290
     0
176
     1
 90
       50
176
     1
 40
0.0
176
     1
 40
1.0
176
     1
 90
        0
176
     1
 62
    18
420
        0
176
     1
 90
       50
176
     1
 90
        3
176
     1
 62
     5
420
      255
176
     1
290
     0
176
     1
 90
       50
176
     1
 90
       50
176
     1
 90
       50
176
     1
290
     0
176
     1
 90
       50
176
     1
 62
   256
176
     0
 40
1.0
176
     0
 90
        2
176
     1
  1
strokes_ogs.tif
176
     1
290
     0
176
     1
 40
1.0
176
     1
 40
1.0
176
     1
  0
VISUALSTYLE
  5
35
102
{ACAD_REACTORS
330
2A
102
}
330
2A
100
AcDbVisualStyle
  2
Dim
 70
    11
177
     3
291
     1
 70
    58
 90
        2
176
     1
 90
        2
176
     1
 90
        0
176
     1
 90
        0
176
     1
 40
0.6
176
     1
 40
30.0
176
     1
 62
     7
420
 16777215
176
     1
 90
        1
176
     1
 90
        4
176
     1
 62
     7
176
     1
 62
   257
176
     1
 90
        1
176
     1
 90
        1
176
     1
 40
1.0
176
     1
 90
        8
176
     1
 62
     7
176
     1
 40
1.0
176
     1
 90
        1
176
     1
 90
        6
176
     1
 90
        2
176
     1
 62
     7
176
     1
 90
        5
176
     1
 90
        0
176
     1
 90
        0
176
     1
290
     0
176
     1
 90
        1
176
     1
 40
-50.0
176
     1
 90
        0
176
     1
290
     0
176
     1
290
     1
176
     1
290
     1
176
     1
290
     0
176
     1
290
     0
176
     1
290
     0
176
     1
290
     0
176
     1
290
     0
176
     1
290
     0
176
     1
 90
       50
176
     1
 40
0.0
176
     1
 40
1.0
176
     1
 90
        0
176
     1
 62
    18
420
        0
176
     1
 90
       50
176
     1
 90
        3
176
     1
 62
     5
420
      255
176
     1
290
     0
176
     1
 90
       50
176
     1
 90
       50
176
     1
 90
       50
176
     1
290
     0
176
     1
 90
       50
176
     1
 62
   256
176
     0
 40
1.0
176
     0
 90
        2
176
     1
  1
strokes_ogs.tif
176
     1
290
     0
176
     1
 40
1.0
176
     1
 40
1.0
176
     1
  0
VISUALSTYLE
  5
3D
102
{ACAD_REACTORS
330
2A
102
}
330
2A
100
AcDbVisualStyle
  2
EdgeColorOff
 70
    22
177
     3
291
     1
 70
    58
 90
        2
176
     0
 90
        2
176
     0
 90
        0
176
     0
 90
        0
176
     0
 40
0.6
176
     0
 40
30.0
176
     0
 62
     7
420
 16777215
176
     0
 90
        1
176
     0
 90
        4
176
     0
 62
     7
176
     0
 62
   257
176
     0
 90
        1
176
     0
 90
        1
176
     0
 40
1.0
176
     0
 90
        8
176
     2
 62
     7
176
     0
 40
1.0
176
     0
 90
        1
176
     0
 90
        6
176
     0
 90
        2
176
     0
 62
     7
176
     0
 90
        5
176
     0
 90
        0
176
     0
 90
        0
176
     0
290
     0
176
     0
 90
        1
176
     0
 40
0.0
176
     0
 90
        0
176
     0
290
     0
176
     0
290
     1
176
     0
290
     1
176
     0
290
     0
176
     0
290
     0
176
     0
290
     0
176
     0
290
     0
176
     0
290
     0
176
     0
290
     0
176
     0
 90
       50
176
     0
 40
0.0
176
     0
 40
1.0
176
     0
 90
        0
176
     0
 62
    18
420
        0
176
     0
 90
       50
176
     0
 90
        3
176
     0
 62
     5
420
      255
176
     0
290
     0
176
     0
 90
       50
176
     0
 90
       50
176
     0
 90
       50
176
     0
290
     0
176
     0
 90
       50
176
     0
 62
   256
176
     0
 40
1.0
176
     0
 90
        2
176
     0
  1
strokes_ogs.tif
176
     0
290
     0
176
     0
 40
1.0
176
     0
 40
1.0
176
     0
  0
VISUALSTYLE
  5
39
102
{ACAD_REACTORS
330
2A
102
}
330
2A
100
AcDbVisualStyle
  2
Facepattern
 70
    15
177
     3
291
     1
 70
    58
 90
        2
176
     1
 90
        2
176
     1
 90
        0
176
     1
 90
        0
176
     1
 40
0.6
176
     1
 40
30.0
176
     1
 62
     7
420
 16777215
176
     1
 90
        1
176
     1
 90
        4
176
     1
 62
     7
176
     1
 62
   257
176
     1
 90
        1
176
     1
 90
        1
176
     1
 40
1.0
176
     1
 90
        8
176
     1
 62
     7
176
     1
 40
1.0
176
     1
 90
        1
176
     1
 90
        6
176
     1
 90
        2
176
     1
 62
     7
176
     1
 90
        5
176
     1
 90
        0
176
     1
 90
        0
176
     1
290
     0
176
     1
 90
        1
176
     1
 40
0.0
176
     1
 90
        0
176
     1
290
     0
176
     1
290
     1
176
     1
290
     1
176
     1
290
     0
176
     1
290
     0
176
     1
290
     0
176
     1
290
     0
176
     1
290
     0
176
     1
290
     0
176
     1
 90
       50
176
     1
 40
0.0
176
     1
 40
1.0
176
     1
 90
        0
176
     1
 62
    18
420
        0
176
     1
 90
       50
176
     1
 90
        3
176
     1
 62
     5
420
      255
176
     1
290
     0
176
     1
 90
       50
176
     1
 90
       50
176
     1
 90
       50
176
     1
290
     0
176
     1
 90
       50
176
     1
 62
   256
176
     0
 40
1.0
176
     0
 90
        2
176
     1
  1
strokes_ogs.tif
176
     1
290
     0
176
     1
 40
1.0
176
     1
 40
1.0
176
     1
  0
VISUALSTYLE
  5
2B
102
{ACAD_REACTORS
330
2A
102
}
330
2A
100
AcDbVisualStyle
  2
Flat
 70
     0
177
     3
291
     1
 70
    58
 90
        2
176
     1
 90
        1
176
     1
 90
        1
176
     1
 90
        2
176
     1
 40
0.6
176
     1
 40
30.0
176
     1
 62
     7
420
 16777215
176
     1
 90
        0
176
     1
 90
        0
176
     1
 62
     7
176
     1
 62
   257
176
     1
 90
        1
176
     1
 90
        1
176
     1
 40
1.0
176
     1
 90
        8
176
     1
 62
     7
176
     1
 40
1.0
176
     1
 90
        1
176
     1
 90
        6
176
     1
 90
        2
176
     1
 62
     7
176
     1
 90
        5
176
     1
 90
        0
176
     1
 90
        0
176
     1
290
     0
176
     1
 90
       13
176
     1
 40
0.0
176
     1
 90
        0
176
     1
290
     0
176
     1
290
     1
176
     1
290
     1
176
     1
290
     0
176
     1
290
     0
176
     1
290
     0
176
     1
290
     0
176
     1
290
     0
176
     1
290
     0
176
     1
 90
       50
176
     1
 40
0.0
176
     1
 40
1.0
176
     1
 90
        0
176
     1
 62
    18
420
        0
176
     1
 90
       50
176
     1
 90
        3
176
     1
 62
     5
420
      255
176
     1
290
     0
176
     1
 90
       50
176
     1
 90
       50
176
     1
 90
       50
176
     1
290
     0
176
     1
 90
       50
176
     1
 62
   256
176
     0
 40
1.0
176
     0
 90
        2
176
     1
  1
strokes_ogs.tif
176
     1
290
     0
176
     1
 40
1.0
176
     1
 40
1.0
176
     1
  0
VISUALSTYLE
  5
2C
102
{ACAD_REACTORS
330
2A
102
}
330
2A
100
AcDbVisualStyle
  2
FlatWithEdges
 70
     1
177
     3
291
     1
 70
    58
 90
        2
176
     1
 90
        1
176
     1
 90
        1
176
     1
 90
        2
176
     1
 40
0.6
176
     1
 40
30.0
176
     1
 62
     7
420
 16777215
176
     1
 90
        1
176
     1
 90
        0
176
     1
 62
     7
176
     1
 62
   257
176
     1
 90
        1
176
     1
 90
        1
176
     1
 40
1.0
176
     1
 90
        0
176
     1
 62
   257
176
     1
 40
1.0
176
     1
 90
        1
176
     1
 90
        6
176
     1
 90
        2
176
     1
 62
     7
176
     1
 90
        5
176
     1
 90
        0
176
     1
 90
        0
176
     1
290
     0
176
     1
 90
       13
176
     1
 40
0.0
176
     1
 90
        0
176
     1
290
     0
176
     1
290
     1
176
     1
290
     1
176
     1
290
     0
176
     1
290
     0
176
     1
290
     0
176
     1
290
     0
176
     1
290
     0
176
     1
290
     0
176
     1
 90
       50
176
     1
 40
0.0
176
     1
 40
1.0
176
     1
 90
        0
176
     1
 62
    18
420
        0
176
     1
 90
       50
176
     1
 90
        3
176
     1
 62
     5
420
      255
176
     1
290
     0
176
     1
 90
       50
176
     1
 90
       50
176
     1
 90
       50
176
     1
290
     0
176
     1
 90
       50
176
     1
 62
   256
176
     0
 40
1.0
176
     0
 90
        2
176
     1
  1
strokes_ogs.tif
176
     1
290
     0
176
     1
 40
1.0
176
     1
 40
1.0
176
     1
  0
VISUALSTYLE
  5
2D
102
{ACAD_REACTORS
330
2A
102
}
330
2A
100
AcDbVisualStyle
  2
Gouraud
 70
     2
177
     3
291
     1
 70
    58
 90
        2
176
     1
 90
        2
176
     1
 90
        1
176
     1
 90
        2
176
     1
 40
0.6
176
     1
 40
30.0
176
     1
 62
     7
420
 16777215
176
     1
 90
        0
176
     1
 90
        0
176
     1
 62
     7
176
     1
 62
   257
176
     1
 90
        1
176
     1
 90
        1
176
     1
 40
1.0
176
     1
 90
        0
176
     1
 62
     7
176
     1
 40
1.0
176
     1
 90
        1
176
     1
 90
        6
176
     1
 90
        2
176
     1
 62
     7
176
     1
 90
        5
176
     1
 90
        0
176
     1
 90
        0
176
     1
290
     0
176
     1
 90
       13
176
     1
 40
0.0
176
     1
 90
        0
176
     1
290
     0
176
     1
290
     1
176
     1
290
     1
176
     1
290
     0
176
     1
290
     0
176
     1
290
     0
176
     1
290
     0
176
     1
290
     0
176
     1
290
     0
176
     1
 90
       50
176
     1
 40
0.0
176
     1
 40
1.0
176
     1
 90
        0
176
     1
 62
    18
420
        0
176
     1
 90
       50
176
     1
 90
        3
176
     1
 62
     5
420
      255
176
     1
290
     0
176
     1
 90
       50
176
     1
 90
       50
176
     1
 90
       50
176
     1
290
     0
176
     1
 90
       50
176
     1
 62
   256
176
     0
 40
1.0
176
     0
 90
        2
176
     1
  1
strokes_ogs.tif
176
     1
290
     0
176
     1
 40
1.0
176
     1
 40
1.0
176
     1
  0
VISUALSTYLE
  5
2E
102
{ACAD_REACTORS
330
2A
102
}
330
2A
100
AcDbVisualStyle
  2
GouraudWithEdges
 70
     3
177
     3
291
     1
 70
    58
 90
        2
176
     1
 90
        2
176
     1
 90
        1
176
     1
 90
        2
176
     1
 40
0.6
176
     1
 40
30.0
176
     1
 62
     7
420
 16777215
176
     1
 90
        1
176
     1
 90
        0
176
     1
 62
     7
176
     1
 62
   257
176
     1
 90
        1
176
     1
 90
        1
176
     1
 40
1.0
176
     1
 90
        0
176
     1
 62
   257
176
     1
 40
1.0
176
     1
 90
        1
176
     1
 90
        6
176
     1
 90
        2
176
     1
 62
     7
176
     1
 90
        5
176
     1
 90
        0
176
     1
 90
        0
176
     1
290
     0
176
     1
 90
       13
176
     1
 40
0.0
176
     1
 90
        0
176
     1
290
     0
176
     1
290
     1
176
     1
290
     1
176
     1
290
     0
176
     1
290
     0
176
     1
290
     0
176
     1
290
     0
176
     1
290
     0
176
     1
290
     0
176
     1
 90
       50
176
     1
 40
0.0
176
     1
 40
1.0
176
     1
 90
        0
176
     1
 62
    18
420
        0
176
     1
 90
       50
176
     1
 90
        3
176
     1
 62
     5
420
      255
176
     1
290
     0
176
     1
 90
       50
176
     1
 90
       50
176
     1
 90
       50
176
     1
290
     0
176
     1
 90
       50
176
     1
 62
   256
176
     0
 40
1.0
176
     0
 90
        2
176
     1
  1
strokes_ogs.tif
176
     1
290
     0
176
     1
 40
1.0
176
     1
 40
1.0
176
     1
  0
VISUALSTYLE
  5
31
102
{ACAD_REACTORS
330
2A
102
}
330
2A
100
AcDbVisualStyle
  2
Hidden
 70
     6
177
     3
291
     0
 70
    58
 90
        1
176
     1
 90
        2
176
     1
 90
        2
176
     1
 90
        0
176
     1
 40
0.6
176
     1
 40
30.0
176
     1
 62
     7
420
 16777215
176
     1
 90
        2
176
     1
 90
        2
176
     1
 62
     7
176
     1
 62
   257
176
     1
 90
        2
176
     1
 90
        1
176
     1
 40
40.0
176
     1
 90
        0
176
     1
 62
   257
176
     1
 40
1.0
176
     1
 90
        1
176
     1
 90
        6
176
     1
 90
        2
176
     1
 62
     7
176
     1
 90
        3
176
     1
 90
        0
176
     1
 90
        0
176
     1
290
     0
176
     1
 90
        1
176
     1
 40
0.0
176
     1
 90
        0
176
     1
290
     0
176
     1
290
     1
176
     1
290
     1
176
     1
290
     0
176
     1
290
     0
176
     1
290
     0
176
     1
290
     0
176
     1
290
     0
176
     1
290
     0
176
     1
 90
       50
176
     1
 40
0.0
176
     1
 40
1.0
176
     1
 90
        0
176
     1
 62
    18
420
        0
176
     1
 90
       50
176
     1
 90
        3
176
     1
 62
     5
420
      255
176
     1
290
     0
176
     1
 90
       50
176
     1
 90
       50
176
     1
 90
       50
176
     1
290
     0
176
     1
 90
       50
176
     1
 62
   256
176
     0
 40
1.0
176
     0
 90
        2
176
     1
  1
strokes_ogs.tif
176
     1
290
     0
176
     1
 40
1.0
176
     1
 40
1.0
176
     1
  0
VISUALSTYLE
  5
3B
102
{ACAD_REACTORS
330
2A
102
}
330
2A
100
AcDbVisualStyle
  2
JitterOff
 70
    20
177
     3
291
     1
 70
    58
 90
        2
176
     0
 90
        2
176
     0
 90
        0
176
     0
 90
        0
176
     0
 40
0.6
176
     0
 40
30.0
176
     0
 62
     7
420
 16777215
176
     0
 90
        1
176
     0
 90
        4
176
     0
 62
     7
176
     0
 62
   257
176
     0
 90
        1
176
     0
 90
        1
176
     0
 40
1.0
176
     0
 90
       10
176
     2
 62
     7
176
     0
 40
1.0
176
     0
 90
        1
176
     0
 90
        6
176
     0
 90
        2
176
     0
 62
     7
176
     0
 90
        5
176
     0
 90
        0
176
     0
 90
        0
176
     0
290
     0
176
     0
 90
        1
176
     0
 40
0.0
176
     0
 90
        0
176
     0
290
     0
176
     0
290
     1
176
     0
290
     1
176
     0
290
     0
176
     0
290
     0
176
     0
290
     0
176
     0
290
     0
176
     0
290
     0
176
     0
290
     0
176
     0
 90
       50
176
     0
 40
0.0
176
     0
 40
1.0
176
     0
 90
        0
176
     0
 62
    18
420
        0
176
     0
 90
       50
176
     0
 90
        3
176
     0
 62
     5
420
      255
176
     0
290
     0
176
     0
 90
       50
176
     0
 90
       50
176
     0
 90
       50
176
     0
290
     0
176
     0
 90
       50
176
     0
 62
   256
176
     0
 40
1.0
176
     0
 90
        2
176
     0
  1
strokes_ogs.tif
176
     0
290
     0
176
     0
 40
1.0
176
     0
 40
1.0
176
     0
  0
VISUALSTYLE
  5
38
102
{ACAD_REACTORS
330
2A
102
}
330
2A
100
AcDbVisualStyle
  2
Linepattern
 70
    14
177
     3
291
     1
 70
    58
 90
        2
176
     1
 90
        2
176
     1
 90
        0
176
     1
 90
        0
176
     1
 40
0.6
176
     1
 40
30.0
176
     1
 62
     7
420
 16777215
176
     1
 90
        1
176
     1
 90
        4
176
     1
 62
     7
176
     1
 62
   257
176
     1
 90
        7
176
     1
 90
        7
176
     1
 40
1.0
176
     1
 90
        8
176
     1
 62
     7
176
     1
 40
1.0
176
     1
 90
        1
176
     1
 90
        6
176
     1
 90
        2
176
     1
 62
     7
176
     1
 90
        5
176
     1
 90
        0
176
     1
 90
        0
176
     1
290
     0
176
     1
 90
        1
176
     1
 40
0.0
176
     1
 90
        0
176
     1
290
     0
176
     1
290
     1
176
     1
290
     1
176
     1
290
     0
176
     1
290
     0
176
     1
290
     0
176
     1
290
     0
176
     1
290
     0
176
     1
290
     0
176
     1
 90
       50
176
     1
 40
0.0
176
     1
 40
1.0
176
     1
 90
        0
176
     1
 62
    18
420
        0
176
     1
 90
       50
176
     1
 90
        3
176
     1
 62
     5
420
      255
176
     1
290
     0
176
     1
 90
       50
176
     1
 90
       50
176
     1
 90
       50
176
     1
290
     0
176
     1
 90
       50
176
     1
 62
   256
176
     0
 40
1.0
176
     0
 90
        2
176
     1
  1
strokes_ogs.tif
176
     1
290
     0
176
     1
 40
1.0
176
     1
 40
1.0
176
     1
  0
VISUALSTYLE
  5
3C
102
{ACAD_REACTORS
330
2A
102
}
330
2A
100
AcDbVisualStyle
  2
OverhangOff
 70
    21
177
     3
291
     1
 70
    58
 90
        2
176
     0
 90
        2
176
     0
 90
        0
176
     0
 90
        0
176
     0
 40
0.6
176
     0
 40
30.0
176
     0
 62
     7
420
 16777215
176
     0
 90
        1
176
     0
 90
        4
176
     0
 62
     7
176
     0
 62
   257
176
     0
 90
        1
176
     0
 90
        1
176
     0
 40
1.0
176
     0
 90
        9
176
     2
 62
     7
176
     0
 40
1.0
176
     0
 90
        1
176
     0
 90
        6
176
     0
 90
        2
176
     0
 62
     7
176
     0
 90
        5
176
     0
 90
        0
176
     0
 90
        0
176
     0
290
     0
176
     0
 90
        1
176
     0
 40
0.0
176
     0
 90
        0
176
     0
290
     0
176
     0
290
     1
176
     0
290
     1
176
     0
290
     0
176
     0
290
     0
176
     0
290
     0
176
     0
290
     0
176
     0
290
     0
176
     0
290
     0
176
     0
 90
       50
176
     0
 40
0.0
176
     0
 40
1.0
176
     0
 90
        0
176
     0
 62
    18
420
        0
176
     0
 90
       50
176
     0
 90
        3
176
     0
 62
     5
420
      255
176
     0
290
     0
176
     0
 90
       50
176
     0
 90
       50
176
     0
 90
       50
176
     0
290
     0
176
     0
 90
       50
176
     0
 62
   256
176
     0
 40
1.0
176
     0
 90
        2
176
     0
  1
strokes_ogs.tif
176
     0
290
     0
176
     0
 40
1.0
176
     0
 40
1.0
176
     0
  0
VISUALSTYLE
  5
33
102
{ACAD_REACTORS
330
2A
102
}
330
2A
100
AcDbVisualStyle
  2
Realistic
 70
     8
177
     3
291
     0
 70
    58
 90
        2
176
     1
 90
        3
176
     1
 90
        0
176
     1
 90
        2
176
     1
 40
0.6
176
     1
 40
30.0
176
     1
 62
     7
420
 16777215
176
     1
 90
        0
176
     1
 90
        0
176
     1
 62
     7
176
     1
 62
   257
176
     1
 90
        1
176
     1
 90
        1
176
     1
 40
1.0
176
     1
 90
        8
176
     1
 62
   257
176
     1
 40
1.0
176
     1
 90
        1
176
     1
 90
        6
176
     1
 90
        2
176
     1
 62
     7
176
     1
 90
        3
176
     1
 90
        0
176
     1
 90
        0
176
     1
290
     0
176
     1
 90
       13
176
     1
 40
0.0
176
     1
 90
        0
176
     1
290
     0
176
     1
290
     1
176
     1
290
     1
176
     1
290
     0
176
     1
290
     0
176
     1
290
     0
176
     1
290
     0
176
     1
290
     0
176
     1
290
     0
176
     1
 90
       50
176
     1
 40
0.0
176
     1
 40
1.0
176
     1
 90
        0
176
     1
 62
    18
420
        0
176
     1
 90
       50
176
     1
 90
        3
176
     1
 62
     5
420
      255
176
     1
290
     0
176
     1
 90
       50
176
     1
 90
       50
176
     1
 90
       50
176
     1
290
     0
176
     1
 90
       50
176
     1
 62
   256
176
     0
 40
1.0
176
     0
 90
        2
176
     1
  1
strokes_ogs.tif
176
     1
290
     0
176
     1
 40
1.0
176
     1
 40
1.0
176
     1
  0
VISUALSTYLE
  5
42
102
{ACAD_REACTORS
330
2A
102
}
330
2A
100
AcDbVisualStyle
  2
Shaded
 70
    27
177
     3
291
     0
 70
    58
 90
        2
176
     1
 90
        2
176
     1
 90
        1
176
     1
 90
        2
176
     1
 40
0.6
176
     1
 40
30.0
176
     1
 62
     7
420
 16777215
176
     1
 90
        0
176
     1
 90
        4
176
     1
 62
     7
176
     1
 62
   257
176
     1
 90
        1
176
     1
 90
        1
176
     1
 40
1.0
176
     1
 90
        8
176
     1
 62
   257
176
     1
 40
1.0
176
     1
 90
        1
176
     1
 90
        6
176
     1
 90
        2
176
     1
 62
     8
420
  7895160
176
     1
 90
        3
176
     1
 90
        0
176
     1
 90
        0
176
     1
290
     0
176
     1
 90
        5
176
     1
 40
0.0
176
     1
 90
        0
176
     1
290
     0
176
     1
290
     1
176
     1
290
     1
176
     1
290
     0
176
     1
290
     0
176
     1
290
     0
176
     1
290
     0
176
     1
290
     0
176
     1
290
     0
176
     1
 90
       50
176
     1
 40
0.0
176
     1
 40
1.0
176
     1
 90
        0
176
     1
 62
    18
420
        0
176
     1
 90
       50
176
     1
 90
        3
176
     1
 62
     5
420
      255
176
     1
290
     0
176
     1
 90
       50
176
     1
 90
       50
176
     1
 90
       50
176
     1
290
     0
176
     1
 90
       50
176
     1
 62
   256
176
     0
 40
1.0
176
     0
 90
        2
176
     1
  1
strokes_ogs.tif
176
     1
290
     0
176
     1
 40
1.0
176
     1
 40
1.0
176
     1
  0
VISUALSTYLE
  5
41
102
{ACAD_REACTORS
330
2A
102
}
330
2A
100
AcDbVisualStyle
  2
Shaded with edges
 70
    26
177
     3
291
     0
 70
    58
 90
        2
176
     1
 90
        2
176
     1
 90
        1
176
     1
 90
        2
176
     1
 40
0.6
176
     1
 40
30.0
176
     1
 62
     7
420
 16777215
176
     1
 90
        1
176
     1
 90
       10
176
     1
 62
     7
176
     1
 62
   257
176
     1
 90
        2
176
     1
 90
        1
176
     1
 40
1.0
176
     1
 90
        8
176
     1
 62
   257
176
     1
 40
1.0
176
     1
 90
        1
176
     1
 90
        6
176
     1
 90
        2
176
     1
 62
     7
176
     1
 90
        3
176
     1
 90
        0
176
     1
 90
        0
176
     1
290
     0
176
     1
 90
        5
176
     1
 40
0.0
176
     1
 90
        0
176
     1
290
     0
176
     1
290
     1
176
     1
290
     1
176
     1
290
     0
176
     1
290
     0
176
     1
290
     0
176
     1
290
     0
176
     1
290
     0
176
     1
290
     0
176
     1
 90
       50
176
     1
 40
0.0
176
     1
 40
1.0
176
     1
 90
        0
176
     1
 62
    18
420
        0
176
     1
 90
       50
176
     1
 90
        3
176
     1
 62
     5
420
      255
176
     1
290
     0
176
     1
 90
       50
176
     1
 90
       50
176
     1
 90
       50
176
     1
290
     0
176
     1
 90
       50
176
     1
 62
   256
176
     0
 40
1.0
176
     0
 90
        2
176
     1
  1
strokes_ogs.tif
176
     1
290
     0
176
     1
 40
1.0
176
     1
 40
1.0
176
     1
  0
VISUALSTYLE
  5
3E
102
{ACAD_REACTORS
330
2A
102
}
330
2A
100
AcDbVisualStyle
  2
Shades of Gray
 70
    23
177
     3
291
     0
 70
    58
 90
        2
176
     1
 90
        2
176
     1
 90
        3
176
     1
 90
        0
176
     1
 40
0.6
176
     1
 40
30.0
176
     1
 62
     7
420
 16777215
176
     1
 90
        2
176
     1
 90
        2
176
     1
 62
     7
176
     1
 62
     7
176
     1
 90
        1
176
     1
 90
        1
176
     1
 40
40.0
176
     1
 90
        8
176
     1
 62
     7
176
     1
 40
1.0
176
     1
 90
        1
176
     1
 90
        6
176
     1
 90
        2
176
     1
 62
     7
176
     1
 90
        3
176
     1
 90
        0
176
     1
 90
        0
176
     1
290
     0
176
     1
 90
        1
176
     1
 40
0.0
176
     1
 90
        0
176
     1
290
     0
176
     1
290
     1
176
     1
290
     1
176
     1
290
     0
176
     1
290
     0
176
     1
290
     0
176
     1
290
     0
176
     1
290
     0
176
     1
290
     0
176
     1
 90
       50
176
     1
 40
0.0
176
     1
 40
1.0
176
     1
 90
        0
176
     1
 62
    18
420
        0
176
     1
 90
       50
176
     1
 90
        3
176
     1
 62
     5
420
      255
176
     1
290
     0
176
     1
 90
       50
176
     1
 90
       50
176
     1
 90
       50
176
     1
290
     0
176
     1
 90
       50
176
     1
 62
   256
176
     0
 40
1.0
176
     0
 90
        2
176
     1
  1
strokes_ogs.tif
176
     1
290
     0
176
     1
 40
1.0
176
     1
 40
1.0
176
     1
  0
VISUALSTYLE
  5
3F
102
{ACAD_REACTORS
330
2A
102
}
330
2A
100
AcDbVisualStyle
  2
Sketchy
 70
    24
177
     3
291
     0
 70
    58
 90
        1
176
     1
 90
        2
176
     1
 90
        2
176
     1
 90
        0
176
     1
 40
0.6
176
     1
 40
30.0
176
     1
 62
     7
420
 16777215
176
     1
 90
        2
176
     1
 90
        2
176
     1
 62
     7
176
     1
 62
     7
176
     1
 90
        1
176
     1
 90
        1
176
     1
 40
40.0
176
     1
 90
       11
176
     1
 62
     7
176
     1
 40
1.0
176
     1
 90
        1
176
     1
 90
        6
176
     1
 90
        2
176
     1
 62
     7
176
     1
 90
        6
176
     1
 90
        0
176
     1
 90
        0
176
     1
290
     0
176
     1
 90
        1
176
     1
 40
0.0
176
     1
 90
        0
176
     1
290
     0
176
     1
290
     1
176
     1
290
     1
176
     1
290
     0
176
     1
290
     0
176
     1
290
     0
176
     1
290
     0
176
     1
290
     0
176
     1
290
     0
176
     1
 90
       50
176
     1
 40
0.0
176
     1
 40
1.0
176
     1
 90
        0
176
     1
 62
    18
420
        0
176
     1
 90
       50
176
     1
 90
        3
176
     1
 62
     5
420
      255
176
     1
290
     0
176
     1
 90
       50
176
     1
 90
       50
176
     1
 90
       50
176
     1
290
     0
176
     1
 90
       50
176
     1
 62
   256
176
     0
 40
1.0
176
     0
 90
        2
176
     1
  1
strokes_ogs.tif
176
     1
290
     0
176
     1
 40
1.0
176
     1
 40
1.0
176
     1
  0
VISUALSTYLE
  5
37
102
{ACAD_REACTORS
330
2A
102
}
330
2A
100
AcDbVisualStyle
  2
Thicken
 70
    13
177
     3
291
     1
 70
    58
 90
        2
176
     1
 90
        2
176
     1
 90
        0
176
     1
 90
        0
176
     1
 40
0.6
176
     1
 40
30.0
176
     1
 62
     7
420
 16777215
176
     1
 90
        1
176
     1
 90
        4
176
     1
 62
     7
176
     1
 62
   257
176
     1
 90
        1
176
     1
 90
        1
176
     1
 40
1.0
176
     1
 90
       12
176
     1
 62
     7
176
     1
 40
1.0
176
     1
 90
        1
176
     1
 90
        6
176
     1
 90
        2
176
     1
 62
     7
176
     1
 90
        5
176
     1
 90
        0
176
     1
 90
        0
176
     1
290
     0
176
     1
 90
        1
176
     1
 40
0.0
176
     1
 90
        0
176
     1
290
     0
176
     1
290
     1
176
     1
290
     1
176
     1
290
     0
176
     1
290
     0
176
     1
290
     0
176
     1
290
     0
176
     1
290
     0
176
     1
290
     0
176
     1
 90
       50
176
     1
 40
0.0
176
     1
 40
1.0
176
     1
 90
        0
176
     1
 62
    18
420
        0
176
     1
 90
       50
176
     1
 90
        3
176
     1
 62
     5
420
      255
176
     1
290
     0
176
     1
 90
       50
176
     1
 90
       50
176
     1
 90
       50
176
     1
290
     0
176
     1
 90
       50
176
     1
 62
   256
176
     0
 40
1.0
176
     0
 90
        2
176
     1
  1
strokes_ogs.tif
176
     1
290
     0
176
     1
 40
1.0
176
     1
 40
1.0
176
     1
  0
VISUALSTYLE
  5
30
102
{ACAD_REACTORS
330
2A
102
}
330
2A
100
AcDbVisualStyle
  2
Wireframe
 70
     5
177
     3
291
     0
 70
    58
 90
        0
176
     1
 90
        2
176
     1
 90
        0
176
     1
 90
        0
176
     1
 40
0.6
176
     1
 40
30.0
176
     1
 62
     7
420
 16777215
176
     1
 90
        1
176
     1
 90
        4
176
     1
 62
     7
176
     1
 62
   257
176
     1
 90
        1
176
     1
 90
        1
176
     1
 40
1.0
176
     1
 90
        0
176
     1
 62
   257
176
     1
 40
1.0
176
     1
 90
        1
176
     1
 90
        6
176
     1
 90
        2
176
     1
 62
     7
176
     1
 90
        3
176
     1
 90
        0
176
     1
 90
        0
176
     1
290
     0
176
     1
 90
        1
176
     1
 40
0.0
176
     1
 90
        0
176
     1
290
     0
176
     1
290
     1
176
     1
290
     1
176
     1
290
     0
176
     1
290
     0
176
     1
290
     0
176
     1
290
     0
176
     1
290
     0
176
     1
290
     0
176
     1
 90
       50
176
     1
 40
0.0
176
     1
 40
1.0
176
     1
 90
        0
176
     1
 62
    18
420
        0
176
     1
 90
       50
176
     1
 90
        3
176
     1
 62
     5
420
      255
176
     1
290
     0
176
     1
 90
       50
176
     1
 90
       50
176
     1
 90
       50
176
     1
290
     0
176
     1
 90
       50
176
     1
 62
   256
176
     0
 40
1.0
176
     0
 90
        2
176
     1
  1
strokes_ogs.tif
176
     1
290
     0
176
     1
 40
1.0
176
     1
 40
1.0
176
     1
  0
VISUALSTYLE
  5
40
102
{ACAD_REACTORS
330
2A
102
}
330
2A
100
AcDbVisualStyle
  2
X-Ray
 70
    25
177
     3
291
     0
 70
    58
 90
        2
176
     1
 90
        2
176
     1
 90
        1
176
     1
 90
        1
176
     1
 40
0.5
176
     1
 40
30.0
176
     1
 62
     7
420
 16777215
176
     1
 90
        1
176
     1
 90
        0
176
     1
 62
     7
176
     1
 62
   257
176
     1
 90
        1
176
     1
 90
        1
176
     1
 40
1.0
176
     1
 90
        8
176
     1
 62
     7
176
     1
 40
1.0
176
     1
 90
        1
176
     1
 90
        6
176
     1
 90
        2
176
     1
 62
     7
176
     1
 90
        3
176
     1
 90
        0
176
     1
 90
        0
176
     1
290
     0
176
     1
 90
       13
176
     1
 40
0.0
176
     1
 90
        0
176
     1
290
     0
176
     1
290
     1
176
     1
290
     1
176
     1
290
     0
176
     1
290
     0
176
     1
290
     0
176
     1
290
     0
176
     1
290
     0
176
     1
290
     0
176
     1
 90
       50
176
     1
 40
0.0
176
     1
 40
1.0
176
     1
 90
        0
176
     1
 62
    18
420
        0
176
     1
 90
       50
176
     1
 90
        3
176
     1
 62
     5
420
      255
176
     1
290
     0
176
     1
 90
       50
176
     1
 90
       50
176
     1
 90
       50
176
     1
290
     0
176
     1
 90
       50
176
     1
 62
   256
176
     0
 40
1.0
176
     0
 90
        2
176
     1
  1
strokes_ogs.tif
176
     1
290
     0
176
     1
 40
1.0
176
     1
 40
1.0
176
     1
  0
DICTIONARYVAR
  5
26B
102
{ACAD_REACTORS
330
26A
102
}
330
26A
100
DictionaryVariables
280
     0
  1
1:1
  0
DICTIONARYVAR
  5
270
102
{ACAD_REACTORS
330
26A
102
}
330
26A
100
DictionaryVariables
280
     0
  1
Standard
  0
DICTIONARYVAR
  5
26F
102
{ACAD_REACTORS
330
26A
102
}
330
26A
100
DictionaryVariables
280
     0
  1
Standard
  0
DICTIONARY
  5
26C
330
6A
100
AcDbDictionary
280
     1
281
     1
  3
ACAD_ROUNDTRIP_2008_TABLESTYLE_CELLSTYLEMAP
360
26D
  0
CELLSTYLEMAP
  5
26D
102
{ACAD_REACTORS
330
26C
102
}
330
26C
100
AcDbCellStyleMap
 90
        3
300
CELLSTYLE
  1
TABLEFORMAT_BEGIN
 90
        5
170
     1
 91
        0
 92
    32768
 62
   257
 93
        1
300
CONTENTFORMAT
  1
CONTENTFORMAT_BEGIN
 90
        0
 91
        0
 92
        4
 93
        0
300

 40
0.0
140
1.0
 94
        5
 62
     0
340
11
144
0.25
309
CONTENTFORMAT_END
171
     1
301
MARGIN
  1
CELLMARGIN_BEGIN
 40
0.06
 40
0.06
 40
0.06
 40
0.06
 40
0.06
 40
0.06
309
CELLMARGIN_END
 94
        6
 95
        1
302
GRIDFORMAT
  1
GRIDFORMAT_BEGIN
 90
        0
 91
        1
 62
     0
 92
       -2
340
14
 93
        0
 40
0.045
309
GRIDFORMAT_END
 95
        2
302
GRIDFORMAT
  1
GRIDFORMAT_BEGIN
 90
        0
 91
        1
 62
     0
 92
       -2
340
14
 93
        0
 40
0.045
309
GRIDFORMAT_END
 95
        4
302
GRIDFORMAT
  1
GRIDFORMAT_BEGIN
 90
        0
 91
        1
 62
     0
 92
       -2
340
14
 93
        0
 40
0.045
309
GRIDFORMAT_END
 95
        8
302
GRIDFORMAT
  1
GRIDFORMAT_BEGIN
 90
        0
 91
        1
 62
     0
 92
       -2
340
14
 93
        0
 40
0.045
309
GRIDFORMAT_END
 95
       16
302
GRIDFORMAT
  1
GRIDFORMAT_BEGIN
 90
        0
 91
        1
 62
     0
 92
       -2
340
14
 93
        0
 40
0.045
309
GRIDFORMAT_END
 95
       32
302
GRIDFORMAT
  1
GRIDFORMAT_BEGIN
 90
        0
 91
        1
 62
     0
 92
       -2
340
14
 93
        0
 40
0.045
309
GRIDFORMAT_END
309
TABLEFORMAT_END
  1
CELLSTYLE_BEGIN
 90
        1
 91
        1
300
_TITLE
309
CELLSTYLE_END
300
CELLSTYLE
  1
TABLEFORMAT_BEGIN
 90
        5
170
     1
 91
        0
 92
        0
 62
   257
 93
        1
300
CONTENTFORMAT
  1
CONTENTFORMAT_BEGIN
 90
        0
 91
        0
 92
        4
 93
        0
300

 40
0.0
140
1.0
 94
        5
 62
     0
340
11
144
0.18
309
CONTENTFORMAT_END
171
     1
301
MARGIN
  1
CELLMARGIN_BEGIN
 40
0.06
 40
0.06
 40
0.06
 40
0.06
 40
0.06
 40
0.06
309
CELLMARGIN_END
 94
        6
 95
        1
302
GRIDFORMAT
  1
GRIDFORMAT_BEGIN
 90
        0
 91
        1
 62
     0
 92
       -2
340
14
 93
        0
 40
0.045
309
GRIDFORMAT_END
 95
        2
302
GRIDFORMAT
  1
GRIDFORMAT_BEGIN
 90
        0
 91
        1
 62
     0
 92
       -2
340
14
 93
        0
 40
0.045
309
GRIDFORMAT_END
 95
        4
302
GRIDFORMAT
  1
GRIDFORMAT_BEGIN
 90
        0
 91
        1
 62
     0
 92
       -2
340
14
 93
        0
 40
0.045
309
GRIDFORMAT_END
 95
        8
302
GRIDFORMAT
  1
GRIDFORMAT_BEGIN
 90
        0
 91
        1
 62
     0
 92
       -2
340
14
 93
        0
 40
0.045
309
GRIDFORMAT_END
 95
       16
302
GRIDFORMAT
  1
GRIDFORMAT_BEGIN
 90
        0
 91
        1
 62
     0
 92
       -2
340
14
 93
        0
 40
0.045
309
GRIDFORMAT_END
 95
       32
302
GRIDFORMAT
  1
GRIDFORMAT_BEGIN
 90
        0
 91
        1
 62
     0
 92
       -2
340
14
 93
        0
 40
0.045
309
GRIDFORMAT_END
309
TABLEFORMAT_END
  1
CELLSTYLE_BEGIN
 90
        2
 91
        1
300
_HEADER
309
CELLSTYLE_END
300
CELLSTYLE
  1
TABLEFORMAT_BEGIN
 90
        5
170
     1
 91
        0
 92
        0
 62
   257
 93
        1
300
CONTENTFORMAT
  1
CONTENTFORMAT_BEGIN
 90
        0
 91
        0
 92
        4
 93
        0
300

 40
0.0
140
1.0
 94
        2
 62
     0
340
11
144
0.18
309
CONTENTFORMAT_END
171
     1
301
MARGIN
  1
CELLMARGIN_BEGIN
 40
0.06
 40
0.06
 40
0.06
 40
0.06
 40
0.06
 40
0.06
309
CELLMARGIN_END
 94
        6
 95
        1
302
GRIDFORMAT
  1
GRIDFORMAT_BEGIN
 90
        0
 91
        1
 62
     0
 92
       -2
340
14
 93
        0
 40
0.045
309
GRIDFORMAT_END
 95
        2
302
GRIDFORMAT
  1
GRIDFORMAT_BEGIN
 90
        0
 91
        1
 62
     0
 92
       -2
340
14
 93
        0
 40
0.045
309
GRIDFORMAT_END
 95
        4
302
GRIDFORMAT
  1
GRIDFORMAT_BEGIN
 90
        0
 91
        1
 62
     0
 92
       -2
340
14
 93
        0
 40
0.045
309
GRIDFORMAT_END
 95
        8
302
GRIDFORMAT
  1
GRIDFORMAT_BEGIN
 90
        0
 91
        1
 62
     0
 92
       -2
340
14
 93
        0
 40
0.045
309
GRIDFORMAT_END
 95
       16
302
GRIDFORMAT
  1
GRIDFORMAT_BEGIN
 90
        0
 91
        1
 62
     0
 92
       -2
340
14
 93
        0
 40
0.045
309
GRIDFORMAT_END
 95
       32
302
GRIDFORMAT
  1
GRIDFORMAT_BEGIN
 90
        0
 91
        1
 62
     0
 92
       -2
340
14
 93
        0
 40
0.045
309
GRIDFORMAT_END
309
TABLEFORMAT_END
  1
CELLSTYLE_BEGIN
 90
        3
 91
        2
300
_DATA
309
CELLSTYLE_END
  0
ENDSEC
  0
EOF