0
SECTION
  2
HEADER
  9
$ACADVER
  1
AC1027
  9
$ACADMAINTVER
 70
     8
  9
$DWGCODEPAGE
  3
ANSI_1252
  9
$REQUIREDVERSIONS
160
                 0
  9
$COMMENTS
  1
File was created by Cadenas
  9
$CUSTOMPROPERTYTAG
  1
NN
  9
$CUSTOMPROPERTY
  1
Steel IMPERIAL-HD Piloted Flange 2-7/16 thru 5 Inch Bore
  9
$CUSTOMPROPERTYTAG
  1
NT
  9
$CUSTOMPROPERTY
  1
Steal Imperial Piloted Flange Bearing-Inch-207-500
  9
$CUSTOMPROPERTYTAG
  1
NB
  9
$CUSTOMPROPERTY
  1
072300
  9
$CUSTOMPROPERTYTAG
  1
NBSYN
  9
$CUSTOMPROPERTY
  1
$PN.
  9
$CUSTOMPROPERTYTAG
  1
LINA
  9
$CUSTOMPROPERTY
  1
072300
  9
$CUSTOMPROPERTYTAG
  1
SS
  9
$CUSTOMPROPERTY
  1
3-11/16
  9
$CUSTOMPROPERTYTAG
  1
PN
  9
$CUSTOMPROPERTY
  1
072300
  9
$CUSTOMPROPERTYTAG
  1
TYPE
  9
$CUSTOMPROPERTY
  1
Non-Expansion
  9
$CUSTOMPROPERTYTAG
  1
EF
  9
$CUSTOMPROPERTY
  1
Non-Expansion
  9
$CUSTOMPROPERTYTAG
  1
DESCRIPTION
  9
$CUSTOMPROPERTY
  1
SFC-IP-311R
  9
$CUSTOMPROPERTYTAG
  1
ST
  9
$CUSTOMPROPERTY
  1
Contact Seal
  9
$CUSTOMPROPERTYTAG
  1
A
  9
$CUSTOMPROPERTY
  1
4.70
  9
$CUSTOMPROPERTYTAG
  1
B
  9
$CUSTOMPROPERTY
  1
10.88
  9
$CUSTOMPROPERTYTAG
  1
C
  9
$CUSTOMPROPERTY
  1
3.73
  9
$CUSTOMPROPERTYTAG
  1
D
  9
$CUSTOMPROPERTY
  1
6.63
  9
$CUSTOMPROPERTYTAG
  1
DD
  9
$CUSTOMPROPERTY
  1
9.375
  9
$CUSTOMPROPERTYTAG
  1
E
  9
$CUSTOMPROPERTY
  1
2.25
  9
$CUSTOMPROPERTYTAG
  1
F
  9
$CUSTOMPROPERTY
  1
0.750
  9
$CUSTOMPROPERTYTAG
  1
G
  9
$CUSTOMPROPERTY
  1
2.58
  9
$CUSTOMPROPERTYTAG
  1
H
  9
$CUSTOMPROPERTY
  1
1.00
  9
$CUSTOMPROPERTYTAG
  1
K
  9
$CUSTOMPROPERTY
  1
8.125
  9
$CUSTOMPROPERTYTAG
  1
L
  9
$CUSTOMPROPERTY
  1
5.44
  9
$CUSTOMPROPERTYTAG
  1
M
  9
$CUSTOMPROPERTY
  1
0.750
  9
$CUSTOMPROPERTYTAG
  1
N
  9
$CUSTOMPROPERTY
  1
4.83
  9
$CUSTOMPROPERTYTAG
  1
P
  9
$CUSTOMPROPERTY
  1
2.89
  9
$CUSTOMPROPERTYTAG
  1
Q
  9
$CUSTOMPROPERTY
  1
2.25
  9
$CUSTOMPROPERTYTAG
  1
X
  9
$CUSTOMPROPERTY
  1
0.31
  9
$CUSTOMPROPERTYTAG
  1
Y
  9
$CUSTOMPROPERTY
  1
0.250
  9
$CUSTOMPROPERTYTAG
  1
Z
  9
$CUSTOMPROPERTY
  1
4.50
  9
$CUSTOMPROPERTYTAG
  1
COMPANY
  9
$CUSTOMPROPERTY
  1
baldor
  9
$INSBASE
 10
0.0
 20
0.0
 30
0.0
  9
$EXTMIN
 10
1.000000000000000E+20
 20
1.000000000000000E+20
 30
1.000000000000000E+20
  9
$EXTMAX
 10
-1.000000000000000E+20
 20
-1.000000000000000E+20
 30
-1.000000000000000E+20
  9
$LIMMIN
 10
0.0
 20
0.0
  9
$LIMMAX
 10
12.0
 20
9.0
  9
$ORTHOMODE
 70
     0
  9
$REGENMODE
 70
     1
  9
$FILLMODE
 70
     1
  9
$QTEXTMODE
 70
     0
  9
$MIRRTEXT
 70
     1
  9
$LTSCALE
 40
1.0
  9
$ATTMODE
 70
     1
  9
$TEXTSIZE
 40
0.2
  9
$TRACEWID
 40
0.05
  9
$TEXTSTYLE
  7
Standard
  9
$CLAYER
  8
0
  9
$CELTYPE
  6
ByLayer
  9
$CECOLOR
 62
   256
  9
$CELTSCALE
 40
1.0
  9
$DISPSILH
 70
     0
  9
$DIMSCALE
 40
1.0
  9
$DIMASZ
 40
0.18
  9
$DIMEXO
 40
0.0625
  9
$DIMDLI
 40
0.38
  9
$DIMRND
 40
0.0
  9
$DIMDLE
 40
0.0
  9
$DIMEXE
 40
0.18
  9
$DIMTP
 40
0.0
  9
$DIMTM
 40
0.0
  9
$DIMTXT
 40
0.18
  9
$DIMCEN
 40
0.09
  9
$DIMTSZ
 40
0.0
  9
$DIMTOL
 70
     0
  9
$DIMLIM
 70
     0
  9
$DIMTIH
 70
     1
  9
$DIMTOH
 70
     1
  9
$DIMSE1
 70
     0
  9
$DIMSE2
 70
     0
  9
$DIMTAD
 70
     0
  9
$DIMZIN
 70
     0
  9
$DIMBLK
  1

  9
$DIMASO
 70
     1
  9
$DIMSHO
 70
     1
  9
$DIMPOST
  1

  9
$DIMAPOST
  1

  9
$DIMALT
 70
     0
  9
$DIMALTD
 70
     2
  9
$DIMALTF
 40
25.4
  9
$DIMLFAC
 40
1.0
  9
$DIMTOFL
 70
     0
  9
$DIMTVP
 40
0.0
  9
$DIMTIX
 70
     0
  9
$DIMSOXD
 70
     0
  9
$DIMSAH
 70
     0
  9
$DIMBLK1
  1

  9
$DIMBLK2
  1

  9
$DIMSTYLE
  2
Standard
  9
$DIMCLRD
 70
     0
  9
$DIMCLRE
 70
     0
  9
$DIMCLRT
 70
     0
  9
$DIMTFAC
 40
1.0
  9
$DIMGAP
 40
0.09
  9
$DIMJUST
 70
     0
  9
$DIMSD1
 70
     0
  9
$DIMSD2
 70
     0
  9
$DIMTOLJ
 70
     1
  9
$DIMTZIN
 70
     0
  9
$DIMALTZ
 70
     0
  9
$DIMALTTZ
 70
     0
  9
$DIMUPT
 70
     0
  9
$DIMDEC
 70
     4
  9
$DIMTDEC
 70
     4
  9
$DIMALTU
 70
     2
  9
$DIMALTTD
 70
     2
  9
$DIMTXSTY
  7
Standard
  9
$DIMAUNIT
 70
     0
  9
$DIMADEC
 70
     0
  9
$DIMALTRND
 40
0.0
  9
$DIMAZIN
 70
     0
  9
$DIMDSEP
 70
    46
  9
$DIMATFIT
 70
     3
  9
$DIMFRAC
 70
     0
  9
$DIMLDRBLK
  1

  9
$DIMLUNIT
 70
     2
  9
$DIMLWD
 70
    -2
  9
$DIMLWE
 70
    -2
  9
$DIMTMOVE
 70
     0
  9
$DIMFXL
 40
1.0
  9
$DIMFXLON
 70
     0
  9
$DIMJOGANG
 40
0.7853981633974483
  9
$DIMTFILL
 70
     0
  9
$DIMTFILLCLR
 70
     0
  9
$DIMARCSYM
 70
     0
  9
$DIMLTYPE
  6

  9
$DIMLTEX1
  6

  9
$DIMLTEX2
  6

  9
$DIMTXTDIRECTION
 70
     0
  9
$LUNITS
 70
     2
  9
$LUPREC
 70
     4
  9
$SKETCHINC
 40
0.1
  9
$FILLETRAD
 40
0.5
  9
$AUNITS
 70
     0
  9
$AUPREC
 70
     0
  9
$MENU
  1
.
  9
$ELEVATION
 40
0.0
  9
$PELEVATION
 40
0.0
  9
$THICKNESS
 40
0.0
  9
$LIMCHECK
 70
     0
  9
$CHAMFERA
 40
0.0
  9
$CHAMFERB
 40
0.0
  9
$CHAMFERC
 40
0.0
  9
$CHAMFERD
 40
0.0
  9
$SKPOLY
 70
     0
  9
$TDCREATE
 40
2458168.897612269
  9
$TDUCREATE
 40
2458168.855945602
  9
$TDUPDATE
 40
2458168.897612454
  9
$TDUUPDATE
 40
2458168.855945787
  9
$TDINDWG
 40
0.0000000116
  9
$TDUSRTIMER
 40
0.0000000116
  9
$USRTIMER
 70
     1
  9
$ANGBASE
 50
0.0
  9
$ANGDIR
 70
     0
  9
$PDMODE
 70
     0
  9
$PDSIZE
 40
0.0
  9
$PLINEWID
 40
0.0
  9
$SPLFRAME
 70
     0
  9
$SPLINETYPE
 70
     6
  9
$SPLINESEGS
 70
     8
  9
$HANDSEED
  5
273
  9
$SURFTAB1
 70
     6
  9
$SURFTAB2
 70
     6
  9
$SURFTYPE
 70
     6
  9
$SURFU
 70
     6
  9
$SURFV
 70
     6
  9
$UCSBASE
  2

  9
$UCSNAME
  2

  9
$UCSORG
 10
0.0
 20
0.0
 30
0.0
  9
$UCSXDIR
 10
1.0
 20
0.0
 30
0.0
  9
$UCSYDIR
 10
0.0
 20
1.0
 30
0.0
  9
$UCSORTHOREF
  2

  9
$UCSORTHOVIEW
 70
     0
  9
$UCSORGTOP
 10
0.0
 20
0.0
 30
0.0
  9
$UCSORGBOTTOM
 10
0.0
 20
0.0
 30
0.0
  9
$UCSORGLEFT
 10
0.0
 20
0.0
 30
0.0
  9
$UCSORGRIGHT
 10
0.0
 20
0.0
 30
0.0
  9
$UCSORGFRONT
 10
0.0
 20
0.0
 30
0.0
  9
$UCSORGBACK
 10
0.0
 20
0.0
 30
0.0
  9
$PUCSBASE
  2

  9
$PUCSNAME
  2

  9
$PUCSORG
 10
0.0
 20
0.0
 30
0.0
  9
$PUCSXDIR
 10
1.0
 20
0.0
 30
0.0
  9
$PUCSYDIR
 10
0.0
 20
1.0
 30
0.0
  9
$PUCSORTHOREF
  2

  9
$PUCSORTHOVIEW
 70
     0
  9
$PUCSORGTOP
 10
0.0
 20
0.0
 30
0.0
  9
$PUCSORGBOTTOM
 10
0.0
 20
0.0
 30
0.0
  9
$PUCSORGLEFT
 10
0.0
 20
0.0
 30
0.0
  9
$PUCSORGRIGHT
 10
0.0
 20
0.0
 30
0.0
  9
$PUCSORGFRONT
 10
0.0
 20
0.0
 30
0.0
  9
$PUCSORGBACK
 10
0.0
 20
0.0
 30
0.0
  9
$USERI1
 70
     0
  9
$USERI2
 70
     0
  9
$USERI3
 70
     0
  9
$USERI4
 70
     0
  9
$USERI5
 70
     0
  9
$USERR1
 40
0.0
  9
$USERR2
 40
0.0
  9
$USERR3
 40
0.0
  9
$USERR4
 40
0.0
  9
$USERR5
 40
0.0
  9
$WORLDVIEW
 70
     1
  9
$SHADEDGE
 70
     3
  9
$SHADEDIF
 70
    70
  9
$TILEMODE
 70
     1
  9
$MAXACTVP
 70
    64
  9
$PINSBASE
 10
0.0
 20
0.0
 30
0.0
  9
$PLIMCHECK
 70
     0
  9
$PEXTMIN
 10
1.000000000000000E+20
 20
1.000000000000000E+20
 30
1.000000000000000E+20
  9
$PEXTMAX
 10
-1.000000000000000E+20
 20
-1.000000000000000E+20
 30
-1.000000000000000E+20
  9
$PLIMMIN
 10
0.0
 20
0.0
  9
$PLIMMAX
 10
12.0
 20
9.0
  9
$UNITMODE
 70
     0
  9
$VISRETAIN
 70
     1
  9
$PLINEGEN
 70
     0
  9
$PSLTSCALE
 70
     1
  9
$TREEDEPTH
 70
  3020
  9
$CMLSTYLE
  2
Standard
  9
$CMLJUST
 70
     0
  9
$CMLSCALE
 40
1.0
  9
$PROXYGRAPHICS
 70
     1
  9
$MEASUREMENT
 70
     0
  9
$CELWEIGHT
370
    -1
  9
$ENDCAPS
280
     0
  9
$JOINSTYLE
280
     0
  9
$LWDISPLAY
290
     0
  9
$INSUNITS
 70
     1
  9
$HYPERLINKBASE
  1

  9
$STYLESHEET
  1

  9
$XEDIT
290
     1
  9
$CEPSNTYPE
380
     0
  9
$PSTYLEMODE
290
     1
  9
$FINGERPRINTGUID
  2
{72049B0C-FDF1-4536-96AF-957DC0CD9C7B}
  9
$VERSIONGUID
  2
{FAEB1C32-E019-11D5-929B-00C0DF256EC4}
  9
$EXTNAMES
290
     1
  9
$PSVPSCALE
 40
0.0
  9
$OLESTARTUP
290
     0
  9
$SORTENTS
280
   127
  9
$INDEXCTL
280
     0
  9
$HIDETEXT
280
     1
  9
$XCLIPFRAME
280
     2
  9
$HALOGAP
280
     0
  9
$OBSCOLOR
 70
   257
  9
$OBSLTYPE
280
     0
  9
$INTERSECTIONDISPLAY
280
     0
  9
$INTERSECTIONCOLOR
 70
   257
  9
$DIMASSOC
280
     2
  9
$PROJECTNAME
  1

  9
$CAMERADISPLAY
290
     0
  9
$LENSLENGTH
 40
50.0
  9
$CAMERAHEIGHT
 40
0.0
  9
$STEPSPERSEC
 40
2.0
  9
$STEPSIZE
 40
6.0
  9
$3DDWFPREC
 40
2.0
  9
$PSOLWIDTH
 40
0.25
  9
$PSOLHEIGHT
 40
4.0
  9
$LOFTANG1
 40
1.570796326794897
  9
$LOFTANG2
 40
1.570796326794897
  9
$LOFTMAG1
 40
0.0
  9
$LOFTMAG2
 40
0.0
  9
$LOFTPARAM
 70
     7
  9
$LOFTNORMALS
280
     1
  9
$LATITUDE
 40
37.795
  9
$LONGITUDE
 40
-122.394
  9
$NORTHDIRECTION
 40
0.0
  9
$TIMEZONE
 70
 -8000
  9
$LIGHTGLYPHDISPLAY
280
     1
  9
$TILEMODELIGHTSYNCH
280
     1
  9
$CMATERIAL
347
44
  9
$SOLIDHIST
280
     0
  9
$SHOWHIST
280
     1
  9
$DWFFRAME
280
     2
  9
$DGNFRAME
280
     2
  9
$REALWORLDSCALE
290
     1
  9
$INTERFERECOLOR
 62
   256
  9
$CSHADOW
280
     0
  9
$SHADOWPLANELOCATION
 40
0.0
  0
ENDSEC
  0
SECTION
  2
CLASSES
  0
CLASS
  1
ACDBDICTIONARYWDFLT
  2
AcDbDictionaryWithDefault
  3
ObjectDBX Classes
 90
        0
 91
        4
280
     0
281
     0
  0
CLASS
  1
VISUALSTYLE
  2
AcDbVisualStyle
  3
ObjectDBX Classes
 90
     4095
 91
        4
280
     0
281
     0
  0
CLASS
  1
MATERIAL
  2
AcDbMaterial
  3
ObjectDBX Classes
 90
     1153
 91
        4
280
     0
281
     0
  0
CLASS
  1
SCALE
  2
AcDbScale
  3
ObjectDBX Classes
 90
     1153
 91
        4
280
     0
281
     0
  0
CLASS
  1
TABLESTYLE
  2
AcDbTableStyle
  3
ObjectDBX Classes
 90
     4095
 91
        4
280
     0
281
     0
  0
CLASS
  1
MLEADERSTYLE
  2
AcDbMLeaderStyle
  3
ACDB_MLEADERSTYLE_CLASS
 90
     4095
 91
        4
280
     0
281
     0
  0
CLASS
  1
SUN
  2
AcDbSun
  3
SCENEOE
 90
     1153
 91
        4
280
     0
281
     0
  0
CLASS
  1
DICTIONARYVAR
  2
AcDbDictionaryVar
  3
ObjectDBX Classes
 90
        0
 91
        4
280
     0
281
     0
  0
CLASS
  1
CELLSTYLEMAP
  2
AcDbCellStyleMap
  3
ObjectDBX Classes
 90
     1152
 91
        4
280
     0
281
     0
  0
ENDSEC
  0
SECTION
  2
TABLES
  0
TABLE
  2
VPORT
  5
8
330
0
100
AcDbSymbolTable
 70
     1
  0
VPORT
  5
29
330
8
100
AcDbSymbolTableRecord
100
AcDbViewportTableRecord
  2
*Active
 70
     0
 10
0.0
 20
0.0
 11
1.0
 21
1.0
 12
0.0
 22
0.0
 13
0.0
 23
0.0
 14
0.5
 24
0.5
 15
0.5
 25
0.5
 16
0.0
 26
0.0
 36
1.0
 17
-0.0000000000000036
 27
-0.0000000000000027
 37
0.0
 40
11.65247999999999
 41
0.9999999999999999
 42
50.0
 43
0.0
 44
0.0
 50
0.0
 51
0.0
 71
     0
 72
   100
 73
     1
 74
     3
 75
     0
 76
     0
 77
     0
 78
     0
281
     0
 65
     1
110
0.0
120
0.0
130
0.0
111
1.0
121
0.0
131
0.0
112
0.0
122
1.0
132
0.0
 79
     0
146
0.0
348
2F
 60
     3
 61
     5
292
     1
282
     1
141
0.0
142
0.0
 63
   250
361
6D
  0
ENDTAB
  0
TABLE
  2
LTYPE
  5
5
330
0
100
AcDbSymbolTable
 70
     3
  0
LTYPE
  5
14
330
5
100
AcDbSymbolTableRecord
100
AcDbLinetypeTableRecord
  2
ByBlock
 70
     0
  3

 72
    65
 73
     0
 40
0.0
  0
LTYPE
  5
15
330
5
100
AcDbSymbolTableRecord
100
AcDbLinetypeTableRecord
  2
ByLayer
 70
     0
  3

 72
    65
 73
     0
 40
0.0
  0
LTYPE
  5
16
330
5
100
AcDbSymbolTableRecord
100
AcDbLinetypeTableRecord
  2
Continuous
 70
     0
  3
Solid line
 72
    65
 73
     0
 40
0.0
  0
LTYPE
  5
9D
330
5
100
AcDbSymbolTableRecord
100
AcDbLinetypeTableRecord
  2
Dashed
 70
     0
  3

 72
    65
 73
     2
 40
2.0
 49
1.0
 74
     0
 49
-1.0
 74
     0
  0
LTYPE
  5
133
330
5
100
AcDbSymbolTableRecord
100
AcDbLinetypeTableRecord
  2
Center
 70
     0
  3

 72
    65
 73
     4
 40
1.5
 49
0.45
 74
     0
 49
-0.5
 74
     0
 49
0.05
 74
     0
 49
-0.5
 74
     0
  0
ENDTAB
  0
TABLE
  2
LAYER
  5
2
330
0
100
AcDbSymbolTable
 70
     7
  0
LAYER
  5
10
330
2
100
AcDbSymbolTableRecord
100
AcDbLayerTableRecord
  2
0
 70
     0
 62
     7
  6
Continuous
370
    -3
390
F
347
46
348
0
  0
LAYER
  5
72
330
2
100
AcDbSymbolTableRecord
100
AcDbLayerTableRecord
  2
AM_6
 70
     0
 62
    -2
  6
Continuous
370
    35
390
F
347
46
348
0
  0
LAYER
  5
9E
330
2
100
AcDbSymbolTableRecord
100
AcDbLayerTableRecord
  2
AM_9
 70
     0
 62
     6
  6
Dashed
370
    25
390
F
347
46
348
0
  0
LAYER
  5
B9
330
2
100
AcDbSymbolTableRecord
100
AcDbLayerTableRecord
  2
AM_4
 70
     0
 62
     7
  6
Continuous
370
    50
390
F
347
46
348
0
  0
LAYER
  5
131
330
2
100
AcDbSymbolTableRecord
100
AcDbLayerTableRecord
  2
AM_5
 70
     0
 62
     3
  6
Continuous
370
    25
390
F
347
46
348
0
  0
LAYER
  5
134
330
2
100
AcDbSymbolTableRecord
100
AcDbLayerTableRecord
  2
AM_7
 70
     0
 62
     7
  6
Center
370
    25
390
F
347
46
348
0
  0
LAYER
  5
25A
330
2
100
AcDbSymbolTableRecord
100
AcDbLayerTableRecord
  2
ConnectionPoints
 70
     0
 62
     7
  6
Continuous
370
    50
390
F
347
46
348
0
  0
ENDTAB
  0
TABLE
  2
STYLE
  5
3
330
0
100
AcDbSymbolTable
 70
     1
  0
STYLE
  5
11
330
3
100
AcDbSymbolTableRecord
100
AcDbTextStyleTableRecord
  2
Standard
 70
     0
 40
0.0
 41
1.0
 50
0.0
 71
     0
 42
0.2
  3
txt
  4

  0
ENDTAB
  0
TABLE
  2
VIEW
  5
6
330
0
100
AcDbSymbolTable
 70
     0
  0
ENDTAB
  0
TABLE
  2
UCS
  5
7
330
0
100
AcDbSymbolTable
 70
     0
  0
ENDTAB
  0
TABLE
  2
APPID
  5
9
330
0
100
AcDbSymbolTable
 70
     1
  0
APPID
  5
12
330
9
100
AcDbSymbolTableRecord
100
AcDbRegAppTableRecord
  2
ACAD
 70
     0
  0
ENDTAB
  0
TABLE
  2
DIMSTYLE
  5
A
330
0
100
AcDbSymbolTable
 70
     1
100
AcDbDimStyleTable
  0
DIMSTYLE
105
27
330
A
100
AcDbSymbolTableRecord
100
AcDbDimStyleTableRecord
  2
Standard
 70
     0
178
     0
340
11
  0
ENDTAB
  0
TABLE
  2
BLOCK_RECORD
  5
1
330
0
100
AcDbSymbolTable
 70
     9
  0
BLOCK_RECORD
  5
1F
330
1
100
AcDbSymbolTableRecord
100
AcDbBlockTableRecord
  2
*Model_Space
340
22
 70
     0
280
     1
281
     0
  0
BLOCK_RECORD
  5
1B
330
1
100
AcDbSymbolTableRecord
100
AcDbBlockTableRecord
  2
*Paper_Space
340
1E
 70
     0
280
     1
281
     0
  0
BLOCK_RECORD
  5
23
330
1
100
AcDbSymbolTableRecord
100
AcDbBlockTableRecord
  2
*Paper_Space0
340
26
 70
     0
280
     1
281
     0
  0
BLOCK_RECORD
  5
6E
330
1
100
AcDbSymbolTableRecord
100
AcDbBlockTableRecord
  2
1_072300_0
340
0
102
{BLKREFS
331
6F
102
}
 70
     0
280
     1
281
     0
  0
BLOCK_RECORD
  5
91
330
1
100
AcDbSymbolTableRecord
100
AcDbBlockTableRecord
  2
2_405015E_Inch_1_0_in_072300_0
340
0
102
{BLKREFS
331
92
102
}
 70
     0
280
     1
281
     0
  0
BLOCK_RECORD
  5
D3
330
1
100
AcDbSymbolTableRecord
100
AcDbBlockTableRecord
  2
3_405015E_Inch_2_0_in_072300_0
340
0
102
{BLKREFS
331
D4
102
}
 70
     0
280
     1
281
     0
  0
BLOCK_RECORD
  5
121
330
1
100
AcDbSymbolTableRecord
100
AcDbBlockTableRecord
  2
4_ASME_B18_3_1_4_1_0_in_072300_0
340
0
102
{BLKREFS
331
122
102
}
 70
     0
280
     1
281
     0
  0
BLOCK_RECORD
  5
13F
330
1
100
AcDbSymbolTableRecord
100
AcDbBlockTableRecord
  2
5_ASME_B18_3_1_4_2_0_in_072300_0
340
0
102
{BLKREFS
331
140
102
}
 70
     0
280
     1
281
     0
  0
BLOCK_RECORD
  5
15A
330
1
100
AcDbSymbolTableRecord
100
AcDbBlockTableRecord
  2
6_070905LW_0_in_072300_0
340
0
102
{BLKREFS
331
15B
102
}
 70
     0
280
     1
281
     0
  0
BLOCK_RECORD
  5
1A4
330
1
100
AcDbSymbolTableRecord
100
AcDbBlockTableRecord
  2
7_070905I_0_in_072300_0
340
0
102
{BLKREFS
331
1A5
102
}
 70
     0
280
     1
281
     0
  0
BLOCK_RECORD
  5
200
330
1
100
AcDbSymbolTableRecord
100
AcDbBlockTableRecord
  2
8_B072300_0_in_072300_0
340
0
102
{BLKREFS
331
201
102
}
 70
     0
280
     1
281
     0
  0
ENDTAB
  0
ENDSEC
  0
SECTION
  2
BLOCKS
  0
BLOCK
  5
20
330
1F
100
AcDbEntity
  8
0
100
AcDbBlockBegin
  2
*Model_Space
 70
     0
 10
0.0
 20
0.0
 30
0.0
  3
*Model_Space
  1

  0
ENDBLK
  5
21
330
1F
100
AcDbEntity
  8
0
100
AcDbBlockEnd
  0
BLOCK
  5
1C
330
1B
100
AcDbEntity
 67
     1
  8
0
100
AcDbBlockBegin
  2
*Paper_Space
 70
     0
 10
0.0
 20
0.0
 30
0.0
  3
*Paper_Space
  1

  0
ENDBLK
  5
1D
330
1B
100
AcDbEntity
 67
     1
  8
0
100
AcDbBlockEnd
  0
BLOCK
  5
24
330
23
100
AcDbEntity
  8
0
100
AcDbBlockBegin
  2
*Paper_Space0
 70
     0
 10
0.0
 20
0.0
 30
0.0
  3
*Paper_Space0
  1

  0
ENDBLK
  5
25
330
23
100
AcDbEntity
  8
0
100
AcDbBlockEnd
  0
BLOCK
  5
70
330
6E
100
AcDbEntity
  8
0
100
AcDbBlockBegin
  2
1_072300_0
 70
     2
 10
0.0
 20
0.0
 30
0.0
  3
1_072300_0
  1

  0
ATTDEF
  5
73
330
6E
100
AcDbEntity
  8
AM_6
100
AcDbText
 10
10.712
 20
5.712
 30
0.0
 40
0.5
  1
Steel IMPERIAL-HD Piloted Flange 2-7/16 thru 5 Inch Bore
100
AcDbAttributeDefinition
  3

  2
NN
 70
     8
280
     0
  0
ATTDEF
  5
74
330
6E
100
AcDbEntity
  8
AM_6
100
AcDbText
 10
10.712
 20
5.212
 30
0.0
 40
0.5
  1
Steal Imperial Piloted Flange Bearing-Inch-207-500
100
AcDbAttributeDefinition
  3

  2
NT
 70
     8
280
     0
  0
ATTDEF
  5
75
330
6E
100
AcDbEntity
  8
AM_6
100
AcDbText
 10
10.712
 20
4.712
 30
0.0
 40
0.5
  1
072300
100
AcDbAttributeDefinition
  3

  2
NB
 70
     8
280
     0
  0
ATTDEF
  5
76
330
6E
100
AcDbEntity
  8
AM_6
100
AcDbText
 10
10.712
 20
4.212
 30
0.0
 40
0.5
  1
$PN.
100
AcDbAttributeDefinition
  3

  2
NBSYN
 70
     8
280
     0
  0
ATTDEF
  5
77
330
6E
100
AcDbEntity
  8
AM_6
100
AcDbText
 10
10.712
 20
3.712
 30
0.0
 40
0.5
  1
072300
100
AcDbAttributeDefinition
  3

  2
LINA
 70
     8
280
     0
  0
ATTDEF
  5
78
330
6E
100
AcDbEntity
  8
AM_6
100
AcDbText
 10
10.712
 20
3.212
 30
0.0
 40
0.5
  1
3-11/16
100
AcDbAttributeDefinition
  3

  2
SS
 70
     8
280
     0
  0
ATTDEF
  5
79
330
6E
100
AcDbEntity
  8
AM_6
100
AcDbText
 10
10.712
 20
2.712
 30
0.0
 40
0.5
  1
072300
100
AcDbAttributeDefinition
  3

  2
PN
 70
     8
280
     0
  0
ATTDEF
  5
7A
330
6E
100
AcDbEntity
  8
AM_6
100
AcDbText
 10
10.712
 20
2.212
 30
0.0
 40
0.5
  1
Non-Expansion
100
AcDbAttributeDefinition
  3

  2
TYPE
 70
     8
280
     0
  0
ATTDEF
  5
7B
330
6E
100
AcDbEntity
  8
AM_6
100
AcDbText
 10
10.712
 20
1.712
 30
0.0
 40
0.5
  1
Non-Expansion
100
AcDbAttributeDefinition
  3

  2
EF
 70
     8
280
     0
  0
ATTDEF
  5
7C
330
6E
100
AcDbEntity
  8
AM_6
100
AcDbText
 10
10.712
 20
1.212
 30
0.0
 40
0.5
  1
SFC-IP-311R
100
AcDbAttributeDefinition
  3

  2
DESCRIPTION
 70
     8
280
     0
  0
ATTDEF
  5
7D
330
6E
100
AcDbEntity
  8
AM_6
100
AcDbText
 10
10.712
 20
0.7119999999999997
 30
0.0
 40
0.5
  1
Contact Seal
100
AcDbAttributeDefinition
  3

  2
ST
 70
     8
280
     0
  0
ATTDEF
  5
7E
330
6E
100
AcDbEntity
  8
AM_6
100
AcDbText
 10
10.712
 20
0.2119999999999997
 30
0.0
 40
0.5
  1
4.70
100
AcDbAttributeDefinition
  3

  2
A
 70
     8
280
     0
  0
ATTDEF
  5
7F
330
6E
100
AcDbEntity
  8
AM_6
100
AcDbText
 10
10.712
 20
-0.2880000000000003
 30
0.0
 40
0.5
  1
10.88
100
AcDbAttributeDefinition
  3

  2
B
 70
     8
280
     0
  0
ATTDEF
  5
80
330
6E
100
AcDbEntity
  8
AM_6
100
AcDbText
 10
10.712
 20
-0.7880000000000003
 30
0.0
 40
0.5
  1
3.73
100
AcDbAttributeDefinition
  3

  2
C
 70
     8
280
     0
  0
ATTDEF
  5
81
330
6E
100
AcDbEntity
  8
AM_6
100
AcDbText
 10
10.712
 20
-1.288
 30
0.0
 40
0.5
  1
6.63
100
AcDbAttributeDefinition
  3

  2
D
 70
     8
280
     0
  0
ATTDEF
  5
82
330
6E
100
AcDbEntity
  8
AM_6
100
AcDbText
 10
10.712
 20
-1.788
 30
0.0
 40
0.5
  1
9.375
100
AcDbAttributeDefinition
  3

  2
DD
 70
     8
280
     0
  0
ATTDEF
  5
83
330
6E
100
AcDbEntity
  8
AM_6
100
AcDbText
 10
10.712
 20
-2.288
 30
0.0
 40
0.5
  1
2.25
100
AcDbAttributeDefinition
  3

  2
E
 70
     8
280
     0
  0
ATTDEF
  5
84
330
6E
100
AcDbEntity
  8
AM_6
100
AcDbText
 10
10.712
 20
-2.788
 30
0.0
 40
0.5
  1
0.750
100
AcDbAttributeDefinition
  3

  2
F
 70
     8
280
     0
  0
ATTDEF
  5
85
330
6E
100
AcDbEntity
  8
AM_6
100
AcDbText
 10
10.712
 20
-3.288
 30
0.0
 40
0.5
  1
2.58
100
AcDbAttributeDefinition
  3

  2
G
 70
     8
280
     0
  0
ATTDEF
  5
86
330
6E
100
AcDbEntity
  8
AM_6
100
AcDbText
 10
10.712
 20
-3.788
 30
0.0
 40
0.5
  1
1.00
100
AcDbAttributeDefinition
  3

  2
H
 70
     8
280
     0
  0
ATTDEF
  5
87
330
6E
100
AcDbEntity
  8
AM_6
100
AcDbText
 10
10.712
 20
-4.288
 30
0.0
 40
0.5
  1
8.125
100
AcDbAttributeDefinition
  3

  2
K
 70
     8
280
     0
  0
ATTDEF
  5
88
330
6E
100
AcDbEntity
  8
AM_6
100
AcDbText
 10
10.712
 20
-4.788
 30
0.0
 40
0.5
  1
5.44
100
AcDbAttributeDefinition
  3

  2
L
 70
     8
280
     0
  0
ATTDEF
  5
89
330
6E
100
AcDbEntity
  8
AM_6
100
AcDbText
 10
10.712
 20
-5.288
 30
0.0
 40
0.5
  1
0.750
100
AcDbAttributeDefinition
  3

  2
M
 70
     8
280
     0
  0
ATTDEF
  5
8A
330
6E
100
AcDbEntity
  8
AM_6
100
AcDbText
 10
10.712
 20
-5.788
 30
0.0
 40
0.5
  1
4.83
100
AcDbAttributeDefinition
  3

  2
N
 70
     8
280
     0
  0
ATTDEF
  5
8B
330
6E
100
AcDbEntity
  8
AM_6
100
AcDbText
 10
10.712
 20
-6.288
 30
0.0
 40
0.5
  1
2.89
100
AcDbAttributeDefinition
  3

  2
P
 70
     8
280
     0
  0
ATTDEF
  5
8C
330
6E
100
AcDbEntity
  8
AM_6
100
AcDbText
 10
10.712
 20
-6.788
 30
0.0
 40
0.5
  1
2.25
100
AcDbAttributeDefinition
  3

  2
Q
 70
     8
280
     0
  0
ATTDEF
  5
8D
330
6E
100
AcDbEntity
  8
AM_6
100
AcDbText
 10
10.712
 20
-7.288
 30
0.0
 40
0.5
  1
0.31
100
AcDbAttributeDefinition
  3

  2
X
 70
     8
280
     0
  0
ATTDEF
  5
8E
330
6E
100
AcDbEntity
  8
AM_6
100
AcDbText
 10
10.712
 20
-7.788
 30
0.0
 40
0.5
  1
0.250
100
AcDbAttributeDefinition
  3

  2
Y
 70
     8
280
     0
  0
ATTDEF
  5
8F
330
6E
100
AcDbEntity
  8
AM_6
100
AcDbText
 10
10.712
 20
-8.288
 30
0.0
 40
0.5
  1
4.50
100
AcDbAttributeDefinition
  3

  2
Z
 70
     8
280
     0
  0
ATTDEF
  5
90
330
6E
100
AcDbEntity
  8
AM_6
100
AcDbText
 10
10.712
 20
-8.788
 30
0.0
 40
0.5
  1
baldor
100
AcDbAttributeDefinition
  3

  2
COMPANY
 70
     8
280
     0
  0
INSERT
  5
92
330
6E
100
AcDbEntity
  8
0
100
AcDbBlockReference
  2
2_405015E_Inch_1_0_in_072300_0
 10
0.0
 20
0.0
 30
0.0
  0
INSERT
  5
D4
330
6E
100
AcDbEntity
  8
0
100
AcDbBlockReference
  2
3_405015E_Inch_2_0_in_072300_0
 10
0.0
 20
0.0
 30
0.0
  0
INSERT
  5
122
330
6E
100
AcDbEntity
  8
0
100
AcDbBlockReference
  2
4_ASME_B18_3_1_4_1_0_in_072300_0
 10
0.0
 20
0.0
 30
0.0
  0
INSERT
  5
140
330
6E
100
AcDbEntity
  8
0
100
AcDbBlockReference
  2
5_ASME_B18_3_1_4_2_0_in_072300_0
 10
0.0
 20
0.0
 30
0.0
  0
INSERT
  5
15B
330
6E
100
AcDbEntity
  8
0
100
AcDbBlockReference
  2
6_070905LW_0_in_072300_0
 10
0.0
 20
0.0
 30
0.0
  0
INSERT
  5
1A5
330
6E
100
AcDbEntity
  8
0
100
AcDbBlockReference
  2
7_070905I_0_in_072300_0
 10
0.0
 20
0.0
 30
0.0
  0
INSERT
  5
201
330
6E
100
AcDbEntity
  8
0
100
AcDbBlockReference
  2
8_B072300_0_in_072300_0
 10
0.0
 20
0.0
 30
0.0
  0
ENDBLK
  5
71
330
6E
100
AcDbEntity
  8
0
100
AcDbBlockEnd
  0
BLOCK
  5
93
330
91
100
AcDbEntity
  8
0
100
AcDbBlockBegin
  2
2_405015E_Inch_1_0_in_072300_0
 70
     2
 10
0.0
 20
0.0
 30
0.0
  3
2_405015E_Inch_1_0_in_072300_0
  1

  0
ATTDEF
  5
95
330
91
100
AcDbEntity
  8
AM_6
100
AcDbText
 10
5.218750000000004
 20
-4.181629321544107
 30
0.0
 40
0.5
  1
405015E -Inch
100
AcDbAttributeDefinition
  3

  2
NN
 70
     8
280
     0
  0
ATTDEF
  5
96
330
91
100
AcDbEntity
  8
AM_6
100
AcDbText
 10
5.218750000000004
 20
-4.681629321544107
 30
0.0
 40
0.5
  1
Grease Fitting
100
AcDbAttributeDefinition
  3

  2
NT
 70
     8
280
     0
  0
ATTDEF
  5
97
330
91
100
AcDbEntity
  8
AM_6
100
AcDbText
 10
5.218750000000004
 20
-5.181629321544107
 30
0.0
 40
0.5
  1
405015E-Inch
100
AcDbAttributeDefinition
  3

  2
NB
 70
     8
280
     0
  0
ATTDEF
  5
98
330
91
100
AcDbEntity
  8
AM_6
100
AcDbText
 10
5.218750000000004
 20
-5.681629321544107
 30
0.0
 40
0.5
  1
$MN.-Inch
100
AcDbAttributeDefinition
  3

  2
NBSYN
 70
     8
280
     0
  0
ATTDEF
  5
99
330
91
100
AcDbEntity
  8
AM_6
100
AcDbText
 10
5.218750000000004
 20
-6.181629321544107
 30
0.0
 40
0.5
  1
405015E
100
AcDbAttributeDefinition
  3

  2
LINA
 70
     8
280
     0
  0
ATTDEF
  5
9A
330
91
100
AcDbEntity
  8
AM_6
100
AcDbText
 10
5.218750000000004
 20
-6.681629321544107
 30
0.0
 40
0.5
  1
405015E
100
AcDbAttributeDefinition
  3

  2
MN
 70
     8
280
     0
  0
ATTDEF
  5
9B
330
91
100
AcDbEntity
  8
AM_6
100
AcDbText
 10
5.218750000000004
 20
-7.181629321544107
 30
0.0
 40
0.5
  1
1/8 x 27PTF
100
AcDbAttributeDefinition
  3

  2
T
 70
     8
280
     0
  0
ATTDEF
  5
9C
330
91
100
AcDbEntity
  8
AM_6
100
AcDbText
 10
5.218750000000004
 20
-7.681629321544107
 30
0.0
 40
0.5
  1
baldor
100
AcDbAttributeDefinition
  3

  2
COMPANY
 70
     8
280
     0
  0
ELLIPSE
  5
9F
330
91
100
AcDbEntity
  8
AM_9
100
AcDbEllipse
 10
0.0
 20
-4.33396038483846
 30
0.0
 11
0.161902872472269
 21
0.0
 31
0.0
210
0.0
220
0.0
230
1.0
 40
0.8609792635121898
 41
0.0
 42
6.283185307179586
  0
LINE
  5
A0
330
91
100
AcDbEntity
  8
AM_9
100
AcDbLine
 10
-0.0758534625724276
 20
-4.648982790074714
 30
0.0
 11
-0.109375
 21
-4.631856543760382
 31
0.0
  0
LINE
  5
A1
330
91
100
AcDbEntity
  8
AM_9
100
AcDbLine
 10
0.0
 20
-4.690837536108982
 30
0.0
 11
-0.0297362246379343
 21
-4.673971144053307
 31
0.0
  0
LINE
  5
A2
330
91
100
AcDbEntity
  8
AM_9
100
AcDbLine
 10
0.0329946926145694
 20
-4.672156153358103
 30
0.0
 11
0.0
 21
-4.690837536108982
 31
0.0
  0
LINE
  5
A3
330
91
100
AcDbEntity
  8
AM_9
100
AcDbLine
 10
0.109375
 20
-4.631856543760382
 30
0.0
 11
0.0799556872701393
 21
-4.646837840132781
 31
0.0
  0
LWPOLYLINE
  5
A4
330
91
100
AcDbEntity
  8
AM_9
100
AcDbPolyline
 90
        4
 70
     0
 43
0.0
 10
-0.1093749999999999
 20
-4.682720549481717
 10
-0.0820312499999999
 20
-4.696003806368002
 10
-0.0546874999999999
 20
-4.708687604102347
 10
0.0
 20
-4.732477252973371
  0
LWPOLYLINE
  5
A5
330
91
100
AcDbEntity
  8
AM_9
100
AcDbPolyline
 90
        4
 70
     0
 43
0.0
 10
0.0
 20
-4.732477252973371
 10
0.0544416102741496
 20
-4.708799077823411
 10
0.0818700010907651
 20
-4.696080325378985
 10
0.109375
 20
-4.682720549481717
  0
LWPOLYLINE
  5
A6
330
91
100
AcDbEntity
  8
AM_9
100
AcDbPolyline
 90
        4
 70
     0
 43
0.0
 10
-0.109375
 20
-4.631856543760382
 10
-0.1367187499999999
 20
-4.618573286874097
 10
-0.1640625
 20
-4.605889489139751
 10
-0.21875
 20
-4.582099840268728
  0
LWPOLYLINE
  5
A7
330
91
100
AcDbEntity
  8
AM_9
100
AcDbPolyline
 90
        4
 70
     0
 43
0.0
 10
0.21875
 20
-4.582099840268728
 10
0.1643083897258504
 20
-4.605778015418688
 10
0.1368799989092349
 20
-4.618496767863114
 10
0.109375
 20
-4.631856543760382
  0
LINE
  5
A8
330
91
100
AcDbEntity
  8
AM_9
100
AcDbLine
 10
0.0
 20
-4.732477252973371
 30
0.0
 11
0.0
 21
-4.690837536108982
 31
0.0
  0
LINE
  5
A9
330
91
100
AcDbEntity
  8
AM_9
100
AcDbLine
 10
-0.198339527633989
 20
-4.343588818065991
 30
0.0
 11
-0.2054638088590848
 21
-4.459378903776813
 31
0.0
  0
LINE
  5
AA
330
91
100
AcDbEntity
  8
AM_9
100
AcDbLine
 10
0.2054638088590848
 20
-4.459378903776813
 30
0.0
 11
0.198339527633989
 21
-4.343588818065991
 31
0.0
  0
ELLIPSE
  5
AB
330
91
100
AcDbEntity
  8
AM_9
100
AcDbEllipse
 10
-0.0000000000016658
 20
-4.519614005719564
 30
0.0
 11
-0.2187500000032519
 21
2.678914873174660E-17
 31
0.0
210
0.0
220
0.0
230
1.0
 40
0.8609792635096956
 41
1.018158704708965
 42
2.123433948893791
  0
ELLIPSE
  5
AC
330
91
100
AcDbEntity
  8
AM_9
100
AcDbEllipse
 10
-0.0000000000000381
 20
-4.519614005721385
 30
0.0
 11
-0.2137499999999231
 21
2.617682533176526E-17
 31
0.0
210
0.0
220
0.0
230
1.0
 40
0.8609792635122256
 41
0.9740034935969142
 42
2.167589159993173
  0
ELLIPSE
  5
AD
330
91
100
AcDbEntity
  8
AM_9
100
AcDbEllipse
 10
0.0
 20
-4.528931375275215
 30
0.0
 11
-0.1725340532830148
 21
2.112932760969630E-17
 31
0.0
210
0.0
220
0.0
230
1.0
 40
0.8609792635121939
 41
0.672531324569797
 42
2.469061329019997
  0
LINE
  5
AE
330
91
100
AcDbEntity
  8
AM_9
100
AcDbLine
 10
0.0722692566655032
 20
-4.638603616566581
 30
0.0
 11
0.0817813298508447
 21
-4.630833512839525
 31
0.0
  0
LINE
  5
AF
330
91
100
AcDbEntity
  8
AM_9
100
AcDbLine
 10
-0.0817813298508447
 20
-4.630833512839525
 30
0.0
 11
-0.0722692566655032
 21
-4.638603616566581
 31
0.0
  0
ELLIPSE
  5
B0
330
91
100
AcDbEntity
  8
AM_9
100
AcDbEllipse
 10
0.0000000000000008
 20
-4.556619157663856
 30
0.0
 11
-0.1188200907348968
 21
1.455126437928894E-17
 31
0.0
210
0.0
220
0.0
230
1.0
 40
0.860979263512195
 41
0.0646574844187642
 42
3.076935169171028
  0
ELLIPSE
  5
B1
330
91
100
AcDbEntity
  8
AM_9
100
AcDbEllipse
 10
0.0000000000000075
 20
-4.573021211728733
 30
0.0
 11
-0.1050000000000077
 21
1.285879139104815E-17
 31
0.0
210
0.0
220
0.0
230
1.0
 40
0.8609792635121727
 41
5.880756298286344
 42
9.827206969662676
  0
LINE
  5
B2
330
91
100
AcDbEntity
  8
AM_9
100
AcDbLine
 10
-0.105
 20
-4.573021211728737
 30
0.0
 11
-0.105
 21
-4.588280413445138
 31
0.0
  0
LINE
  5
B3
330
91
100
AcDbEntity
  8
AM_9
100
AcDbLine
 10
0.105
 20
-4.588280413445138
 30
0.0
 11
0.105
 21
-4.573021211728737
 31
0.0
  0
ELLIPSE
  5
B4
330
91
100
AcDbEntity
  8
AM_9
100
AcDbEllipse
 10
0.0
 20
-4.588280413445138
 30
0.0
 11
-0.1050000000000002
 21
1.285879139104723E-17
 31
0.0
210
0.0
220
0.0
230
1.0
 40
0.8609792635121919
 41
5.274082792072871
 42
10.43388047587609
  0
ELLIPSE
  5
B5
330
91
100
AcDbEntity
  8
AM_9
100
AcDbEllipse
 10
0.0
 20
-4.618798816877939
 30
0.0
 11
-0.1349999999999999
 21
1.653273178848926E-17
 31
0.0
210
0.0
220
0.0
230
1.0
 40
0.860979263512192
 41
0.7530929311475196
 42
2.388499722442274
  0
ELLIPSE
  5
B6
330
91
100
AcDbEntity
  8
AM_9
100
AcDbEllipse
 10
-0.0000000000000003
 20
-4.468749999999999
 30
0.0
 11
-0.2057518972230689
 21
3.065942211658267E-9
 31
0.0
210
0.0
220
0.0
230
1.0
 40
0.8609792635121907
 41
0.0
 42
6.283185307179586
  0
ELLIPSE
  5
B7
330
91
100
AcDbEntity
  8
AM_9
100
AcDbEllipse
 10
0.0000000000000005
 20
-4.352634979570738
 30
0.0
 11
-0.1986176267812163
 21
2.432364408918601E-17
 31
0.0
210
0.0
220
0.0
230
1.0
 40
0.8609792635121899
 41
0.0
 42
6.283185307179586
  0
ELLIPSE
  5
B8
330
91
100
AcDbEntity
  8
AM_9
100
AcDbEllipse
 10
0.0
 20
-4.468750000000002
 30
0.0
 11
-0.2187500000000043
 21
3.259629037943388E-9
 31
0.0
210
0.0
220
0.0
230
1.0
 40
0.860979263512181
 41
0.0
 42
6.283185307179586
  0
LWPOLYLINE
  5
BA
330
91
100
AcDbEntity
  8
AM_4
100
AcDbPolyline
 90
        4
 70
     0
 43
0.0
 10
-0.21875
 20
-4.623739557133116
 10
-0.1643083897258504
 20
-4.654185772922988
 10
-0.1368799989092348
 20
-4.668735592071749
 10
-0.1093749999999999
 20
-4.682720549481717
  0
LWPOLYLINE
  5
BB
330
91
100
AcDbEntity
  8
AM_4
100
AcDbPolyline
 90
        4
 70
     0
 43
0.0
 10
0.109375
 20
-4.682720549481717
 10
0.13671875
 20
-4.668819382407939
 10
0.1640625
 20
-4.65431875618222
 10
0.21875
 20
-4.623739557133116
  0
ELLIPSE
  5
BC
330
91
100
AcDbEntity
  8
AM_4
100
AcDbEllipse
 10
-0.0000000000000002
 20
-4.519614005721334
 30
0.0
 11
-0.2187499999999994
 21
2.678914873134828E-17
 31
0.0
210
0.0
220
0.0
230
1.0
 40
0.8609792635121882
 41
2.123433948893538
 42
7.301344011875845
  0
ELLIPSE
  5
BD
330
91
100
AcDbEntity
  8
AM_4
100
AcDbEllipse
 10
-0.0000000000000003
 20
-4.519614005721335
 30
0.0
 11
-0.2137500000000001
 21
2.617682533177469E-17
 31
0.0
210
0.0
220
0.0
230
1.0
 40
0.8609792635121896
 41
2.167589159992855
 42
7.257188800776525
  0
LINE
  5
BE
330
91
100
AcDbEntity
  8
AM_4
100
AcDbLine
 10
-0.21875
 20
-4.623739557133116
 30
0.0
 11
-0.21875
 21
-4.364624448588219
 31
0.0
  0
LWPOLYLINE
  5
BF
330
91
100
AcDbEntity
  8
AM_4
100
AcDbPolyline
 90
        4
 70
     0
 43
0.0
 10
-0.1093749999999999
 20
-4.356507461960954
 10
-0.1367187499999999
 20
-4.36979071884724
 10
-0.1640625
 20
-4.382474516581584
 10
-0.21875
 20
-4.406264165452606
  0
LWPOLYLINE
  5
C0
330
91
100
AcDbEntity
  8
AM_4
100
AcDbPolyline
 90
        4
 70
     0
 43
0.0
 10
0.0
 20
-4.297526469612353
 10
-0.0544416102741496
 20
-4.327972685402225
 10
-0.0818700010907651
 20
-4.342522504550986
 10
-0.1093749999999999
 20
-4.356507461960954
  0
LWPOLYLINE
  5
C1
330
91
100
AcDbEntity
  8
AM_4
100
AcDbPolyline
 90
        4
 70
     0
 43
0.0
 10
-0.109375
 20
-4.305643456239618
 10
-0.08203125
 20
-4.292360199353332
 10
-0.0546875
 20
-4.279676401618988
 10
0.0
 20
-4.255886752747965
  0
LWPOLYLINE
  5
C2
330
91
100
AcDbEntity
  8
AM_4
100
AcDbPolyline
 90
        4
 70
     0
 43
0.0
 10
-0.21875
 20
-4.364624448588219
 10
-0.1643083897258504
 20
-4.334178232798347
 10
-0.1368799989092349
 20
-4.319628413649585
 10
-0.109375
 20
-4.305643456239618
  0
LINE
  5
C3
330
91
100
AcDbEntity
  8
AM_4
100
AcDbLine
 10
0.0
 20
-4.297526469612353
 30
0.0
 11
0.0
 21
-4.255886752747965
 31
0.0
  0
LWPOLYLINE
  5
C4
330
91
100
AcDbEntity
  8
AM_4
100
AcDbPolyline
 90
        4
 70
     0
 43
0.0
 10
0.109375
 20
-4.356507461960954
 10
0.08203125
 20
-4.342606294887175
 10
0.0546875
 20
-4.328105668661457
 10
0.0
 20
-4.297526469612353
  0
LWPOLYLINE
  5
C5
330
91
100
AcDbEntity
  8
AM_4
100
AcDbPolyline
 90
        4
 70
     0
 43
0.0
 10
0.21875
 20
-4.406264165452606
 10
0.1643083897258504
 20
-4.382585990302647
 10
0.1368799989092349
 20
-4.369867237858222
 10
0.109375
 20
-4.356507461960954
  0
LINE
  5
C6
330
91
100
AcDbEntity
  8
AM_4
100
AcDbLine
 10
0.21875
 20
-4.623739557133116
 30
0.0
 11
0.21875
 21
-4.364624448588219
 31
0.0
  0
LWPOLYLINE
  5
C7
330
91
100
AcDbEntity
  8
AM_4
100
AcDbPolyline
 90
        4
 70
     0
 43
0.0
 10
0.109375
 20
-4.305643456239618
 10
0.1367187499999999
 20
-4.319544623313396
 10
0.1640625
 20
-4.334045249539114
 10
0.21875
 20
-4.364624448588219
  0
LWPOLYLINE
  5
C8
330
91
100
AcDbEntity
  8
AM_4
100
AcDbPolyline
 90
        4
 70
     0
 43
0.0
 10
0.0
 20
-4.255886752747965
 10
0.0544416102741496
 20
-4.279564927897924
 10
0.0818700010907651
 20
-4.29228368034235
 10
0.109375
 20
-4.305643456239618
  0
ELLIPSE
  5
C9
330
91
100
AcDbEntity
  8
AM_4
100
AcDbEllipse
 10
0.0000000000000004
 20
-4.528931375275214
 30
0.0
 11
-0.1725340532830146
 21
2.112932760969627E-17
 31
0.0
210
0.0
220
0.0
230
1.0
 40
0.86097926351219
 41
2.469061329019985
 42
6.955716631749389
  0
ELLIPSE
  5
CA
330
91
100
AcDbEntity
  8
AM_4
100
AcDbEllipse
 10
-0.0000000000000012
 20
-4.556619157663856
 30
0.0
 11
-0.1188200907348963
 21
1.455126437928888E-17
 31
0.0
210
0.0
220
0.0
230
1.0
 40
0.8609792635121909
 41
3.076935169171028
 42
6.347842791598352
  0
ELLIPSE
  5
CB
330
91
100
AcDbEntity
  8
AM_4
100
AcDbEllipse
 10
0.0000000000000012
 20
-4.573021211728738
 30
0.0
 11
-0.1050000000000017
 21
1.285879139104742E-17
 31
0.0
210
0.0
220
0.0
230
1.0
 40
0.8609792635121877
 41
3.544021662483116
 42
5.880756298286273
  0
ELLIPSE
  5
CC
330
91
100
AcDbEntity
  8
AM_4
100
AcDbEllipse
 10
-0.0000000000000011
 20
-4.588280413445136
 30
0.0
 11
-0.1049999999999949
 21
1.285879139104659E-17
 31
0.0
210
0.0
220
0.0
230
1.0
 40
0.8609792635122095
 41
4.150695168696481
 42
5.274082792072882
  0
LINE
  5
CD
330
91
100
AcDbEntity
  8
AM_4
100
AcDbLine
 10
-0.0559251552151609
 20
-4.511767607800989
 30
0.0
 11
-0.0719037709909212
 21
-4.520425209621176
 31
0.0
  0
LINE
  5
CE
330
91
100
AcDbEntity
  8
AM_4
100
AcDbLine
 10
0.0719037709909212
 20
-4.520425209621176
 30
0.0
 11
0.0559251552151609
 21
-4.511767607800989
 31
0.0
  0
ELLIPSE
  5
CF
330
91
100
AcDbEntity
  8
AM_4
100
AcDbEllipse
 10
0.0000000000000021
 20
-4.618798816877935
 30
0.0
 11
-0.1349999999999906
 21
1.653273178848812E-17
 31
0.0
210
0.0
220
0.0
230
1.0
 40
0.8609792635122184
 41
2.388499722442253
 42
7.036278238327109
  0
LINE
  5
D0
330
91
100
AcDbEntity
  8
AM_4
100
AcDbLine
 10
0.0749114470288754
 20
-4.71994907810219
 30
0.0
 11
0.0984929099493944
 21
-4.69828985140142
 31
0.0
  0
LINE
  5
D1
330
91
100
AcDbEntity
  8
AM_4
100
AcDbLine
 10
-0.0984929099493944
 20
-4.69828985140142
 30
0.0
 11
-0.0749114470288754
 21
-4.71994907810219
 31
0.0
  0
ELLIPSE
  5
D2
330
91
100
AcDbEntity
  8
AM_4
100
AcDbEllipse
 10
-0.0000000000000003
 20
-4.659490021455008
 30
0.0
 11
-0.1026779019331872
 21
1.257441639456436E-17
 31
0.0
210
0.0
220
0.0
230
1.0
 40
0.8609792635121936
 41
0.0
 42
6.283185307179586
  0
ENDBLK
  5
94
330
91
100
AcDbEntity
  8
0
100
AcDbBlockEnd
  0
BLOCK
  5
D5
330
D3
100
AcDbEntity
  8
0
100
AcDbBlockBegin
  2
3_405015E_Inch_2_0_in_072300_0
 70
     2
 10
0.0
 20
0.0
 30
0.0
  3
3_405015E_Inch_2_0_in_072300_0
  1

  0
ATTDEF
  5
D7
330
D3
100
AcDbEntity
  8
AM_6
100
AcDbText
 10
5.218750000000004
 20
4.747893565840419
 30
0.0
 40
0.5
  1
405015E -Inch
100
AcDbAttributeDefinition
  3

  2
NN
 70
     8
280
     0
  0
ATTDEF
  5
D8
330
D3
100
AcDbEntity
  8
AM_6
100
AcDbText
 10
5.218750000000004
 20
4.247893565840419
 30
0.0
 40
0.5
  1
Grease Fitting
100
AcDbAttributeDefinition
  3

  2
NT
 70
     8
280
     0
  0
ATTDEF
  5
D9
330
D3
100
AcDbEntity
  8
AM_6
100
AcDbText
 10
5.218750000000004
 20
3.747893565840419
 30
0.0
 40
0.5
  1
405015E-Inch
100
AcDbAttributeDefinition
  3

  2
NB
 70
     8
280
     0
  0
ATTDEF
  5
DA
330
D3
100
AcDbEntity
  8
AM_6
100
AcDbText
 10
5.218750000000004
 20
3.247893565840419
 30
0.0
 40
0.5
  1
$MN.-Inch
100
AcDbAttributeDefinition
  3

  2
NBSYN
 70
     8
280
     0
  0
ATTDEF
  5
DB
330
D3
100
AcDbEntity
  8
AM_6
100
AcDbText
 10
5.218750000000004
 20
2.747893565840419
 30
0.0
 40
0.5
  1
405015E
100
AcDbAttributeDefinition
  3

  2
LINA
 70
     8
280
     0
  0
ATTDEF
  5
DC
330
D3
100
AcDbEntity
  8
AM_6
100
AcDbText
 10
5.218750000000004
 20
2.247893565840419
 30
0.0
 40
0.5
  1
405015E
100
AcDbAttributeDefinition
  3

  2
MN
 70
     8
280
     0
  0
ATTDEF
  5
DD
330
D3
100
AcDbEntity
  8
AM_6
100
AcDbText
 10
5.218750000000004
 20
1.747893565840419
 30
0.0
 40
0.5
  1
1/8 x 27PTF
100
AcDbAttributeDefinition
  3

  2
T
 70
     8
280
     0
  0
ATTDEF
  5
DE
330
D3
100
AcDbEntity
  8
AM_6
100
AcDbText
 10
5.218750000000004
 20
1.247893565840419
 30
0.0
 40
0.5
  1
baldor
100
AcDbAttributeDefinition
  3

  2
COMPANY
 70
     8
280
     0
  0
ELLIPSE
  5
DF
330
D3
100
AcDbEntity
  8
AM_9
100
AcDbEllipse
 10
0.0
 20
4.33396038483846
 30
0.0
 11
-0.161902872472269
 21
1.982738345459263E-17
 31
0.0
210
0.0
220
0.0
230
1.0
 40
0.8609792635121898
 41
0.0
 42
6.283185307179586
  0
LINE
  5
E0
330
D3
100
AcDbEntity
  8
AM_9
100
AcDbLine
 10
0.0758534625724276
 20
4.648982790074714
 30
0.0
 11
0.109375
 21
4.631856543760382
 31
0.0
  0
LINE
  5
E1
330
D3
100
AcDbEntity
  8
AM_9
100
AcDbLine
 10
0.0
 20
4.690837536108982
 30
0.0
 11
0.0297362246379343
 21
4.673971144053307
 31
0.0
  0
LINE
  5
E2
330
D3
100
AcDbEntity
  8
AM_9
100
AcDbLine
 10
-0.0329946926145696
 20
4.672156153358103
 30
0.0
 11
0.0
 21
4.690837536108982
 31
0.0
  0
LINE
  5
E3
330
D3
100
AcDbEntity
  8
AM_9
100
AcDbLine
 10
-0.109375
 20
4.631856543760382
 30
0.0
 11
-0.0799556872701392
 21
4.646837840132781
 31
0.0
  0
LWPOLYLINE
  5
E4
330
D3
100
AcDbEntity
  8
AM_9
100
AcDbPolyline
 90
        4
 70
     0
 43
0.0
 10
0.1093749999999999
 20
4.682720549481717
 10
0.0820312499999999
 20
4.696003806368002
 10
0.0546874999999999
 20
4.708687604102347
 10
0.0
 20
4.732477252973371
  0
LWPOLYLINE
  5
E5
330
D3
100
AcDbEntity
  8
AM_9
100
AcDbPolyline
 90
        4
 70
     0
 43
0.0
 10
0.0
 20
4.732477252973371
 10
-0.0544416102741496
 20
4.708799077823411
 10
-0.0818700010907651
 20
4.696080325378985
 10
-0.109375
 20
4.682720549481717
  0
LWPOLYLINE
  5
E6
330
D3
100
AcDbEntity
  8
AM_9
100
AcDbPolyline
 90
        4
 70
     0
 43
0.0
 10
-0.21875
 20
4.582099840268728
 10
-0.1643083897258504
 20
4.605778015418688
 10
-0.1368799989092349
 20
4.618496767863114
 10
-0.109375
 20
4.631856543760382
  0
LWPOLYLINE
  5
E7
330
D3
100
AcDbEntity
  8
AM_9
100
AcDbPolyline
 90
        4
 70
     0
 43
0.0
 10
0.109375
 20
4.631856543760382
 10
0.1367187499999999
 20
4.618573286874097
 10
0.1640625
 20
4.605889489139751
 10
0.21875
 20
4.582099840268728
  0
LINE
  5
E8
330
D3
100
AcDbEntity
  8
AM_9
100
AcDbLine
 10
0.0
 20
4.732477252973371
 30
0.0
 11
0.0
 21
4.690837536108982
 31
0.0
  0
ELLIPSE
  5
E9
330
D3
100
AcDbEntity
  8
AM_9
100
AcDbEllipse
 10
0.0000000000000003
 20
4.468749999999999
 30
0.0
 11
0.2057518972230689
 21
0.0
 31
0.0
210
0.0
220
0.0
230
1.0
 40
0.8609792635121911
 41
4.71238898038469
 42
9.47770244315555
  0
LINE
  5
EA
330
D3
100
AcDbEntity
  8
AM_9
100
AcDbLine
 10
0.198339527633989
 20
4.343588818065991
 30
0.0
 11
0.2054638088590848
 21
4.459378903776813
 31
0.0
  0
LINE
  5
EB
330
D3
100
AcDbEntity
  8
AM_9
100
AcDbLine
 10
-0.2054638088590848
 20
4.459378903776813
 30
0.0
 11
-0.198339527633989
 21
4.343588818065991
 31
0.0
  0
ELLIPSE
  5
EC
330
D3
100
AcDbEntity
  8
AM_9
100
AcDbEllipse
 10
-0.0000000000000003
 20
4.468749999999999
 30
0.0
 11
0.2057518972230687
 21
0.0
 31
0.0
210
0.0
220
0.0
230
1.0
 40
0.8609792635121919
 41
3.194517135975964
 42
4.71238898038469
  0
ELLIPSE
  5
ED
330
D3
100
AcDbEntity
  8
AM_9
100
AcDbEllipse
 10
0.0000000000019194
 20
4.519614005718735
 30
0.0
 11
0.2187500000037496
 21
3.259629011210050E-9
 31
0.0
210
0.0
220
0.0
230
1.0
 40
0.8609792635115125
 41
1.047197537262443
 42
2.123433934829981
  0
ELLIPSE
  5
EE
330
D3
100
AcDbEntity
  8
AM_9
100
AcDbEllipse
 10
-0.0000000000019014
 20
4.519614005718758
 30
0.0
 11
0.2187500000037169
 21
0.0
 31
0.0
210
0.0
220
0.0
230
1.0
 40
0.8609792635115118
 41
1.018158704696392
 42
1.047197551196256
  0
ELLIPSE
  5
EF
330
D3
100
AcDbEntity
  8
AM_9
100
AcDbEllipse
 10
0.0000000000001517
 20
4.519614005721186
 30
0.0
 11
0.2137500000002917
 21
3.185123205189285E-9
 31
0.0
210
0.0
220
0.0
230
1.0
 40
0.860979263511929
 41
1.115998893274057
 42
2.167589145749214
  0
ELLIPSE
  5
F0
330
D3
100
AcDbEntity
  8
AM_9
100
AcDbEllipse
 10
-0.0000000000001117
 20
4.519614005721199
 30
0.0
 11
0.213750000000223
 21
3.185123205188260E-9
 31
0.0
210
0.0
220
0.0
230
1.0
 40
0.8609792635120648
 41
0.974003479353045
 42
1.115998893272855
  0
ELLIPSE
  5
F1
330
D3
100
AcDbEntity
  8
AM_9
100
AcDbEllipse
 10
0.0
 20
4.528931375275215
 30
0.0
 11
0.1725340532830152
 21
2.570957739398110E-9
 31
0.0
210
0.0
220
0.0
230
1.0
 40
0.8609792635121923
 41
0.6725313090003473
 42
2.46906131345044
  0
ELLIPSE
  5
F2
330
D3
100
AcDbEntity
  8
AM_9
100
AcDbEllipse
 10
0.0000000000000004
 20
4.556619157663858
 30
0.0
 11
0.118820090734897
 21
0.0
 31
0.0
210
0.0
220
0.0
230
1.0
 40
0.8609792635121861
 41
0.06465748441786
 42
2.329909864763129
  0
LINE
  5
F3
330
D3
100
AcDbEntity
  8
AM_9
100
AcDbLine
 10
-0.0722692566655033
 20
4.638603616566581
 30
0.0
 11
-0.0817813298508448
 21
4.630833512839525
 31
0.0
  0
LINE
  5
F4
330
D3
100
AcDbEntity
  8
AM_9
100
AcDbLine
 10
0.0817813298508448
 20
4.630833512839525
 30
0.0
 11
0.0722692566655033
 21
4.638603616566581
 31
0.0
  0
ELLIPSE
  5
F5
330
D3
100
AcDbEntity
  8
AM_9
100
AcDbEllipse
 10
0.0
 20
4.573021211728737
 30
0.0
 11
0.105000000000001
 21
0.0
 31
0.0
210
0.0
220
0.0
230
1.0
 40
0.8609792635121853
 41
0.0
 42
2.329909864763111
  0
ELLIPSE
  5
F6
330
D3
100
AcDbEntity
  8
AM_9
100
AcDbEllipse
 10
0.0000000000000026
 20
4.573021211728738
 30
0.0
 11
0.1050000000000024
 21
0.0
 31
0.0
210
0.0
220
0.0
230
1.0
 40
0.8609792635121903
 41
2.329909864763141
 42
3.141592653589793
  0
ELLIPSE
  5
F7
330
D3
100
AcDbEntity
  8
AM_9
100
AcDbEllipse
 10
-0.0000000000000003
 20
4.556619157663858
 30
0.0
 11
0.118820090734897
 21
0.0
 31
0.0
210
0.0
220
0.0
230
1.0
 40
0.860979263512186
 41
2.329909864763128
 42
3.076935169171935
  0
ELLIPSE
  5
F8
330
D3
100
AcDbEntity
  8
AM_9
100
AcDbEllipse
 10
-0.0000000000000047
 20
4.573021211728737
 30
0.0
 11
0.1050000000000048
 21
1.564621925354075E-9
 31
0.0
210
0.0
220
0.0
230
1.0
 40
0.860979263512188
 41
5.88075628166593
 42
6.283187037607677
  0
LINE
  5
F9
330
D3
100
AcDbEntity
  8
AM_9
100
AcDbLine
 10
0.105
 20
4.573021211728737
 30
0.0
 11
0.105
 21
4.588280413445138
 31
0.0
  0
LINE
  5
FA
330
D3
100
AcDbEntity
  8
AM_9
100
AcDbLine
 10
-0.105
 20
4.588280413445138
 30
0.0
 11
-0.105
 21
4.573021211728737
 31
0.0
  0
ELLIPSE
  5
FB
330
D3
100
AcDbEntity
  8
AM_9
100
AcDbEllipse
 10
0.0
 20
4.588280413445138
 30
0.0
 11
0.1050000000000002
 21
0.0
 31
0.0
210
0.0
220
0.0
230
1.0
 40
0.8609792635121919
 41
5.274082792072871
 42
9.42477796076938
  0
ELLIPSE
  5
FC
330
D3
100
AcDbEntity
  8
AM_9
100
AcDbEllipse
 10
-0.0000000000000011
 20
4.588280413445138
 30
0.0
 11
0.104999999999999
 21
0.0
 31
0.0
210
0.0
220
0.0
230
1.0
 40
0.8609792635121847
 41
3.141592653589793
 42
4.15069516869652
  0
ELLIPSE
  5
FD
330
D3
100
AcDbEntity
  8
AM_9
100
AcDbEllipse
 10
0.0000000000000047
 20
4.573021211728737
 30
0.0
 11
0.1050000000000048
 21
0.0
 31
0.0
210
0.0
220
0.0
230
1.0
 40
0.8609792635121882
 41
3.141592653589793
 42
3.544021662483064
  0
ELLIPSE
  5
FE
330
D3
100
AcDbEntity
  8
AM_9
100
AcDbEllipse
 10
0.0
 20
4.618798816877939
 30
0.0
 11
0.1350000000000003
 21
0.0
 31
0.0
210
0.0
220
0.0
230
1.0
 40
0.8609792635121892
 41
0.7530929311475196
 42
2.388499722442273
  0
ELLIPSE
  5
FF
330
D3
100
AcDbEntity
  8
AM_9
100
AcDbEllipse
 10
0.0000000000000008
 20
4.352634979570737
 30
0.0
 11
0.1986176267812148
 21
0.0
 31
0.0
210
0.0
220
0.0
230
1.0
 40
0.8609792635121919
 41
0.0
 42
6.283185307179586
  0
ELLIPSE
  5
100
330
D3
100
AcDbEntity
  8
AM_9
100
AcDbEllipse
 10
0.0
 20
4.468750000000003
 30
0.0
 11
0.2187500000000047
 21
0.0
 31
0.0
210
0.0
220
0.0
230
1.0
 40
0.8609792635121835
 41
0.0
 42
6.283185307179586
  0
LWPOLYLINE
  5
101
330
D3
100
AcDbEntity
  8
AM_4
100
AcDbPolyline
 90
        4
 70
     0
 43
0.0
 10
0.21875
 20
4.623739557133116
 10
0.1643083897258504
 20
4.654185772922988
 10
0.1368799989092348
 20
4.668735592071749
 10
0.1093749999999999
 20
4.682720549481717
  0
LWPOLYLINE
  5
102
330
D3
100
AcDbEntity
  8
AM_4
100
AcDbPolyline
 90
        4
 70
     0
 43
0.0
 10
-0.109375
 20
4.682720549481717
 10
-0.13671875
 20
4.668819382407939
 10
-0.1640625
 20
4.65431875618222
 10
-0.21875
 20
4.623739557133116
  0
ELLIPSE
  5
103
330
D3
100
AcDbEntity
  8
AM_4
100
AcDbEllipse
 10
0.0000000000000021
 20
4.519614005721334
 30
0.0
 11
0.2187500000000022
 21
0.0
 31
0.0
210
0.0
220
0.0
230
1.0
 40
0.8609792635121895
 41
2.123433948893545
 42
4.188790204786381
  0
ELLIPSE
  5
104
330
D3
100
AcDbEntity
  8
AM_4
100
AcDbEllipse
 10
0.0000000000000002
 20
4.519614005721335
 30
0.0
 11
0.2187499999999997
 21
0.0
 31
0.0
210
0.0
220
0.0
230
1.0
 40
0.8609792635121911
 41
4.18879020478639
 42
7.301344011875839
  0
ELLIPSE
  5
105
330
D3
100
AcDbEntity
  8
AM_4
100
AcDbEllipse
 10
0.0000000000000002
 20
4.519614005721335
 30
0.0
 11
0.2137500000000002
 21
0.0
 31
0.0
210
0.0
220
0.0
230
1.0
 40
0.8609792635121891
 41
3.130531690169347
 42
7.25718880077637
  0
ELLIPSE
  5
106
330
D3
100
AcDbEntity
  8
AM_4
100
AcDbEllipse
 10
0.0000000000000021
 20
4.519614005721335
 30
0.0
 11
0.2137500000000022
 21
0.0
 31
0.0
210
0.0
220
0.0
230
1.0
 40
0.8609792635121895
 41
2.167589159993019
 42
3.130531690169357
  0
LWPOLYLINE
  5
107
330
D3
100
AcDbEntity
  8
AM_4
100
AcDbPolyline
 90
        4
 70
     0
 43
0.0
 10
-0.109375
 20
4.356507461960954
 10
-0.08203125
 20
4.342606294887176
 10
-0.0546875
 20
4.328105668661457
 10
0.0
 20
4.297526469612353
  0
LWPOLYLINE
  5
108
330
D3
100
AcDbEntity
  8
AM_4
100
AcDbPolyline
 90
        4
 70
     0
 43
0.0
 10
-0.21875
 20
4.406264165452606
 10
-0.1643083897258504
 20
4.382585990302647
 10
-0.1368799989092349
 20
4.369867237858222
 10
-0.109375
 20
4.356507461960954
  0
LINE
  5
109
330
D3
100
AcDbEntity
  8
AM_4
100
AcDbLine
 10
-0.21875
 20
4.623739557133116
 30
0.0
 11
-0.21875
 21
4.364624448588219
 31
0.0
  0
LWPOLYLINE
  5
10A
330
D3
100
AcDbEntity
  8
AM_4
100
AcDbPolyline
 90
        4
 70
     0
 43
0.0
 10
-0.109375
 20
4.305643456239618
 10
-0.1367187499999999
 20
4.319544623313396
 10
-0.1640625
 20
4.334045249539114
 10
-0.21875
 20
4.364624448588219
  0
LWPOLYLINE
  5
10B
330
D3
100
AcDbEntity
  8
AM_4
100
AcDbPolyline
 90
        4
 70
     0
 43
0.0
 10
0.0
 20
4.255886752747965
 10
-0.0544416102741496
 20
4.279564927897924
 10
-0.0818700010907651
 20
4.29228368034235
 10
-0.109375
 20
4.305643456239618
  0
LINE
  5
10C
330
D3
100
AcDbEntity
  8
AM_4
100
AcDbLine
 10
0.21875
 20
4.623739557133116
 30
0.0
 11
0.21875
 21
4.364624448588219
 31
0.0
  0
LWPOLYLINE
  5
10D
330
D3
100
AcDbEntity
  8
AM_4
100
AcDbPolyline
 90
        4
 70
     0
 43
0.0
 10
0.1093749999999999
 20
4.356507461960954
 10
0.1367187499999999
 20
4.36979071884724
 10
0.1640625
 20
4.382474516581584
 10
0.21875
 20
4.406264165452606
  0
LWPOLYLINE
  5
10E
330
D3
100
AcDbEntity
  8
AM_4
100
AcDbPolyline
 90
        4
 70
     0
 43
0.0
 10
0.0
 20
4.297526469612353
 10
0.0544416102741496
 20
4.327972685402225
 10
0.0818700010907651
 20
4.342522504550987
 10
0.1093749999999999
 20
4.356507461960954
  0
LINE
  5
10F
330
D3
100
AcDbEntity
  8
AM_4
100
AcDbLine
 10
0.0
 20
4.297526469612353
 30
0.0
 11
0.0
 21
4.255886752747965
 31
0.0
  0
LWPOLYLINE
  5
110
330
D3
100
AcDbEntity
  8
AM_4
100
AcDbPolyline
 90
        4
 70
     0
 43
0.0
 10
0.109375
 20
4.305643456239618
 10
0.08203125
 20
4.292360199353332
 10
0.0546875
 20
4.279676401618988
 10
0.0
 20
4.255886752747965
  0
LWPOLYLINE
  5
111
330
D3
100
AcDbEntity
  8
AM_4
100
AcDbPolyline
 90
        4
 70
     0
 43
0.0
 10
0.21875
 20
4.364624448588219
 10
0.1643083897258504
 20
4.334178232798347
 10
0.1368799989092349
 20
4.319628413649585
 10
0.109375
 20
4.305643456239618
  0
ELLIPSE
  5
112
330
D3
100
AcDbEntity
  8
AM_4
100
AcDbEllipse
 10
-0.0000000000000002
 20
4.528931375275215
 30
0.0
 11
0.1725340532830152
 21
2.570957739398110E-9
 31
0.0
210
0.0
220
0.0
230
1.0
 40
0.8609792635121923
 41
2.46906131345044
 42
6.955716616179933
  0
ELLIPSE
  5
113
330
D3
100
AcDbEntity
  8
AM_4
100
AcDbEllipse
 10
0.0000000000000009
 20
4.556619157663857
 30
0.0
 11
0.1188200907348968
 21
1.770557325108303E-9
 31
0.0
210
0.0
220
0.0
230
1.0
 40
0.8609792635121943
 41
4.712388967555092
 42
6.347842774308932
  0
ELLIPSE
  5
114
330
D3
100
AcDbEntity
  8
AM_4
100
AcDbEllipse
 10
-0.0000000000000009
 20
4.556619157663857
 30
0.0
 11
0.1188200907348969
 21
0.0
 31
0.0
210
0.0
220
0.0
230
1.0
 40
0.8609792635121939
 41
3.076935169171918
 42
4.71238898038469
  0
ELLIPSE
  5
115
330
D3
100
AcDbEntity
  8
AM_4
100
AcDbEllipse
 10
-0.0000000000000005
 20
4.573021211728738
 30
0.0
 11
0.1050000000000003
 21
0.0
 31
0.0
210
0.0
220
0.0
230
1.0
 40
0.8609792635121991
 41
4.71238898038469
 42
5.880756298286296
  0
ELLIPSE
  5
116
330
D3
100
AcDbEntity
  8
AM_4
100
AcDbEllipse
 10
0.0000000000000005
 20
4.573021211728738
 30
0.0
 11
0.1050000000000004
 21
0.0
 31
0.0
210
0.0
220
0.0
230
1.0
 40
0.8609792635121983
 41
3.544021662483084
 42
4.71238898038469
  0
ELLIPSE
  5
117
330
D3
100
AcDbEntity
  8
AM_4
100
AcDbEllipse
 10
0.0000000000000012
 20
4.588280413445134
 30
0.0
 11
0.1049999999999943
 21
0.0
 31
0.0
210
0.0
220
0.0
230
1.0
 40
0.8609792635121978
 41
4.71238898038469
 42
5.274082792072885
  0
LINE
  5
118
330
D3
100
AcDbEntity
  8
AM_4
100
AcDbLine
 10
0.0559251552151611
 20
4.511767607800989
 30
0.0
 11
0.0719037709909214
 21
4.520425209621176
 31
0.0
  0
LINE
  5
119
330
D3
100
AcDbEntity
  8
AM_4
100
AcDbLine
 10
-0.0719037709909214
 20
4.520425209621176
 30
0.0
 11
-0.0559251552151611
 21
4.511767607800989
 31
0.0
  0
ELLIPSE
  5
11A
330
D3
100
AcDbEntity
  8
AM_4
100
AcDbEllipse
 10
-0.0000000000000013
 20
4.618798816877939
 30
0.0
 11
0.1349999999999986
 21
0.0
 31
0.0
210
0.0
220
0.0
230
1.0
 40
0.8609792635121872
 41
4.150695168696515
 42
7.036278238327109
  0
ELLIPSE
  5
11B
330
D3
100
AcDbEntity
  8
AM_4
100
AcDbEllipse
 10
-0.0000000000000012
 20
4.588280413445134
 30
0.0
 11
0.1049999999999941
 21
0.0
 31
0.0
210
0.0
220
0.0
230
1.0
 40
0.8609792635121997
 41
4.150695168696492
 42
4.71238898038469
  0
ELLIPSE
  5
11C
330
D3
100
AcDbEntity
  8
AM_4
100
AcDbEllipse
 10
0.0000000000000005
 20
4.659490021455007
 30
0.0
 11
0.1026779019331869
 21
0.0
 31
0.0
210
0.0
220
0.0
230
1.0
 40
0.8609792635121875
 41
4.71238898038469
 42
8.671685029621857
  0
LINE
  5
11D
330
D3
100
AcDbEntity
  8
AM_4
100
AcDbLine
 10
-0.0749114470288755
 20
4.71994907810219
 30
0.0
 11
-0.0984929099493945
 21
4.69828985140142
 31
0.0
  0
LINE
  5
11E
330
D3
100
AcDbEntity
  8
AM_4
100
AcDbLine
 10
0.0984929099493945
 20
4.69828985140142
 30
0.0
 11
0.0749114470288755
 21
4.71994907810219
 31
0.0
  0
ELLIPSE
  5
11F
330
D3
100
AcDbEntity
  8
AM_4
100
AcDbEllipse
 10
-0.0000000000000005
 20
4.659490021455008
 30
0.0
 11
0.1026779019331872
 21
0.0
 31
0.0
210
0.0
220
0.0
230
1.0
 40
0.860979263512194
 41
2.388499722442277
 42
4.71238898038469
  0
ELLIPSE
  5
120
330
D3
100
AcDbEntity
  8
AM_4
100
AcDbEllipse
 10
-0.0000000000000006
 20
4.61879881687794
 30
0.0
 11
0.1349999999999994
 21
0.0
 31
0.0
210
0.0
220
0.0
230
1.0
 40
0.8609792635121888
 41
2.388499722442275
 42
4.150695168696519
  0
ENDBLK
  5
D6
330
D3
100
AcDbEntity
  8
0
100
AcDbBlockEnd
  0
BLOCK
  5
123
330
121
100
AcDbEntity
  8
0
100
AcDbBlockBegin
  2
4_ASME_B18_3_1_4_1_0_in_072300_0
 70
     2
 10
0.0
 20
0.0
 30
0.0
  3
4_ASME_B18_3_1_4_1_0_in_072300_0
  1

  0
ATTDEF
  5
125
330
121
100
AcDbEntity
  8
AM_6
100
AcDbText
 10
5.229425
 20
-2.196430555555556
 30
0.0
 40
0.5
  1
ANSI/ASME-B18.3-1998
100
AcDbAttributeDefinition
  3

  2
NN
 70
     8
280
     0
  0
ATTDEF
  5
126
330
121
100
AcDbEntity
  8
AM_6
100
AcDbText
 10
5.229425
 20
-2.696430555555556
 30
0.0
 40
0.5
  1
Socket Button Head Cap Screws
100
AcDbAttributeDefinition
  3

  2
NT
 70
     8
280
     0
  0
ATTDEF
  5
127
330
121
100
AcDbEntity
  8
AM_6
100
AcDbText
 10
5.229425
 20
-3.196430555555556
 30
0.0
 40
0.5
  1
ASME-B18.3-1/4
100
AcDbAttributeDefinition
  3

  2
NB
 70
     8
280
     0
  0
ATTDEF
  5
128
330
121
100
AcDbEntity
  8
AM_6
100
AcDbText
 10
5.229425
 20
-3.696430555555556
 30
0.0
 40
0.5
  1
ASME-B18.3-$NS.
100
AcDbAttributeDefinition
  3

  2
NBSYN
 70
     8
280
     0
  0
ATTDEF
  5
129
330
121
100
AcDbEntity
  8
AM_6
100
AcDbText
 10
5.229425
 20
-4.196430555555557
 30
0.0
 40
0.5
  1
ASME-B18.3-1/4
100
AcDbAttributeDefinition
  3

  2
LINA
 70
     8
280
     0
  0
ATTDEF
  5
12A
330
121
100
AcDbEntity
  8
AM_6
100
AcDbText
 10
5.229425
 20
-4.696430555555557
 30
0.0
 40
0.5
  1
1/4
100
AcDbAttributeDefinition
  3

  2
NS
 70
     8
280
     0
  0
ATTDEF
  5
12B
330
121
100
AcDbEntity
  8
AM_6
100
AcDbText
 10
5.229425
 20
-5.196430555555557
 30
0.0
 40
0.5
  1
0.437
100
AcDbAttributeDefinition
  3

  2
A
 70
     8
280
     0
  0
ATTDEF
  5
12C
330
121
100
AcDbEntity
  8
AM_6
100
AcDbText
 10
5.229425
 20
-5.696430555555557
 30
0.0
 40
0.5
  1
0.132
100
AcDbAttributeDefinition
  3

  2
H
 70
     8
280
     0
  0
ATTDEF
  5
12D
330
121
100
AcDbEntity
  8
AM_6
100
AcDbText
 10
5.229425
 20
-6.196430555555557
 30
0.0
 40
0.5
  1
0.800
100
AcDbAttributeDefinition
  3

  2
L
 70
     8
280
     0
  0
ATTDEF
  5
12E
330
121
100
AcDbEntity
  8
AM_6
100
AcDbText
 10
5.229425
 20
-6.696430555555557
 30
0.0
 40
0.5
  1
0.031
100
AcDbAttributeDefinition
  3

  2
S
 70
     8
280
     0
  0
ATTDEF
  5
12F
330
121
100
AcDbEntity
  8
AM_6
100
AcDbText
 10
5.229425
 20
-7.196430555555557
 30
0.0
 40
0.5
  1
0.156250
100
AcDbAttributeDefinition
  3

  2
J
 70
     8
280
     0
  0
ATTDEF
  5
130
330
121
100
AcDbEntity
  8
AM_6
100
AcDbText
 10
5.229425
 20
-7.696430555555557
 30
0.0
 40
0.5
  1
baldor
100
AcDbAttributeDefinition
  3

  2
COMPANY
 70
     8
280
     0
  0
ARC
  5
132
330
121
100
AcDbEntity
  8
AM_5
100
AcDbCircle
 10
-0.0000000000000001
 20
-2.414930555555555
 30
0.0
 40
0.0952500000000001
100
AcDbArc
 50
75.00000000000001
 51
15.00000000000004
  0
LINE
  5
135
330
121
100
AcDbEntity
  8
AM_7
100
AcDbLine
 10
-0.2294249999999997
 20
-2.414930555555556
 30
0.0
 11
0.2294249999999997
 21
-2.414930555555556
 31
0.0
  0
LINE
  5
136
330
121
100
AcDbEntity
  8
AM_4
100
AcDbLine
 10
0.0
 20
-2.324719575994676
 30
0.0
 11
0.078125
 21
-2.369825065775116
 31
0.0
  0
LINE
  5
137
330
121
100
AcDbEntity
  8
AM_4
100
AcDbLine
 10
0.078125
 20
-2.369825065775116
 30
0.0
 11
0.078125
 21
-2.460036045335995
 31
0.0
  0
CIRCLE
  5
138
330
121
100
AcDbEntity
  8
AM_4
100
AcDbCircle
 10
0.0
 20
-2.414930555555555
 30
0.0
 40
0.1175
  0
LINE
  5
139
330
121
100
AcDbEntity
  8
AM_4
100
AcDbLine
 10
-0.078125
 20
-2.460036045335995
 30
0.0
 11
-0.078125
 21
-2.369825065775116
 31
0.0
  0
LINE
  5
13A
330
121
100
AcDbEntity
  8
AM_4
100
AcDbLine
 10
-0.078125
 20
-2.369825065775116
 30
0.0
 11
0.0
 21
-2.324719575994676
 31
0.0
  0
LINE
  5
13B
330
121
100
AcDbEntity
  8
AM_4
100
AcDbLine
 10
0.078125
 20
-2.460036045335995
 30
0.0
 11
0.0
 21
-2.505141535116434
 31
0.0
  0
LINE
  5
13C
330
121
100
AcDbEntity
  8
AM_4
100
AcDbLine
 10
0.0
 20
-2.505141535116434
 30
0.0
 11
-0.078125
 21
-2.460036045335995
 31
0.0
  0
CIRCLE
  5
13D
330
121
100
AcDbEntity
  8
AM_4
100
AcDbCircle
 10
0.0
 20
-2.414930555555556
 30
0.0
 40
0.2184999999999997
  0
CIRCLE
  5
13E
330
121
100
AcDbEntity
  8
AM_5
100
AcDbCircle
 10
0.0
 20
-2.414930555555555
 30
0.0
 40
0.0952500000000001
  0
ENDBLK
  5
124
330
121
100
AcDbEntity
  8
0
100
AcDbBlockEnd
  0
BLOCK
  5
141
330
13F
100
AcDbEntity
  8
0
100
AcDbBlockBegin
  2
5_ASME_B18_3_1_4_2_0_in_072300_0
 70
     2
 10
0.0
 20
0.0
 30
0.0
  3
5_ASME_B18_3_1_4_2_0_in_072300_0
  1

  0
ATTDEF
  5
143
330
13F
100
AcDbEntity
  8
AM_6
100
AcDbText
 10
5.229425
 20
2.633430555555555
 30
0.0
 40
0.5
  1
ANSI/ASME-B18.3-1998
100
AcDbAttributeDefinition
  3

  2
NN
 70
     8
280
     0
  0
ATTDEF
  5
144
330
13F
100
AcDbEntity
  8
AM_6
100
AcDbText
 10
5.229425
 20
2.133430555555555
 30
0.0
 40
0.5
  1
Socket Button Head Cap Screws
100
AcDbAttributeDefinition
  3

  2
NT
 70
     8
280
     0
  0
ATTDEF
  5
145
330
13F
100
AcDbEntity
  8
AM_6
100
AcDbText
 10
5.229425
 20
1.633430555555555
 30
0.0
 40
0.5
  1
ASME-B18.3-1/4
100
AcDbAttributeDefinition
  3

  2
NB
 70
     8
280
     0
  0
ATTDEF
  5
146
330
13F
100
AcDbEntity
  8
AM_6
100
AcDbText
 10
5.229425
 20
1.133430555555555
 30
0.0
 40
0.5
  1
ASME-B18.3-$NS.
100
AcDbAttributeDefinition
  3

  2
NBSYN
 70
     8
280
     0
  0
ATTDEF
  5
147
330
13F
100
AcDbEntity
  8
AM_6
100
AcDbText
 10
5.229425
 20
0.6334305555555546
 30
0.0
 40
0.5
  1
ASME-B18.3-1/4
100
AcDbAttributeDefinition
  3

  2
LINA
 70
     8
280
     0
  0
ATTDEF
  5
148
330
13F
100
AcDbEntity
  8
AM_6
100
AcDbText
 10
5.229425
 20
0.1334305555555546
 30
0.0
 40
0.5
  1
1/4
100
AcDbAttributeDefinition
  3

  2
NS
 70
     8
280
     0
  0
ATTDEF
  5
149
330
13F
100
AcDbEntity
  8
AM_6
100
AcDbText
 10
5.229425
 20
-0.3665694444444454
 30
0.0
 40
0.5
  1
0.437
100
AcDbAttributeDefinition
  3

  2
A
 70
     8
280
     0
  0
ATTDEF
  5
14A
330
13F
100
AcDbEntity
  8
AM_6
100
AcDbText
 10
5.229425
 20
-0.8665694444444454
 30
0.0
 40
0.5
  1
0.132
100
AcDbAttributeDefinition
  3

  2
H
 70
     8
280
     0
  0
ATTDEF
  5
14B
330
13F
100
AcDbEntity
  8
AM_6
100
AcDbText
 10
5.229425
 20
-1.366569444444445
 30
0.0
 40
0.5
  1
0.800
100
AcDbAttributeDefinition
  3

  2
L
 70
     8
280
     0
  0
ATTDEF
  5
14C
330
13F
100
AcDbEntity
  8
AM_6
100
AcDbText
 10
5.229425
 20
-1.866569444444445
 30
0.0
 40
0.5
  1
0.031
100
AcDbAttributeDefinition
  3

  2
S
 70
     8
280
     0
  0
ATTDEF
  5
14D
330
13F
100
AcDbEntity
  8
AM_6
100
AcDbText
 10
5.229425
 20
-2.366569444444445
 30
0.0
 40
0.5
  1
0.156250
100
AcDbAttributeDefinition
  3

  2
J
 70
     8
280
     0
  0
ATTDEF
  5
14E
330
13F
100
AcDbEntity
  8
AM_6
100
AcDbText
 10
5.229425
 20
-2.866569444444445
 30
0.0
 40
0.5
  1
baldor
100
AcDbAttributeDefinition
  3

  2
COMPANY
 70
     8
280
     0
  0
ARC
  5
14F
330
13F
100
AcDbEntity
  8
AM_5
100
AcDbCircle
 10
-0.0000000000000001
 20
2.414930555555555
 30
0.0
 40
0.0952500000000001
100
AcDbArc
 50
75.00000000000001
 51
15.00000000000004
  0
LINE
  5
150
330
13F
100
AcDbEntity
  8
AM_7
100
AcDbLine
 10
-0.2294249999999997
 20
2.414930555555555
 30
0.0
 11
0.2294249999999997
 21
2.414930555555555
 31
0.0
  0
CIRCLE
  5
151
330
13F
100
AcDbEntity
  8
AM_4
100
AcDbCircle
 10
0.0
 20
2.414930555555555
 30
0.0
 40
0.1175
  0
LINE
  5
152
330
13F
100
AcDbEntity
  8
AM_4
100
AcDbLine
 10
-0.078125
 20
2.369825065775116
 30
0.0
 11
-0.078125
 21
2.460036045335995
 31
0.0
  0
LINE
  5
153
330
13F
100
AcDbEntity
  8
AM_4
100
AcDbLine
 10
-0.078125
 20
2.460036045335995
 30
0.0
 11
0.0
 21
2.505141535116434
 31
0.0
  0
LINE
  5
154
330
13F
100
AcDbEntity
  8
AM_4
100
AcDbLine
 10
0.0
 20
2.505141535116434
 30
0.0
 11
0.078125
 21
2.460036045335995
 31
0.0
  0
LINE
  5
155
330
13F
100
AcDbEntity
  8
AM_4
100
AcDbLine
 10
0.078125
 20
2.460036045335995
 30
0.0
 11
0.078125
 21
2.369825065775116
 31
0.0
  0
LINE
  5
156
330
13F
100
AcDbEntity
  8
AM_4
100
AcDbLine
 10
0.078125
 20
2.369825065775116
 30
0.0
 11
0.0
 21
2.324719575994676
 31
0.0
  0
LINE
  5
157
330
13F
100
AcDbEntity
  8
AM_4
100
AcDbLine
 10
0.0
 20
2.324719575994676
 30
0.0
 11
-0.078125
 21
2.369825065775116
 31
0.0
  0
CIRCLE
  5
158
330
13F
100
AcDbEntity
  8
AM_4
100
AcDbCircle
 10
0.0
 20
2.414930555555555
 30
0.0
 40
0.2184999999999997
  0
CIRCLE
  5
159
330
13F
100
AcDbEntity
  8
AM_5
100
AcDbCircle
 10
0.0
 20
2.414930555555555
 30
0.0
 40
0.0952500000000001
  0
ENDBLK
  5
142
330
13F
100
AcDbEntity
  8
0
100
AcDbBlockEnd
  0
BLOCK
  5
15C
330
15A
100
AcDbEntity
  8
0
100
AcDbBlockBegin
  2
6_070905LW_0_in_072300_0
 70
     2
 10
0.0
 20
0.0
 30
0.0
  3
6_070905LW_0_in_072300_0
  1

  0
ATTDEF
  5
15E
330
15A
100
AcDbEntity
  8
AM_6
100
AcDbText
 10
7.78125
 20
2.78125
 30
0.0
 40
0.5
  1
Imperial Insert Lockwasher -Inch
100
AcDbAttributeDefinition
  3

  2
NN
 70
     8
280
     0
  0
ATTDEF
  5
15F
330
15A
100
AcDbEntity
  8
AM_6
100
AcDbText
 10
7.78125
 20
2.28125
 30
0.0
 40
0.5
  1
Imperial Bearings
100
AcDbAttributeDefinition
  3

  2
NT
 70
     8
280
     0
  0
ATTDEF
  5
160
330
15A
100
AcDbEntity
  8
AM_6
100
AcDbText
 10
7.78125
 20
1.78125
 30
0.0
 40
0.5
  1
070905LW
100
AcDbAttributeDefinition
  3

  2
NB
 70
     8
280
     0
  0
ATTDEF
  5
161
330
15A
100
AcDbEntity
  8
AM_6
100
AcDbText
 10
7.78125
 20
1.28125
 30
0.0
 40
0.5
  1
$PN.LW
100
AcDbAttributeDefinition
  3

  2
NBSYN
 70
     8
280
     0
  0
ATTDEF
  5
162
330
15A
100
AcDbEntity
  8
AM_6
100
AcDbText
 10
7.78125
 20
0.7812499999999996
 30
0.0
 40
0.5
  1
070905
100
AcDbAttributeDefinition
  3

  2
LINA
 70
     8
280
     0
  0
ATTDEF
  5
163
330
15A
100
AcDbEntity
  8
AM_6
100
AcDbText
 10
7.78125
 20
0.2812499999999996
 30
0.0
 40
0.5
  1
3-11/16
100
AcDbAttributeDefinition
  3

  2
SS
 70
     8
280
     0
  0
ATTDEF
  5
164
330
15A
100
AcDbEntity
  8
AM_6
100
AcDbText
 10
7.78125
 20
-0.2187500000000004
 30
0.0
 40
0.5
  1
3.687500
100
AcDbAttributeDefinition
  3

  2
SS1
 70
     8
280
     0
  0
ATTDEF
  5
165
330
15A
100
AcDbEntity
  8
AM_6
100
AcDbText
 10
7.78125
 20
-0.7187500000000004
 30
0.0
 40
0.5
  1
070905
100
AcDbAttributeDefinition
  3

  2
PN
 70
     8
280
     0
  0
ATTDEF
  5
166
330
15A
100
AcDbEntity
  8
AM_6
100
AcDbText
 10
7.78125
 20
-1.21875
 30
0.0
 40
0.5
  1
INS-IP-311R
100
AcDbAttributeDefinition
  3

  2
DESCRIPTION
 70
     8
280
     0
  0
ATTDEF
  5
167
330
15A
100
AcDbEntity
  8
AM_6
100
AcDbText
 10
7.78125
 20
-1.71875
 30
0.0
 40
0.5
  1
7.0866
100
AcDbAttributeDefinition
  3

  2
A
 70
     8
280
     0
  0
ATTDEF
  5
168
330
15A
100
AcDbEntity
  8
AM_6
100
AcDbText
 10
7.78125
 20
-2.21875
 30
0.0
 40
0.5
  1
1-7/8
100
AcDbAttributeDefinition
  3

  2
B
 70
     8
280
     0
  0
ATTDEF
  5
169
330
15A
100
AcDbEntity
  8
AM_6
100
AcDbText
 10
7.78125
 20
-2.71875
 30
0.0
 40
0.5
  1
4-45/64
100
AcDbAttributeDefinition
  3

  2
C
 70
     8
280
     0
  0
ATTDEF
  5
16A
330
15A
100
AcDbEntity
  8
AM_6
100
AcDbText
 10
7.78125
 20
-3.21875
 30
0.0
 40
0.5
  1
1.646
100
AcDbAttributeDefinition
  3

  2
D
 70
     8
280
     0
  0
ATTDEF
  5
16B
330
15A
100
AcDbEntity
  8
AM_6
100
AcDbText
 10
7.78125
 20
-3.71875
 30
0.0
 40
0.5
  1
5-9/16
100
AcDbAttributeDefinition
  3

  2
E
 70
     8
280
     0
  0
ATTDEF
  5
16C
330
15A
100
AcDbEntity
  8
AM_6
100
AcDbText
 10
7.78125
 20
-4.21875
 30
0.0
 40
0.5
  1
0.2500
100
AcDbAttributeDefinition
  3

  2
NDM
 70
     8
280
     0
  0
ATTDEF
  5
16D
330
15A
100
AcDbEntity
  8
AM_6
100
AcDbText
 10
7.78125
 20
-4.71875
 30
0.0
 40
0.5
  1
0.1960
100
AcDbAttributeDefinition
  3

  2
KDM
 70
     8
280
     0
  0
ATTDEF
  5
16E
330
15A
100
AcDbEntity
  8
AM_6
100
AcDbText
 10
7.78125
 20
-5.21875
 30
0.0
 40
0.5
  1
4.83
100
AcDbAttributeDefinition
  3

  2
AL
 70
     8
280
     0
  0
ATTDEF
  5
16F
330
15A
100
AcDbEntity
  8
AM_6
100
AcDbText
 10
7.78125
 20
-5.71875
 30
0.0
 40
0.5
  1
0.50
100
AcDbAttributeDefinition
  3

  2
BL
 70
     8
280
     0
  0
ATTDEF
  5
170
330
15A
100
AcDbEntity
  8
AM_6
100
AcDbText
 10
7.78125
 20
-6.21875
 30
0.0
 40
0.5
  1
0.07
100
AcDbAttributeDefinition
  3

  2
CL
 70
     8
280
     0
  0
ATTDEF
  5
171
330
15A
100
AcDbEntity
  8
AM_6
100
AcDbText
 10
7.78125
 20
-6.71875
 30
0.0
 40
0.5
  1
0.50
100
AcDbAttributeDefinition
  3

  2
DL
 70
     8
280
     0
  0
ATTDEF
  5
172
330
15A
100
AcDbEntity
  8
AM_6
100
AcDbText
 10
7.78125
 20
-7.21875
 30
0.0
 40
0.5
  1
baldor
100
AcDbAttributeDefinition
  3

  2
COMPANY
 70
     8
280
     0
  0
ARC
  5
173
330
15A
100
AcDbEntity
  8
AM_9
100
AcDbCircle
 10
0.0000000000000172
 20
-0.0000000000000329
 30
0.0
 40
1.940789473684248
100
AcDbArc
 50
108.8072072519573
 51
116.1927927480429
  0
LINE
  5
174
330
15A
100
AcDbEntity
  8
AM_9
100
AcDbLine
 10
-0.1249999999999991
 20
-2.414930555555555
 30
0.0
 11
-0.1249999999999991
 21
-2.235717693293942
 31
0.0
  0
LINE
  5
175
330
15A
100
AcDbEntity
  8
AM_9
100
AcDbLine
 10
0.1250000000000014
 20
-2.235717693293943
 30
0.0
 11
0.1250000000000015
 21
-2.414930555555555
 31
0.0
  0
LINE
  5
176
330
15A
100
AcDbEntity
  8
AM_9
100
AcDbLine
 10
-0.1250000000000005
 20
2.235717693293942
 30
0.0
 11
-0.1250000000000003
 21
2.414930555555555
 31
0.0
  0
LINE
  5
177
330
15A
100
AcDbEntity
  8
AM_9
100
AcDbLine
 10
0.1249999999999998
 20
2.414930555555555
 30
0.0
 11
0.1249999999999998
 21
2.235717693293942
 31
0.0
  0
LINE
  5
178
330
15A
100
AcDbEntity
  8
AM_7
100
AcDbLine
 10
-2.414972460719033
 20
-0.1312500073753805
 30
0.0
 11
-2.414972460719033
 21
0.131250007375377
 31
0.0
  0
LINE
  5
179
330
15A
100
AcDbEntity
  8
AM_7
100
AcDbLine
 10
1.576393395977812
 20
1.707643403353192
 30
0.0
 11
1.83889341072857
 21
1.707643403353192
 31
0.0
  0
LINE
  5
17A
330
15A
100
AcDbEntity
  8
AM_7
100
AcDbLine
 10
1.707643403353191
 20
1.576393395977813
 30
0.0
 11
1.707643403353191
 21
1.838893410728571
 31
0.0
  0
LINE
  5
17B
330
15A
100
AcDbEntity
  8
AM_7
100
AcDbLine
 10
1.576393395977812
 20
-1.707643403353191
 30
0.0
 11
1.838893410728572
 21
-1.707643403353191
 31
0.0
  0
LINE
  5
17C
330
15A
100
AcDbEntity
  8
AM_7
100
AcDbLine
 10
1.707643403353192
 20
-1.83889341072857
 30
0.0
 11
1.707643403353192
 21
-1.576393395977811
 31
0.0
  0
LINE
  5
17D
330
15A
100
AcDbEntity
  8
AM_7
100
AcDbLine
 10
-1.838893410728569
 20
-1.707643403353193
 30
0.0
 11
-1.576393395977811
 21
-1.707643403353193
 31
0.0
  0
LINE
  5
17E
330
15A
100
AcDbEntity
  8
AM_7
100
AcDbLine
 10
-1.70764340335319
 20
-1.838893410728572
 30
0.0
 11
-1.70764340335319
 21
-1.576393395977814
 31
0.0
  0
LINE
  5
17F
330
15A
100
AcDbEntity
  8
AM_7
100
AcDbLine
 10
-1.838893410728571
 20
1.707643403353192
 30
0.0
 11
-1.576393395977813
 21
1.707643403353192
 31
0.0
  0
LINE
  5
180
330
15A
100
AcDbEntity
  8
AM_7
100
AcDbLine
 10
-1.707643403353192
 20
1.576393395977813
 30
0.0
 11
-1.707643403353192
 21
1.838893410728571
 31
0.0
  0
ARC
  5
181
330
15A
100
AcDbEntity
  8
AM_4
100
AcDbCircle
 10
0.0000000000000022
 20
-0.0000000000000004
 30
0.0
 40
1.993243243243241
100
AcDbArc
 50
318.5954844942906
 51
356.4045155057094
  0
LINE
  5
182
330
15A
100
AcDbEntity
  8
AM_4
100
AcDbLine
 10
-0.6256809718822784
 20
1.83716822925607
 30
0.0
 11
-0.6457948222043804
 21
1.885727359495231
 31
0.0
  0
ARC
  5
183
330
15A
100
AcDbEntity
  8
AM_4
100
AcDbCircle
 10
1.707643403353191
 20
1.707643403353192
 30
0.0
 40
0.1250000070241706
100
AcDbArc
 50
314.980792088663
 51
135.019207911337
  0
LINE
  5
184
330
15A
100
AcDbEntity
  8
AM_4
100
AcDbLine
 10
-0.1249999999999991
 20
-2.235717693293942
 30
0.0
 11
-0.1249999999999989
 21
-1.989319890498972
 31
0.0
  0
ARC
  5
185
330
15A
100
AcDbEntity
  8
AM_4
100
AcDbCircle
 10
-1.707643403353192
 20
1.707643403353192
 30
0.0
 40
0.1250000070241706
100
AcDbArc
 50
44.98079208867836
 51
225.0192079113372
  0
ARC
  5
186
330
15A
100
AcDbEntity
  8
AM_4
100
AcDbCircle
 10
0.000000000000017
 20
-0.0000000000000484
 30
0.0
 40
1.843750000000051
100
AcDbArc
 50
108.6125584578447
 51
116.3874415421551
  0
LINE
  5
187
330
15A
100
AcDbEntity
  8
AM_4
100
AcDbLine
 10
-0.8767647053322023
 20
1.790056501403958
 30
0.0
 11
-0.8566508550101003
 21
1.741497371164797
 31
0.0
  0
LINE
  5
188
330
15A
100
AcDbEntity
  8
AM_4
100
AcDbLine
 10
1.318273236872782
 20
1.495049932169424
 30
0.0
 11
1.619225424279611
 21
1.796002119576249
 31
0.0
  0
LINE
  5
189
330
15A
100
AcDbEntity
  8
AM_4
100
AcDbLine
 10
1.796002119576248
 20
1.619225424279612
 30
0.0
 11
1.495049932169422
 21
1.318273236872785
 31
0.0
  0
ARC
  5
18A
330
15A
100
AcDbEntity
  8
AM_4
100
AcDbCircle
 10
0.0000000000000044
 20
0.0000000000000009
 30
0.0
 40
1.993243243243239
100
AcDbArc
 50
3.595484494290599
 51
41.40451550570945
  0
LINE
  5
18B
330
15A
100
AcDbEntity
  8
AM_4
100
AcDbLine
 10
1.989319890498972
 20
0.1250000000000009
 30
0.0
 11
2.414930555555555
 21
0.1250000000000009
 31
0.0
  0
ARC
  5
18C
330
15A
100
AcDbEntity
  8
AM_4
100
AcDbCircle
 10
2.411693303087241
 20
0.0000000000000009
 30
0.0
 40
0.1250419121876485
100
AcDbArc
 50
271.4835156202067
 51
88.51648437979325
  0
LINE
  5
18D
330
15A
100
AcDbEntity
  8
AM_4
100
AcDbLine
 10
2.414930555555555
 20
-0.1249999999999991
 30
0.0
 11
1.989319890498972
 21
-0.1249999999999991
 31
0.0
  0
LINE
  5
18E
330
15A
100
AcDbEntity
  8
AM_4
100
AcDbLine
 10
1.495049932169423
 20
-1.318273236872784
 30
0.0
 11
1.796002119576249
 21
-1.61922542427961
 31
0.0
  0
ARC
  5
18F
330
15A
100
AcDbEntity
  8
AM_4
100
AcDbCircle
 10
1.707643403353192
 20
-1.70764340335319
 30
0.0
 40
0.1250000070241711
100
AcDbArc
 50
224.9807920886597
 51
45.01920791133684
  0
LINE
  5
190
330
15A
100
AcDbEntity
  8
AM_4
100
AcDbLine
 10
1.619225424279607
 20
-1.796002119576242
 30
0.0
 11
1.318273236872786
 21
-1.495049932169421
 31
0.0
  0
ARC
  5
191
330
15A
100
AcDbEntity
  8
AM_4
100
AcDbCircle
 10
-0.0000000000000003
 20
0.0000000000000018
 30
0.0
 40
1.993243243243244
100
AcDbArc
 50
273.5954844942907
 51
311.4045155057094
  0
LINE
  5
192
330
15A
100
AcDbEntity
  8
AM_4
100
AcDbLine
 10
0.1250000000000022
 20
-1.989319890498972
 30
0.0
 11
0.1250000000000014
 21
-2.235717693293943
 31
0.0
  0
ARC
  5
193
330
15A
100
AcDbEntity
  8
AM_4
100
AcDbCircle
 10
0.0000000000000013
 20
0.0000000000000024
 30
0.0
 40
1.993243243243246
100
AcDbArc
 50
228.5954844942908
 51
266.4045155057095
  0
LINE
  5
194
330
15A
100
AcDbEntity
  8
AM_4
100
AcDbLine
 10
-1.31827323687278
 20
-1.495049932169426
 30
0.0
 11
-1.61922542427961
 21
-1.796002119576249
 31
0.0
  0
ARC
  5
195
330
15A
100
AcDbEntity
  8
AM_4
100
AcDbCircle
 10
-1.70764340335319
 20
-1.707643403353193
 30
0.0
 40
0.1250000070241706
100
AcDbArc
 50
134.980792088663
 51
315.019207911337
  0
LINE
  5
196
330
15A
100
AcDbEntity
  8
AM_4
100
AcDbLine
 10
-1.796002119576247
 20
-1.619225424279613
 30
0.0
 11
-1.495049932169421
 21
-1.318273236872786
 31
0.0
  0
ARC
  5
197
330
15A
100
AcDbEntity
  8
AM_4
100
AcDbCircle
 10
0.0000000000000038
 20
0.0000000000000026
 30
0.0
 40
1.993243243243247
100
AcDbArc
 50
183.5954844942907
 51
221.4045155057094
  0
LINE
  5
198
330
15A
100
AcDbEntity
  8
AM_4
100
AcDbLine
 10
-1.989319890498972
 20
-0.1250000000000012
 30
0.0
 11
-2.414930555555555
 21
-0.1250000000000015
 31
0.0
  0
ARC
  5
199
330
15A
100
AcDbEntity
  8
AM_4
100
AcDbCircle
 10
-2.414972460719033
 20
-0.0000000000000017
 30
0.0
 40
0.1250000070241704
100
AcDbArc
 50
89.98079208866326
 51
270.0192079113372
  0
LINE
  5
19A
330
15A
100
AcDbEntity
  8
AM_4
100
AcDbLine
 10
-2.414930555555556
 20
0.124999999999998
 30
0.0
 11
-1.989319890498972
 21
0.1249999999999987
 31
0.0
  0
ARC
  5
19B
330
15A
100
AcDbEntity
  8
AM_4
100
AcDbCircle
 10
-0.0000000000000029
 20
0.0000000000000011
 30
0.0
 40
1.99324324324324
100
AcDbArc
 50
138.5954844942906
 51
176.4045155057093
  0
LINE
  5
19C
330
15A
100
AcDbEntity
  8
AM_4
100
AcDbLine
 10
-1.495049932169422
 20
1.318273236872785
 30
0.0
 11
-1.796002119576248
 21
1.619225424279611
 31
0.0
  0
LINE
  5
19D
330
15A
100
AcDbEntity
  8
AM_4
100
AcDbLine
 10
-1.619225424279636
 20
1.796002119576272
 30
0.0
 11
-1.318273236872785
 21
1.495049932169422
 31
0.0
  0
ARC
  5
19E
330
15A
100
AcDbEntity
  8
AM_4
100
AcDbCircle
 10
0.0000000000000261
 20
-0.0000000000000377
 30
0.0
 40
1.993243243243288
100
AcDbArc
 50
116.0954844942908
 51
131.4045155057092
  0
ARC
  5
19F
330
15A
100
AcDbEntity
  8
AM_4
100
AcDbCircle
 10
0.0000000000000056
 20
-0.0000000000000304
 30
0.0
 40
1.993243243243274
100
AcDbArc
 50
93.59548449429072
 51
108.9045155057093
  0
LINE
  5
1A0
330
15A
100
AcDbEntity
  8
AM_4
100
AcDbLine
 10
-0.125
 20
1.989319890498972
 30
0.0
 11
-0.1250000000000005
 21
2.235717693293942
 31
0.0
  0
LINE
  5
1A1
330
15A
100
AcDbEntity
  8
AM_4
100
AcDbLine
 10
0.1249999999999998
 20
2.235717693293942
 30
0.0
 11
0.1249999999999998
 21
1.989319890498972
 31
0.0
  0
ARC
  5
1A2
330
15A
100
AcDbEntity
  8
AM_4
100
AcDbCircle
 10
-0.000000000000002
 20
-0.0000000000000033
 30
0.0
 40
1.993243243243247
100
AcDbArc
 50
48.59548449429074
 51
86.40451550570933
  0
CIRCLE
  5
1A3
330
15A
100
AcDbEntity
  8
AM_4
100
AcDbCircle
 10
0.0
 20
0.0
 30
0.0
 40
2.78125
  0
ENDBLK
  5
15D
330
15A
100
AcDbEntity
  8
0
100
AcDbBlockEnd
  0
BLOCK
  5
1A6
330
1A4
100
AcDbEntity
  8
0
100
AcDbBlockBegin
  2
7_070905I_0_in_072300_0
 70
     2
 10
0.0
 20
0.0
 30
0.0
  3
7_070905I_0_in_072300_0
  1

  0
ATTDEF
  5
1A8
330
1A4
100
AcDbEntity
  8
AM_6
100
AcDbText
 10
8.493300000000001
 20
3.493300000000001
 30
0.0
 40
0.5
  1
Imperial Insert -Inch
100
AcDbAttributeDefinition
  3

  2
NN
 70
     8
280
     0
  0
ATTDEF
  5
1A9
330
1A4
100
AcDbEntity
  8
AM_6
100
AcDbText
 10
8.493300000000001
 20
2.993300000000001
 30
0.0
 40
0.5
  1
Imperial Bearings
100
AcDbAttributeDefinition
  3

  2
NT
 70
     8
280
     0
  0
ATTDEF
  5
1AA
330
1A4
100
AcDbEntity
  8
AM_6
100
AcDbText
 10
8.493300000000001
 20
2.493300000000001
 30
0.0
 40
0.5
  1
070905I
100
AcDbAttributeDefinition
  3

  2
NB
 70
     8
280
     0
  0
ATTDEF
  5
1AB
330
1A4
100
AcDbEntity
  8
AM_6
100
AcDbText
 10
8.493300000000001
 20
1.993300000000001
 30
0.0
 40
0.5
  1
$PN.I
100
AcDbAttributeDefinition
  3

  2
NBSYN
 70
     8
280
     0
  0
ATTDEF
  5
1AC
330
1A4
100
AcDbEntity
  8
AM_6
100
AcDbText
 10
8.493300000000001
 20
1.493300000000001
 30
0.0
 40
0.5
  1
070905
100
AcDbAttributeDefinition
  3

  2
LINA
 70
     8
280
     0
  0
ATTDEF
  5
1AD
330
1A4
100
AcDbEntity
  8
AM_6
100
AcDbText
 10
8.493300000000001
 20
0.9933000000000005
 30
0.0
 40
0.5
  1
3-11/16
100
AcDbAttributeDefinition
  3

  2
SS
 70
     8
280
     0
  0
ATTDEF
  5
1AE
330
1A4
100
AcDbEntity
  8
AM_6
100
AcDbText
 10
8.493300000000001
 20
0.4933000000000005
 30
0.0
 40
0.5
  1
3.687500
100
AcDbAttributeDefinition
  3

  2
SS1
 70
     8
280
     0
  0
ATTDEF
  5
1AF
330
1A4
100
AcDbEntity
  8
AM_6
100
AcDbText
 10
8.493300000000001
 20
-0.0066999999999995
 30
0.0
 40
0.5
  1
070905
100
AcDbAttributeDefinition
  3

  2
PN
 70
     8
280
     0
  0
ATTDEF
  5
1B0
330
1A4
100
AcDbEntity
  8
AM_6
100
AcDbText
 10
8.493300000000001
 20
-0.5066999999999995
 30
0.0
 40
0.5
  1
INS-IP-311R
100
AcDbAttributeDefinition
  3

  2
DESCRIPTION
 70
     8
280
     0
  0
ATTDEF
  5
1B1
330
1A4
100
AcDbEntity
  8
AM_6
100
AcDbText
 10
8.493300000000001
 20
-1.006699999999999
 30
0.0
 40
0.5
  1
Contact Seal
100
AcDbAttributeDefinition
  3

  2
ST
 70
     8
280
     0
  0
ATTDEF
  5
1B2
330
1A4
100
AcDbEntity
  8
AM_6
100
AcDbText
 10
8.493300000000001
 20
-1.506699999999999
 30
0.0
 40
0.5
  1
7.0866
100
AcDbAttributeDefinition
  3

  2
A
 70
     8
280
     0
  0
ATTDEF
  5
1B3
330
1A4
100
AcDbEntity
  8
AM_6
100
AcDbText
 10
8.493300000000001
 20
-2.006699999999999
 30
0.0
 40
0.5
  1
1-7/8
100
AcDbAttributeDefinition
  3

  2
B
 70
     8
280
     0
  0
ATTDEF
  5
1B4
330
1A4
100
AcDbEntity
  8
AM_6
100
AcDbText
 10
8.493300000000001
 20
-2.506699999999999
 30
0.0
 40
0.5
  1
4-45/64
100
AcDbAttributeDefinition
  3

  2
C
 70
     8
280
     0
  0
ATTDEF
  5
1B5
330
1A4
100
AcDbEntity
  8
AM_6
100
AcDbText
 10
8.493300000000001
 20
-3.006699999999999
 30
0.0
 40
0.5
  1
1.646
100
AcDbAttributeDefinition
  3

  2
D
 70
     8
280
     0
  0
ATTDEF
  5
1B6
330
1A4
100
AcDbEntity
  8
AM_6
100
AcDbText
 10
8.493300000000001
 20
-3.506699999999999
 30
0.0
 40
0.5
  1
5-9/16
100
AcDbAttributeDefinition
  3

  2
E
 70
     8
280
     0
  0
ATTDEF
  5
1B7
330
1A4
100
AcDbEntity
  8
AM_6
100
AcDbText
 10
8.493300000000001
 20
-4.006699999999999
 30
0.0
 40
0.5
  1
0.2500
100
AcDbAttributeDefinition
  3

  2
NDM
 70
     8
280
     0
  0
ATTDEF
  5
1B8
330
1A4
100
AcDbEntity
  8
AM_6
100
AcDbText
 10
8.493300000000001
 20
-4.506699999999999
 30
0.0
 40
0.5
  1
0.132
100
AcDbAttributeDefinition
  3

  2
H
 70
     8
280
     0
  0
ATTDEF
  5
1B9
330
1A4
100
AcDbEntity
  8
AM_6
100
AcDbText
 10
8.493300000000001
 20
-5.006699999999999
 30
0.0
 40
0.5
  1
0.1960
100
AcDbAttributeDefinition
  3

  2
KDM
 70
     8
280
     0
  0
ATTDEF
  5
1BA
330
1A4
100
AcDbEntity
  8
AM_6
100
AcDbText
 10
8.493300000000001
 20
-5.506699999999999
 30
0.0
 40
0.5
  1
4.83
100
AcDbAttributeDefinition
  3

  2
AL
 70
     8
280
     0
  0
ATTDEF
  5
1BB
330
1A4
100
AcDbEntity
  8
AM_6
100
AcDbText
 10
8.493300000000001
 20
-6.006699999999999
 30
0.0
 40
0.5
  1
0.50
100
AcDbAttributeDefinition
  3

  2
BL
 70
     8
280
     0
  0
ATTDEF
  5
1BC
330
1A4
100
AcDbEntity
  8
AM_6
100
AcDbText
 10
8.493300000000001
 20
-6.506699999999999
 30
0.0
 40
0.5
  1
0.07
100
AcDbAttributeDefinition
  3

  2
CL
 70
     8
280
     0
  0
ATTDEF
  5
1BD
330
1A4
100
AcDbEntity
  8
AM_6
100
AcDbText
 10
8.493300000000001
 20
-7.006699999999999
 30
0.0
 40
0.5
  1
0.50
100
AcDbAttributeDefinition
  3

  2
DL
 70
     8
280
     0
  0
ATTDEF
  5
1BE
330
1A4
100
AcDbEntity
  8
AM_6
100
AcDbText
 10
8.493300000000001
 20
-7.506699999999999
 30
0.0
 40
0.5
  1
0.8000
100
AcDbAttributeDefinition
  3

  2
LL
 70
     8
280
     0
  0
ATTDEF
  5
1BF
330
1A4
100
AcDbEntity
  8
AM_6
100
AcDbText
 10
8.493300000000001
 20
-8.006699999999999
 30
0.0
 40
0.5
  1
0.025
100
AcDbAttributeDefinition
  3

  2
Y
 70
     8
280
     0
  0
ATTDEF
  5
1C0
330
1A4
100
AcDbEntity
  8
AM_6
100
AcDbText
 10
8.493300000000001
 20
-8.506699999999999
 30
0.0
 40
0.5
  1
0.025000
100
AcDbAttributeDefinition
  3

  2
Y1
 70
     8
280
     0
  0
ATTDEF
  5
1C1
330
1A4
100
AcDbEntity
  8
AM_6
100
AcDbText
 10
8.493300000000001
 20
-9.006699999999999
 30
0.0
 40
0.5
  1
4-1/2
100
AcDbAttributeDefinition
  3

  2
Z
 70
     8
280
     0
  0
ATTDEF
  5
1C2
330
1A4
100
AcDbEntity
  8
AM_6
100
AcDbText
 10
8.493300000000001
 20
-9.506699999999999
 30
0.0
 40
0.5
  1
4.500000
100
AcDbAttributeDefinition
  3

  2
Z1
 70
     8
280
     0
  0
ATTDEF
  5
1C3
330
1A4
100
AcDbEntity
  8
AM_6
100
AcDbText
 10
8.493300000000001
 20
-10.0067
 30
0.0
 40
0.5
  1
baldor
100
AcDbAttributeDefinition
  3

  2
COMPANY
 70
     8
280
     0
  0
CIRCLE
  5
1C4
330
1A4
100
AcDbEntity
  8
AM_9
100
AcDbCircle
 10
0.0
 20
0.0
 30
0.0
 40
2.25
  0
CIRCLE
  5
1C5
330
1A4
100
AcDbEntity
  8
AM_9
100
AcDbCircle
 10
0.0
 20
0.0
 30
0.0
 40
2.442307692307692
  0
CIRCLE
  5
1C6
330
1A4
100
AcDbEntity
  8
AM_9
100
AcDbCircle
 10
0.0
 20
0.0
 30
0.0
 40
2.5
  0
CIRCLE
  5
1C7
330
1A4
100
AcDbEntity
  8
AM_9
100
AcDbCircle
 10
0.0
 20
0.0
 30
0.0
 40
3.069058622134927
  0
CIRCLE
  5
1C8
330
1A4
100
AcDbEntity
  8
AM_9
100
AcDbCircle
 10
0.0
 20
0.0
 30
0.0
 40
3.155661162513371
  0
CIRCLE
  5
1C9
330
1A4
100
AcDbEntity
  8
AM_9
100
AcDbCircle
 10
0.0
 20
0.0
 30
0.0
 40
3.3433
  0
CIRCLE
  5
1CA
330
1A4
100
AcDbEntity
  8
AM_9
100
AcDbCircle
 10
0.0
 20
0.0
 30
0.0
 40
3.44955
  0
LINE
  5
1CB
330
1A4
100
AcDbEntity
  8
AM_9
100
AcDbLine
 10
1.783099293808579
 20
-2.136652684401853
 30
0.0
 11
1.530886181268875
 21
-1.884439571862149
 31
0.0
  0
LINE
  5
1CC
330
1A4
100
AcDbEntity
  8
AM_9
100
AcDbLine
 10
-1.530886181268876
 20
-1.884439571862149
 30
0.0
 11
-1.783099293808579
 21
-2.136652684401852
 31
0.0
  0
LINE
  5
1CD
330
1A4
100
AcDbEntity
  8
AM_9
100
AcDbLine
 10
2.136652684401853
 20
1.783099293808579
 30
0.0
 11
1.884439571862149
 21
1.530886181268875
 31
0.0
  0
LINE
  5
1CE
330
1A4
100
AcDbEntity
  8
AM_9
100
AcDbLine
 10
1.884439571862149
 20
-1.530886181268876
 30
0.0
 11
2.136652684401853
 21
-1.783099293808579
 31
0.0
  0
CIRCLE
  5
1CF
330
1A4
100
AcDbEntity
  8
AM_9
100
AcDbCircle
 10
0.0
 20
2.414930555555555
 30
0.0
 40
0.0979499999999997
  0
LINE
  5
1D0
330
1A4
100
AcDbEntity
  8
AM_9
100
AcDbLine
 10
-1.884439571862149
 20
1.530886181268876
 30
0.0
 11
-2.136652684401852
 21
1.783099293808579
 31
0.0
  0
LINE
  5
1D1
330
1A4
100
AcDbEntity
  8
AM_9
100
AcDbLine
 10
-2.136652684401853
 20
-1.783099293808579
 30
0.0
 11
-1.884439571862149
 21
-1.530886181268875
 31
0.0
  0
CIRCLE
  5
1D2
330
1A4
100
AcDbEntity
  8
AM_9
100
AcDbCircle
 10
0.0
 20
-2.414930555555555
 30
0.0
 40
0.0979499999999997
  0
LINE
  5
1D3
330
1A4
100
AcDbEntity
  8
AM_9
100
AcDbLine
 10
1.530886181268876
 20
1.884439571862148
 30
0.0
 11
1.78309929380858
 21
2.136652684401852
 31
0.0
  0
LINE
  5
1D4
330
1A4
100
AcDbEntity
  8
AM_9
100
AcDbLine
 10
-1.783099293808579
 20
2.136652684401853
 30
0.0
 11
-1.530886181268875
 21
1.884439571862149
 31
0.0
  0
LINE
  5
1D5
330
1A4
100
AcDbEntity
  8
AM_9
100
AcDbLine
 10
-1.796051227035557
 20
1.619274526095468
 30
0.0
 11
-1.884439571862149
 21
1.530886181268876
 31
0.0
  0
LINE
  5
1D6
330
1A4
100
AcDbEntity
  8
AM_9
100
AcDbLine
 10
-1.530886181268875
 20
1.884439571862149
 30
0.0
 11
-1.619274526095468
 21
1.796051227035556
 31
0.0
  0
ARC
  5
1D7
330
1A4
100
AcDbEntity
  8
AM_9
100
AcDbCircle
 10
-0.0000000000000004
 20
0.0000000000000006
 30
0.0
 40
2.732965561259649
100
AcDbArc
 50
140.2485100253665
 51
219.7514899746335
  0
LINE
  5
1D8
330
1A4
100
AcDbEntity
  8
AM_9
100
AcDbLine
 10
-1.619274526095467
 20
-1.796051227035558
 30
0.0
 11
-1.530886181268876
 21
-1.884439571862149
 31
0.0
  0
LINE
  5
1D9
330
1A4
100
AcDbEntity
  8
AM_9
100
AcDbLine
 10
-1.884439571862149
 20
-1.530886181268875
 30
0.0
 11
-1.796051227035555
 21
-1.619274526095469
 31
0.0
  0
ARC
  5
1DA
330
1A4
100
AcDbEntity
  8
AM_9
100
AcDbCircle
 10
-0.0000000000000006
 20
-0.0000000000000004
 30
0.0
 40
2.732965561259649
100
AcDbArc
 50
230.2485100253665
 51
309.7514899746336
  0
LINE
  5
1DB
330
1A4
100
AcDbEntity
  8
AM_9
100
AcDbLine
 10
1.796051227035557
 20
-1.619274526095468
 30
0.0
 11
1.884439571862149
 21
-1.530886181268876
 31
0.0
  0
LINE
  5
1DC
330
1A4
100
AcDbEntity
  8
AM_9
100
AcDbLine
 10
1.530886181268875
 20
-1.884439571862149
 30
0.0
 11
1.619274526095469
 21
-1.796051227035556
 31
0.0
  0
ARC
  5
1DD
330
1A4
100
AcDbEntity
  8
AM_9
100
AcDbCircle
 10
0.0000000000000004
 20
-0.0000000000000007
 30
0.0
 40
2.732965561259649
100
AcDbArc
 50
320.2485100253664
 51
39.75148997463354
  0
LINE
  5
1DE
330
1A4
100
AcDbEntity
  8
AM_9
100
AcDbLine
 10
1.619274526095468
 20
1.796051227035557
 30
0.0
 11
1.530886181268876
 21
1.884439571862148
 31
0.0
  0
LINE
  5
1DF
330
1A4
100
AcDbEntity
  8
AM_9
100
AcDbLine
 10
1.884439571862149
 20
1.530886181268875
 30
0.0
 11
1.796051227035556
 21
1.619274526095469
 31
0.0
  0
ARC
  5
1E0
330
1A4
100
AcDbEntity
  8
AM_9
100
AcDbCircle
 10
0.0000000000000754
 20
-0.0000000000001825
 30
0.0
 40
1.945910290237664
100
AcDbArc
 50
108.8169385526766
 51
116.1830614473234
  0
ARC
  5
1E1
330
1A4
100
AcDbEntity
  8
AM_9
100
AcDbCircle
 10
0.0000000000000002
 20
-0.0000000000000009
 30
0.0
 40
2.73296556125965
100
AcDbArc
 50
50.24851002536647
 51
129.7514899746335
  0
CIRCLE
  5
1E2
330
1A4
100
AcDbEntity
  8
AM_4
100
AcDbCircle
 10
0.0
 20
0.0
 30
0.0
 40
3.493300000000001
  0
LINE
  5
1E3
330
1A4
100
AcDbEntity
  8
AM_4
100
AcDbLine
 10
1.794299129942516
 20
-2.147852520535789
 30
0.0
 11
1.783099293808579
 21
-2.136652684401853
 31
0.0
  0
LINE
  5
1E4
330
1A4
100
AcDbEntity
  8
AM_4
100
AcDbLine
 10
1.78309929380858
 20
2.136652684401852
 30
0.0
 11
1.794299129942517
 21
2.147852520535789
 31
0.0
  0
LINE
  5
1E5
330
1A4
100
AcDbEntity
  8
AM_4
100
AcDbLine
 10
-1.794299129942516
 20
2.147852520535789
 30
0.0
 11
-1.783099293808579
 21
2.136652684401853
 31
0.0
  0
LINE
  5
1E6
330
1A4
100
AcDbEntity
  8
AM_4
100
AcDbLine
 10
2.14785252053579
 20
1.794299129942516
 30
0.0
 11
2.136652684401853
 21
1.783099293808579
 31
0.0
  0
LINE
  5
1E7
330
1A4
100
AcDbEntity
  8
AM_4
100
AcDbLine
 10
-2.136652684401852
 20
1.783099293808579
 30
0.0
 11
-2.147852520535789
 21
1.794299129942517
 31
0.0
  0
LINE
  5
1E8
330
1A4
100
AcDbEntity
  8
AM_4
100
AcDbLine
 10
-1.783099293808579
 20
-2.136652684401852
 30
0.0
 11
-1.794299129942517
 21
-2.147852520535789
 31
0.0
  0
LINE
  5
1E9
330
1A4
100
AcDbEntity
  8
AM_4
100
AcDbLine
 10
-2.14785252053579
 20
-1.794299129942516
 30
0.0
 11
-2.136652684401853
 21
-1.783099293808579
 31
0.0
  0
LINE
  5
1EA
330
1A4
100
AcDbEntity
  8
AM_4
100
AcDbLine
 10
2.136652684401853
 20
-1.783099293808579
 30
0.0
 11
2.147852520535789
 21
-1.794299129942517
 31
0.0
  0
CIRCLE
  5
1EB
330
1A4
100
AcDbEntity
  8
AM_4
100
AcDbCircle
 10
0.0
 20
0.0
 30
0.0
 40
2.843244551072289
  0
ARC
  5
1EC
330
1A4
100
AcDbEntity
  8
AM_4
100
AcDbCircle
 10
0.0000000000000522
 20
-0.0000000000000462
 30
0.0
 40
2.798710384745807
100
AcDbArc
 50
309.8751171869936
 51
320.1248828130062
  0
ARC
  5
1ED
330
1A4
100
AcDbEntity
  8
AM_4
100
AcDbCircle
 10
0.0000000000000395
 20
0.0000000000000362
 30
0.0
 40
2.79871038474593
100
AcDbArc
 50
219.8751171869939
 51
230.124882813006
  0
ARC
  5
1EE
330
1A4
100
AcDbEntity
  8
AM_4
100
AcDbCircle
 10
-0.0000000000000113
 20
0.000000000000004
 30
0.0
 40
2.798710384745866
100
AcDbArc
 50
129.8751171869937
 51
140.1248828130061
  0
ARC
  5
1EF
330
1A4
100
AcDbEntity
  8
AM_4
100
AcDbCircle
 10
-0.0000000000000751
 20
-0.0000000000000737
 30
0.0
 40
2.798710384745982
100
AcDbArc
 50
39.87511718699401
 51
50.12488281300591
  0
ARC
  5
1F0
330
1A4
100
AcDbEntity
  8
AM_4
100
AcDbCircle
 10
0.0000000000000001
 20
-0.0000000000000004
 30
0.0
 40
2.782935102610604
100
AcDbArc
 50
230.1540119949408
 51
309.8459880050592
  0
ARC
  5
1F1
330
1A4
100
AcDbEntity
  8
AM_4
100
AcDbCircle
 10
-0.0000000000000009
 20
0.0
 30
0.0
 40
2.782935102610606
100
AcDbArc
 50
320.1540119949408
 51
39.84598800505921
  0
ARC
  5
1F2
330
1A4
100
AcDbEntity
  8
AM_4
100
AcDbCircle
 10
0.0
 20
0.0
 30
0.0
 40
2.782935102610605
100
AcDbArc
 50
140.1540119949408
 51
219.8459880050592
  0
LINE
  5
1F3
330
1A4
100
AcDbEntity
  8
AM_4
100
AcDbLine
 10
-1.619274526095468
 20
1.796051227035556
 30
0.0
 11
-1.796051227035557
 21
1.619274526095468
 31
0.0
  0
LINE
  5
1F4
330
1A4
100
AcDbEntity
  8
AM_4
100
AcDbLine
 10
-1.796051227035555
 20
-1.619274526095469
 30
0.0
 11
-1.619274526095467
 21
-1.796051227035558
 31
0.0
  0
LINE
  5
1F5
330
1A4
100
AcDbEntity
  8
AM_4
100
AcDbLine
 10
1.619274526095469
 20
-1.796051227035556
 30
0.0
 11
1.796051227035557
 21
-1.619274526095468
 31
0.0
  0
LINE
  5
1F6
330
1A4
100
AcDbEntity
  8
AM_4
100
AcDbLine
 10
1.796051227035556
 20
1.619274526095469
 30
0.0
 11
1.619274526095468
 21
1.796051227035557
 31
0.0
  0
ARC
  5
1F7
330
1A4
100
AcDbEntity
  8
AM_4
100
AcDbCircle
 10
0.0000000000000002
 20
-0.0000000000000009
 30
0.0
 40
2.782935102610606
100
AcDbArc
 50
50.15401199494077
 51
129.8459880050592
  0
ARC
  5
1F8
330
1A4
100
AcDbEntity
  8
AM_4
100
AcDbCircle
 10
-0.0000000000000031
 20
-0.0000000000000015
 30
0.0
 40
1.940789473684211
100
AcDbArc
 50
116.1927927480428
 51
108.807207251957
  0
LINE
  5
1F9
330
1A4
100
AcDbEntity
  8
AM_4
100
AcDbLine
 10
-0.8566508550101
 20
1.741497371164797
 30
0.0
 11
-0.8194341124212176
 21
1.651648206459369
 31
0.0
  0
LINE
  5
1FA
330
1A4
100
AcDbEntity
  8
AM_4
100
AcDbLine
 10
-0.5884642292933959
 20
1.747319064550642
 30
0.0
 11
-0.6256809718822781
 21
1.83716822925607
 31
0.0
  0
ARC
  5
1FB
330
1A4
100
AcDbEntity
  8
AM_4
100
AcDbCircle
 10
0.0000000000000053
 20
0.0000000000000025
 30
0.0
 40
1.84375
100
AcDbArc
 50
116.3874415421555
 51
108.6125584578449
  0
ARC
  5
1FC
330
1A4
100
AcDbEntity
  8
AM_5
100
AcDbCircle
 10
0.0000000000000003
 20
2.414930555555556
 30
0.0
 40
0.1250000000000001
100
AcDbArc
 50
165.0000000000003
 51
105.0000000000002
  0
ARC
  5
1FD
330
1A4
100
AcDbEntity
  8
AM_5
100
AcDbCircle
 10
0.0000000000000003
 20
-2.414930555555555
 30
0.0
 40
0.1250000000000001
100
AcDbArc
 50
165.0000000000003
 51
105.0000000000002
  0
ARC
  5
1FE
330
1A4
100
AcDbEntity
  8
AM_5
100
AcDbCircle
 10
0.0000000000000002
 20
2.414930555555555
 30
0.0
 40
0.1250000000000002
100
AcDbArc
 50
105.0000000000001
 51
15.0
  0
ARC
  5
1FF
330
1A4
100
AcDbEntity
  8
AM_5
100
AcDbCircle
 10
0.0000000000000002
 20
-2.414930555555555
 30
0.0
 40
0.1250000000000002
100
AcDbArc
 50
105.0000000000001
 51
15.0
  0
ENDBLK
  5
1A7
330
1A4
100
AcDbEntity
  8
0
100
AcDbBlockEnd
  0
BLOCK
  5
202
330
200
100
AcDbEntity
  8
0
100
AcDbBlockBegin
  2
8_B072300_0_in_072300_0
 70
     2
 10
0.0
 20
0.0
 30
0.0
  3
8_B072300_0_in_072300_0
  1

  0
ATTDEF
  5
204
330
200
100
AcDbEntity
  8
AM_6
100
AcDbText
 10
10.712
 20
5.712
 30
0.0
 40
0.5
  1
SFC-207-500-(Contact Seal)-Housing
100
AcDbAttributeDefinition
  3

  2
NN
 70
     8
280
     0
  0
ATTDEF
  5
205
330
200
100
AcDbEntity
  8
AM_6
100
AcDbText
 10
10.712
 20
5.212
 30
0.0
 40
0.5
  1
Steal Imperial Piloted Flange Bearing-Inch-207-500
100
AcDbAttributeDefinition
  3

  2
NT
 70
     8
280
     0
  0
ATTDEF
  5
206
330
200
100
AcDbEntity
  8
AM_6
100
AcDbText
 10
10.712
 20
4.712
 30
0.0
 40
0.5
  1
B072300
100
AcDbAttributeDefinition
  3

  2
NB
 70
     8
280
     0
  0
ATTDEF
  5
207
330
200
100
AcDbEntity
  8
AM_6
100
AcDbText
 10
10.712
 20
4.212
 30
0.0
 40
0.5
  1
$PN.
100
AcDbAttributeDefinition
  3

  2
NBSYN
 70
     8
280
     0
  0
ATTDEF
  5
208
330
200
100
AcDbEntity
  8
AM_6
100
AcDbText
 10
10.712
 20
3.712
 30
0.0
 40
0.5
  1
B072300
100
AcDbAttributeDefinition
  3

  2
LINA
 70
     8
280
     0
  0
ATTDEF
  5
209
330
200
100
AcDbEntity
  8
AM_6
100
AcDbText
 10
10.712
 20
3.212
 30
0.0
 40
0.5
  1
3-11/16
100
AcDbAttributeDefinition
  3

  2
SS
 70
     8
280
     0
  0
ATTDEF
  5
20A
330
200
100
AcDbEntity
  8
AM_6
100
AcDbText
 10
10.712
 20
2.712
 30
0.0
 40
0.5
  1
3.68750
100
AcDbAttributeDefinition
  3

  2
SS1
 70
     8
280
     0
  0
ATTDEF
  5
20B
330
200
100
AcDbEntity
  8
AM_6
100
AcDbText
 10
10.712
 20
2.212
 30
0.0
 40
0.5
  1
072300
100
AcDbAttributeDefinition
  3

  2
PN1
 70
     8
280
     0
  0
ATTDEF
  5
20C
330
200
100
AcDbEntity
  8
AM_6
100
AcDbText
 10
10.712
 20
1.712
 30
0.0
 40
0.5
  1
072331
100
AcDbAttributeDefinition
  3

  2
PN2
 70
     8
280
     0
  0
ATTDEF
  5
20D
330
200
100
AcDbEntity
  8
AM_6
100
AcDbText
 10
10.712
 20
1.212
 30
0.0
 40
0.5
  1
Non-Expansion
100
AcDbAttributeDefinition
  3

  2
TYPE
 70
     8
280
     0
  0
ATTDEF
  5
20E
330
200
100
AcDbEntity
  8
AM_6
100
AcDbText
 10
10.712
 20
0.7119999999999997
 30
0.0
 40
0.5
  1
Contact Seal
100
AcDbAttributeDefinition
  3

  2
ST
 70
     8
280
     0
  0
ATTDEF
  5
20F
330
200
100
AcDbEntity
  8
AM_6
100
AcDbText
 10
10.712
 20
0.2119999999999997
 30
0.0
 40
0.5
  1
SFC-IP-311R
100
AcDbAttributeDefinition
  3

  2
DESCRIPTIONS
 70
     8
280
     0
  0
ATTDEF
  5
210
330
200
100
AcDbEntity
  8
AM_6
100
AcDbText
 10
10.712
 20
-0.2880000000000003
 30
0.0
 40
0.5
  1
4.70
100
AcDbAttributeDefinition
  3

  2
A
 70
     8
280
     0
  0
ATTDEF
  5
211
330
200
100
AcDbEntity
  8
AM_6
100
AcDbText
 10
10.712
 20
-0.7880000000000003
 30
0.0
 40
0.5
  1
4.700
100
AcDbAttributeDefinition
  3

  2
A1
 70
     8
280
     0
  0
ATTDEF
  5
212
330
200
100
AcDbEntity
  8
AM_6
100
AcDbText
 10
10.712
 20
-1.288
 30
0.0
 40
0.5
  1
10.88
100
AcDbAttributeDefinition
  3

  2
B
 70
     8
280
     0
  0
ATTDEF
  5
213
330
200
100
AcDbEntity
  8
AM_6
100
AcDbText
 10
10.712
 20
-1.788
 30
0.0
 40
0.5
  1
10.8800
100
AcDbAttributeDefinition
  3

  2
B1
 70
     8
280
     0
  0
ATTDEF
  5
214
330
200
100
AcDbEntity
  8
AM_6
100
AcDbText
 10
10.712
 20
-2.288
 30
0.0
 40
0.5
  1
3.73
100
AcDbAttributeDefinition
  3

  2
C
 70
     8
280
     0
  0
ATTDEF
  5
215
330
200
100
AcDbEntity
  8
AM_6
100
AcDbText
 10
10.712
 20
-2.788
 30
0.0
 40
0.5
  1
3.7300
100
AcDbAttributeDefinition
  3

  2
C1
 70
     8
280
     0
  0
ATTDEF
  5
216
330
200
100
AcDbEntity
  8
AM_6
100
AcDbText
 10
10.712
 20
-3.288
 30
0.0
 40
0.5
  1
6.63
100
AcDbAttributeDefinition
  3

  2
D
 70
     8
280
     0
  0
ATTDEF
  5
217
330
200
100
AcDbEntity
  8
AM_6
100
AcDbText
 10
10.712
 20
-3.788
 30
0.0
 40
0.5
  1
6.6300
100
AcDbAttributeDefinition
  3

  2
D1
 70
     8
280
     0
  0
ATTDEF
  5
218
330
200
100
AcDbEntity
  8
AM_6
100
AcDbText
 10
10.712
 20
-4.288
 30
0.0
 40
0.5
  1
9.375
100
AcDbAttributeDefinition
  3

  2
DD
 70
     8
280
     0
  0
ATTDEF
  5
219
330
200
100
AcDbEntity
  8
AM_6
100
AcDbText
 10
10.712
 20
-4.788
 30
0.0
 40
0.5
  1
9.3750
100
AcDbAttributeDefinition
  3

  2
DD1
 70
     8
280
     0
  0
ATTDEF
  5
21A
330
200
100
AcDbEntity
  8
AM_6
100
AcDbText
 10
10.712
 20
-5.288
 30
0.0
 40
0.5
  1
2.2500
100
AcDbAttributeDefinition
  3

  2
E
 70
     8
280
     0
  0
ATTDEF
  5
21B
330
200
100
AcDbEntity
  8
AM_6
100
AcDbText
 10
10.712
 20
-5.788
 30
0.0
 40
0.5
  1
2.2500
100
AcDbAttributeDefinition
  3

  2
E1
 70
     8
280
     0
  0
ATTDEF
  5
21C
330
200
100
AcDbEntity
  8
AM_6
100
AcDbText
 10
10.712
 20
-6.288
 30
0.0
 40
0.5
  1
0.7500
100
AcDbAttributeDefinition
  3

  2
F
 70
     8
280
     0
  0
ATTDEF
  5
21D
330
200
100
AcDbEntity
  8
AM_6
100
AcDbText
 10
10.712
 20
-6.788
 30
0.0
 40
0.5
  1
0.75000
100
AcDbAttributeDefinition
  3

  2
F1
 70
     8
280
     0
  0
ATTDEF
  5
21E
330
200
100
AcDbEntity
  8
AM_6
100
AcDbText
 10
10.712
 20
-7.288
 30
0.0
 40
0.5
  1
2.58
100
AcDbAttributeDefinition
  3

  2
G
 70
     8
280
     0
  0
ATTDEF
  5
21F
330
200
100
AcDbEntity
  8
AM_6
100
AcDbText
 10
10.712
 20
-7.788
 30
0.0
 40
0.5
  1
2.58
100
AcDbAttributeDefinition
  3

  2
G1
 70
     8
280
     0
  0
ATTDEF
  5
220
330
200
100
AcDbEntity
  8
AM_6
100
AcDbText
 10
10.712
 20
-8.288
 30
0.0
 40
0.5
  1
1.00
100
AcDbAttributeDefinition
  3

  2
H
 70
     8
280
     0
  0
ATTDEF
  5
221
330
200
100
AcDbEntity
  8
AM_6
100
AcDbText
 10
10.712
 20
-8.788
 30
0.0
 40
0.5
  1
1.00
100
AcDbAttributeDefinition
  3

  2
H1
 70
     8
280
     0
  0
ATTDEF
  5
222
330
200
100
AcDbEntity
  8
AM_6
100
AcDbText
 10
10.712
 20
-9.288
 30
0.0
 40
0.5
  1
8.125
100
AcDbAttributeDefinition
  3

  2
K
 70
     8
280
     0
  0
ATTDEF
  5
223
330
200
100
AcDbEntity
  8
AM_6
100
AcDbText
 10
10.712
 20
-9.788
 30
0.0
 40
0.5
  1
8.125
100
AcDbAttributeDefinition
  3

  2
K1
 70
     8
280
     0
  0
ATTDEF
  5
224
330
200
100
AcDbEntity
  8
AM_6
100
AcDbText
 10
10.712
 20
-10.288
 30
0.0
 40
0.5
  1
5.44
100
AcDbAttributeDefinition
  3

  2
L
 70
     8
280
     0
  0
ATTDEF
  5
225
330
200
100
AcDbEntity
  8
AM_6
100
AcDbText
 10
10.712
 20
-10.788
 30
0.0
 40
0.5
  1
5.44
100
AcDbAttributeDefinition
  3

  2
L1
 70
     8
280
     0
  0
ATTDEF
  5
226
330
200
100
AcDbEntity
  8
AM_6
100
AcDbText
 10
10.712
 20
-11.288
 30
0.0
 40
0.5
  1
0.7500
100
AcDbAttributeDefinition
  3

  2
M
 70
     8
280
     0
  0
ATTDEF
  5
227
330
200
100
AcDbEntity
  8
AM_6
100
AcDbText
 10
10.712
 20
-11.788
 30
0.0
 40
0.5
  1
0.7500
100
AcDbAttributeDefinition
  3

  2
M1
 70
     8
280
     0
  0
ATTDEF
  5
228
330
200
100
AcDbEntity
  8
AM_6
100
AcDbText
 10
10.712
 20
-12.288
 30
0.0
 40
0.5
  1
4.83
100
AcDbAttributeDefinition
  3

  2
N
 70
     8
280
     0
  0
ATTDEF
  5
229
330
200
100
AcDbEntity
  8
AM_6
100
AcDbText
 10
10.712
 20
-12.788
 30
0.0
 40
0.5
  1
4.83
100
AcDbAttributeDefinition
  3

  2
N1
 70
     8
280
     0
  0
ATTDEF
  5
22A
330
200
100
AcDbEntity
  8
AM_6
100
AcDbText
 10
10.712
 20
-13.288
 30
0.0
 40
0.5
  1
2.89
100
AcDbAttributeDefinition
  3

  2
P
 70
     8
280
     0
  0
ATTDEF
  5
22B
330
200
100
AcDbEntity
  8
AM_6
100
AcDbText
 10
10.712
 20
-13.788
 30
0.0
 40
0.5
  1
2.89
100
AcDbAttributeDefinition
  3

  2
P1
 70
     8
280
     0
  0
ATTDEF
  5
22C
330
200
100
AcDbEntity
  8
AM_6
100
AcDbText
 10
10.712
 20
-14.288
 30
0.0
 40
0.5
  1
2.25
100
AcDbAttributeDefinition
  3

  2
Q
 70
     8
280
     0
  0
ATTDEF
  5
22D
330
200
100
AcDbEntity
  8
AM_6
100
AcDbText
 10
10.712
 20
-14.788
 30
0.0
 40
0.5
  1
2.25
100
AcDbAttributeDefinition
  3

  2
Q1
 70
     8
280
     0
  0
ATTDEF
  5
22E
330
200
100
AcDbEntity
  8
AM_6
100
AcDbText
 10
10.712
 20
-15.288
 30
0.0
 40
0.5
  1
0.31
100
AcDbAttributeDefinition
  3

  2
X
 70
     8
280
     0
  0
ATTDEF
  5
22F
330
200
100
AcDbEntity
  8
AM_6
100
AcDbText
 10
10.712
 20
-15.788
 30
0.0
 40
0.5
  1
0.31
100
AcDbAttributeDefinition
  3

  2
X1
 70
     8
280
     0
  0
ATTDEF
  5
230
330
200
100
AcDbEntity
  8
AM_6
100
AcDbText
 10
10.712
 20
-16.288
 30
0.0
 40
0.5
  1
0.250
100
AcDbAttributeDefinition
  3

  2
Y
 70
     8
280
     0
  0
ATTDEF
  5
231
330
200
100
AcDbEntity
  8
AM_6
100
AcDbText
 10
10.712
 20
-16.788
 30
0.0
 40
0.5
  1
0.250
100
AcDbAttributeDefinition
  3

  2
Y1
 70
     8
280
     0
  0
ATTDEF
  5
232
330
200
100
AcDbEntity
  8
AM_6
100
AcDbText
 10
10.712
 20
-17.288
 30
0.0
 40
0.5
  1
4.50
100
AcDbAttributeDefinition
  3

  2
Z
 70
     8
280
     0
  0
ATTDEF
  5
233
330
200
100
AcDbEntity
  8
AM_6
100
AcDbText
 10
10.712
 20
-17.788
 30
0.0
 40
0.5
  1
4.50
100
AcDbAttributeDefinition
  3

  2
Z1
 70
     8
280
     0
  0
ATTDEF
  5
234
330
200
100
AcDbEntity
  8
AM_6
100
AcDbText
 10
10.712
 20
-18.288
 30
0.0
 40
0.5
  1
7.0866
100
AcDbAttributeDefinition
  3

  2
BORE
 70
     8
280
     0
  0
ATTDEF
  5
235
330
200
100
AcDbEntity
  8
AM_6
100
AcDbText
 10
10.712
 20
-18.788
 30
0.0
 40
0.5
  1
0.1423330
100
AcDbAttributeDefinition
  3

  2
O
 70
     8
280
     0
  0
ATTDEF
  5
236
330
200
100
AcDbEntity
  8
AM_6
100
AcDbText
 10
10.712
 20
-19.288
 30
0.0
 40
0.5
  1
baldor
100
AcDbAttributeDefinition
  3

  2
COMPANY
 70
     8
280
     0
  0
ARC
  5
237
330
200
100
AcDbEntity
  8
AM_9
100
AcDbCircle
 10
-0.0000000000000231
 20
0.0000000000000002
 30
0.0
 40
4.062500000000006
100
AcDbArc
 50
75.7499673021961
 51
284.2500326978039
  0
ARC
  5
238
330
200
100
AcDbEntity
  8
AM_5
100
AcDbCircle
 10
4.6875
 20
-0.0000000000000001
 30
0.0
 40
0.3749999999999997
100
AcDbArc
 50
75.00000000000004
 51
15.0
  0
ARC
  5
239
330
200
100
AcDbEntity
  8
AM_5
100
AcDbCircle
 10
-4.6875
 20
-0.0000000000000001
 30
0.0
 40
0.3749999999999997
100
AcDbArc
 50
75.00000000000004
 51
15.0
  0
LINE
  5
23A
330
200
100
AcDbEntity
  8
AM_7
100
AcDbLine
 10
-5.712
 20
0.0
 30
0.0
 11
5.712
 21
0.0
 31
0.0
  0
LINE
  5
23B
330
200
100
AcDbEntity
  8
AM_7
100
AcDbLine
 10
0.0
 20
-5.712
 30
0.0
 11
0.0
 21
5.712
 31
0.0
  0
LINE
  5
23C
330
200
100
AcDbEntity
  8
AM_7
100
AcDbLine
 10
-4.6875
 20
-0.3937500000000003
 30
0.0
 11
-4.6875
 21
0.3937500000000003
 31
0.0
  0
LINE
  5
23D
330
200
100
AcDbEntity
  8
AM_7
100
AcDbLine
 10
4.6875
 20
-0.3937499999999997
 30
0.0
 11
4.6875
 21
0.3937499999999997
 31
0.0
  0
LINE
  5
23E
330
200
100
AcDbEntity
  8
AM_7
100
AcDbLine
 10
1.95
 20
-4.059494080239556
 30
0.0
 11
2.737499999999999
 21
-4.059494080239556
 31
0.0
  0
LINE
  5
23F
330
200
100
AcDbEntity
  8
AM_7
100
AcDbLine
 10
2.34375
 20
-4.453244080239556
 30
0.0
 11
2.34375
 21
-3.665744080239556
 31
0.0
  0
LINE
  5
240
330
200
100
AcDbEntity
  8
AM_7
100
AcDbLine
 10
1.95
 20
4.059494080239556
 30
0.0
 11
2.737499999999999
 21
4.059494080239556
 31
0.0
  0
LINE
  5
241
330
200
100
AcDbEntity
  8
AM_7
100
AcDbLine
 10
2.34375
 20
3.665744080239556
 30
0.0
 11
2.34375
 21
4.453244080239556
 31
0.0
  0
LINE
  5
242
330
200
100
AcDbEntity
  8
AM_7
100
AcDbLine
 10
-2.737499999999999
 20
4.059494080239556
 30
0.0
 11
-1.95
 21
4.059494080239556
 31
0.0
  0
LINE
  5
243
330
200
100
AcDbEntity
  8
AM_7
100
AcDbLine
 10
-2.34375
 20
3.665744080239556
 30
0.0
 11
-2.34375
 21
4.453244080239556
 31
0.0
  0
LINE
  5
244
330
200
100
AcDbEntity
  8
AM_7
100
AcDbLine
 10
-2.737499999999999
 20
-4.059494080239556
 30
0.0
 11
-1.95
 21
-4.059494080239556
 31
0.0
  0
LINE
  5
245
330
200
100
AcDbEntity
  8
AM_7
100
AcDbLine
 10
-2.34375
 20
-4.453244080239556
 30
0.0
 11
-2.34375
 21
-3.665744080239556
 31
0.0
  0
CIRCLE
  5
246
330
200
100
AcDbEntity
  8
AM_4
100
AcDbCircle
 10
-4.6875
 20
0.0
 30
0.0
 40
0.3208500000000005
  0
CIRCLE
  5
247
330
200
100
AcDbEntity
  8
AM_4
100
AcDbCircle
 10
4.6875
 20
0.0
 30
0.0
 40
0.3208499999999999
  0
CIRCLE
  5
248
330
200
100
AcDbEntity
  8
AM_4
100
AcDbCircle
 10
0.0
 20
0.0
 30
0.0
 40
5.44
  0
CIRCLE
  5
249
330
200
100
AcDbEntity
  8
AM_4
100
AcDbCircle
 10
2.34375
 20
-4.059494080239556
 30
0.0
 40
0.3749999999999999
  0
CIRCLE
  5
24A
330
200
100
AcDbEntity
  8
AM_4
100
AcDbCircle
 10
2.34375
 20
4.059494080239556
 30
0.0
 40
0.3749999999999999
  0
CIRCLE
  5
24B
330
200
100
AcDbEntity
  8
AM_4
100
AcDbCircle
 10
-2.34375
 20
4.059494080239556
 30
0.0
 40
0.3749999999999999
  0
CIRCLE
  5
24C
330
200
100
AcDbEntity
  8
AM_4
100
AcDbCircle
 10
-2.34375
 20
-4.059494080239556
 30
0.0
 40
0.3749999999999999
  0
LINE
  5
24D
330
200
100
AcDbEntity
  8
AM_4
100
AcDbLine
 10
1.0
 20
-3.9375
 30
0.0
 11
1.0
 21
-4.875
 31
0.0
  0
LINE
  5
24E
330
200
100
AcDbEntity
  8
AM_4
100
AcDbLine
 10
-1.0
 20
-3.9375
 30
0.0
 11
-1.0
 21
-4.875
 31
0.0
  0
LINE
  5
24F
330
200
100
AcDbEntity
  8
AM_4
100
AcDbLine
 10
1.0
 20
4.875
 30
0.0
 11
1.0
 21
3.937500000000001
 31
0.0
  0
LINE
  5
250
330
200
100
AcDbEntity
  8
AM_4
100
AcDbLine
 10
-1.0
 20
4.875
 30
0.0
 11
-1.0
 21
3.937500000000001
 31
0.0
  0
CIRCLE
  5
251
330
200
100
AcDbEntity
  8
AM_4
100
AcDbCircle
 10
0.0
 20
0.0
 30
0.0
 40
3.5433
  0
ARC
  5
252
330
200
100
AcDbEntity
  8
AM_4
100
AcDbCircle
 10
-0.0000000000000009
 20
0.0000000000000004
 30
0.0
 40
4.062500000000001
100
AcDbArc
 50
284.2500326978036
 51
75.7499673021964
  0
ARC
  5
253
330
200
100
AcDbEntity
  8
AM_4
100
AcDbCircle
 10
0.0000000000000009
 20
0.0
 30
0.0
 40
4.062500000000001
100
AcDbArc
 50
104.2500326978036
 51
255.7499673021964
  0
LINE
  5
254
330
200
100
AcDbEntity
  8
AM_4
100
AcDbLine
 10
1.0
 20
4.0625
 30
0.0
 11
-1.0
 21
4.0625
 31
0.0
  0
LINE
  5
255
330
200
100
AcDbEntity
  8
AM_4
100
AcDbLine
 10
1.0
 20
4.875
 30
0.0
 11
-1.0
 21
4.875
 31
0.0
  0
LINE
  5
256
330
200
100
AcDbEntity
  8
AM_4
100
AcDbLine
 10
1.0
 20
-4.875
 30
0.0
 11
-1.0
 21
-4.875
 31
0.0
  0
LINE
  5
257
330
200
100
AcDbEntity
  8
AM_4
100
AcDbLine
 10
1.0
 20
-4.0625
 30
0.0
 11
-1.0
 21
-4.0625
 31
0.0
  0
ARC
  5
258
330
200
100
AcDbEntity
  8
AM_5
100
AcDbCircle
 10
4.6875
 20
0.0
 30
0.0
 40
0.3750000000000001
100
AcDbArc
 50
165.0
 51
105.0
  0
ARC
  5
259
330
200
100
AcDbEntity
  8
AM_5
100
AcDbCircle
 10
-4.6875
 20
0.0
 30
0.0
 40
0.3750000000000001
100
AcDbArc
 50
165.0
 51
105.0
  0
ENDBLK
  5
203
330
200
100
AcDbEntity
  8
0
100
AcDbBlockEnd
  0
ENDSEC
  0
SECTION
  2
ENTITIES
  0
INSERT
  5
6F
330
1F
100
AcDbEntity
  8
0
100
AcDbBlockReference
  2
1_072300_0
 10
0.0
 20
0.0
 30
0.0
  0
POINT
  5
25B
330
1F
100
AcDbEntity
  8
ConnectionPoints
100
AcDbPoint
 10
0.0
 20
4.46875
 30
1.24
  0
POINT
  5
25C
330
1F
100
AcDbEntity
  8
ConnectionPoints
100
AcDbPoint
 10
0.0
 20
-2.414930555555555
 30
2.447999666666667
  0
POINT
  5
25D
330
1F
100
AcDbEntity
  8
ConnectionPoints
100
AcDbPoint
 10
0.0
 20
2.414930555555555
 30
2.447999666666667
  0
POINT
  5
25E
330
1F
100
AcDbEntity
  8
ConnectionPoints
100
AcDbPoint
 10
0.0
 20
0.0
 30
2.235666666666667
  0
POINT
  5
25F
330
1F
100
AcDbEntity
  8
ConnectionPoints
100
AcDbPoint
 10
0.0
 20
0.0
 30
2.58
  0
POINT
  5
260
330
1F
100
AcDbEntity
  8
ConnectionPoints
100
AcDbPoint
 10
0.0
 20
0.0
 30
2.434666666666667
  0
POINT
  5
261
330
1F
100
AcDbEntity
  8
ConnectionPoints
100
AcDbPoint
 10
0.0
 20
2.414930555555555
 30
2.235666666666667
  0
POINT
  5
262
330
1F
100
AcDbEntity
  8
ConnectionPoints
100
AcDbPoint
 10
0.0
 20
2.414930555555555
 30
2.448
  0
POINT
  5
263
330
1F
100
AcDbEntity
  8
ConnectionPoints
100
AcDbPoint
 10
0.0
 20
-2.414930555555555
 30
2.235666666666667
  0
POINT
  5
264
330
1F
100
AcDbEntity
  8
ConnectionPoints
100
AcDbPoint
 10
0.0
 20
-2.414930555555555
 30
2.448
  0
POINT
  5
265
330
1F
100
AcDbEntity
  8
ConnectionPoints
100
AcDbPoint
 10
0.0
 20
0.0
 30
2.235666666666667
  0
POINT
  5
266
330
1F
100
AcDbEntity
  8
ConnectionPoints
100
AcDbPoint
 10
0.0
 20
4.46875
 30
1.24
  0
POINT
  5
267
330
1F
100
AcDbEntity
  8
ConnectionPoints
100
AcDbPoint
 10
0.0
 20
-4.46875
 30
1.240000000000001
  0
POINT
  5
268
330
1F
100
AcDbEntity
  8
ConnectionPoints
100
AcDbPoint
 10
0.0
 20
0.0
 30
2.27
  0
POINT
  5
269
330
1F
100
AcDbEntity
  8
ConnectionPoints
100
AcDbPoint
 10
0.0
 20
0.0
 30
2.58
  0
ENDSEC
  0
SECTION
  2
OBJECTS
  0
DICTIONARY
  5
C
330
0
100
AcDbDictionary
281
     1
  3
ACAD_DETAILVIEWSTYLE
350
271
  3
ACAD_GROUP
350
D
  3
ACAD_LAYOUT
350
1A
  3
ACAD_MATERIAL
350
43
  3
ACAD_MLEADERSTYLE
350
6B
  3
ACAD_MLINESTYLE
350
17
  3
ACAD_PLOTSETTINGS
350
19
  3
ACAD_PLOTSTYLENAME
350
E
  3
ACAD_SCALELIST
350
47
  3
ACAD_SECTIONVIEWSTYLE
350
272
  3
ACAD_TABLESTYLE
350
69
  3
ACAD_VISUALSTYLE
350
2A
  3
ACDB_RECOMPOSE_DATA
350
26E
  3
AcDbVariableDictionary
350
26A
  0
SUN
  5
6D
330
29
100
AcDbSun
 90
        1
290
     0
 63
     7
421
 16777215
 40
1.0
291
     1
 91
  2455826
 92
 54000000
292
     0
 70
     2
 71
   256
280
     1
  0
DICTIONARY
  5
271
102
{ACAD_REACTORS
330
C
102
}
330
C
100
AcDbDictionary
281
     1
  0
DICTIONARY
  5
D
102
{ACAD_REACTORS
330
C
102
}
330
C
100
AcDbDictionary
281
     1
  0
DICTIONARY
  5
1A
102
{ACAD_REACTORS
330
C
102
}
330
C
100
AcDbDictionary
281
     1
  3
Layout1
350
1E
  3
Layout2
350
26
  3
Model
350
22
  0
DICTIONARY
  5
43
102
{ACAD_REACTORS
330
C
102
}
330
C
100
AcDbDictionary
281
     1
  3
ByBlock
350
45
  3
ByLayer
350
44
  3
Global
350
46
  0
DICTIONARY
  5
6B
102
{ACAD_REACTORS
330
C
102
}
330
C
100
AcDbDictionary
281
     1
  3
Standard
350
6C
  0
DICTIONARY
  5
17
102
{ACAD_REACTORS
330
C
102
}
330
C
100
AcDbDictionary
281
     1
  3
Standard
350
18
  0
DICTIONARY
  5
19
102
{ACAD_REACTORS
330
C
102
}
330
C
100
AcDbDictionary
281
     1
  0
ACDBDICTIONARYWDFLT
  5
E
102
{ACAD_REACTORS
330
C
102
}
330
C
100
AcDbDictionary
281
     1
  3
Normal
350
F
100
AcDbDictionaryWithDefault
340
F
  0
DICTIONARY
  5
47
102
{ACAD_REACTORS
330
C
102
}
330
C
100
AcDbDictionary
281
     1
  3
A0
350
48
  3
A1
350
49
  3
A2
350
4A
  3
A3
350
4B
  3
A4
350
4C
  3
A5
350
4D
  3
A6
350
4E
  3
A7
350
4F
  3
A8
350
50
  3
A9
350
51
  3
B0
350
52
  3
B1
350
53
  3
B2
350
54
  3
B3
350
55
  3
B4
350
56
  3
B5
350
57
  3
B6
350
58
  3
B7
350
59
  3
B8
350
5A
  3
B9
350
5B
  3
C0
350
5C
  3
C1
350
5D
  3
C2
350
5E
  3
C3
350
5F
  3
C4
350
60
  3
C5
350
61
  3
C6
350
62
  3
C7
350
63
  3
C8
350
64
  3
C9
350
65
  3
D0
350
66
  3
D1
350
67
  3
D2
350
68
  0
DICTIONARY
  5
272
102
{ACAD_REACTORS
330
C
102
}
330
C
100
AcDbDictionary
281
     1
  0
DICTIONARY
  5
69
102
{ACAD_REACTORS
330
C
102
}
330
C
100
AcDbDictionary
281
     1
  3
Standard
350
6A
  0
DICTIONARY
  5
2A
102
{ACAD_REACTORS
330
C
102
}
330
C
100
AcDbDictionary
281
     1
  3
2dWireframe
350
2F
  3
Basic
350
32
  3
Brighten
350
36
  3
ColorChange
350
3A
  3
Conceptual
350
34
  3
Dim
350
35
  3
EdgeColorOff
350
3D
  3
Facepattern
350
39
  3
Flat
350
2B
  3
FlatWithEdges
350
2C
  3
Gouraud
350
2D
  3
GouraudWithEdges
350
2E
  3
Hidden
350
31
  3
JitterOff
350
3B
  3
Linepattern
350
38
  3
OverhangOff
350
3C
  3
Realistic
350
33
  3
Shaded
350
42
  3
Shaded with edges
350
41
  3
Shades of Gray
350
3E
  3
Sketchy
350
3F
  3
Thicken
350
37
  3
Wireframe
350
30
  3
X-Ray
350
40
  0
XRECORD
  5
26E
102
{ACAD_REACTORS
330
C
102
}
330
C
100
AcDbXrecord
280
     1
 90
        1
330
6A
  0
DICTIONARY
  5
26A
102
{ACAD_REACTORS
330
C
102
}
330
C
100
AcDbDictionary
281
     1
  3
CANNOSCALE
350
26B
  3
CMLEADERSTYLE
350
270
  3
CTABLESTYLE
350
26F
  0
LAYOUT
  5
1E
102
{ACAD_REACTORS
330
1A
102
}
330
1A
100
AcDbPlotSettings
  1

  2
none_device
  4

  6

 40
0.0
 41
0.0
 42
0.0
 43
0.0
 44
0.0
 45
0.0
 46
0.0
 47
0.0
 48
0.0
 49
0.0
140
0.0
141
0.0
142
1.0
143
1.0
 70
   688
 72
     0
 73
     0
 74
     5
  7

 75
    16
 76
     0
 77
     2
 78
   300
147
1.0
148
0.0
149
0.0
100
AcDbLayout
  1
Layout1
 70
     1
 71
     1
 10
0.0
 20
0.0
 11
12.0
 21
9.0
 12
0.0
 22
0.0
 32
0.0
 14
1.000000000000000E+20
 24
1.000000000000000E+20
 34
1.000000000000000E+20
 15
-1.000000000000000E+20
 25
-1.000000000000000E+20
 35
-1.000000000000000E+20
146
0.0
 13
0.0
 23
0.0
 33
0.0
 16
1.0
 26
0.0
 36
0.0
 17
0.0
 27
1.0
 37
0.0
 76
     0
330
1B
  0
LAYOUT
  5
26
102
{ACAD_REACTORS
330
1A
102
}
330
1A
100
AcDbPlotSettings
  1

  2
none_device
  4

  6

 40
0.0
 41
0.0
 42
0.0
 43
0.0
 44
0.0
 45
0.0
 46
0.0
 47
0.0
 48
0.0
 49
0.0
140
0.0
141
0.0
142
1.0
143
1.0
 70
   688
 72
     0
 73
     0
 74
     5
  7

 75
    16
 76
     0
 77
     2
 78
   300
147
1.0
148
0.0
149
0.0
100
AcDbLayout
  1
Layout2
 70
     1
 71
     2
 10
0.0
 20
0.0
 11
0.0
 21
0.0
 12
0.0
 22
0.0
 32
0.0
 14
0.0
 24
0.0
 34
0.0
 15
0.0
 25
0.0
 35
0.0
146
0.0
 13
0.0
 23
0.0
 33
0.0
 16
1.0
 26
0.0
 36
0.0
 17
0.0
 27
1.0
 37
0.0
 76
     0
330
23
  0
LAYOUT
  5
22
102
{ACAD_REACTORS
330
1A
102
}
330
1A
100
AcDbPlotSettings
  1

  2
none_device
  4
Letter_(8.50_x_11.00_Inches)
  6

 40
6.35
 41
6.35
 42
6.35000508
 43
6.35000508
 44
215.9
 45
279.4
 46
0.0
 47
0.0
 48
0.0
 49
0.0
140
0.0
141
0.0
142
1.0
143
1.0
 70
  1712
 72
     0
 73
     0
 74
     0
  7

 75
     0
 76
     0
 77
     2
 78
   300
147
1.0
148
0.0
149
0.0
100
AcDbLayout
  1
Model
 70
     1
 71
     0
 10
0.0
 20
0.0
 11
12.0
 21
9.0
 12
0.0
 22
0.0
 32
0.0
 14
1.000000000000000E+20
 24
1.000000000000000E+20
 34
1.000000000000000E+20
 15
-1.000000000000000E+20
 25
-1.000000000000000E+20
 35
-1.000000000000000E+20
146
0.0
 13
0.0
 23
0.0
 33
0.0
 16
1.0
 26
0.0
 36
0.0
 17
0.0
 27
1.0
 37
0.0
 76
     0
330
1F
331
29
  0
MATERIAL
  5
45
102
{ACAD_REACTORS
330
43
102
}
330
43
100
AcDbMaterial
  1
ByBlock
 72
     1
 94
      127
  0
MATERIAL
  5
44
102
{ACAD_REACTORS
330
43
102
}
330
43
100
AcDbMaterial
  1
ByLayer
 72
     1
 94
      127
  0
MATERIAL
  5
46
102
{ACAD_REACTORS
330
43
102
}
330
43
100
AcDbMaterial
  1
Global
 72
     1
 94
      127
  0
MLEADERSTYLE
  5
6C
102
{ACAD_REACTORS
330
6B
102
}
330
6B
100
AcDbMLeaderStyle
179
     2
170
     2
171
     1
172
     0
 90
        2
 40
0.0
 41
0.0
173
     1
 91
-1056964608
340
14
 92
       -2
290
     1
 42
0.09
291
     1
 43
0.36
  3
Standard
341
0
 44
0.18
300

342
11
174
     1
178
     6
175
     1
176
     0
 93
-1056964608
 45
0.18
292
     0
297
     0
 46
0.18
343
0
 94
-1056964608
 47
1.0
 49
1.0
140
1.0
293
     1
141
0.0
294
     1
177
     0
142
1.0
295
     0
296
     0
143
0.125
271
     0
272
     9
273
     9
298
     0
  0
MLINESTYLE
  5
18
102
{ACAD_REACTORS
330
17
102
}
330
17
100
AcDbMlineStyle
  2
Standard
 70
     0
  3

 62
   256
 51
90.0
 52
90.0
 71
     2
 49
0.5
 62
   256
  6
BYLAYER
 49
-0.5
 62
   256
  6
BYLAYER
  0
ACDBPLACEHOLDER
  5
F
102
{ACAD_REACTORS
330
E
102
}
330
E
  0
SCALE
  5
48
102
{ACAD_REACTORS
330
47
102
}
330
47
100
AcDbScale
 70
     0
300
1:1
140
1.0
141
1.0
290
     1
  0
SCALE
  5
49
102
{ACAD_REACTORS
330
47
102
}
330
47
100
AcDbScale
 70
     0
300
1:2
140
1.0
141
2.0
290
     0
  0
SCALE
  5
4A
102
{ACAD_REACTORS
330
47
102
}
330
47
100
AcDbScale
 70
     0
300
1:4
140
1.0
141
4.0
290
     0
  0
SCALE
  5
4B
102
{ACAD_REACTORS
330
47
102
}
330
47
100
AcDbScale
 70
     0
300
1:5
140
1.0
141
5.0
290
     0
  0
SCALE
  5
4C
102
{ACAD_REACTORS
330
47
102
}
330
47
100
AcDbScale
 70
     0
300
1:8
140
1.0
141
8.0
290
     0
  0
SCALE
  5
4D
102
{ACAD_REACTORS
330
47
102
}
330
47
100
AcDbScale
 70
     0
300
1:10
140
1.0
141
10.0
290
     0
  0
SCALE
  5
4E
102
{ACAD_REACTORS
330
47
102
}
330
47
100
AcDbScale
 70
     0
300
1:16
140
1.0
141
16.0
290
     0
  0
SCALE
  5
4F
102
{ACAD_REACTORS
330
47
102
}
330
47
100
AcDbScale
 70
     0
300
1:20
140
1.0
141
20.0
290
     0
  0
SCALE
  5
50
102
{ACAD_REACTORS
330
47
102
}
330
47
100
AcDbScale
 70
     0
300
1:30
140
1.0
141
30.0
290
     0
  0
SCALE
  5
51
102
{ACAD_REACTORS
330
47
102
}
330
47
100
AcDbScale
 70
     0
300
1:40
140
1.0
141
40.0
290
     0
  0
SCALE
  5
52
102
{ACAD_REACTORS
330
47
102
}
330
47
100
AcDbScale
 70
     0
300
1:50
140
1.0
141
50.0
290
     0
  0
SCALE
  5
53
102
{ACAD_REACTORS
330
47
102
}
330
47
100
AcDbScale
 70
     0
300
1:100
140
1.0
141
100.0
290
     0
  0
SCALE
  5
54
102
{ACAD_REACTORS
330
47
102
}
330
47
100
AcDbScale
 70
     0
300
2:1
140
2.0
141
1.0
290
     0
  0
SCALE
  5
55
102
{ACAD_REACTORS
330
47
102
}
330
47
100
AcDbScale
 70
     0
300
4:1
140
4.0
141
1.0
290
     0
  0
SCALE
  5
56
102
{ACAD_REACTORS
330
47
102
}
330
47
100
AcDbScale
 70
     0
300
8:1
140
8.0
141
1.0
290
     0
  0
SCALE
  5
57
102
{ACAD_REACTORS
330
47
102
}
330
47
100
AcDbScale
 70
     0
300
10:1
140
10.0
141
1.0
290
     0
  0
SCALE
  5
58
102
{ACAD_REACTORS
330
47
102
}
330
47
100
AcDbScale
 70
     0
300
100:1
140
100.0
141
1.0
290
     0
  0
SCALE
  5
59
102
{ACAD_REACTORS
330
47
102
}
330
47
100
AcDbScale
 70
     0
300
1/128" = 1'-0"
140
0.0078125
141
12.0
290
     0
  0
SCALE
  5
5A
102
{ACAD_REACTORS
330
47
102
}
330
47
100
AcDbScale
 70
     0
300
1/64" = 1'-0"
140
0.015625
141
12.0
290
     0
  0
SCALE
  5
5B
102
{ACAD_REACTORS
330
47
102
}
330
47
100
AcDbScale
 70
     0
300
1/32" = 1'-0"
140
0.03125
141
12.0
290
     0
  0
SCALE
  5
5C
102
{ACAD_REACTORS
330
47
102
}
330
47
100
AcDbScale
 70
     0
300
1/16" = 1'-0"
140
0.0625
141
12.0
290
     0
  0
SCALE
  5
5D
102
{ACAD_REACTORS
330
47
102
}
330
47
100
AcDbScale
 70
     0
300
3/32" = 1'-0"
140
0.09375
141
12.0
290
     0
  0
SCALE
  5
5E
102
{ACAD_REACTORS
330
47
102
}
330
47
100
AcDbScale
 70
     0
300
1/8" = 1'-0"
140
0.125
141
12.0
290
     0
  0
SCALE
  5
5F
102
{ACAD_REACTORS
330
47
102
}
330
47
100
AcDbScale
 70
     0
300
3/16" = 1'-0"
140
0.1875
141
12.0
290
     0
  0
SCALE
  5
60
102
{ACAD_REACTORS
330
47
102
}
330
47
100
AcDbScale
 70
     0
300
1/4" = 1'-0"
140
0.25
141
12.0
290
     0
  0
SCALE
  5
61
102
{ACAD_REACTORS
330
47
102
}
330
47
100
AcDbScale
 70
     0
300
3/8" = 1'-0"
140
0.375
141
12.0
290
     0
  0
SCALE
  5
62
102
{ACAD_REACTORS
330
47
102
}
330
47
100
AcDbScale
 70
     0
300
1/2" = 1'-0"
140
0.5
141
12.0
290
     0
  0
SCALE
  5
63
102
{ACAD_REACTORS
330
47
102
}
330
47
100
AcDbScale
 70
     0
300
3/4" = 1'-0"
140
0.75
141
12.0
290
     0
  0
SCALE
  5
64
102
{ACAD_REACTORS
330
47
102
}
330
47
100
AcDbScale
 70
     0
300
1" = 1'-0"
140
1.0
141
12.0
290
     0
  0
SCALE
  5
65
102
{ACAD_REACTORS
330
47
102
}
330
47
100
AcDbScale
 70
     0
300
1-1/2" = 1'-0"
140
1.5
141
12.0
290
     0
  0
SCALE
  5
66
102
{ACAD_REACTORS
330
47
102
}
330
47
100
AcDbScale
 70
     0
300
3" = 1'-0"
140
3.0
141
12.0
290
     0
  0
SCALE
  5
67
102
{ACAD_REACTORS
330
47
102
}
330
47
100
AcDbScale
 70
     0
300
6" = 1'-0"
140
6.0
141
12.0
290
     0
  0
SCALE
  5
68
102
{ACAD_REACTORS
330
47
102
}
330
47
100
AcDbScale
 70
     0
300
1'-0" = 1'-0"
140
12.0
141
12.0
290
     0
  0
TABLESTYLE
  5
6A
102
{ACAD_REACTORS
330
69
102
}
102
{ACAD_XDICTIONARY
360
26C
102
}
330
69
100
AcDbTableStyle
  3
Standard
 70
     0
 71
     0
 40
0.06
 41
0.06
280
     0
281
     0
  7
Standard
140
0.18
170
     2
 62
     0
 63
   257
283
     0
 90
        4
 91
        0
  1

274
    -2
284
     1
 64
     0
275
    -2
285
     1
 65
     0
276
    -2
286
     1
 66
     0
277
    -2
287
     1
 67
     0
278
    -2
288
     1
 68
     0
279
    -2
289
     1
 69
     0
  7
Standard
140
0.25
170
     5
 62
     0
 63
   257
283
     0
 90
        4
 91
        0
  1

274
    -2
284
     1
 64
     0
275
    -2
285
     1
 65
     0
276
    -2
286
     1
 66
     0
277
    -2
287
     1
 67
     0
278
    -2
288
     1
 68
     0
279
    -2
289
     1
 69
     0
  7
Standard
140
0.18
170
     5
 62
     0
 63
   257
283
     0
 90
        4
 91
        0
  1

274
    -2
284
     1
 64
     0
275
    -2
285
     1
 65
     0
276
    -2
286
     1
 66
     0
277
    -2
287
     1
 67
     0
278
    -2
288
     1
 68
     0
279
    -2
289
     1
 69
     0
  0
VISUALSTYLE
  5
2F
102
{ACAD_REACTORS
330
2A
102
}
330
2A
100
AcDbVisualStyle
  2
2dWireframe
 70
     4
177
     3
291
     0
 70
    58
 90
        0
176
     1
 90
        2
176
     1
 90
        0
176
     1
 90
        0
176
     1
 40
0.6
176
     1
 40
30.0
176
     1
 62
     7
420
 16777215
176
     1
 90
        1
176
     1
 90
        4
176
     1
 62
     7
176
     1
 62
   257
176
     1
 90
        1
176
     1
 90
        1
176
     1
 40
1.0
176
     1
 90
        0
176
     1
 62
   257
176
     1
 40
1.0
176
     1
 90
        1
176
     1
 90
        6
176
     1
 90
        2
176
     1
 62
     7
176
     1
 90
        5
176
     1
 90
        0
176
     1
 90
        0
176
     1
290
     0
176
     1
 90
        1
176
     1
 40
0.0
176
     1
 90
        0
176
     1
290
     1
176
     1
290
     1
176
     1
290
     0
176
     1
290
     0
176
     1
290
     0
176
     1
290
     0
176
     1
290
     0
176
     1
290
     0
176
     1
290
     0
176
     1
 90
       50
176
     1
 40
0.0
176
     1
 40
1.0
176
     1
 90
        0
176
     1
 62
    18
420
        0
176
     1
 90
       50
176
     1
 90
        3
176
     1
 62
     5
420
      255
176
     1
290
     0
176
     1
 90
       50
176
     1
 90
       50
176
     1
 90
       50
176
     1
290
     0
176
     1
 90
       50
176
     1
 62
   256
176
     0
 40
1.0
176
     0
 90
        2
176
     1
  1
strokes_ogs.tif
176
     1
290
     0
176
     1
 40
1.0
176
     1
 40
1.0
176
     1
  0
VISUALSTYLE
  5
32
102
{ACAD_REACTORS
330
2A
102
}
330
2A
100
AcDbVisualStyle
  2
Basic
 70
     7
177
     3
291
     1
 70
    58
 90
        1
176
     1
 90
        0
176
     1
 90
        1
176
     1
 90
        0
176
     1
 40
0.6
176
     1
 40
30.0
176
     1
 62
     7
420
 16777215
176
     1
 90
        0
176
     1
 90
        4
176
     1
 62
     7
176
     1
 62
   257
176
     1
 90
        1
176
     1
 90
        1
176
     1
 40
1.0
176
     1
 90
        8
176
     1
 62
     7
176
     1
 40
1.0
176
     1
 90
        1
176
     1
 90
        6
176
     1
 90
        2
176
     1
 62
     7
176
     1
 90
        5
176
     1
 90
        0
176
     1
 90
        0
176
     1
290
     0
176
     1
 90
        1
176
     1
 40
0.0
176
     1
 90
        0
176
     1
290
     0
176
     1
290
     1
176
     1
290
     1
176
     1
290
     0
176
     1
290
     0
176
     1
290
     0
176
     1
290
     0
176
     1
290
     0
176
     1
290
     0
176
     1
 90
       50
176
     1
 40
0.0
176
     1
 40
1.0
176
     1
 90
        0
176
     1
 62
    18
420
        0
176
     1
 90
       50
176
     1
 90
        3
176
     1
 62
     5
420
      255
176
     1
290
     0
176
     1
 90
       50
176
     1
 90
       50
176
     1
 90
       50
176
     1
290
     0
176
     1
 90
       50
176
     1
 62
   256
176
     0
 40
1.0
176
     0
 90
        2
176
     1
  1
strokes_ogs.tif
176
     1
290
     0
176
     1
 40
1.0
176
     1
 40
1.0
176
     1
  0
VISUALSTYLE
  5
36
102
{ACAD_REACTORS
330
2A
102
}
330
2A
100
AcDbVisualStyle
  2
Brighten
 70
    12
177
     3
291
     1
 70
    58
 90
        2
176
     1
 90
        2
176
     1
 90
        0
176
     1
 90
        0
176
     1
 40
0.6
176
     1
 40
30.0
176
     1
 62
     7
420
 16777215
176
     1
 90
        1
176
     1
 90
        4
176
     1
 62
     7
176
     1
 62
   257
176
     1
 90
        1
176
     1
 90
        1
176
     1
 40
1.0
176
     1
 90
        8
176
     1
 62
     7
176
     1
 40
1.0
176
     1
 90
        1
176
     1
 90
        6
176
     1
 90
        2
176
     1
 62
     7
176
     1
 90
        5
176
     1
 90
        0
176
     1
 90
        0
176
     1
290
     0
176
     1
 90
        1
176
     1
 40
50.0
176
     1
 90
        0
176
     1
290
     0
176
     1
290
     1
176
     1
290
     1
176
     1
290
     0
176
     1
290
     0
176
     1
290
     0
176
     1
290
     0
176
     1
290
     0
176
     1
290
     0
176
     1
 90
       50
176
     1
 40
0.0
176
     1
 40
1.0
176
     1
 90
        0
176
     1
 62
    18
420
        0
176
     1
 90
       50
176
     1
 90
        3
176
     1
 62
     5
420
      255
176
     1
290
     0
176
     1
 90
       50
176
     1
 90
       50
176
     1
 90
       50
176
     1
290
     0
176
     1
 90
       50
176
     1
 62
   256
176
     0
 40
1.0
176
     0
 90
        2
176
     1
  1
strokes_ogs.tif
176
     1
290
     0
176
     1
 40
1.0
176
     1
 40
1.0
176
     1
  0
VISUALSTYLE
  5
3A
102
{ACAD_REACTORS
330
2A
102
}
330
2A
100
AcDbVisualStyle
  2
ColorChange
 70
    16
177
     3
291
     1
 70
    58
 90
        2
176
     1
 90
        2
176
     1
 90
        3
176
     1
 90
        0
176
     1
 40
0.6
176
     1
 40
30.0
176
     1
 62
     8
420
  8421504
176
     1
 90
        1
176
     1
 90
        4
176
     1
 62
     7
176
     1
 62
   257
176
     1
 90
        1
176
     1
 90
        1
176
     1
 40
1.0
176
     1
 90
        8
176
     1
 62
     8
420
  8421504
176
     1
 40
1.0
176
     1
 90
        1
176
     1
 90
        6
176
     1
 90
        2
176
     1
 62
     7
176
     1
 90
        5
176
     1
 90
        0
176
     1
 90
        0
176
     1
290
     0
176
     1
 90
        1
176
     1
 40
0.0
176
     1
 90
        0
176
     1
290
     0
176
     1
290
     1
176
     1
290
     1
176
     1
290
     0
176
     1
290
     0
176
     1
290
     0
176
     1
290
     0
176
     1
290
     0
176
     1
290
     0
176
     1
 90
       50
176
     1
 40
0.0
176
     1
 40
1.0
176
     1
 90
        0
176
     1
 62
    18
420
        0
176
     1
 90
       50
176
     1
 90
        3
176
     1
 62
     5
420
      255
176
     1
290
     0
176
     1
 90
       50
176
     1
 90
       50
176
     1
 90
       50
176
     1
290
     0
176
     1
 90
       50
176
     1
 62
   256
176
     0
 40
1.0
176
     0
 90
        2
176
     1
  1
strokes_ogs.tif
176
     1
290
     0
176
     1
 40
1.0
176
     1
 40
1.0
176
     1
  0
VISUALSTYLE
  5
34
102
{ACAD_REACTORS
330
2A
102
}
330
2A
100
AcDbVisualStyle
  2
Conceptual
 70
     9
177
     3
291
     0
 70
    58
 90
        3
176
     1
 90
        2
176
     1
 90
        0
176
     1
 90
        0
176
     1
 40
0.6
176
     1
 40
30.0
176
     1
 62
     7
420
 16777215
176
     1
 90
        2
176
     1
 90
        2
176
     1
 62
     7
176
     1
 62
   257
176
     1
 90
        1
176
     1
 90
        1
176
     1
 40
179.0
176
     1
 90
        8
176
     1
 62
     7
176
     1
 40
1.0
176
     1
 90
        1
176
     1
 90
        6
176
     1
 90
        2
176
     1
 62
     7
176
     1
 90
        3
176
     1
 90
        0
176
     1
 90
        0
176
     1
290
     0
176
     1
 90
        1
176
     1
 40
0.0
176
     1
 90
        0
176
     1
290
     0
176
     1
290
     1
176
     1
290
     1
176
     1
290
     0
176
     1
290
     0
176
     1
290
     0
176
     1
290
     0
176
     1
290
     0
176
     1
290
     0
176
     1
 90
       50
176
     1
 40
0.0
176
     1
 40
1.0
176
     1
 90
        0
176
     1
 62
    18
420
        0
176
     1
 90
       50
176
     1
 90
        3
176
     1
 62
     5
420
      255
176
     1
290
     0
176
     1
 90
       50
176
     1
 90
       50
176
     1
 90
       50
176
     1
290
     0
176
     1
 90
       50
176
     1
 62
   256
176
     0
 40
1.0
176
     0
 90
        2
176
     1
  1
strokes_ogs.tif
176
     1
290
     0
176
     1
 40
1.0
176
     1
 40
1.0
176
     1
  0
VISUALSTYLE
  5
35
102
{ACAD_REACTORS
330
2A
102
}
330
2A
100
AcDbVisualStyle
  2
Dim
 70
    11
177
     3
291
     1
 70
    58
 90
        2
176
     1
 90
        2
176
     1
 90
        0
176
     1
 90
        0
176
     1
 40
0.6
176
     1
 40
30.0
176
     1
 62
     7
420
 16777215
176
     1
 90
        1
176
     1
 90
        4
176
     1
 62
     7
176
     1
 62
   257
176
     1
 90
        1
176
     1
 90
        1
176
     1
 40
1.0
176
     1
 90
        8
176
     1
 62
     7
176
     1
 40
1.0
176
     1
 90
        1
176
     1
 90
        6
176
     1
 90
        2
176
     1
 62
     7
176
     1
 90
        5
176
     1
 90
        0
176
     1
 90
        0
176
     1
290
     0
176
     1
 90
        1
176
     1
 40
-50.0
176
     1
 90
        0
176
     1
290
     0
176
     1
290
     1
176
     1
290
     1
176
     1
290
     0
176
     1
290
     0
176
     1
290
     0
176
     1
290
     0
176
     1
290
     0
176
     1
290
     0
176
     1
 90
       50
176
     1
 40
0.0
176
     1
 40
1.0
176
     1
 90
        0
176
     1
 62
    18
420
        0
176
     1
 90
       50
176
     1
 90
        3
176
     1
 62
     5
420
      255
176
     1
290
     0
176
     1
 90
       50
176
     1
 90
       50
176
     1
 90
       50
176
     1
290
     0
176
     1
 90
       50
176
     1
 62
   256
176
     0
 40
1.0
176
     0
 90
        2
176
     1
  1
strokes_ogs.tif
176
     1
290
     0
176
     1
 40
1.0
176
     1
 40
1.0
176
     1
  0
VISUALSTYLE
  5
3D
102
{ACAD_REACTORS
330
2A
102
}
330
2A
100
AcDbVisualStyle
  2
EdgeColorOff
 70
    22
177
     3
291
     1
 70
    58
 90
        2
176
     0
 90
        2
176
     0
 90
        0
176
     0
 90
        0
176
     0
 40
0.6
176
     0
 40
30.0
176
     0
 62
     7
420
 16777215
176
     0
 90
        1
176
     0
 90
        4
176
     0
 62
     7
176
     0
 62
   257
176
     0
 90
        1
176
     0
 90
        1
176
     0
 40
1.0
176
     0
 90
        8
176
     2
 62
     7
176
     0
 40
1.0
176
     0
 90
        1
176
     0
 90
        6
176
     0
 90
        2
176
     0
 62
     7
176
     0
 90
        5
176
     0
 90
        0
176
     0
 90
        0
176
     0
290
     0
176
     0
 90
        1
176
     0
 40
0.0
176
     0
 90
        0
176
     0
290
     0
176
     0
290
     1
176
     0
290
     1
176
     0
290
     0
176
     0
290
     0
176
     0
290
     0
176
     0
290
     0
176
     0
290
     0
176
     0
290
     0
176
     0
 90
       50
176
     0
 40
0.0
176
     0
 40
1.0
176
     0
 90
        0
176
     0
 62
    18
420
        0
176
     0
 90
       50
176
     0
 90
        3
176
     0
 62
     5
420
      255
176
     0
290
     0
176
     0
 90
       50
176
     0
 90
       50
176
     0
 90
       50
176
     0
290
     0
176
     0
 90
       50
176
     0
 62
   256
176
     0
 40
1.0
176
     0
 90
        2
176
     0
  1
strokes_ogs.tif
176
     0
290
     0
176
     0
 40
1.0
176
     0
 40
1.0
176
     0
  0
VISUALSTYLE
  5
39
102
{ACAD_REACTORS
330
2A
102
}
330
2A
100
AcDbVisualStyle
  2
Facepattern
 70
    15
177
     3
291
     1
 70
    58
 90
        2
176
     1
 90
        2
176
     1
 90
        0
176
     1
 90
        0
176
     1
 40
0.6
176
     1
 40
30.0
176
     1
 62
     7
420
 16777215
176
     1
 90
        1
176
     1
 90
        4
176
     1
 62
     7
176
     1
 62
   257
176
     1
 90
        1
176
     1
 90
        1
176
     1
 40
1.0
176
     1
 90
        8
176
     1
 62
     7
176
     1
 40
1.0
176
     1
 90
        1
176
     1
 90
        6
176
     1
 90
        2
176
     1
 62
     7
176
     1
 90
        5
176
     1
 90
        0
176
     1
 90
        0
176
     1
290
     0
176
     1
 90
        1
176
     1
 40
0.0
176
     1
 90
        0
176
     1
290
     0
176
     1
290
     1
176
     1
290
     1
176
     1
290
     0
176
     1
290
     0
176
     1
290
     0
176
     1
290
     0
176
     1
290
     0
176
     1
290
     0
176
     1
 90
       50
176
     1
 40
0.0
176
     1
 40
1.0
176
     1
 90
        0
176
     1
 62
    18
420
        0
176
     1
 90
       50
176
     1
 90
        3
176
     1
 62
     5
420
      255
176
     1
290
     0
176
     1
 90
       50
176
     1
 90
       50
176
     1
 90
       50
176
     1
290
     0
176
     1
 90
       50
176
     1
 62
   256
176
     0
 40
1.0
176
     0
 90
        2
176
     1
  1
strokes_ogs.tif
176
     1
290
     0
176
     1
 40
1.0
176
     1
 40
1.0
176
     1
  0
VISUALSTYLE
  5
2B
102
{ACAD_REACTORS
330
2A
102
}
330
2A
100
AcDbVisualStyle
  2
Flat
 70
     0
177
     3
291
     1
 70
    58
 90
        2
176
     1
 90
        1
176
     1
 90
        1
176
     1
 90
        2
176
     1
 40
0.6
176
     1
 40
30.0
176
     1
 62
     7
420
 16777215
176
     1
 90
        0
176
     1
 90
        0
176
     1
 62
     7
176
     1
 62
   257
176
     1
 90
        1
176
     1
 90
        1
176
     1
 40
1.0
176
     1
 90
        8
176
     1
 62
     7
176
     1
 40
1.0
176
     1
 90
        1
176
     1
 90
        6
176
     1
 90
        2
176
     1
 62
     7
176
     1
 90
        5
176
     1
 90
        0
176
     1
 90
        0
176
     1
290
     0
176
     1
 90
       13
176
     1
 40
0.0
176
     1
 90
        0
176
     1
290
     0
176
     1
290
     1
176
     1
290
     1
176
     1
290
     0
176
     1
290
     0
176
     1
290
     0
176
     1
290
     0
176
     1
290
     0
176
     1
290
     0
176
     1
 90
       50
176
     1
 40
0.0
176
     1
 40
1.0
176
     1
 90
        0
176
     1
 62
    18
420
        0
176
     1
 90
       50
176
     1
 90
        3
176
     1
 62
     5
420
      255
176
     1
290
     0
176
     1
 90
       50
176
     1
 90
       50
176
     1
 90
       50
176
     1
290
     0
176
     1
 90
       50
176
     1
 62
   256
176
     0
 40
1.0
176
     0
 90
        2
176
     1
  1
strokes_ogs.tif
176
     1
290
     0
176
     1
 40
1.0
176
     1
 40
1.0
176
     1
  0
VISUALSTYLE
  5
2C
102
{ACAD_REACTORS
330
2A
102
}
330
2A
100
AcDbVisualStyle
  2
FlatWithEdges
 70
     1
177
     3
291
     1
 70
    58
 90
        2
176
     1
 90
        1
176
     1
 90
        1
176
     1
 90
        2
176
     1
 40
0.6
176
     1
 40
30.0
176
     1
 62
     7
420
 16777215
176
     1
 90
        1
176
     1
 90
        0
176
     1
 62
     7
176
     1
 62
   257
176
     1
 90
        1
176
     1
 90
        1
176
     1
 40
1.0
176
     1
 90
        0
176
     1
 62
   257
176
     1
 40
1.0
176
     1
 90
        1
176
     1
 90
        6
176
     1
 90
        2
176
     1
 62
     7
176
     1
 90
        5
176
     1
 90
        0
176
     1
 90
        0
176
     1
290
     0
176
     1
 90
       13
176
     1
 40
0.0
176
     1
 90
        0
176
     1
290
     0
176
     1
290
     1
176
     1
290
     1
176
     1
290
     0
176
     1
290
     0
176
     1
290
     0
176
     1
290
     0
176
     1
290
     0
176
     1
290
     0
176
     1
 90
       50
176
     1
 40
0.0
176
     1
 40
1.0
176
     1
 90
        0
176
     1
 62
    18
420
        0
176
     1
 90
       50
176
     1
 90
        3
176
     1
 62
     5
420
      255
176
     1
290
     0
176
     1
 90
       50
176
     1
 90
       50
176
     1
 90
       50
176
     1
290
     0
176
     1
 90
       50
176
     1
 62
   256
176
     0
 40
1.0
176
     0
 90
        2
176
     1
  1
strokes_ogs.tif
176
     1
290
     0
176
     1
 40
1.0
176
     1
 40
1.0
176
     1
  0
VISUALSTYLE
  5
2D
102
{ACAD_REACTORS
330
2A
102
}
330
2A
100
AcDbVisualStyle
  2
Gouraud
 70
     2
177
     3
291
     1
 70
    58
 90
        2
176
     1
 90
        2
176
     1
 90
        1
176
     1
 90
        2
176
     1
 40
0.6
176
     1
 40
30.0
176
     1
 62
     7
420
 16777215
176
     1
 90
        0
176
     1
 90
        0
176
     1
 62
     7
176
     1
 62
   257
176
     1
 90
        1
176
     1
 90
        1
176
     1
 40
1.0
176
     1
 90
        0
176
     1
 62
     7
176
     1
 40
1.0
176
     1
 90
        1
176
     1
 90
        6
176
     1
 90
        2
176
     1
 62
     7
176
     1
 90
        5
176
     1
 90
        0
176
     1
 90
        0
176
     1
290
     0
176
     1
 90
       13
176
     1
 40
0.0
176
     1
 90
        0
176
     1
290
     0
176
     1
290
     1
176
     1
290
     1
176
     1
290
     0
176
     1
290
     0
176
     1
290
     0
176
     1
290
     0
176
     1
290
     0
176
     1
290
     0
176
     1
 90
       50
176
     1
 40
0.0
176
     1
 40
1.0
176
     1
 90
        0
176
     1
 62
    18
420
        0
176
     1
 90
       50
176
     1
 90
        3
176
     1
 62
     5
420
      255
176
     1
290
     0
176
     1
 90
       50
176
     1
 90
       50
176
     1
 90
       50
176
     1
290
     0
176
     1
 90
       50
176
     1
 62
   256
176
     0
 40
1.0
176
     0
 90
        2
176
     1
  1
strokes_ogs.tif
176
     1
290
     0
176
     1
 40
1.0
176
     1
 40
1.0
176
     1
  0
VISUALSTYLE
  5
2E
102
{ACAD_REACTORS
330
2A
102
}
330
2A
100
AcDbVisualStyle
  2
GouraudWithEdges
 70
     3
177
     3
291
     1
 70
    58
 90
        2
176
     1
 90
        2
176
     1
 90
        1
176
     1
 90
        2
176
     1
 40
0.6
176
     1
 40
30.0
176
     1
 62
     7
420
 16777215
176
     1
 90
        1
176
     1
 90
        0
176
     1
 62
     7
176
     1
 62
   257
176
     1
 90
        1
176
     1
 90
        1
176
     1
 40
1.0
176
     1
 90
        0
176
     1
 62
   257
176
     1
 40
1.0
176
     1
 90
        1
176
     1
 90
        6
176
     1
 90
        2
176
     1
 62
     7
176
     1
 90
        5
176
     1
 90
        0
176
     1
 90
        0
176
     1
290
     0
176
     1
 90
       13
176
     1
 40
0.0
176
     1
 90
        0
176
     1
290
     0
176
     1
290
     1
176
     1
290
     1
176
     1
290
     0
176
     1
290
     0
176
     1
290
     0
176
     1
290
     0
176
     1
290
     0
176
     1
290
     0
176
     1
 90
       50
176
     1
 40
0.0
176
     1
 40
1.0
176
     1
 90
        0
176
     1
 62
    18
420
        0
176
     1
 90
       50
176
     1
 90
        3
176
     1
 62
     5
420
      255
176
     1
290
     0
176
     1
 90
       50
176
     1
 90
       50
176
     1
 90
       50
176
     1
290
     0
176
     1
 90
       50
176
     1
 62
   256
176
     0
 40
1.0
176
     0
 90
        2
176
     1
  1
strokes_ogs.tif
176
     1
290
     0
176
     1
 40
1.0
176
     1
 40
1.0
176
     1
  0
VISUALSTYLE
  5
31
102
{ACAD_REACTORS
330
2A
102
}
330
2A
100
AcDbVisualStyle
  2
Hidden
 70
     6
177
     3
291
     0
 70
    58
 90
        1
176
     1
 90
        2
176
     1
 90
        2
176
     1
 90
        0
176
     1
 40
0.6
176
     1
 40
30.0
176
     1
 62
     7
420
 16777215
176
     1
 90
        2
176
     1
 90
        2
176
     1
 62
     7
176
     1
 62
   257
176
     1
 90
        2
176
     1
 90
        1
176
     1
 40
40.0
176
     1
 90
        0
176
     1
 62
   257
176
     1
 40
1.0
176
     1
 90
        1
176
     1
 90
        6
176
     1
 90
        2
176
     1
 62
     7
176
     1
 90
        3
176
     1
 90
        0
176
     1
 90
        0
176
     1
290
     0
176
     1
 90
        1
176
     1
 40
0.0
176
     1
 90
        0
176
     1
290
     0
176
     1
290
     1
176
     1
290
     1
176
     1
290
     0
176
     1
290
     0
176
     1
290
     0
176
     1
290
     0
176
     1
290
     0
176
     1
290
     0
176
     1
 90
       50
176
     1
 40
0.0
176
     1
 40
1.0
176
     1
 90
        0
176
     1
 62
    18
420
        0
176
     1
 90
       50
176
     1
 90
        3
176
     1
 62
     5
420
      255
176
     1
290
     0
176
     1
 90
       50
176
     1
 90
       50
176
     1
 90
       50
176
     1
290
     0
176
     1
 90
       50
176
     1
 62
   256
176
     0
 40
1.0
176
     0
 90
        2
176
     1
  1
strokes_ogs.tif
176
     1
290
     0
176
     1
 40
1.0
176
     1
 40
1.0
176
     1
  0
VISUALSTYLE
  5
3B
102
{ACAD_REACTORS
330
2A
102
}
330
2A
100
AcDbVisualStyle
  2
JitterOff
 70
    20
177
     3
291
     1
 70
    58
 90
        2
176
     0
 90
        2
176
     0
 90
        0
176
     0
 90
        0
176
     0
 40
0.6
176
     0
 40
30.0
176
     0
 62
     7
420
 16777215
176
     0
 90
        1
176
     0
 90
        4
176
     0
 62
     7
176
     0
 62
   257
176
     0
 90
        1
176
     0
 90
        1
176
     0
 40
1.0
176
     0
 90
       10
176
     2
 62
     7
176
     0
 40
1.0
176
     0
 90
        1
176
     0
 90
        6
176
     0
 90
        2
176
     0
 62
     7
176
     0
 90
        5
176
     0
 90
        0
176
     0
 90
        0
176
     0
290
     0
176
     0
 90
        1
176
     0
 40
0.0
176
     0
 90
        0
176
     0
290
     0
176
     0
290
     1
176
     0
290
     1
176
     0
290
     0
176
     0
290
     0
176
     0
290
     0
176
     0
290
     0
176
     0
290
     0
176
     0
290
     0
176
     0
 90
       50
176
     0
 40
0.0
176
     0
 40
1.0
176
     0
 90
        0
176
     0
 62
    18
420
        0
176
     0
 90
       50
176
     0
 90
        3
176
     0
 62
     5
420
      255
176
     0
290
     0
176
     0
 90
       50
176
     0
 90
       50
176
     0
 90
       50
176
     0
290
     0
176
     0
 90
       50
176
     0
 62
   256
176
     0
 40
1.0
176
     0
 90
        2
176
     0
  1
strokes_ogs.tif
176
     0
290
     0
176
     0
 40
1.0
176
     0
 40
1.0
176
     0
  0
VISUALSTYLE
  5
38
102
{ACAD_REACTORS
330
2A
102
}
330
2A
100
AcDbVisualStyle
  2
Linepattern
 70
    14
177
     3
291
     1
 70
    58
 90
        2
176
     1
 90
        2
176
     1
 90
        0
176
     1
 90
        0
176
     1
 40
0.6
176
     1
 40
30.0
176
     1
 62
     7
420
 16777215
176
     1
 90
        1
176
     1
 90
        4
176
     1
 62
     7
176
     1
 62
   257
176
     1
 90
        7
176
     1
 90
        7
176
     1
 40
1.0
176
     1
 90
        8
176
     1
 62
     7
176
     1
 40
1.0
176
     1
 90
        1
176
     1
 90
        6
176
     1
 90
        2
176
     1
 62
     7
176
     1
 90
        5
176
     1
 90
        0
176
     1
 90
        0
176
     1
290
     0
176
     1
 90
        1
176
     1
 40
0.0
176
     1
 90
        0
176
     1
290
     0
176
     1
290
     1
176
     1
290
     1
176
     1
290
     0
176
     1
290
     0
176
     1
290
     0
176
     1
290
     0
176
     1
290
     0
176
     1
290
     0
176
     1
 90
       50
176
     1
 40
0.0
176
     1
 40
1.0
176
     1
 90
        0
176
     1
 62
    18
420
        0
176
     1
 90
       50
176
     1
 90
        3
176
     1
 62
     5
420
      255
176
     1
290
     0
176
     1
 90
       50
176
     1
 90
       50
176
     1
 90
       50
176
     1
290
     0
176
     1
 90
       50
176
     1
 62
   256
176
     0
 40
1.0
176
     0
 90
        2
176
     1
  1
strokes_ogs.tif
176
     1
290
     0
176
     1
 40
1.0
176
     1
 40
1.0
176
     1
  0
VISUALSTYLE
  5
3C
102
{ACAD_REACTORS
330
2A
102
}
330
2A
100
AcDbVisualStyle
  2
OverhangOff
 70
    21
177
     3
291
     1
 70
    58
 90
        2
176
     0
 90
        2
176
     0
 90
        0
176
     0
 90
        0
176
     0
 40
0.6
176
     0
 40
30.0
176
     0
 62
     7
420
 16777215
176
     0
 90
        1
176
     0
 90
        4
176
     0
 62
     7
176
     0
 62
   257
176
     0
 90
        1
176
     0
 90
        1
176
     0
 40
1.0
176
     0
 90
        9
176
     2
 62
     7
176
     0
 40
1.0
176
     0
 90
        1
176
     0
 90
        6
176
     0
 90
        2
176
     0
 62
     7
176
     0
 90
        5
176
     0
 90
        0
176
     0
 90
        0
176
     0
290
     0
176
     0
 90
        1
176
     0
 40
0.0
176
     0
 90
        0
176
     0
290
     0
176
     0
290
     1
176
     0
290
     1
176
     0
290
     0
176
     0
290
     0
176
     0
290
     0
176
     0
290
     0
176
     0
290
     0
176
     0
290
     0
176
     0
 90
       50
176
     0
 40
0.0
176
     0
 40
1.0
176
     0
 90
        0
176
     0
 62
    18
420
        0
176
     0
 90
       50
176
     0
 90
        3
176
     0
 62
     5
420
      255
176
     0
290
     0
176
     0
 90
       50
176
     0
 90
       50
176
     0
 90
       50
176
     0
290
     0
176
     0
 90
       50
176
     0
 62
   256
176
     0
 40
1.0
176
     0
 90
        2
176
     0
  1
strokes_ogs.tif
176
     0
290
     0
176
     0
 40
1.0
176
     0
 40
1.0
176
     0
  0
VISUALSTYLE
  5
33
102
{ACAD_REACTORS
330
2A
102
}
330
2A
100
AcDbVisualStyle
  2
Realistic
 70
     8
177
     3
291
     0
 70
    58
 90
        2
176
     1
 90
        3
176
     1
 90
        0
176
     1
 90
        2
176
     1
 40
0.6
176
     1
 40
30.0
176
     1
 62
     7
420
 16777215
176
     1
 90
        0
176
     1
 90
        0
176
     1
 62
     7
176
     1
 62
   257
176
     1
 90
        1
176
     1
 90
        1
176
     1
 40
1.0
176
     1
 90
        8
176
     1
 62
   257
176
     1
 40
1.0
176
     1
 90
        1
176
     1
 90
        6
176
     1
 90
        2
176
     1
 62
     7
176
     1
 90
        3
176
     1
 90
        0
176
     1
 90
        0
176
     1
290
     0
176
     1
 90
       13
176
     1
 40
0.0
176
     1
 90
        0
176
     1
290
     0
176
     1
290
     1
176
     1
290
     1
176
     1
290
     0
176
     1
290
     0
176
     1
290
     0
176
     1
290
     0
176
     1
290
     0
176
     1
290
     0
176
     1
 90
       50
176
     1
 40
0.0
176
     1
 40
1.0
176
     1
 90
        0
176
     1
 62
    18
420
        0
176
     1
 90
       50
176
     1
 90
        3
176
     1
 62
     5
420
      255
176
     1
290
     0
176
     1
 90
       50
176
     1
 90
       50
176
     1
 90
       50
176
     1
290
     0
176
     1
 90
       50
176
     1
 62
   256
176
     0
 40
1.0
176
     0
 90
        2
176
     1
  1
strokes_ogs.tif
176
     1
290
     0
176
     1
 40
1.0
176
     1
 40
1.0
176
     1
  0
VISUALSTYLE
  5
42
102
{ACAD_REACTORS
330
2A
102
}
330
2A
100
AcDbVisualStyle
  2
Shaded
 70
    27
177
     3
291
     0
 70
    58
 90
        2
176
     1
 90
        2
176
     1
 90
        1
176
     1
 90
        2
176
     1
 40
0.6
176
     1
 40
30.0
176
     1
 62
     7
420
 16777215
176
     1
 90
        0
176
     1
 90
        4
176
     1
 62
     7
176
     1
 62
   257
176
     1
 90
        1
176
     1
 90
        1
176
     1
 40
1.0
176
     1
 90
        8
176
     1
 62
   257
176
     1
 40
1.0
176
     1
 90
        1
176
     1
 90
        6
176
     1
 90
        2
176
     1
 62
     8
420
  7895160
176
     1
 90
        3
176
     1
 90
        0
176
     1
 90
        0
176
     1
290
     0
176
     1
 90
        5
176
     1
 40
0.0
176
     1
 90
        0
176
     1
290
     0
176
     1
290
     1
176
     1
290
     1
176
     1
290
     0
176
     1
290
     0
176
     1
290
     0
176
     1
290
     0
176
     1
290
     0
176
     1
290
     0
176
     1
 90
       50
176
     1
 40
0.0
176
     1
 40
1.0
176
     1
 90
        0
176
     1
 62
    18
420
        0
176
     1
 90
       50
176
     1
 90
        3
176
     1
 62
     5
420
      255
176
     1
290
     0
176
     1
 90
       50
176
     1
 90
       50
176
     1
 90
       50
176
     1
290
     0
176
     1
 90
       50
176
     1
 62
   256
176
     0
 40
1.0
176
     0
 90
        2
176
     1
  1
strokes_ogs.tif
176
     1
290
     0
176
     1
 40
1.0
176
     1
 40
1.0
176
     1
  0
VISUALSTYLE
  5
41
102
{ACAD_REACTORS
330
2A
102
}
330
2A
100
AcDbVisualStyle
  2
Shaded with edges
 70
    26
177
     3
291
     0
 70
    58
 90
        2
176
     1
 90
        2
176
     1
 90
        1
176
     1
 90
        2
176
     1
 40
0.6
176
     1
 40
30.0
176
     1
 62
     7
420
 16777215
176
     1
 90
        1
176
     1
 90
       10
176
     1
 62
     7
176
     1
 62
   257
176
     1
 90
        2
176
     1
 90
        1
176
     1
 40
1.0
176
     1
 90
        8
176
     1
 62
   257
176
     1
 40
1.0
176
     1
 90
        1
176
     1
 90
        6
176
     1
 90
        2
176
     1
 62
     7
176
     1
 90
        3
176
     1
 90
        0
176
     1
 90
        0
176
     1
290
     0
176
     1
 90
        5
176
     1
 40
0.0
176
     1
 90
        0
176
     1
290
     0
176
     1
290
     1
176
     1
290
     1
176
     1
290
     0
176
     1
290
     0
176
     1
290
     0
176
     1
290
     0
176
     1
290
     0
176
     1
290
     0
176
     1
 90
       50
176
     1
 40
0.0
176
     1
 40
1.0
176
     1
 90
        0
176
     1
 62
    18
420
        0
176
     1
 90
       50
176
     1
 90
        3
176
     1
 62
     5
420
      255
176
     1
290
     0
176
     1
 90
       50
176
     1
 90
       50
176
     1
 90
       50
176
     1
290
     0
176
     1
 90
       50
176
     1
 62
   256
176
     0
 40
1.0
176
     0
 90
        2
176
     1
  1
strokes_ogs.tif
176
     1
290
     0
176
     1
 40
1.0
176
     1
 40
1.0
176
     1
  0
VISUALSTYLE
  5
3E
102
{ACAD_REACTORS
330
2A
102
}
330
2A
100
AcDbVisualStyle
  2
Shades of Gray
 70
    23
177
     3
291
     0
 70
    58
 90
        2
176
     1
 90
        2
176
     1
 90
        3
176
     1
 90
        0
176
     1
 40
0.6
176
     1
 40
30.0
176
     1
 62
     7
420
 16777215
176
     1
 90
        2
176
     1
 90
        2
176
     1
 62
     7
176
     1
 62
     7
176
     1
 90
        1
176
     1
 90
        1
176
     1
 40
40.0
176
     1
 90
        8
176
     1
 62
     7
176
     1
 40
1.0
176
     1
 90
        1
176
     1
 90
        6
176
     1
 90
        2
176
     1
 62
     7
176
     1
 90
        3
176
     1
 90
        0
176
     1
 90
        0
176
     1
290
     0
176
     1
 90
        1
176
     1
 40
0.0
176
     1
 90
        0
176
     1
290
     0
176
     1
290
     1
176
     1
290
     1
176
     1
290
     0
176
     1
290
     0
176
     1
290
     0
176
     1
290
     0
176
     1
290
     0
176
     1
290
     0
176
     1
 90
       50
176
     1
 40
0.0
176
     1
 40
1.0
176
     1
 90
        0
176
     1
 62
    18
420
        0
176
     1
 90
       50
176
     1
 90
        3
176
     1
 62
     5
420
      255
176
     1
290
     0
176
     1
 90
       50
176
     1
 90
       50
176
     1
 90
       50
176
     1
290
     0
176
     1
 90
       50
176
     1
 62
   256
176
     0
 40
1.0
176
     0
 90
        2
176
     1
  1
strokes_ogs.tif
176
     1
290
     0
176
     1
 40
1.0
176
     1
 40
1.0
176
     1
  0
VISUALSTYLE
  5
3F
102
{ACAD_REACTORS
330
2A
102
}
330
2A
100
AcDbVisualStyle
  2
Sketchy
 70
    24
177
     3
291
     0
 70
    58
 90
        1
176
     1
 90
        2
176
     1
 90
        2
176
     1
 90
        0
176
     1
 40
0.6
176
     1
 40
30.0
176
     1
 62
     7
420
 16777215
176
     1
 90
        2
176
     1
 90
        2
176
     1
 62
     7
176
     1
 62
     7
176
     1
 90
        1
176
     1
 90
        1
176
     1
 40
40.0
176
     1
 90
       11
176
     1
 62
     7
176
     1
 40
1.0
176
     1
 90
        1
176
     1
 90
        6
176
     1
 90
        2
176
     1
 62
     7
176
     1
 90
        6
176
     1
 90
        0
176
     1
 90
        0
176
     1
290
     0
176
     1
 90
        1
176
     1
 40
0.0
176
     1
 90
        0
176
     1
290
     0
176
     1
290
     1
176
     1
290
     1
176
     1
290
     0
176
     1
290
     0
176
     1
290
     0
176
     1
290
     0
176
     1
290
     0
176
     1
290
     0
176
     1
 90
       50
176
     1
 40
0.0
176
     1
 40
1.0
176
     1
 90
        0
176
     1
 62
    18
420
        0
176
     1
 90
       50
176
     1
 90
        3
176
     1
 62
     5
420
      255
176
     1
290
     0
176
     1
 90
       50
176
     1
 90
       50
176
     1
 90
       50
176
     1
290
     0
176
     1
 90
       50
176
     1
 62
   256
176
     0
 40
1.0
176
     0
 90
        2
176
     1
  1
strokes_ogs.tif
176
     1
290
     0
176
     1
 40
1.0
176
     1
 40
1.0
176
     1
  0
VISUALSTYLE
  5
37
102
{ACAD_REACTORS
330
2A
102
}
330
2A
100
AcDbVisualStyle
  2
Thicken
 70
    13
177
     3
291
     1
 70
    58
 90
        2
176
     1
 90
        2
176
     1
 90
        0
176
     1
 90
        0
176
     1
 40
0.6
176
     1
 40
30.0
176
     1
 62
     7
420
 16777215
176
     1
 90
        1
176
     1
 90
        4
176
     1
 62
     7
176
     1
 62
   257
176
     1
 90
        1
176
     1
 90
        1
176
     1
 40
1.0
176
     1
 90
       12
176
     1
 62
     7
176
     1
 40
1.0
176
     1
 90
        1
176
     1
 90
        6
176
     1
 90
        2
176
     1
 62
     7
176
     1
 90
        5
176
     1
 90
        0
176
     1
 90
        0
176
     1
290
     0
176
     1
 90
        1
176
     1
 40
0.0
176
     1
 90
        0
176
     1
290
     0
176
     1
290
     1
176
     1
290
     1
176
     1
290
     0
176
     1
290
     0
176
     1
290
     0
176
     1
290
     0
176
     1
290
     0
176
     1
290
     0
176
     1
 90
       50
176
     1
 40
0.0
176
     1
 40
1.0
176
     1
 90
        0
176
     1
 62
    18
420
        0
176
     1
 90
       50
176
     1
 90
        3
176
     1
 62
     5
420
      255
176
     1
290
     0
176
     1
 90
       50
176
     1
 90
       50
176
     1
 90
       50
176
     1
290
     0
176
     1
 90
       50
176
     1
 62
   256
176
     0
 40
1.0
176
     0
 90
        2
176
     1
  1
strokes_ogs.tif
176
     1
290
     0
176
     1
 40
1.0
176
     1
 40
1.0
176
     1
  0
VISUALSTYLE
  5
30
102
{ACAD_REACTORS
330
2A
102
}
330
2A
100
AcDbVisualStyle
  2
Wireframe
 70
     5
177
     3
291
     0
 70
    58
 90
        0
176
     1
 90
        2
176
     1
 90
        0
176
     1
 90
        0
176
     1
 40
0.6
176
     1
 40
30.0
176
     1
 62
     7
420
 16777215
176
     1
 90
        1
176
     1
 90
        4
176
     1
 62
     7
176
     1
 62
   257
176
     1
 90
        1
176
     1
 90
        1
176
     1
 40
1.0
176
     1
 90
        0
176
     1
 62
   257
176
     1
 40
1.0
176
     1
 90
        1
176
     1
 90
        6
176
     1
 90
        2
176
     1
 62
     7
176
     1
 90
        3
176
     1
 90
        0
176
     1
 90
        0
176
     1
290
     0
176
     1
 90
        1
176
     1
 40
0.0
176
     1
 90
        0
176
     1
290
     0
176
     1
290
     1
176
     1
290
     1
176
     1
290
     0
176
     1
290
     0
176
     1
290
     0
176
     1
290
     0
176
     1
290
     0
176
     1
290
     0
176
     1
 90
       50
176
     1
 40
0.0
176
     1
 40
1.0
176
     1
 90
        0
176
     1
 62
    18
420
        0
176
     1
 90
       50
176
     1
 90
        3
176
     1
 62
     5
420
      255
176
     1
290
     0
176
     1
 90
       50
176
     1
 90
       50
176
     1
 90
       50
176
     1
290
     0
176
     1
 90
       50
176
     1
 62
   256
176
     0
 40
1.0
176
     0
 90
        2
176
     1
  1
strokes_ogs.tif
176
     1
290
     0
176
     1
 40
1.0
176
     1
 40
1.0
176
     1
  0
VISUALSTYLE
  5
40
102
{ACAD_REACTORS
330
2A
102
}
330
2A
100
AcDbVisualStyle
  2
X-Ray
 70
    25
177
     3
291
     0
 70
    58
 90
        2
176
     1
 90
        2
176
     1
 90
        1
176
     1
 90
        1
176
     1
 40
0.5
176
     1
 40
30.0
176
     1
 62
     7
420
 16777215
176
     1
 90
        1
176
     1
 90
        0
176
     1
 62
     7
176
     1
 62
   257
176
     1
 90
        1
176
     1
 90
        1
176
     1
 40
1.0
176
     1
 90
        8
176
     1
 62
     7
176
     1
 40
1.0
176
     1
 90
        1
176
     1
 90
        6
176
     1
 90
        2
176
     1
 62
     7
176
     1
 90
        3
176
     1
 90
        0
176
     1
 90
        0
176
     1
290
     0
176
     1
 90
       13
176
     1
 40
0.0
176
     1
 90
        0
176
     1
290
     0
176
     1
290
     1
176
     1
290
     1
176
     1
290
     0
176
     1
290
     0
176
     1
290
     0
176
     1
290
     0
176
     1
290
     0
176
     1
290
     0
176
     1
 90
       50
176
     1
 40
0.0
176
     1
 40
1.0
176
     1
 90
        0
176
     1
 62
    18
420
        0
176
     1
 90
       50
176
     1
 90
        3
176
     1
 62
     5
420
      255
176
     1
290
     0
176
     1
 90
       50
176
     1
 90
       50
176
     1
 90
       50
176
     1
290
     0
176
     1
 90
       50
176
     1
 62
   256
176
     0
 40
1.0
176
     0
 90
        2
176
     1
  1
strokes_ogs.tif
176
     1
290
     0
176
     1
 40
1.0
176
     1
 40
1.0
176
     1
  0
DICTIONARYVAR
  5
26B
102
{ACAD_REACTORS
330
26A
102
}
330
26A
100
DictionaryVariables
280
     0
  1
1:1
  0
DICTIONARYVAR
  5
270
102
{ACAD_REACTORS
330
26A
102
}
330
26A
100
DictionaryVariables
280
     0
  1
Standard
  0
DICTIONARYVAR
  5
26F
102
{ACAD_REACTORS
330
26A
102
}
330
26A
100
DictionaryVariables
280
     0
  1
Standard
  0
DICTIONARY
  5
26C
330
6A
100
AcDbDictionary
280
     1
281
     1
  3
ACAD_ROUNDTRIP_2008_TABLESTYLE_CELLSTYLEMAP
360
26D
  0
CELLSTYLEMAP
  5
26D
102
{ACAD_REACTORS
330
26C
102
}
330
26C
100
AcDbCellStyleMap
 90
        3
300
CELLSTYLE
  1
TABLEFORMAT_BEGIN
 90
        5
170
     1
 91
        0
 92
    32768
 62
   257
 93
        1
300
CONTENTFORMAT
  1
CONTENTFORMAT_BEGIN
 90
        0
 91
        0
 92
        4
 93
        0
300

 40
0.0
140
1.0
 94
        5
 62
     0
340
11
144
0.25
309
CONTENTFORMAT_END
171
     1
301
MARGIN
  1
CELLMARGIN_BEGIN
 40
0.06
 40
0.06
 40
0.06
 40
0.06
 40
0.06
 40
0.06
309
CELLMARGIN_END
 94
        6
 95
        1
302
GRIDFORMAT
  1
GRIDFORMAT_BEGIN
 90
        0
 91
        1
 62
     0
 92
       -2
340
14
 93
        0
 40
0.045
309
GRIDFORMAT_END
 95
        2
302
GRIDFORMAT
  1
GRIDFORMAT_BEGIN
 90
        0
 91
        1
 62
     0
 92
       -2
340
14
 93
        0
 40
0.045
309
GRIDFORMAT_END
 95
        4
302
GRIDFORMAT
  1
GRIDFORMAT_BEGIN
 90
        0
 91
        1
 62
     0
 92
       -2
340
14
 93
        0
 40
0.045
309
GRIDFORMAT_END
 95
        8
302
GRIDFORMAT
  1
GRIDFORMAT_BEGIN
 90
        0
 91
        1
 62
     0
 92
       -2
340
14
 93
        0
 40
0.045
309
GRIDFORMAT_END
 95
       16
302
GRIDFORMAT
  1
GRIDFORMAT_BEGIN
 90
        0
 91
        1
 62
     0
 92
       -2
340
14
 93
        0
 40
0.045
309
GRIDFORMAT_END
 95
       32
302
GRIDFORMAT
  1
GRIDFORMAT_BEGIN
 90
        0
 91
        1
 62
     0
 92
       -2
340
14
 93
        0
 40
0.045
309
GRIDFORMAT_END
309
TABLEFORMAT_END
  1
CELLSTYLE_BEGIN
 90
        1
 91
        1
300
_TITLE
309
CELLSTYLE_END
300
CELLSTYLE
  1
TABLEFORMAT_BEGIN
 90
        5
170
     1
 91
        0
 92
        0
 62
   257
 93
        1
300
CONTENTFORMAT
  1
CONTENTFORMAT_BEGIN
 90
        0
 91
        0
 92
        4
 93
        0
300

 40
0.0
140
1.0
 94
        5
 62
     0
340
11
144
0.18
309
CONTENTFORMAT_END
171
     1
301
MARGIN
  1
CELLMARGIN_BEGIN
 40
0.06
 40
0.06
 40
0.06
 40
0.06
 40
0.06
 40
0.06
309
CELLMARGIN_END
 94
        6
 95
        1
302
GRIDFORMAT
  1
GRIDFORMAT_BEGIN
 90
        0
 91
        1
 62
     0
 92
       -2
340
14
 93
        0
 40
0.045
309
GRIDFORMAT_END
 95
        2
302
GRIDFORMAT
  1
GRIDFORMAT_BEGIN
 90
        0
 91
        1
 62
     0
 92
       -2
340
14
 93
        0
 40
0.045
309
GRIDFORMAT_END
 95
        4
302
GRIDFORMAT
  1
GRIDFORMAT_BEGIN
 90
        0
 91
        1
 62
     0
 92
       -2
340
14
 93
        0
 40
0.045
309
GRIDFORMAT_END
 95
        8
302
GRIDFORMAT
  1
GRIDFORMAT_BEGIN
 90
        0
 91
        1
 62
     0
 92
       -2
340
14
 93
        0
 40
0.045
309
GRIDFORMAT_END
 95
       16
302
GRIDFORMAT
  1
GRIDFORMAT_BEGIN
 90
        0
 91
        1
 62
     0
 92
       -2
340
14
 93
        0
 40
0.045
309
GRIDFORMAT_END
 95
       32
302
GRIDFORMAT
  1
GRIDFORMAT_BEGIN
 90
        0
 91
        1
 62
     0
 92
       -2
340
14
 93
        0
 40
0.045
309
GRIDFORMAT_END
309
TABLEFORMAT_END
  1
CELLSTYLE_BEGIN
 90
        2
 91
        1
300
_HEADER
309
CELLSTYLE_END
300
CELLSTYLE
  1
TABLEFORMAT_BEGIN
 90
        5
170
     1
 91
        0
 92
        0
 62
   257
 93
        1
300
CONTENTFORMAT
  1
CONTENTFORMAT_BEGIN
 90
        0
 91
        0
 92
        4
 93
        0
300

 40
0.0
140
1.0
 94
        2
 62
     0
340
11
144
0.18
309
CONTENTFORMAT_END
171
     1
301
MARGIN
  1
CELLMARGIN_BEGIN
 40
0.06
 40
0.06
 40
0.06
 40
0.06
 40
0.06
 40
0.06
309
CELLMARGIN_END
 94
        6
 95
        1
302
GRIDFORMAT
  1
GRIDFORMAT_BEGIN
 90
        0
 91
        1
 62
     0
 92
       -2
340
14
 93
        0
 40
0.045
309
GRIDFORMAT_END
 95
        2
302
GRIDFORMAT
  1
GRIDFORMAT_BEGIN
 90
        0
 91
        1
 62
     0
 92
       -2
340
14
 93
        0
 40
0.045
309
GRIDFORMAT_END
 95
        4
302
GRIDFORMAT
  1
GRIDFORMAT_BEGIN
 90
        0
 91
        1
 62
     0
 92
       -2
340
14
 93
        0
 40
0.045
309
GRIDFORMAT_END
 95
        8
302
GRIDFORMAT
  1
GRIDFORMAT_BEGIN
 90
        0
 91
        1
 62
     0
 92
       -2
340
14
 93
        0
 40
0.045
309
GRIDFORMAT_END
 95
       16
302
GRIDFORMAT
  1
GRIDFORMAT_BEGIN
 90
        0
 91
        1
 62
     0
 92
       -2
340
14
 93
        0
 40
0.045
309
GRIDFORMAT_END
 95
       32
302
GRIDFORMAT
  1
GRIDFORMAT_BEGIN
 90
        0
 91
        1
 62
     0
 92
       -2
340
14
 93
        0
 40
0.045
309
GRIDFORMAT_END
309
TABLEFORMAT_END
  1
CELLSTYLE_BEGIN
 90
        3
 91
        2
300
_DATA
309
CELLSTYLE_END
  0
ENDSEC
  0
EOF