0
SECTION
  2
HEADER
  9
$ACADVER
  1
AC1027
  9
$ACADMAINTVER
 70
     8
  9
$DWGCODEPAGE
  3
ANSI_1252
  9
$REQUIREDVERSIONS
160
                 0
  9
$COMMENTS
  1
File was created by Cadenas
  9
$CUSTOMPROPERTYTAG
  1
NN
  9
$CUSTOMPROPERTY
  1
Steel IMPERIAL-HD Piloted Flange 2-7/16 thru 5 Inch Bore
  9
$CUSTOMPROPERTYTAG
  1
NT
  9
$CUSTOMPROPERTY
  1
Steal Imperial Piloted Flange Bearing-Inch-207-500
  9
$CUSTOMPROPERTYTAG
  1
NB
  9
$CUSTOMPROPERTY
  1
072298
  9
$CUSTOMPROPERTYTAG
  1
NBSYN
  9
$CUSTOMPROPERTY
  1
$PN.
  9
$CUSTOMPROPERTYTAG
  1
LINA
  9
$CUSTOMPROPERTY
  1
072298
  9
$CUSTOMPROPERTYTAG
  1
SS
  9
$CUSTOMPROPERTY
  1
3-7/16
  9
$CUSTOMPROPERTYTAG
  1
PN
  9
$CUSTOMPROPERTY
  1
072298
  9
$CUSTOMPROPERTYTAG
  1
TYPE
  9
$CUSTOMPROPERTY
  1
Non-Expansion
  9
$CUSTOMPROPERTYTAG
  1
EF
  9
$CUSTOMPROPERTY
  1
Non-Expansion
  9
$CUSTOMPROPERTYTAG
  1
DESCRIPTION
  9
$CUSTOMPROPERTY
  1
SFC-IP-307R
  9
$CUSTOMPROPERTYTAG
  1
ST
  9
$CUSTOMPROPERTY
  1
Contact Seal
  9
$CUSTOMPROPERTYTAG
  1
A
  9
$CUSTOMPROPERTY
  1
4.17
  9
$CUSTOMPROPERTYTAG
  1
B
  9
$CUSTOMPROPERTY
  1
10.25
  9
$CUSTOMPROPERTYTAG
  1
C
  9
$CUSTOMPROPERTY
  1
3.31
  9
$CUSTOMPROPERTYTAG
  1
D
  9
$CUSTOMPROPERTY
  1
6.10
  9
$CUSTOMPROPERTYTAG
  1
DD
  9
$CUSTOMPROPERTY
  1
8.630
  9
$CUSTOMPROPERTYTAG
  1
E
  9
$CUSTOMPROPERTY
  1
1.34
  9
$CUSTOMPROPERTYTAG
  1
F
  9
$CUSTOMPROPERTY
  1
0.750
  9
$CUSTOMPROPERTYTAG
  1
G
  9
$CUSTOMPROPERTY
  1
2.46
  9
$CUSTOMPROPERTYTAG
  1
H
  9
$CUSTOMPROPERTY
  1
0.88
  9
$CUSTOMPROPERTYTAG
  1
K
  9
$CUSTOMPROPERTY
  1
7.375
  9
$CUSTOMPROPERTYTAG
  1
L
  9
$CUSTOMPROPERTY
  1
5.00
  9
$CUSTOMPROPERTYTAG
  1
M
  9
$CUSTOMPROPERTY
  1
0.750
  9
$CUSTOMPROPERTYTAG
  1
N
  9
$CUSTOMPROPERTY
  1
4.34
  9
$CUSTOMPROPERTYTAG
  1
P
  9
$CUSTOMPROPERTY
  1
1.71
  9
$CUSTOMPROPERTYTAG
  1
Q
  9
$CUSTOMPROPERTY
  1
1.89
  9
$CUSTOMPROPERTYTAG
  1
X
  9
$CUSTOMPROPERTY
  1
0.25
  9
$CUSTOMPROPERTYTAG
  1
Y
  9
$CUSTOMPROPERTY
  1
0.025
  9
$CUSTOMPROPERTYTAG
  1
Z
  9
$CUSTOMPROPERTY
  1
4.05
  9
$CUSTOMPROPERTYTAG
  1
COMPANY
  9
$CUSTOMPROPERTY
  1
baldor
  9
$INSBASE
 10
0.0
 20
0.0
 30
0.0
  9
$EXTMIN
 10
1.000000000000000E+20
 20
1.000000000000000E+20
 30
1.000000000000000E+20
  9
$EXTMAX
 10
-1.000000000000000E+20
 20
-1.000000000000000E+20
 30
-1.000000000000000E+20
  9
$LIMMIN
 10
0.0
 20
0.0
  9
$LIMMAX
 10
12.0
 20
9.0
  9
$ORTHOMODE
 70
     0
  9
$REGENMODE
 70
     1
  9
$FILLMODE
 70
     1
  9
$QTEXTMODE
 70
     0
  9
$MIRRTEXT
 70
     1
  9
$LTSCALE
 40
1.0
  9
$ATTMODE
 70
     1
  9
$TEXTSIZE
 40
0.2
  9
$TRACEWID
 40
0.05
  9
$TEXTSTYLE
  7
Standard
  9
$CLAYER
  8
0
  9
$CELTYPE
  6
ByLayer
  9
$CECOLOR
 62
   256
  9
$CELTSCALE
 40
1.0
  9
$DISPSILH
 70
     0
  9
$DIMSCALE
 40
1.0
  9
$DIMASZ
 40
0.18
  9
$DIMEXO
 40
0.0625
  9
$DIMDLI
 40
0.38
  9
$DIMRND
 40
0.0
  9
$DIMDLE
 40
0.0
  9
$DIMEXE
 40
0.18
  9
$DIMTP
 40
0.0
  9
$DIMTM
 40
0.0
  9
$DIMTXT
 40
0.18
  9
$DIMCEN
 40
0.09
  9
$DIMTSZ
 40
0.0
  9
$DIMTOL
 70
     0
  9
$DIMLIM
 70
     0
  9
$DIMTIH
 70
     1
  9
$DIMTOH
 70
     1
  9
$DIMSE1
 70
     0
  9
$DIMSE2
 70
     0
  9
$DIMTAD
 70
     0
  9
$DIMZIN
 70
     0
  9
$DIMBLK
  1

  9
$DIMASO
 70
     1
  9
$DIMSHO
 70
     1
  9
$DIMPOST
  1

  9
$DIMAPOST
  1

  9
$DIMALT
 70
     0
  9
$DIMALTD
 70
     2
  9
$DIMALTF
 40
25.4
  9
$DIMLFAC
 40
1.0
  9
$DIMTOFL
 70
     0
  9
$DIMTVP
 40
0.0
  9
$DIMTIX
 70
     0
  9
$DIMSOXD
 70
     0
  9
$DIMSAH
 70
     0
  9
$DIMBLK1
  1

  9
$DIMBLK2
  1

  9
$DIMSTYLE
  2
Standard
  9
$DIMCLRD
 70
     0
  9
$DIMCLRE
 70
     0
  9
$DIMCLRT
 70
     0
  9
$DIMTFAC
 40
1.0
  9
$DIMGAP
 40
0.09
  9
$DIMJUST
 70
     0
  9
$DIMSD1
 70
     0
  9
$DIMSD2
 70
     0
  9
$DIMTOLJ
 70
     1
  9
$DIMTZIN
 70
     0
  9
$DIMALTZ
 70
     0
  9
$DIMALTTZ
 70
     0
  9
$DIMUPT
 70
     0
  9
$DIMDEC
 70
     4
  9
$DIMTDEC
 70
     4
  9
$DIMALTU
 70
     2
  9
$DIMALTTD
 70
     2
  9
$DIMTXSTY
  7
Standard
  9
$DIMAUNIT
 70
     0
  9
$DIMADEC
 70
     0
  9
$DIMALTRND
 40
0.0
  9
$DIMAZIN
 70
     0
  9
$DIMDSEP
 70
    46
  9
$DIMATFIT
 70
     3
  9
$DIMFRAC
 70
     0
  9
$DIMLDRBLK
  1

  9
$DIMLUNIT
 70
     2
  9
$DIMLWD
 70
    -2
  9
$DIMLWE
 70
    -2
  9
$DIMTMOVE
 70
     0
  9
$DIMFXL
 40
1.0
  9
$DIMFXLON
 70
     0
  9
$DIMJOGANG
 40
0.7853981633974483
  9
$DIMTFILL
 70
     0
  9
$DIMTFILLCLR
 70
     0
  9
$DIMARCSYM
 70
     0
  9
$DIMLTYPE
  6

  9
$DIMLTEX1
  6

  9
$DIMLTEX2
  6

  9
$DIMTXTDIRECTION
 70
     0
  9
$LUNITS
 70
     2
  9
$LUPREC
 70
     4
  9
$SKETCHINC
 40
0.1
  9
$FILLETRAD
 40
0.5
  9
$AUNITS
 70
     0
  9
$AUPREC
 70
     0
  9
$MENU
  1
.
  9
$ELEVATION
 40
0.0
  9
$PELEVATION
 40
0.0
  9
$THICKNESS
 40
0.0
  9
$LIMCHECK
 70
     0
  9
$CHAMFERA
 40
0.0
  9
$CHAMFERB
 40
0.0
  9
$CHAMFERC
 40
0.0
  9
$CHAMFERD
 40
0.0
  9
$SKPOLY
 70
     0
  9
$TDCREATE
 40
2458168.89765022
  9
$TDUCREATE
 40
2458168.855983553
  9
$TDUPDATE
 40
2458168.89765022
  9
$TDUUPDATE
 40
2458168.855983553
  9
$TDINDWG
 40
0.0000000116
  9
$TDUSRTIMER
 40
0.0000000116
  9
$USRTIMER
 70
     1
  9
$ANGBASE
 50
0.0
  9
$ANGDIR
 70
     0
  9
$PDMODE
 70
     0
  9
$PDSIZE
 40
0.0
  9
$PLINEWID
 40
0.0
  9
$SPLFRAME
 70
     0
  9
$SPLINETYPE
 70
     6
  9
$SPLINESEGS
 70
     8
  9
$HANDSEED
  5
247
  9
$SURFTAB1
 70
     6
  9
$SURFTAB2
 70
     6
  9
$SURFTYPE
 70
     6
  9
$SURFU
 70
     6
  9
$SURFV
 70
     6
  9
$UCSBASE
  2

  9
$UCSNAME
  2

  9
$UCSORG
 10
0.0
 20
0.0
 30
0.0
  9
$UCSXDIR
 10
1.0
 20
0.0
 30
0.0
  9
$UCSYDIR
 10
0.0
 20
1.0
 30
0.0
  9
$UCSORTHOREF
  2

  9
$UCSORTHOVIEW
 70
     0
  9
$UCSORGTOP
 10
0.0
 20
0.0
 30
0.0
  9
$UCSORGBOTTOM
 10
0.0
 20
0.0
 30
0.0
  9
$UCSORGLEFT
 10
0.0
 20
0.0
 30
0.0
  9
$UCSORGRIGHT
 10
0.0
 20
0.0
 30
0.0
  9
$UCSORGFRONT
 10
0.0
 20
0.0
 30
0.0
  9
$UCSORGBACK
 10
0.0
 20
0.0
 30
0.0
  9
$PUCSBASE
  2

  9
$PUCSNAME
  2

  9
$PUCSORG
 10
0.0
 20
0.0
 30
0.0
  9
$PUCSXDIR
 10
1.0
 20
0.0
 30
0.0
  9
$PUCSYDIR
 10
0.0
 20
1.0
 30
0.0
  9
$PUCSORTHOREF
  2

  9
$PUCSORTHOVIEW
 70
     0
  9
$PUCSORGTOP
 10
0.0
 20
0.0
 30
0.0
  9
$PUCSORGBOTTOM
 10
0.0
 20
0.0
 30
0.0
  9
$PUCSORGLEFT
 10
0.0
 20
0.0
 30
0.0
  9
$PUCSORGRIGHT
 10
0.0
 20
0.0
 30
0.0
  9
$PUCSORGFRONT
 10
0.0
 20
0.0
 30
0.0
  9
$PUCSORGBACK
 10
0.0
 20
0.0
 30
0.0
  9
$USERI1
 70
     0
  9
$USERI2
 70
     0
  9
$USERI3
 70
     0
  9
$USERI4
 70
     0
  9
$USERI5
 70
     0
  9
$USERR1
 40
0.0
  9
$USERR2
 40
0.0
  9
$USERR3
 40
0.0
  9
$USERR4
 40
0.0
  9
$USERR5
 40
0.0
  9
$WORLDVIEW
 70
     1
  9
$SHADEDGE
 70
     3
  9
$SHADEDIF
 70
    70
  9
$TILEMODE
 70
     1
  9
$MAXACTVP
 70
    64
  9
$PINSBASE
 10
0.0
 20
0.0
 30
0.0
  9
$PLIMCHECK
 70
     0
  9
$PEXTMIN
 10
1.000000000000000E+20
 20
1.000000000000000E+20
 30
1.000000000000000E+20
  9
$PEXTMAX
 10
-1.000000000000000E+20
 20
-1.000000000000000E+20
 30
-1.000000000000000E+20
  9
$PLIMMIN
 10
0.0
 20
0.0
  9
$PLIMMAX
 10
12.0
 20
9.0
  9
$UNITMODE
 70
     0
  9
$VISRETAIN
 70
     1
  9
$PLINEGEN
 70
     0
  9
$PSLTSCALE
 70
     1
  9
$TREEDEPTH
 70
  3020
  9
$CMLSTYLE
  2
Standard
  9
$CMLJUST
 70
     0
  9
$CMLSCALE
 40
1.0
  9
$PROXYGRAPHICS
 70
     1
  9
$MEASUREMENT
 70
     0
  9
$CELWEIGHT
370
    -1
  9
$ENDCAPS
280
     0
  9
$JOINSTYLE
280
     0
  9
$LWDISPLAY
290
     0
  9
$INSUNITS
 70
     1
  9
$HYPERLINKBASE
  1

  9
$STYLESHEET
  1

  9
$XEDIT
290
     1
  9
$CEPSNTYPE
380
     0
  9
$PSTYLEMODE
290
     1
  9
$FINGERPRINTGUID
  2
{80C14B10-69AD-4DC3-83C6-1D49C5DC3D2F}
  9
$VERSIONGUID
  2
{FAEB1C32-E019-11D5-929B-00C0DF256EC4}
  9
$EXTNAMES
290
     1
  9
$PSVPSCALE
 40
0.0
  9
$OLESTARTUP
290
     0
  9
$SORTENTS
280
   127
  9
$INDEXCTL
280
     0
  9
$HIDETEXT
280
     1
  9
$XCLIPFRAME
280
     2
  9
$HALOGAP
280
     0
  9
$OBSCOLOR
 70
   257
  9
$OBSLTYPE
280
     0
  9
$INTERSECTIONDISPLAY
280
     0
  9
$INTERSECTIONCOLOR
 70
   257
  9
$DIMASSOC
280
     2
  9
$PROJECTNAME
  1

  9
$CAMERADISPLAY
290
     0
  9
$LENSLENGTH
 40
50.0
  9
$CAMERAHEIGHT
 40
0.0
  9
$STEPSPERSEC
 40
2.0
  9
$STEPSIZE
 40
6.0
  9
$3DDWFPREC
 40
2.0
  9
$PSOLWIDTH
 40
0.25
  9
$PSOLHEIGHT
 40
4.0
  9
$LOFTANG1
 40
1.570796326794897
  9
$LOFTANG2
 40
1.570796326794897
  9
$LOFTMAG1
 40
0.0
  9
$LOFTMAG2
 40
0.0
  9
$LOFTPARAM
 70
     7
  9
$LOFTNORMALS
280
     1
  9
$LATITUDE
 40
37.795
  9
$LONGITUDE
 40
-122.394
  9
$NORTHDIRECTION
 40
0.0
  9
$TIMEZONE
 70
 -8000
  9
$LIGHTGLYPHDISPLAY
280
     1
  9
$TILEMODELIGHTSYNCH
280
     1
  9
$CMATERIAL
347
44
  9
$SOLIDHIST
280
     0
  9
$SHOWHIST
280
     1
  9
$DWFFRAME
280
     2
  9
$DGNFRAME
280
     2
  9
$REALWORLDSCALE
290
     1
  9
$INTERFERECOLOR
 62
   256
  9
$CSHADOW
280
     0
  9
$SHADOWPLANELOCATION
 40
0.0
  0
ENDSEC
  0
SECTION
  2
CLASSES
  0
CLASS
  1
ACDBDICTIONARYWDFLT
  2
AcDbDictionaryWithDefault
  3
ObjectDBX Classes
 90
        0
 91
        4
280
     0
281
     0
  0
CLASS
  1
VISUALSTYLE
  2
AcDbVisualStyle
  3
ObjectDBX Classes
 90
     4095
 91
        4
280
     0
281
     0
  0
CLASS
  1
MATERIAL
  2
AcDbMaterial
  3
ObjectDBX Classes
 90
     1153
 91
        4
280
     0
281
     0
  0
CLASS
  1
SCALE
  2
AcDbScale
  3
ObjectDBX Classes
 90
     1153
 91
        4
280
     0
281
     0
  0
CLASS
  1
TABLESTYLE
  2
AcDbTableStyle
  3
ObjectDBX Classes
 90
     4095
 91
        4
280
     0
281
     0
  0
CLASS
  1
MLEADERSTYLE
  2
AcDbMLeaderStyle
  3
ACDB_MLEADERSTYLE_CLASS
 90
     4095
 91
        4
280
     0
281
     0
  0
CLASS
  1
SUN
  2
AcDbSun
  3
SCENEOE
 90
     1153
 91
        4
280
     0
281
     0
  0
CLASS
  1
DICTIONARYVAR
  2
AcDbDictionaryVar
  3
ObjectDBX Classes
 90
        0
 91
        4
280
     0
281
     0
  0
CLASS
  1
CELLSTYLEMAP
  2
AcDbCellStyleMap
  3
ObjectDBX Classes
 90
     1152
 91
        4
280
     0
281
     0
  0
ENDSEC
  0
SECTION
  2
TABLES
  0
TABLE
  2
VPORT
  5
8
330
0
100
AcDbSymbolTable
 70
     1
  0
VPORT
  5
29
330
8
100
AcDbSymbolTableRecord
100
AcDbViewportTableRecord
  2
*Active
 70
     0
 10
0.0
 20
0.0
 11
1.0
 21
1.0
 12
0.0
 22
0.0
 13
0.0
 23
0.0
 14
0.5
 24
0.5
 15
0.5
 25
0.5
 16
0.0
 26
0.0
 36
1.0
 17
0.0
 27
0.0000000000000009
 37
0.0
 40
7.427639999999998
 41
1.407580335072782
 42
50.0
 43
0.0
 44
0.0
 50
0.0
 51
0.0
 71
     0
 72
   100
 73
     1
 74
     3
 75
     0
 76
     0
 77
     0
 78
     0
281
     0
 65
     1
110
0.0
120
0.0
130
0.0
111
1.0
121
0.0
131
0.0
112
0.0
122
1.0
132
0.0
 79
     0
146
0.0
348
2F
 60
     3
 61
     5
292
     1
282
     1
141
0.0
142
0.0
 63
   250
361
6D
  0
ENDTAB
  0
TABLE
  2
LTYPE
  5
5
330
0
100
AcDbSymbolTable
 70
     3
  0
LTYPE
  5
14
330
5
100
AcDbSymbolTableRecord
100
AcDbLinetypeTableRecord
  2
ByBlock
 70
     0
  3

 72
    65
 73
     0
 40
0.0
  0
LTYPE
  5
15
330
5
100
AcDbSymbolTableRecord
100
AcDbLinetypeTableRecord
  2
ByLayer
 70
     0
  3

 72
    65
 73
     0
 40
0.0
  0
LTYPE
  5
16
330
5
100
AcDbSymbolTableRecord
100
AcDbLinetypeTableRecord
  2
Continuous
 70
     0
  3
Solid line
 72
    65
 73
     0
 40
0.0
  0
LTYPE
  5
9D
330
5
100
AcDbSymbolTableRecord
100
AcDbLinetypeTableRecord
  2
Dashed
 70
     0
  3

 72
    65
 73
     2
 40
2.0
 49
1.0
 74
     0
 49
-1.0
 74
     0
  0
LTYPE
  5
218
330
5
100
AcDbSymbolTableRecord
100
AcDbLinetypeTableRecord
  2
Center
 70
     0
  3

 72
    65
 73
     4
 40
1.5
 49
0.45
 74
     0
 49
-0.5
 74
     0
 49
0.05
 74
     0
 49
-0.5
 74
     0
  0
ENDTAB
  0
TABLE
  2
LAYER
  5
2
330
0
100
AcDbSymbolTable
 70
     7
  0
LAYER
  5
10
330
2
100
AcDbSymbolTableRecord
100
AcDbLayerTableRecord
  2
0
 70
     0
 62
     7
  6
Continuous
370
    -3
390
F
347
46
348
0
  0
LAYER
  5
72
330
2
100
AcDbSymbolTableRecord
100
AcDbLayerTableRecord
  2
AM_6
 70
     0
 62
    -2
  6
Continuous
370
    35
390
F
347
46
348
0
  0
LAYER
  5
9E
330
2
100
AcDbSymbolTableRecord
100
AcDbLayerTableRecord
  2
AM_9
 70
     0
 62
     6
  6
Dashed
370
    25
390
F
347
46
348
0
  0
LAYER
  5
BD
330
2
100
AcDbSymbolTableRecord
100
AcDbLayerTableRecord
  2
AM_4
 70
     0
 62
     7
  6
Continuous
370
    50
390
F
347
46
348
0
  0
LAYER
  5
ED
330
2
100
AcDbSymbolTableRecord
100
AcDbLayerTableRecord
  2
AM_5
 70
     0
 62
     3
  6
Continuous
370
    25
390
F
347
46
348
0
  0
LAYER
  5
219
330
2
100
AcDbSymbolTableRecord
100
AcDbLayerTableRecord
  2
AM_7
 70
     0
 62
     7
  6
Center
370
    25
390
F
347
46
348
0
  0
LAYER
  5
22F
330
2
100
AcDbSymbolTableRecord
100
AcDbLayerTableRecord
  2
ConnectionPoints
 70
     0
 62
     7
  6
Continuous
370
    50
390
F
347
46
348
0
  0
ENDTAB
  0
TABLE
  2
STYLE
  5
3
330
0
100
AcDbSymbolTable
 70
     1
  0
STYLE
  5
11
330
3
100
AcDbSymbolTableRecord
100
AcDbTextStyleTableRecord
  2
Standard
 70
     0
 40
0.0
 41
1.0
 50
0.0
 71
     0
 42
0.2
  3
txt
  4

  0
ENDTAB
  0
TABLE
  2
VIEW
  5
6
330
0
100
AcDbSymbolTable
 70
     0
  0
ENDTAB
  0
TABLE
  2
UCS
  5
7
330
0
100
AcDbSymbolTable
 70
     0
  0
ENDTAB
  0
TABLE
  2
APPID
  5
9
330
0
100
AcDbSymbolTable
 70
     1
  0
APPID
  5
12
330
9
100
AcDbSymbolTableRecord
100
AcDbRegAppTableRecord
  2
ACAD
 70
     0
  0
ENDTAB
  0
TABLE
  2
DIMSTYLE
  5
A
330
0
100
AcDbSymbolTable
 70
     1
100
AcDbDimStyleTable
  0
DIMSTYLE
105
27
330
A
100
AcDbSymbolTableRecord
100
AcDbDimStyleTableRecord
  2
Standard
 70
     0
178
     0
340
11
  0
ENDTAB
  0
TABLE
  2
BLOCK_RECORD
  5
1
330
0
100
AcDbSymbolTable
 70
     8
  0
BLOCK_RECORD
  5
1F
330
1
100
AcDbSymbolTableRecord
100
AcDbBlockTableRecord
  2
*Model_Space
340
22
 70
     0
280
     1
281
     0
  0
BLOCK_RECORD
  5
1B
330
1
100
AcDbSymbolTableRecord
100
AcDbBlockTableRecord
  2
*Paper_Space
340
1E
 70
     0
280
     1
281
     0
  0
BLOCK_RECORD
  5
23
330
1
100
AcDbSymbolTableRecord
100
AcDbBlockTableRecord
  2
*Paper_Space0
340
26
 70
     0
280
     1
281
     0
  0
BLOCK_RECORD
  5
6E
330
1
100
AcDbSymbolTableRecord
100
AcDbBlockTableRecord
  2
1_072298_4
340
0
102
{BLKREFS
331
6F
102
}
 70
     0
280
     1
281
     0
  0
BLOCK_RECORD
  5
91
330
1
100
AcDbSymbolTableRecord
100
AcDbBlockTableRecord
  2
2_405015E_Inch_0_in_072298_4
340
0
102
{BLKREFS
331
92
102
}
 70
     0
280
     1
281
     0
  0
BLOCK_RECORD
  5
DD
330
1
100
AcDbSymbolTableRecord
100
AcDbBlockTableRecord
  2
3_ASME_B18_3_1_4_1_0_in_072298_4
340
0
102
{BLKREFS
331
DE
102
}
 70
     0
280
     1
281
     0
  0
BLOCK_RECORD
  5
F1
330
1
100
AcDbSymbolTableRecord
100
AcDbBlockTableRecord
  2
4_ASME_B18_3_1_4_2_0_in_072298_4
340
0
102
{BLKREFS
331
F2
102
}
 70
     0
280
     1
281
     0
  0
BLOCK_RECORD
  5
119
330
1
100
AcDbSymbolTableRecord
100
AcDbBlockTableRecord
  2
5_070903LW_0_in_072298_4
340
0
102
{BLKREFS
331
11A
102
}
 70
     0
280
     1
281
     0
  0
BLOCK_RECORD
  5
14F
330
1
100
AcDbSymbolTableRecord
100
AcDbBlockTableRecord
  2
6_070903I_0_in_072298_4
340
0
102
{BLKREFS
331
150
102
}
 70
     0
280
     1
281
     0
  0
BLOCK_RECORD
  5
1CC
330
1
100
AcDbSymbolTableRecord
100
AcDbBlockTableRecord
  2
7_B072298_0_in_072298_4
340
0
102
{BLKREFS
331
1CD
102
}
 70
     0
280
     1
281
     0
  0
ENDTAB
  0
ENDSEC
  0
SECTION
  2
BLOCKS
  0
BLOCK
  5
20
330
1F
100
AcDbEntity
  8
0
100
AcDbBlockBegin
  2
*Model_Space
 70
     0
 10
0.0
 20
0.0
 30
0.0
  3
*Model_Space
  1

  0
ENDBLK
  5
21
330
1F
100
AcDbEntity
  8
0
100
AcDbBlockEnd
  0
BLOCK
  5
1C
330
1B
100
AcDbEntity
 67
     1
  8
0
100
AcDbBlockBegin
  2
*Paper_Space
 70
     0
 10
0.0
 20
0.0
 30
0.0
  3
*Paper_Space
  1

  0
ENDBLK
  5
1D
330
1B
100
AcDbEntity
 67
     1
  8
0
100
AcDbBlockEnd
  0
BLOCK
  5
24
330
23
100
AcDbEntity
  8
0
100
AcDbBlockBegin
  2
*Paper_Space0
 70
     0
 10
0.0
 20
0.0
 30
0.0
  3
*Paper_Space0
  1

  0
ENDBLK
  5
25
330
23
100
AcDbEntity
  8
0
100
AcDbBlockEnd
  0
BLOCK
  5
70
330
6E
100
AcDbEntity
  8
0
100
AcDbBlockBegin
  2
1_072298_4
 70
     2
 10
0.0
 20
0.0
 30
0.0
  3
1_072298_4
  1

  0
ATTDEF
  5
73
330
6E
100
AcDbEntity
  8
AM_6
100
AcDbText
 10
10.125
 20
3.641
 30
0.0
 40
0.5
  1
Steel IMPERIAL-HD Piloted Flange 2-7/16 thru 5 Inch Bore
100
AcDbAttributeDefinition
  3

  2
NN
 70
     8
280
     0
  0
ATTDEF
  5
74
330
6E
100
AcDbEntity
  8
AM_6
100
AcDbText
 10
10.125
 20
3.141
 30
0.0
 40
0.5
  1
Steal Imperial Piloted Flange Bearing-Inch-207-500
100
AcDbAttributeDefinition
  3

  2
NT
 70
     8
280
     0
  0
ATTDEF
  5
75
330
6E
100
AcDbEntity
  8
AM_6
100
AcDbText
 10
10.125
 20
2.641
 30
0.0
 40
0.5
  1
072298
100
AcDbAttributeDefinition
  3

  2
NB
 70
     8
280
     0
  0
ATTDEF
  5
76
330
6E
100
AcDbEntity
  8
AM_6
100
AcDbText
 10
10.125
 20
2.141
 30
0.0
 40
0.5
  1
$PN.
100
AcDbAttributeDefinition
  3

  2
NBSYN
 70
     8
280
     0
  0
ATTDEF
  5
77
330
6E
100
AcDbEntity
  8
AM_6
100
AcDbText
 10
10.125
 20
1.641
 30
0.0
 40
0.5
  1
072298
100
AcDbAttributeDefinition
  3

  2
LINA
 70
     8
280
     0
  0
ATTDEF
  5
78
330
6E
100
AcDbEntity
  8
AM_6
100
AcDbText
 10
10.125
 20
1.141
 30
0.0
 40
0.5
  1
3-7/16
100
AcDbAttributeDefinition
  3

  2
SS
 70
     8
280
     0
  0
ATTDEF
  5
79
330
6E
100
AcDbEntity
  8
AM_6
100
AcDbText
 10
10.125
 20
0.641
 30
0.0
 40
0.5
  1
072298
100
AcDbAttributeDefinition
  3

  2
PN
 70
     8
280
     0
  0
ATTDEF
  5
7A
330
6E
100
AcDbEntity
  8
AM_6
100
AcDbText
 10
10.125
 20
0.141
 30
0.0
 40
0.5
  1
Non-Expansion
100
AcDbAttributeDefinition
  3

  2
TYPE
 70
     8
280
     0
  0
ATTDEF
  5
7B
330
6E
100
AcDbEntity
  8
AM_6
100
AcDbText
 10
10.125
 20
-0.359
 30
0.0
 40
0.5
  1
Non-Expansion
100
AcDbAttributeDefinition
  3

  2
EF
 70
     8
280
     0
  0
ATTDEF
  5
7C
330
6E
100
AcDbEntity
  8
AM_6
100
AcDbText
 10
10.125
 20
-0.859
 30
0.0
 40
0.5
  1
SFC-IP-307R
100
AcDbAttributeDefinition
  3

  2
DESCRIPTION
 70
     8
280
     0
  0
ATTDEF
  5
7D
330
6E
100
AcDbEntity
  8
AM_6
100
AcDbText
 10
10.125
 20
-1.359
 30
0.0
 40
0.5
  1
Contact Seal
100
AcDbAttributeDefinition
  3

  2
ST
 70
     8
280
     0
  0
ATTDEF
  5
7E
330
6E
100
AcDbEntity
  8
AM_6
100
AcDbText
 10
10.125
 20
-1.859
 30
0.0
 40
0.5
  1
4.17
100
AcDbAttributeDefinition
  3

  2
A
 70
     8
280
     0
  0
ATTDEF
  5
7F
330
6E
100
AcDbEntity
  8
AM_6
100
AcDbText
 10
10.125
 20
-2.359
 30
0.0
 40
0.5
  1
10.25
100
AcDbAttributeDefinition
  3

  2
B
 70
     8
280
     0
  0
ATTDEF
  5
80
330
6E
100
AcDbEntity
  8
AM_6
100
AcDbText
 10
10.125
 20
-2.859
 30
0.0
 40
0.5
  1
3.31
100
AcDbAttributeDefinition
  3

  2
C
 70
     8
280
     0
  0
ATTDEF
  5
81
330
6E
100
AcDbEntity
  8
AM_6
100
AcDbText
 10
10.125
 20
-3.359
 30
0.0
 40
0.5
  1
6.10
100
AcDbAttributeDefinition
  3

  2
D
 70
     8
280
     0
  0
ATTDEF
  5
82
330
6E
100
AcDbEntity
  8
AM_6
100
AcDbText
 10
10.125
 20
-3.859
 30
0.0
 40
0.5
  1
8.630
100
AcDbAttributeDefinition
  3

  2
DD
 70
     8
280
     0
  0
ATTDEF
  5
83
330
6E
100
AcDbEntity
  8
AM_6
100
AcDbText
 10
10.125
 20
-4.359
 30
0.0
 40
0.5
  1
1.34
100
AcDbAttributeDefinition
  3

  2
E
 70
     8
280
     0
  0
ATTDEF
  5
84
330
6E
100
AcDbEntity
  8
AM_6
100
AcDbText
 10
10.125
 20
-4.859
 30
0.0
 40
0.5
  1
0.750
100
AcDbAttributeDefinition
  3

  2
F
 70
     8
280
     0
  0
ATTDEF
  5
85
330
6E
100
AcDbEntity
  8
AM_6
100
AcDbText
 10
10.125
 20
-5.359
 30
0.0
 40
0.5
  1
2.46
100
AcDbAttributeDefinition
  3

  2
G
 70
     8
280
     0
  0
ATTDEF
  5
86
330
6E
100
AcDbEntity
  8
AM_6
100
AcDbText
 10
10.125
 20
-5.859
 30
0.0
 40
0.5
  1
0.88
100
AcDbAttributeDefinition
  3

  2
H
 70
     8
280
     0
  0
ATTDEF
  5
87
330
6E
100
AcDbEntity
  8
AM_6
100
AcDbText
 10
10.125
 20
-6.359
 30
0.0
 40
0.5
  1
7.375
100
AcDbAttributeDefinition
  3

  2
K
 70
     8
280
     0
  0
ATTDEF
  5
88
330
6E
100
AcDbEntity
  8
AM_6
100
AcDbText
 10
10.125
 20
-6.859
 30
0.0
 40
0.5
  1
5.00
100
AcDbAttributeDefinition
  3

  2
L
 70
     8
280
     0
  0
ATTDEF
  5
89
330
6E
100
AcDbEntity
  8
AM_6
100
AcDbText
 10
10.125
 20
-7.359
 30
0.0
 40
0.5
  1
0.750
100
AcDbAttributeDefinition
  3

  2
M
 70
     8
280
     0
  0
ATTDEF
  5
8A
330
6E
100
AcDbEntity
  8
AM_6
100
AcDbText
 10
10.125
 20
-7.859
 30
0.0
 40
0.5
  1
4.34
100
AcDbAttributeDefinition
  3

  2
N
 70
     8
280
     0
  0
ATTDEF
  5
8B
330
6E
100
AcDbEntity
  8
AM_6
100
AcDbText
 10
10.125
 20
-8.359
 30
0.0
 40
0.5
  1
1.71
100
AcDbAttributeDefinition
  3

  2
P
 70
     8
280
     0
  0
ATTDEF
  5
8C
330
6E
100
AcDbEntity
  8
AM_6
100
AcDbText
 10
10.125
 20
-8.859
 30
0.0
 40
0.5
  1
1.89
100
AcDbAttributeDefinition
  3

  2
Q
 70
     8
280
     0
  0
ATTDEF
  5
8D
330
6E
100
AcDbEntity
  8
AM_6
100
AcDbText
 10
10.125
 20
-9.359
 30
0.0
 40
0.5
  1
0.25
100
AcDbAttributeDefinition
  3

  2
X
 70
     8
280
     0
  0
ATTDEF
  5
8E
330
6E
100
AcDbEntity
  8
AM_6
100
AcDbText
 10
10.125
 20
-9.859
 30
0.0
 40
0.5
  1
0.025
100
AcDbAttributeDefinition
  3

  2
Y
 70
     8
280
     0
  0
ATTDEF
  5
8F
330
6E
100
AcDbEntity
  8
AM_6
100
AcDbText
 10
10.125
 20
-10.359
 30
0.0
 40
0.5
  1
4.05
100
AcDbAttributeDefinition
  3

  2
Z
 70
     8
280
     0
  0
ATTDEF
  5
90
330
6E
100
AcDbEntity
  8
AM_6
100
AcDbText
 10
10.125
 20
-10.859
 30
0.0
 40
0.5
  1
baldor
100
AcDbAttributeDefinition
  3

  2
COMPANY
 70
     8
280
     0
  0
INSERT
  5
92
330
6E
100
AcDbEntity
  8
0
100
AcDbBlockReference
  2
2_405015E_Inch_0_in_072298_4
 10
0.0
 20
0.0
 30
0.0
  0
INSERT
  5
DE
330
6E
100
AcDbEntity
  8
0
100
AcDbBlockReference
  2
3_ASME_B18_3_1_4_1_0_in_072298_4
 10
0.0
 20
0.0
 30
0.0
  0
INSERT
  5
F2
330
6E
100
AcDbEntity
  8
0
100
AcDbBlockReference
  2
4_ASME_B18_3_1_4_2_0_in_072298_4
 10
0.0
 20
0.0
 30
0.0
  0
INSERT
  5
11A
330
6E
100
AcDbEntity
  8
0
100
AcDbBlockReference
  2
5_070903LW_0_in_072298_4
 10
0.0
 20
0.0
 30
0.0
  0
INSERT
  5
150
330
6E
100
AcDbEntity
  8
0
100
AcDbBlockReference
  2
6_070903I_0_in_072298_4
 10
0.0
 20
0.0
 30
0.0
  0
INSERT
  5
1CD
330
6E
100
AcDbEntity
  8
0
100
AcDbBlockReference
  2
7_B072298_0_in_072298_4
 10
0.0
 20
0.0
 30
0.0
  0
ENDBLK
  5
71
330
6E
100
AcDbEntity
  8
0
100
AcDbBlockEnd
  0
BLOCK
  5
93
330
91
100
AcDbEntity
  8
0
100
AcDbBlockBegin
  2
2_405015E_Inch_0_in_072298_4
 70
     2
 10
0.0
 20
0.0
 30
0.0
  3
2_405015E_Inch_0_in_072298_4
  1

  0
ATTDEF
  5
95
330
91
100
AcDbEntity
  8
AM_6
100
AcDbText
 10
5.218750000000001
 20
-0.8405400572652197
 30
0.0
 40
0.5
  1
405015E -Inch
100
AcDbAttributeDefinition
  3

  2
NN
 70
     8
280
     0
  0
ATTDEF
  5
96
330
91
100
AcDbEntity
  8
AM_6
100
AcDbText
 10
5.218750000000001
 20
-1.34054005726522
 30
0.0
 40
0.5
  1
Grease Fitting
100
AcDbAttributeDefinition
  3

  2
NT
 70
     8
280
     0
  0
ATTDEF
  5
97
330
91
100
AcDbEntity
  8
AM_6
100
AcDbText
 10
5.218750000000001
 20
-1.84054005726522
 30
0.0
 40
0.5
  1
405015E-Inch
100
AcDbAttributeDefinition
  3

  2
NB
 70
     8
280
     0
  0
ATTDEF
  5
98
330
91
100
AcDbEntity
  8
AM_6
100
AcDbText
 10
5.218750000000001
 20
-2.34054005726522
 30
0.0
 40
0.5
  1
$MN.-Inch
100
AcDbAttributeDefinition
  3

  2
NBSYN
 70
     8
280
     0
  0
ATTDEF
  5
99
330
91
100
AcDbEntity
  8
AM_6
100
AcDbText
 10
5.218750000000001
 20
-2.84054005726522
 30
0.0
 40
0.5
  1
405015E
100
AcDbAttributeDefinition
  3

  2
LINA
 70
     8
280
     0
  0
ATTDEF
  5
9A
330
91
100
AcDbEntity
  8
AM_6
100
AcDbText
 10
5.218750000000001
 20
-3.34054005726522
 30
0.0
 40
0.5
  1
405015E
100
AcDbAttributeDefinition
  3

  2
MN
 70
     8
280
     0
  0
ATTDEF
  5
9B
330
91
100
AcDbEntity
  8
AM_6
100
AcDbText
 10
5.218750000000001
 20
-3.84054005726522
 30
0.0
 40
0.5
  1
1/8 x 27PTF
100
AcDbAttributeDefinition
  3

  2
T
 70
     8
280
     0
  0
ATTDEF
  5
9C
330
91
100
AcDbEntity
  8
AM_6
100
AcDbText
 10
5.218750000000001
 20
-4.34054005726522
 30
0.0
 40
0.5
  1
baldor
100
AcDbAttributeDefinition
  3

  2
COMPANY
 70
     8
280
     0
  0
LWPOLYLINE
  5
9F
330
91
100
AcDbEntity
  8
AM_9
100
AcDbPolyline
 90
        3
 70
     0
 43
0.0
 10
0.109375
 20
-1.261917397268308
 10
0.0546875
 20
-1.282501371064896
 10
0.0
 20
-1.30653929432673
  0
LWPOLYLINE
  5
A0
330
91
100
AcDbEntity
  8
AM_9
100
AcDbPolyline
 90
        3
 70
     0
 43
0.0
 10
0.0
 20
-1.30653929432673
 10
-0.0544416102741496
 20
-1.282602299471995
 10
-0.109375
 20
-1.261917397268308
  0
LWPOLYLINE
  5
A1
330
91
100
AcDbEntity
  8
AM_9
100
AcDbPolyline
 90
        3
 70
     0
 43
0.0
 10
0.0
 20
-1.372591052398315
 10
0.0544416102741496
 20
-1.359389985081754
 10
0.1093749999999999
 20
-1.342601351277867
  0
LWPOLYLINE
  5
A2
330
91
100
AcDbEntity
  8
AM_9
100
AcDbPolyline
 90
        3
 70
     0
 43
0.0
 10
-0.109375
 20
-1.342601351277867
 10
-0.0546875
 20
-1.359323176570714
 10
0.0
 20
-1.372591052398315
  0
LWPOLYLINE
  5
A3
330
91
100
AcDbEntity
  8
AM_9
100
AcDbPolyline
 90
        3
 70
     0
 43
0.0
 10
-0.109375
 20
-1.261917397268308
 10
-0.1640625
 20
-1.245195571975461
 10
-0.21875
 20
-1.231927696147859
  0
LINE
  5
A4
330
91
100
AcDbEntity
  8
AM_9
100
AcDbLine
 10
0.0
 20
-1.372591052398315
 30
0.0
 11
0.0
 21
-1.30653929432673
 31
0.0
  0
LWPOLYLINE
  5
A5
330
91
100
AcDbEntity
  8
AM_9
100
AcDbPolyline
 90
        3
 70
     0
 43
0.0
 10
0.21875
 20
-1.231927696147859
 10
0.1643083897258504
 20
-1.245128763464421
 10
0.109375
 20
-1.261917397268308
  0
LINE
  5
A6
330
91
100
AcDbEntity
  8
AM_9
100
AcDbLine
 10
-0.1102697865189724
 20
-0.8661541240589365
 30
0.0
 11
-0.1352756931957516
 21
-0.8798955486503386
 31
0.0
  0
LINE
  5
A7
330
91
100
AcDbEntity
  8
AM_9
100
AcDbLine
 10
0.1352756931957516
 20
-0.8798955486503386
 30
0.0
 11
0.1102697865189724
 21
-0.8661541240589365
 31
0.0
  0
LINE
  5
A8
330
91
100
AcDbEntity
  8
AM_9
100
AcDbLine
 10
0.1093749999999999
 20
-1.342601351277867
 30
0.0
 11
0.1137355221265638
 21
-1.341101531237699
 31
0.0
  0
LINE
  5
A9
330
91
100
AcDbEntity
  8
AM_9
100
AcDbLine
 10
-0.1137351724058026
 20
-1.341101652529911
 30
0.0
 11
-0.1093749999999999
 21
-1.342601351277867
 31
0.0
  0
LINE
  5
AA
330
91
100
AcDbEntity
  8
AM_9
100
AcDbLine
 10
-0.1985656210060729
 20
-0.9631254629103326
 30
0.0
 11
-0.2056980234200464
 21
-1.147218582282205
 31
0.0
  0
LINE
  5
AB
330
91
100
AcDbEntity
  8
AM_9
100
AcDbLine
 10
0.2056980234200464
 20
-1.147218582282205
 30
0.0
 11
0.1985656210060729
 21
-0.9631254629103326
 31
0.0
  0
LINE
  5
AC
330
91
100
AcDbEntity
  8
AM_9
100
AcDbLine
 10
0.0996963055822003
 20
-1.334867497862333
 30
0.0
 11
0.105
 21
-1.32538697657095
 31
0.0
  0
LINE
  5
AD
330
91
100
AcDbEntity
  8
AM_9
100
AcDbLine
 10
-0.105
 20
-1.32538697657095
 30
0.0
 11
-0.0996963055822003
 21
-1.334867497862333
 31
0.0
  0
ELLIPSE
  5
AE
330
91
100
AcDbEntity
  8
AM_9
100
AcDbEllipse
 10
0.0000000000000006
 20
-1.315402105719598
 30
0.0
 11
-0.1050000000000007
 21
1.285879139104729E-17
 31
0.0
210
0.0
220
0.0
230
1.0
 40
0.5907706463072872
 41
0.0
 42
3.141592653589793
  0
LINE
  5
AF
330
91
100
AcDbEntity
  8
AM_9
100
AcDbLine
 10
-0.105
 20
-1.327844150917004
 30
0.0
 11
-0.105
 21
-1.339607291922466
 31
0.0
  0
LINE
  5
B0
330
91
100
AcDbEntity
  8
AM_9
100
AcDbLine
 10
0.105
 20
-1.339607291922466
 30
0.0
 11
0.105
 21
-1.327844150917004
 31
0.0
  0
ELLIPSE
  5
B1
330
91
100
AcDbEntity
  8
AM_9
100
AcDbEllipse
 10
0.0
 20
-1.339607291922467
 30
0.0
 11
-0.1049999999999999
 21
1.564621938212795E-9
 31
0.0
210
0.0
220
0.0
230
1.0
 40
0.5907706463072765
 41
5.908368916016226
 42
9.799594397977673
  0
ELLIPSE
  5
B2
330
91
100
AcDbEntity
  8
AM_9
100
AcDbEllipse
 10
-0.0000000000004642
 20
-1.230683954009324
 30
0.0
 11
-0.2187500000009036
 21
2.678914873145902E-17
 31
0.0
210
0.0
220
0.0
230
1.0
 40
0.5907706463064009
 41
1.023700388884492
 42
2.117892264708925
  0
ELLIPSE
  5
B3
330
91
100
AcDbEntity
  8
AM_9
100
AcDbEllipse
 10
-0.0000000000000009
 20
-1.289384049196806
 30
0.0
 11
-0.1188200907348991
 21
1.455126437928923E-17
 31
0.0
210
0.0
220
0.0
230
1.0
 40
0.5907706463073009
 41
0.319194082159413
 42
2.822398571430385
  0
LINE
  5
B4
330
91
100
AcDbEntity
  8
AM_9
100
AcDbLine
 10
0.0821480403272906
 20
-1.340100645758637
 30
0.0
 11
0.1046797734061416
 21
-1.327363282919452
 31
0.0
  0
LINE
  5
B5
330
91
100
AcDbEntity
  8
AM_9
100
AcDbLine
 10
-0.1046797734061412
 20
-1.327363282919452
 30
0.0
 11
-0.0821480403272906
 21
-1.340100645758637
 31
0.0
  0
ELLIPSE
  5
B6
330
91
100
AcDbEntity
  8
AM_9
100
AcDbEllipse
 10
0.0000000000000001
 20
-1.245463800895665
 30
0.0
 11
-0.1725340532830156
 21
2.112932760969640E-17
 31
0.0
210
0.0
220
0.0
230
1.0
 40
0.590770646307288
 41
0.8074198553644409
 42
2.334172798225353
  0
ELLIPSE
  5
B7
330
91
100
AcDbEntity
  8
AM_9
100
AcDbEllipse
 10
0.0000000000000004
 20
-1.230683954009565
 30
0.0
 11
-0.2137500000000006
 21
2.617682533177474E-17
 31
0.0
210
0.0
220
0.0
230
1.0
 40
0.5907706463072604
 41
1.019628655989597
 42
2.121963997600193
  0
ELLIPSE
  5
B8
330
91
100
AcDbEntity
  8
AM_9
100
AcDbEllipse
 10
-0.0000000000000011
 20
-1.388017664328201
 30
0.0
 11
-0.1350000000000012
 21
1.653273178848942E-17
 31
0.0
210
0.0
220
0.0
230
1.0
 40
0.5907706463072836
 41
0.3003236356623198
 42
2.84126901792748
  0
ELLIPSE
  5
B9
330
91
100
AcDbEntity
  8
AM_9
100
AcDbEllipse
 10
-0.0000000000000006
 20
-0.9361875218746678
 30
0.0
 11
-0.1619028724722694
 21
1.982738345459268E-17
 31
0.0
210
0.0
220
0.0
230
1.0
 40
0.5907706463072822
 41
0.0
 42
6.283185307179586
  0
ELLIPSE
  5
BA
330
91
100
AcDbEntity
  8
AM_9
100
AcDbEllipse
 10
0.0
 20
-1.150000000000002
 30
0.0
 11
-0.218750000000001
 21
3.259629037943339E-9
 31
0.0
210
0.0
220
0.0
230
1.0
 40
0.5907706463072823
 41
0.0
 42
6.283185307179586
  0
ELLIPSE
  5
BB
330
91
100
AcDbEntity
  8
AM_9
100
AcDbEllipse
 10
0.0000000000000006
 20
-1.150000000000002
 30
0.0
 11
-0.2057518972230691
 21
2.519734023527267E-17
 31
0.0
210
0.0
220
0.0
230
1.0
 40
0.5907706463072809
 41
0.0
 42
6.283185307179586
  0
ELLIPSE
  5
BC
330
91
100
AcDbEntity
  8
AM_9
100
AcDbEllipse
 10
-0.0000000000000003
 20
-0.9658104373560203
 30
0.0
 11
-0.198617626781216
 21
2.432364408918598E-17
 31
0.0
210
0.0
220
0.0
230
1.0
 40
0.5907706463072848
 41
0.0
 42
6.283185307179586
  0
LWPOLYLINE
  5
BE
330
91
100
AcDbEntity
  8
AM_4
100
AcDbPolyline
 90
        3
 70
     0
 43
0.0
 10
0.1137355221265638
 20
-1.341101531237699
 10
0.1640625
 20
-1.322017377481279
 10
0.21875
 20
-1.297979454219444
  0
LWPOLYLINE
  5
BF
330
91
100
AcDbEntity
  8
AM_4
100
AcDbPolyline
 90
        3
 70
     0
 43
0.0
 10
-0.21875
 20
-1.297979454219444
 10
-0.1643083897258504
 20
-1.321916449074179
 10
-0.1137351724058026
 20
-1.341101652529911
  0
LINE
  5
C0
330
91
100
AcDbEntity
  8
AM_4
100
AcDbLine
 10
0.105
 20
-1.32538697657095
 30
0.0
 11
0.11281832452582
 21
-1.311411474535762
 31
0.0
  0
LINE
  5
C1
330
91
100
AcDbEntity
  8
AM_4
100
AcDbLine
 10
-0.11281832452582
 20
-1.311411474535762
 30
0.0
 11
-0.105
 21
-1.32538697657095
 31
0.0
  0
ELLIPSE
  5
C2
330
91
100
AcDbEntity
  8
AM_4
100
AcDbEllipse
 10
0.0
 20
-1.289384049196809
 30
0.0
 11
-0.1188200907348976
 21
1.455126437928904E-17
 31
0.0
210
0.0
220
0.0
230
1.0
 40
0.5907706463072844
 41
2.822398571430413
 42
6.602379389338967
  0
LINE
  5
C3
330
91
100
AcDbEntity
  8
AM_4
100
AcDbLine
 10
-0.105
 20
-1.315402105719598
 30
0.0
 11
-0.105
 21
-1.327844150917004
 31
0.0
  0
LINE
  5
C4
330
91
100
AcDbEntity
  8
AM_4
100
AcDbLine
 10
0.105
 20
-1.327844150917004
 30
0.0
 11
0.105
 21
-1.315402105719598
 31
0.0
  0
ELLIPSE
  5
C5
330
91
100
AcDbEntity
  8
AM_4
100
AcDbEllipse
 10
0.0
 20
-1.315402105719599
 30
0.0
 11
-0.1049999999999997
 21
1.285879139104717E-17
 31
0.0
210
0.0
220
0.0
230
1.0
 40
0.5907706463072864
 41
3.141592653589793
 42
6.283185307179586
  0
ELLIPSE
  5
C6
330
91
100
AcDbEntity
  8
AM_4
100
AcDbEllipse
 10
0.0
 20
-1.230683954009561
 30
0.0
 11
-0.2187500000000001
 21
3.259629037943325E-9
 31
0.0
210
0.0
220
0.0
230
1.0
 40
0.590770646307283
 41
2.117892277955468
 42
7.306885709307382
  0
LINE
  5
C7
330
91
100
AcDbEntity
  8
AM_4
100
AcDbLine
 10
0.105
 20
-1.327182256351169
 30
0.0
 11
0.1192839887536068
 21
-1.319107407119252
 31
0.0
  0
LINE
  5
C8
330
91
100
AcDbEntity
  8
AM_4
100
AcDbLine
 10
-0.1192839887536068
 20
-1.319107407119252
 30
0.0
 11
-0.105
 21
-1.327182256351169
 31
0.0
  0
ELLIPSE
  5
C9
330
91
100
AcDbEntity
  8
AM_4
100
AcDbEllipse
 10
0.0
 20
-1.245463800895666
 30
0.0
 11
-0.1725340532830149
 21
2.112932760969631E-17
 31
0.0
210
0.0
220
0.0
230
1.0
 40
0.5907706463072852
 41
2.334172798225358
 42
7.090605162544023
  0
ELLIPSE
  5
CA
330
91
100
AcDbEntity
  8
AM_4
100
AcDbEllipse
 10
0.0
 20
-1.230683954009561
 30
0.0
 11
-0.2137499999999999
 21
2.617682533177467E-17
 31
0.0
210
0.0
220
0.0
230
1.0
 40
0.5907706463072828
 41
2.121963997600195
 42
7.302813963169184
  0
LINE
  5
CB
330
91
100
AcDbEntity
  8
AM_4
100
AcDbLine
 10
-0.21875
 20
-1.297979454219444
 30
0.0
 11
-0.21875
 21
-1.082704499790117
 31
0.0
  0
LWPOLYLINE
  5
CC
330
91
100
AcDbEntity
  8
AM_4
100
AcDbPolyline
 90
        3
 70
     0
 43
0.0
 10
-0.109375
 20
-1.118766556741254
 10
-0.1640625
 20
-1.135488382034101
 10
-0.21875
 20
-1.148756257861702
  0
LWPOLYLINE
  5
CD
330
91
100
AcDbEntity
  8
AM_4
100
AcDbPolyline
 90
        3
 70
     0
 43
0.0
 10
-0.109375
 20
-1.038082602731694
 10
-0.0546875
 20
-1.021360777438848
 10
0.0
 20
-1.008092901611246
  0
LWPOLYLINE
  5
CE
330
91
100
AcDbEntity
  8
AM_4
100
AcDbPolyline
 90
        3
 70
     0
 43
0.0
 10
-0.21875
 20
-1.082704499790117
 10
-0.1643083897258504
 20
-1.058767504935382
 10
-0.109375
 20
-1.038082602731694
  0
LINE
  5
CF
330
91
100
AcDbEntity
  8
AM_4
100
AcDbLine
 10
0.0
 20
-1.074144659682831
 30
0.0
 11
0.0
 21
-1.008092901611246
 31
0.0
  0
LWPOLYLINE
  5
D0
330
91
100
AcDbEntity
  8
AM_4
100
AcDbPolyline
 90
        3
 70
     0
 43
0.0
 10
0.21875
 20
-1.148756257861702
 10
0.1643083897258504
 20
-1.135555190545141
 10
0.1093749999999999
 20
-1.118766556741254
  0
LINE
  5
D1
330
91
100
AcDbEntity
  8
AM_4
100
AcDbLine
 10
0.21875
 20
-1.297979454219444
 30
0.0
 11
0.21875
 21
-1.082704499790117
 31
0.0
  0
LWPOLYLINE
  5
D2
330
91
100
AcDbEntity
  8
AM_4
100
AcDbPolyline
 90
        3
 70
     0
 43
0.0
 10
0.109375
 20
-1.038082602731694
 10
0.1640625
 20
-1.058666576528283
 10
0.21875
 20
-1.082704499790117
  0
LWPOLYLINE
  5
D3
330
91
100
AcDbEntity
  8
AM_4
100
AcDbPolyline
 90
        3
 70
     0
 43
0.0
 10
0.0
 20
-1.008092901611246
 10
0.0544416102741496
 20
-1.021293968927808
 10
0.109375
 20
-1.038082602731694
  0
LWPOLYLINE
  5
D4
330
91
100
AcDbEntity
  8
AM_4
100
AcDbPolyline
 90
        3
 70
     0
 43
0.0
 10
0.1093749999999999
 20
-1.118766556741254
 10
0.0546874999999999
 20
-1.098182582944665
 10
0.0
 20
-1.074144659682831
  0
LWPOLYLINE
  5
D5
330
91
100
AcDbEntity
  8
AM_4
100
AcDbPolyline
 90
        3
 70
     0
 43
0.0
 10
0.0
 20
-1.074144659682831
 10
-0.0544416102741496
 20
-1.098081654537566
 10
-0.109375
 20
-1.118766556741254
  0
LINE
  5
D6
330
91
100
AcDbEntity
  8
AM_4
100
AcDbLine
 10
-0.0977103591105184
 20
-1.316897667755942
 30
0.0
 11
-0.1256276045706665
 21
-1.3588195761141
 31
0.0
  0
LINE
  5
D7
330
91
100
AcDbEntity
  8
AM_4
100
AcDbLine
 10
0.1256276045706665
 20
-1.3588195761141
 30
0.0
 11
0.0977103591105184
 21
-1.316897667755942
 31
0.0
  0
ELLIPSE
  5
D8
330
91
100
AcDbEntity
  8
AM_4
100
AcDbEllipse
 10
0.0
 20
-1.388017664328203
 30
0.0
 11
-0.1349999999999997
 21
1.653273178848923E-17
 31
0.0
210
0.0
220
0.0
230
1.0
 40
0.5907706463072887
 41
2.841269017927499
 42
6.583508942841881
  0
ELLIPSE
  5
D9
330
91
100
AcDbEntity
  8
AM_4
100
AcDbEllipse
 10
0.0
 20
-1.339607291922467
 30
0.0
 11
-0.1050000000000005
 21
1.285879139104727E-17
 31
0.0
210
0.0
220
0.0
230
1.0
 40
0.5907706463072879
 41
3.516409067775612
 42
5.908368892993763
  0
LINE
  5
DA
330
91
100
AcDbEntity
  8
AM_4
100
AcDbLine
 10
0.0980821210020564
 20
-1.470509568188882
 30
0.0
 11
0.1289575077594943
 21
-1.411611251093694
 31
0.0
  0
LINE
  5
DB
330
91
100
AcDbEntity
  8
AM_4
100
AcDbLine
 10
-0.1289575077594943
 20
-1.411611251093694
 30
0.0
 11
-0.0980821210020564
 21
-1.470509568188882
 31
0.0
  0
ELLIPSE
  5
DC
330
91
100
AcDbEntity
  8
AM_4
100
AcDbEllipse
 10
-0.0000000000000007
 20
-1.452564827535848
 30
0.0
 11
-0.1026779019331881
 21
1.257441639456446E-17
 31
0.0
210
0.0
220
0.0
230
1.0
 40
0.5907706463072919
 41
0.0
 42
6.283185307179586
  0
ENDBLK
  5
94
330
91
100
AcDbEntity
  8
0
100
AcDbBlockEnd
  0
BLOCK
  5
DF
330
DD
100
AcDbEntity
  8
0
100
AcDbBlockBegin
  2
3_ASME_B18_3_1_4_1_0_in_072298_4
 70
     2
 10
0.0
 20
0.0
 30
0.0
  3
3_ASME_B18_3_1_4_1_0_in_072298_4
  1

  0
ATTDEF
  5
E1
330
DD
100
AcDbEntity
  8
AM_6
100
AcDbText
 10
5.125
 20
-1.518000333333333
 30
0.0
 40
0.5
  1
ANSI/ASME-B18.3-1998
100
AcDbAttributeDefinition
  3

  2
NN
 70
     8
280
     0
  0
ATTDEF
  5
E2
330
DD
100
AcDbEntity
  8
AM_6
100
AcDbText
 10
5.125
 20
-2.018000333333333
 30
0.0
 40
0.5
  1
Socket Button Head Cap Screws
100
AcDbAttributeDefinition
  3

  2
NT
 70
     8
280
     0
  0
ATTDEF
  5
E3
330
DD
100
AcDbEntity
  8
AM_6
100
AcDbText
 10
5.125
 20
-2.518000333333333
 30
0.0
 40
0.5
  1
ASME-B18.3-1/4
100
AcDbAttributeDefinition
  3

  2
NB
 70
     8
280
     0
  0
ATTDEF
  5
E4
330
DD
100
AcDbEntity
  8
AM_6
100
AcDbText
 10
5.125
 20
-3.018000333333333
 30
0.0
 40
0.5
  1
ASME-B18.3-$NS.
100
AcDbAttributeDefinition
  3

  2
NBSYN
 70
     8
280
     0
  0
ATTDEF
  5
E5
330
DD
100
AcDbEntity
  8
AM_6
100
AcDbText
 10
5.125
 20
-3.518000333333333
 30
0.0
 40
0.5
  1
ASME-B18.3-1/4
100
AcDbAttributeDefinition
  3

  2
LINA
 70
     8
280
     0
  0
ATTDEF
  5
E6
330
DD
100
AcDbEntity
  8
AM_6
100
AcDbText
 10
5.125
 20
-4.018000333333333
 30
0.0
 40
0.5
  1
1/4
100
AcDbAttributeDefinition
  3

  2
NS
 70
     8
280
     0
  0
ATTDEF
  5
E7
330
DD
100
AcDbEntity
  8
AM_6
100
AcDbText
 10
5.125
 20
-4.518000333333333
 30
0.0
 40
0.5
  1
0.437
100
AcDbAttributeDefinition
  3

  2
A
 70
     8
280
     0
  0
ATTDEF
  5
E8
330
DD
100
AcDbEntity
  8
AM_6
100
AcDbText
 10
5.125
 20
-5.018000333333333
 30
0.0
 40
0.5
  1
0.132
100
AcDbAttributeDefinition
  3

  2
H
 70
     8
280
     0
  0
ATTDEF
  5
E9
330
DD
100
AcDbEntity
  8
AM_6
100
AcDbText
 10
5.125
 20
-5.518000333333333
 30
0.0
 40
0.5
  1
0.800
100
AcDbAttributeDefinition
  3

  2
L
 70
     8
280
     0
  0
ATTDEF
  5
EA
330
DD
100
AcDbEntity
  8
AM_6
100
AcDbText
 10
5.125
 20
-6.018000333333333
 30
0.0
 40
0.5
  1
0.031
100
AcDbAttributeDefinition
  3

  2
S
 70
     8
280
     0
  0
ATTDEF
  5
EB
330
DD
100
AcDbEntity
  8
AM_6
100
AcDbText
 10
5.125
 20
-6.518000333333333
 30
0.0
 40
0.5
  1
0.156250
100
AcDbAttributeDefinition
  3

  2
J
 70
     8
280
     0
  0
ATTDEF
  5
EC
330
DD
100
AcDbEntity
  8
AM_6
100
AcDbText
 10
5.125
 20
-7.018000333333333
 30
0.0
 40
0.5
  1
baldor
100
AcDbAttributeDefinition
  3

  2
COMPANY
 70
     8
280
     0
  0
LINE
  5
EE
330
DD
100
AcDbEntity
  8
AM_5
100
AcDbLine
 10
0.09525
 20
-1.518000333333333
 30
0.0
 11
0.0952500000000001
 21
-2.450000333333334
 31
0.0
  0
LINE
  5
EF
330
DD
100
AcDbEntity
  8
AM_5
100
AcDbLine
 10
-0.09525
 20
-1.518000333333333
 30
0.0
 11
-0.0952500000000001
 21
-2.450000333333334
 31
0.0
  0
LINE
  5
F0
330
DD
100
AcDbEntity
  8
AM_5
100
AcDbLine
 10
0.1250000000000001
 20
-2.618000333333333
 30
0.0
 11
-0.1250000000000001
 21
-2.618000333333333
 31
0.0
  0
ENDBLK
  5
E0
330
DD
100
AcDbEntity
  8
0
100
AcDbBlockEnd
  0
BLOCK
  5
F3
330
F1
100
AcDbEntity
  8
0
100
AcDbBlockBegin
  2
4_ASME_B18_3_1_4_2_0_in_072298_4
 70
     2
 10
0.0
 20
0.0
 30
0.0
  3
4_ASME_B18_3_1_4_2_0_in_072298_4
  1

  0
ATTDEF
  5
F5
330
F1
100
AcDbEntity
  8
AM_6
100
AcDbText
 10
5.218500000000001
 20
-1.518000333333333
 30
0.0
 40
0.5
  1
ANSI/ASME-B18.3-1998
100
AcDbAttributeDefinition
  3

  2
NN
 70
     8
280
     0
  0
ATTDEF
  5
F6
330
F1
100
AcDbEntity
  8
AM_6
100
AcDbText
 10
5.218500000000001
 20
-2.018000333333333
 30
0.0
 40
0.5
  1
Socket Button Head Cap Screws
100
AcDbAttributeDefinition
  3

  2
NT
 70
     8
280
     0
  0
ATTDEF
  5
F7
330
F1
100
AcDbEntity
  8
AM_6
100
AcDbText
 10
5.218500000000001
 20
-2.518000333333333
 30
0.0
 40
0.5
  1
ASME-B18.3-1/4
100
AcDbAttributeDefinition
  3

  2
NB
 70
     8
280
     0
  0
ATTDEF
  5
F8
330
F1
100
AcDbEntity
  8
AM_6
100
AcDbText
 10
5.218500000000001
 20
-3.018000333333333
 30
0.0
 40
0.5
  1
ASME-B18.3-$NS.
100
AcDbAttributeDefinition
  3

  2
NBSYN
 70
     8
280
     0
  0
ATTDEF
  5
F9
330
F1
100
AcDbEntity
  8
AM_6
100
AcDbText
 10
5.218500000000001
 20
-3.518000333333333
 30
0.0
 40
0.5
  1
ASME-B18.3-1/4
100
AcDbAttributeDefinition
  3

  2
LINA
 70
     8
280
     0
  0
ATTDEF
  5
FA
330
F1
100
AcDbEntity
  8
AM_6
100
AcDbText
 10
5.218500000000001
 20
-4.018000333333333
 30
0.0
 40
0.5
  1
1/4
100
AcDbAttributeDefinition
  3

  2
NS
 70
     8
280
     0
  0
ATTDEF
  5
FB
330
F1
100
AcDbEntity
  8
AM_6
100
AcDbText
 10
5.218500000000001
 20
-4.518000333333333
 30
0.0
 40
0.5
  1
0.437
100
AcDbAttributeDefinition
  3

  2
A
 70
     8
280
     0
  0
ATTDEF
  5
FC
330
F1
100
AcDbEntity
  8
AM_6
100
AcDbText
 10
5.218500000000001
 20
-5.018000333333333
 30
0.0
 40
0.5
  1
0.132
100
AcDbAttributeDefinition
  3

  2
H
 70
     8
280
     0
  0
ATTDEF
  5
FD
330
F1
100
AcDbEntity
  8
AM_6
100
AcDbText
 10
5.218500000000001
 20
-5.518000333333333
 30
0.0
 40
0.5
  1
0.800
100
AcDbAttributeDefinition
  3

  2
L
 70
     8
280
     0
  0
ATTDEF
  5
FE
330
F1
100
AcDbEntity
  8
AM_6
100
AcDbText
 10
5.218500000000001
 20
-6.018000333333333
 30
0.0
 40
0.5
  1
0.031
100
AcDbAttributeDefinition
  3

  2
S
 70
     8
280
     0
  0
ATTDEF
  5
FF
330
F1
100
AcDbEntity
  8
AM_6
100
AcDbText
 10
5.218500000000001
 20
-6.518000333333333
 30
0.0
 40
0.5
  1
0.156250
100
AcDbAttributeDefinition
  3

  2
J
 70
     8
280
     0
  0
ATTDEF
  5
100
330
F1
100
AcDbEntity
  8
AM_6
100
AcDbText
 10
5.218500000000001
 20
-7.018000333333333
 30
0.0
 40
0.5
  1
baldor
100
AcDbAttributeDefinition
  3

  2
COMPANY
 70
     8
280
     0
  0
LINE
  5
101
330
F1
100
AcDbEntity
  8
AM_9
100
AcDbLine
 10
-0.078125
 20
-2.380000333333333
 30
0.0
 11
-0.078125
 21
-2.450000333333334
 31
0.0
  0
LINE
  5
102
330
F1
100
AcDbEntity
  8
AM_9
100
AcDbLine
 10
0.078125
 20
-2.380000333333333
 30
0.0
 11
0.078125
 21
-2.450000333333334
 31
0.0
  0
LINE
  5
103
330
F1
100
AcDbEntity
  8
AM_9
100
AcDbLine
 10
-0.078125
 20
-2.380000333333333
 30
0.0
 11
0.078125
 21
-2.380000333333333
 31
0.0
  0
LINE
  5
104
330
F1
100
AcDbEntity
  8
AM_9
100
AcDbLine
 10
0.0
 20
-2.380000333333333
 30
0.0
 11
0.0
 21
-2.450000333333334
 31
0.0
  0
LINE
  5
105
330
F1
100
AcDbEntity
  8
AM_9
100
AcDbLine
 10
-0.09525
 20
-1.518000333333333
 30
0.0
 11
-0.125
 21
-1.547750333333333
 31
0.0
  0
LINE
  5
106
330
F1
100
AcDbEntity
  8
AM_9
100
AcDbLine
 10
0.125
 20
-1.547750333333333
 30
0.0
 11
0.09525
 21
-1.518000333333333
 31
0.0
  0
LINE
  5
107
330
F1
100
AcDbEntity
  8
AM_9
100
AcDbLine
 10
-0.09525
 20
-1.518000333333333
 30
0.0
 11
0.09525
 21
-1.518000333333333
 31
0.0
  0
LINE
  5
108
330
F1
100
AcDbEntity
  8
AM_9
100
AcDbLine
 10
0.125
 20
-2.202833333333333
 30
0.0
 11
0.125
 21
-1.547750333333333
 31
0.0
  0
LINE
  5
109
330
F1
100
AcDbEntity
  8
AM_9
100
AcDbLine
 10
-0.125
 20
-1.547750333333333
 30
0.0
 11
-0.125
 21
-2.202833333333333
 31
0.0
  0
LINE
  5
10A
330
F1
100
AcDbEntity
  8
AM_9
100
AcDbLine
 10
-0.125
 20
-1.547750333333333
 30
0.0
 11
0.125
 21
-1.547750333333333
 31
0.0
  0
LINE
  5
10B
330
F1
100
AcDbEntity
  8
AM_5
100
AcDbLine
 10
0.09525
 20
-1.518000333333333
 30
0.0
 11
0.09525
 21
-2.202833333333333
 31
0.0
  0
LINE
  5
10C
330
F1
100
AcDbEntity
  8
AM_5
100
AcDbLine
 10
-0.09525
 20
-1.518000333333333
 30
0.0
 11
-0.09525
 21
-2.202833333333333
 31
0.0
  0
LINE
  5
10D
330
F1
100
AcDbEntity
  8
AM_4
100
AcDbLine
 10
0.125
 20
-2.318000333333333
 30
0.0
 11
0.125
 21
-2.202833333333333
 31
0.0
  0
LINE
  5
10E
330
F1
100
AcDbEntity
  8
AM_4
100
AcDbLine
 10
-0.125
 20
-2.202833333333333
 30
0.0
 11
-0.125
 21
-2.318000333333333
 31
0.0
  0
LINE
  5
10F
330
F1
100
AcDbEntity
  8
AM_4
100
AcDbLine
 10
-0.1174999953448325
 20
-2.450000333333334
 30
0.0
 11
0.1175
 21
-2.450000333333334
 31
0.0
  0
ARC
  5
110
330
F1
100
AcDbEntity
  8
AM_4
100
AcDbCircle
 10
0.1174999999999997
 20
-2.349000333333333
 30
0.0
 40
0.1010000000000004
100
AcDbArc
 50
270.0
 51
0.0
  0
ARC
  5
111
330
F1
100
AcDbEntity
  8
AM_4
100
AcDbCircle
 10
-0.1174999999999998
 20
-2.349000333333333
 30
0.0
 40
0.1010000000000003
100
AcDbArc
 50
180.0
 51
270.0
  0
LINE
  5
112
330
F1
100
AcDbEntity
  8
AM_4
100
AcDbLine
 10
0.2185
 20
-2.349000333333333
 30
0.0
 11
0.2185
 21
-2.318000333333333
 31
0.0
  0
LINE
  5
113
330
F1
100
AcDbEntity
  8
AM_4
100
AcDbLine
 10
-0.2185
 20
-2.318000333333333
 30
0.0
 11
-0.2185
 21
-2.349000333333333
 31
0.0
  0
LINE
  5
114
330
F1
100
AcDbEntity
  8
AM_4
100
AcDbLine
 10
-0.2185
 20
-2.318000333333333
 30
0.0
 11
0.2185
 21
-2.318000333333333
 31
0.0
  0
LINE
  5
115
330
F1
100
AcDbEntity
  8
AM_4
100
AcDbLine
 10
-0.2185
 20
-2.349000333333333
 30
0.0
 11
0.2185
 21
-2.349000333333333
 31
0.0
  0
LINE
  5
116
330
F1
100
AcDbEntity
  8
AM_5
100
AcDbLine
 10
0.09525
 20
-2.202833333333333
 30
0.0
 11
0.0952500000000001
 21
-2.450000333333334
 31
0.0
  0
LINE
  5
117
330
F1
100
AcDbEntity
  8
AM_5
100
AcDbLine
 10
0.1250000000000001
 20
-2.618000333333333
 30
0.0
 11
-0.1250000000000001
 21
-2.618000333333333
 31
0.0
  0
LINE
  5
118
330
F1
100
AcDbEntity
  8
AM_5
100
AcDbLine
 10
-0.09525
 20
-2.202833333333333
 30
0.0
 11
-0.0952500000000001
 21
-2.450000333333334
 31
0.0
  0
ENDBLK
  5
F4
330
F1
100
AcDbEntity
  8
0
100
AcDbBlockEnd
  0
BLOCK
  5
11B
330
119
100
AcDbEntity
  8
0
100
AcDbBlockBegin
  2
5_070903LW_0_in_072298_4
 70
     2
 10
0.0
 20
0.0
 30
0.0
  3
5_070903LW_0_in_072298_4
  1

  0
ATTDEF
  5
11D
330
119
100
AcDbEntity
  8
AM_6
100
AcDbText
 10
7.5
 20
-1.762833333333333
 30
0.0
 40
0.5
  1
Imperial Insert Lockwasher -Inch
100
AcDbAttributeDefinition
  3

  2
NN
 70
     8
280
     0
  0
ATTDEF
  5
11E
330
119
100
AcDbEntity
  8
AM_6
100
AcDbText
 10
7.5
 20
-2.262833333333333
 30
0.0
 40
0.5
  1
Imperial Bearings
100
AcDbAttributeDefinition
  3

  2
NT
 70
     8
280
     0
  0
ATTDEF
  5
11F
330
119
100
AcDbEntity
  8
AM_6
100
AcDbText
 10
7.5
 20
-2.762833333333333
 30
0.0
 40
0.5
  1
070903LW
100
AcDbAttributeDefinition
  3

  2
NB
 70
     8
280
     0
  0
ATTDEF
  5
120
330
119
100
AcDbEntity
  8
AM_6
100
AcDbText
 10
7.5
 20
-3.262833333333333
 30
0.0
 40
0.5
  1
$PN.LW
100
AcDbAttributeDefinition
  3

  2
NBSYN
 70
     8
280
     0
  0
ATTDEF
  5
121
330
119
100
AcDbEntity
  8
AM_6
100
AcDbText
 10
7.5
 20
-3.762833333333333
 30
0.0
 40
0.5
  1
070903
100
AcDbAttributeDefinition
  3

  2
LINA
 70
     8
280
     0
  0
ATTDEF
  5
122
330
119
100
AcDbEntity
  8
AM_6
100
AcDbText
 10
7.5
 20
-4.262833333333333
 30
0.0
 40
0.5
  1
3-7/16
100
AcDbAttributeDefinition
  3

  2
SS
 70
     8
280
     0
  0
ATTDEF
  5
123
330
119
100
AcDbEntity
  8
AM_6
100
AcDbText
 10
7.5
 20
-4.762833333333333
 30
0.0
 40
0.5
  1
3.437500
100
AcDbAttributeDefinition
  3

  2
SS1
 70
     8
280
     0
  0
ATTDEF
  5
124
330
119
100
AcDbEntity
  8
AM_6
100
AcDbText
 10
7.5
 20
-5.262833333333333
 30
0.0
 40
0.5
  1
070903
100
AcDbAttributeDefinition
  3

  2
PN
 70
     8
280
     0
  0
ATTDEF
  5
125
330
119
100
AcDbEntity
  8
AM_6
100
AcDbText
 10
7.5
 20
-5.762833333333333
 30
0.0
 40
0.5
  1
INS-IP-307R
100
AcDbAttributeDefinition
  3

  2
DESCRIPTION
 70
     8
280
     0
  0
ATTDEF
  5
126
330
119
100
AcDbEntity
  8
AM_6
100
AcDbText
 10
7.5
 20
-6.262833333333333
 30
0.0
 40
0.5
  1
6.2992
100
AcDbAttributeDefinition
  3

  2
A
 70
     8
280
     0
  0
ATTDEF
  5
127
330
119
100
AcDbEntity
  8
AM_6
100
AcDbText
 10
7.5
 20
-6.762833333333333
 30
0.0
 40
0.5
  1
1-5/8
100
AcDbAttributeDefinition
  3

  2
B
 70
     8
280
     0
  0
ATTDEF
  5
128
330
119
100
AcDbEntity
  8
AM_6
100
AcDbText
 10
7.5
 20
-7.262833333333333
 30
0.0
 40
0.5
  1
4-11/64
100
AcDbAttributeDefinition
  3

  2
C
 70
     8
280
     0
  0
ATTDEF
  5
129
330
119
100
AcDbEntity
  8
AM_6
100
AcDbText
 10
7.5
 20
-7.762833333333333
 30
0.0
 40
0.5
  1
1.483
100
AcDbAttributeDefinition
  3

  2
D
 70
     8
280
     0
  0
ATTDEF
  5
12A
330
119
100
AcDbEntity
  8
AM_6
100
AcDbText
 10
7.5
 20
-8.262833333333333
 30
0.0
 40
0.5
  1
5
100
AcDbAttributeDefinition
  3

  2
E
 70
     8
280
     0
  0
ATTDEF
  5
12B
330
119
100
AcDbEntity
  8
AM_6
100
AcDbText
 10
7.5
 20
-8.762833333333333
 30
0.0
 40
0.5
  1
0.2500
100
AcDbAttributeDefinition
  3

  2
NDM
 70
     8
280
     0
  0
ATTDEF
  5
12C
330
119
100
AcDbEntity
  8
AM_6
100
AcDbText
 10
7.5
 20
-9.262833333333333
 30
0.0
 40
0.5
  1
0.1960
100
AcDbAttributeDefinition
  3

  2
KDM
 70
     8
280
     0
  0
ATTDEF
  5
12D
330
119
100
AcDbEntity
  8
AM_6
100
AcDbText
 10
7.5
 20
-9.762833333333333
 30
0.0
 40
0.5
  1
4.28
100
AcDbAttributeDefinition
  3

  2
AL
 70
     8
280
     0
  0
ATTDEF
  5
12E
330
119
100
AcDbEntity
  8
AM_6
100
AcDbText
 10
7.5
 20
-10.26283333333333
 30
0.0
 40
0.5
  1
0.50
100
AcDbAttributeDefinition
  3

  2
BL
 70
     8
280
     0
  0
ATTDEF
  5
12F
330
119
100
AcDbEntity
  8
AM_6
100
AcDbText
 10
7.5
 20
-10.76283333333333
 30
0.0
 40
0.5
  1
0.07
100
AcDbAttributeDefinition
  3

  2
CL
 70
     8
280
     0
  0
ATTDEF
  5
130
330
119
100
AcDbEntity
  8
AM_6
100
AcDbText
 10
7.5
 20
-11.26283333333333
 30
0.0
 40
0.5
  1
0.44
100
AcDbAttributeDefinition
  3

  2
DL
 70
     8
280
     0
  0
ATTDEF
  5
131
330
119
100
AcDbEntity
  8
AM_6
100
AcDbText
 10
7.5
 20
-11.76283333333333
 30
0.0
 40
0.5
  1
baldor
100
AcDbAttributeDefinition
  3

  2
COMPANY
 70
     8
280
     0
  0
LINE
  5
132
330
119
100
AcDbEntity
  8
AM_9
100
AcDbLine
 10
-2.204861111111111
 20
-2.132833333333333
 30
0.0
 11
-2.204861111111111
 21
-2.202833333333333
 31
0.0
  0
LINE
  5
133
330
119
100
AcDbEntity
  8
AM_9
100
AcDbLine
 10
-2.329911401963232
 20
-2.132833333333333
 30
0.0
 11
-2.329911401963232
 21
-2.202833333333333
 31
0.0
  0
LINE
  5
134
330
119
100
AcDbEntity
  8
AM_9
100
AcDbLine
 10
2.204861111111111
 20
-2.132833333333333
 30
0.0
 11
2.204861111111111
 21
-2.202833333333333
 31
0.0
  0
LINE
  5
135
330
119
100
AcDbEntity
  8
AM_9
100
AcDbLine
 10
2.329911401963232
 20
-2.202833333333333
 30
0.0
 11
2.329911401963232
 21
-2.132833333333333
 31
0.0
  0
LINE
  5
136
330
119
100
AcDbEntity
  8
AM_9
100
AcDbLine
 10
-1.853898794815158
 20
-2.132833333333333
 30
0.0
 11
-1.853898794815158
 21
-2.202833333333333
 31
0.0
  0
LINE
  5
137
330
119
100
AcDbEntity
  8
AM_9
100
AcDbLine
 10
1.853898794815157
 20
-2.132833333333333
 30
0.0
 11
1.853898794815157
 21
-2.202833333333333
 31
0.0
  0
LINE
  5
138
330
119
100
AcDbEntity
  8
AM_9
100
AcDbLine
 10
-1.399292757095684
 20
-2.132833333333333
 30
0.0
 11
-1.399292757095684
 21
-2.202833333333333
 31
0.0
  0
LINE
  5
139
330
119
100
AcDbEntity
  8
AM_9
100
AcDbLine
 10
1.399292757095684
 20
-2.132833333333333
 30
0.0
 11
1.399292757095684
 21
-2.202833333333333
 31
0.0
  0
LINE
  5
13A
330
119
100
AcDbEntity
  8
AM_9
100
AcDbLine
 10
-1.222516061799047
 20
-2.132833333333333
 30
0.0
 11
-1.222516061799047
 21
-2.202833333333333
 31
0.0
  0
LINE
  5
13B
330
119
100
AcDbEntity
  8
AM_9
100
AcDbLine
 10
1.222516061799047
 20
-2.132833333333333
 30
0.0
 11
1.222516061799046
 21
-2.202833333333333
 31
0.0
  0
LINE
  5
13C
330
119
100
AcDbEntity
  8
AM_9
100
AcDbLine
 10
-0.8249412956212792
 20
-2.132833333333333
 30
0.0
 11
-0.8249412956212792
 21
-2.202833333333333
 31
0.0
  0
LINE
  5
13D
330
119
100
AcDbEntity
  8
AM_9
100
AcDbLine
 10
-0.7714803145653194
 20
-1.762833333333333
 30
0.0
 11
-0.7714803145653194
 21
-2.202833333333333
 31
0.0
  0
LINE
  5
13E
330
119
100
AcDbEntity
  8
AM_9
100
AcDbLine
 10
-1.647460590889491
 20
-2.132833333333333
 30
0.0
 11
-1.647460590889491
 21
-2.202833333333333
 31
0.0
  0
LINE
  5
13F
330
119
100
AcDbEntity
  8
AM_9
100
AcDbLine
 10
-1.470683895592834
 20
-2.132833333333333
 30
0.0
 11
-1.470683895592834
 21
-2.202833333333333
 31
0.0
  0
LINE
  5
140
330
119
100
AcDbEntity
  8
AM_9
100
AcDbLine
 10
-1.684107807205654
 20
-2.132833333333333
 30
0.0
 11
-1.684107807205654
 21
-2.202833333333333
 31
0.0
  0
LINE
  5
141
330
119
100
AcDbEntity
  8
AM_9
100
AcDbLine
 10
1.470683895592854
 20
-2.132833333333333
 30
0.0
 11
1.470683895592854
 21
-2.202833333333333
 31
0.0
  0
LINE
  5
142
330
119
100
AcDbEntity
  8
AM_9
100
AcDbLine
 10
1.647460590889491
 20
-2.132833333333333
 30
0.0
 11
1.647460590889491
 21
-2.202833333333333
 31
0.0
  0
LINE
  5
143
330
119
100
AcDbEntity
  8
AM_9
100
AcDbLine
 10
1.684107807205653
 20
-2.202833333333333
 30
0.0
 11
1.684107807205653
 21
-2.132833333333333
 31
0.0
  0
LINE
  5
144
330
119
100
AcDbEntity
  8
AM_9
100
AcDbLine
 10
-0.5939714124934569
 20
-2.132833333333333
 30
0.0
 11
-0.5939714124934569
 21
-2.202833333333333
 31
0.0
  0
LINE
  5
145
330
119
100
AcDbEntity
  8
AM_9
100
AcDbLine
 10
-0.5405104314374974
 20
-1.762833333333333
 30
0.0
 11
-0.8061853622143779
 21
-1.762833333333333
 31
0.0
  0
LINE
  5
146
330
119
100
AcDbEntity
  8
AM_9
100
AcDbLine
 10
-0.5405104314374974
 20
-1.762833333333333
 30
0.0
 11
-0.5405104314374974
 21
-2.202833333333333
 31
0.0
  0
LINE
  5
147
330
119
100
AcDbEntity
  8
AM_9
100
AcDbLine
 10
-0.5752154790865559
 20
-2.132833333333333
 30
0.0
 11
-0.5752154790865559
 21
-1.762833333333333
 31
0.0
  0
LINE
  5
148
330
119
100
AcDbEntity
  8
AM_9
100
AcDbLine
 10
-0.8061853622143779
 20
-1.762833333333333
 30
0.0
 11
-0.8061853622143779
 21
-2.132833333333333
 31
0.0
  0
LINE
  5
149
330
119
100
AcDbEntity
  8
AM_9
100
AcDbLine
 10
-0.1250000000000004
 20
-2.132833333333333
 30
0.0
 11
-0.1250000000000004
 21
-2.202833333333333
 31
0.0
  0
LINE
  5
14A
330
119
100
AcDbEntity
  8
AM_9
100
AcDbLine
 10
0.1249999999999998
 20
-2.132833333333333
 30
0.0
 11
0.1249999999999998
 21
-2.202833333333333
 31
0.0
  0
LINE
  5
14B
330
119
100
AcDbEntity
  8
AM_4
100
AcDbLine
 10
-2.5
 20
-2.132833333333333
 30
0.0
 11
-2.5
 21
-2.202833333333333
 31
0.0
  0
LINE
  5
14C
330
119
100
AcDbEntity
  8
AM_4
100
AcDbLine
 10
2.5
 20
-2.202833333333333
 30
0.0
 11
2.5
 21
-2.132833333333333
 31
0.0
  0
LINE
  5
14D
330
119
100
AcDbEntity
  8
AM_4
100
AcDbLine
 10
-2.5
 20
-2.202833333333333
 30
0.0
 11
2.5
 21
-2.202833333333333
 31
0.0
  0
LINE
  5
14E
330
119
100
AcDbEntity
  8
AM_4
100
AcDbLine
 10
-2.5
 20
-2.132833333333333
 30
0.0
 11
2.5
 21
-2.132833333333333
 31
0.0
  0
ENDBLK
  5
11C
330
119
100
AcDbEntity
  8
0
100
AcDbBlockEnd
  0
BLOCK
  5
151
330
14F
100
AcDbEntity
  8
0
100
AcDbBlockBegin
  2
6_070903I_0_in_072298_4
 70
     2
 10
0.0
 20
0.0
 30
0.0
  3
6_070903I_0_in_072298_4
  1

  0
ATTDEF
  5
153
330
14F
100
AcDbEntity
  8
AM_6
100
AcDbText
 10
8.1496
 20
1.746875
 30
0.0
 40
0.5
  1
Imperial Insert -Inch
100
AcDbAttributeDefinition
  3

  2
NN
 70
     8
280
     0
  0
ATTDEF
  5
154
330
14F
100
AcDbEntity
  8
AM_6
100
AcDbText
 10
8.1496
 20
1.246875
 30
0.0
 40
0.5
  1
Imperial Bearings
100
AcDbAttributeDefinition
  3

  2
NT
 70
     8
280
     0
  0
ATTDEF
  5
155
330
14F
100
AcDbEntity
  8
AM_6
100
AcDbText
 10
8.1496
 20
0.7468749999999997
 30
0.0
 40
0.5
  1
070903I
100
AcDbAttributeDefinition
  3

  2
NB
 70
     8
280
     0
  0
ATTDEF
  5
156
330
14F
100
AcDbEntity
  8
AM_6
100
AcDbText
 10
8.1496
 20
0.2468749999999997
 30
0.0
 40
0.5
  1
$PN.I
100
AcDbAttributeDefinition
  3

  2
NBSYN
 70
     8
280
     0
  0
ATTDEF
  5
157
330
14F
100
AcDbEntity
  8
AM_6
100
AcDbText
 10
8.1496
 20
-0.2531250000000003
 30
0.0
 40
0.5
  1
070903
100
AcDbAttributeDefinition
  3

  2
LINA
 70
     8
280
     0
  0
ATTDEF
  5
158
330
14F
100
AcDbEntity
  8
AM_6
100
AcDbText
 10
8.1496
 20
-0.7531250000000003
 30
0.0
 40
0.5
  1
3-7/16
100
AcDbAttributeDefinition
  3

  2
SS
 70
     8
280
     0
  0
ATTDEF
  5
159
330
14F
100
AcDbEntity
  8
AM_6
100
AcDbText
 10
8.1496
 20
-1.253125
 30
0.0
 40
0.5
  1
3.437500
100
AcDbAttributeDefinition
  3

  2
SS1
 70
     8
280
     0
  0
ATTDEF
  5
15A
330
14F
100
AcDbEntity
  8
AM_6
100
AcDbText
 10
8.1496
 20
-1.753125
 30
0.0
 40
0.5
  1
070903
100
AcDbAttributeDefinition
  3

  2
PN
 70
     8
280
     0
  0
ATTDEF
  5
15B
330
14F
100
AcDbEntity
  8
AM_6
100
AcDbText
 10
8.1496
 20
-2.253125
 30
0.0
 40
0.5
  1
INS-IP-307R
100
AcDbAttributeDefinition
  3

  2
DESCRIPTION
 70
     8
280
     0
  0
ATTDEF
  5
15C
330
14F
100
AcDbEntity
  8
AM_6
100
AcDbText
 10
8.1496
 20
-2.753125
 30
0.0
 40
0.5
  1
Contact Seal
100
AcDbAttributeDefinition
  3

  2
ST
 70
     8
280
     0
  0
ATTDEF
  5
15D
330
14F
100
AcDbEntity
  8
AM_6
100
AcDbText
 10
8.1496
 20
-3.253125
 30
0.0
 40
0.5
  1
6.2992
100
AcDbAttributeDefinition
  3

  2
A
 70
     8
280
     0
  0
ATTDEF
  5
15E
330
14F
100
AcDbEntity
  8
AM_6
100
AcDbText
 10
8.1496
 20
-3.753125
 30
0.0
 40
0.5
  1
1-5/8
100
AcDbAttributeDefinition
  3

  2
B
 70
     8
280
     0
  0
ATTDEF
  5
15F
330
14F
100
AcDbEntity
  8
AM_6
100
AcDbText
 10
8.1496
 20
-4.253125000000001
 30
0.0
 40
0.5
  1
4-11/64
100
AcDbAttributeDefinition
  3

  2
C
 70
     8
280
     0
  0
ATTDEF
  5
160
330
14F
100
AcDbEntity
  8
AM_6
100
AcDbText
 10
8.1496
 20
-4.753125000000001
 30
0.0
 40
0.5
  1
1.483
100
AcDbAttributeDefinition
  3

  2
D
 70
     8
280
     0
  0
ATTDEF
  5
161
330
14F
100
AcDbEntity
  8
AM_6
100
AcDbText
 10
8.1496
 20
-5.253125000000001
 30
0.0
 40
0.5
  1
5
100
AcDbAttributeDefinition
  3

  2
E
 70
     8
280
     0
  0
ATTDEF
  5
162
330
14F
100
AcDbEntity
  8
AM_6
100
AcDbText
 10
8.1496
 20
-5.753125000000001
 30
0.0
 40
0.5
  1
0.2500
100
AcDbAttributeDefinition
  3

  2
NDM
 70
     8
280
     0
  0
ATTDEF
  5
163
330
14F
100
AcDbEntity
  8
AM_6
100
AcDbText
 10
8.1496
 20
-6.253125000000001
 30
0.0
 40
0.5
  1
0.132
100
AcDbAttributeDefinition
  3

  2
H
 70
     8
280
     0
  0
ATTDEF
  5
164
330
14F
100
AcDbEntity
  8
AM_6
100
AcDbText
 10
8.1496
 20
-6.753125000000001
 30
0.0
 40
0.5
  1
0.1960
100
AcDbAttributeDefinition
  3

  2
KDM
 70
     8
280
     0
  0
ATTDEF
  5
165
330
14F
100
AcDbEntity
  8
AM_6
100
AcDbText
 10
8.1496
 20
-7.253125000000001
 30
0.0
 40
0.5
  1
4.28
100
AcDbAttributeDefinition
  3

  2
AL
 70
     8
280
     0
  0
ATTDEF
  5
166
330
14F
100
AcDbEntity
  8
AM_6
100
AcDbText
 10
8.1496
 20
-7.753125000000001
 30
0.0
 40
0.5
  1
0.50
100
AcDbAttributeDefinition
  3

  2
BL
 70
     8
280
     0
  0
ATTDEF
  5
167
330
14F
100
AcDbEntity
  8
AM_6
100
AcDbText
 10
8.1496
 20
-8.253125
 30
0.0
 40
0.5
  1
0.07
100
AcDbAttributeDefinition
  3

  2
CL
 70
     8
280
     0
  0
ATTDEF
  5
168
330
14F
100
AcDbEntity
  8
AM_6
100
AcDbText
 10
8.1496
 20
-8.753125
 30
0.0
 40
0.5
  1
0.44
100
AcDbAttributeDefinition
  3

  2
DL
 70
     8
280
     0
  0
ATTDEF
  5
169
330
14F
100
AcDbEntity
  8
AM_6
100
AcDbText
 10
8.1496
 20
-9.253125
 30
0.0
 40
0.5
  1
0.8000
100
AcDbAttributeDefinition
  3

  2
LL
 70
     8
280
     0
  0
ATTDEF
  5
16A
330
14F
100
AcDbEntity
  8
AM_6
100
AcDbText
 10
8.1496
 20
-9.753125
 30
0.0
 40
0.5
  1
0.025
100
AcDbAttributeDefinition
  3

  2
Y
 70
     8
280
     0
  0
ATTDEF
  5
16B
330
14F
100
AcDbEntity
  8
AM_6
100
AcDbText
 10
8.1496
 20
-10.253125
 30
0.0
 40
0.5
  1
0.025000
100
AcDbAttributeDefinition
  3

  2
Y1
 70
     8
280
     0
  0
ATTDEF
  5
16C
330
14F
100
AcDbEntity
  8
AM_6
100
AcDbText
 10
8.1496
 20
-10.753125
 30
0.0
 40
0.5
  1
4-3/64
100
AcDbAttributeDefinition
  3

  2
Z
 70
     8
280
     0
  0
ATTDEF
  5
16D
330
14F
100
AcDbEntity
  8
AM_6
100
AcDbText
 10
8.1496
 20
-11.253125
 30
0.0
 40
0.5
  1
4.046875
100
AcDbAttributeDefinition
  3

  2
Z1
 70
     8
280
     0
  0
ATTDEF
  5
16E
330
14F
100
AcDbEntity
  8
AM_6
100
AcDbText
 10
8.1496
 20
-11.753125
 30
0.0
 40
0.5
  1
baldor
100
AcDbAttributeDefinition
  3

  2
COMPANY
 70
     8
280
     0
  0
LINE
  5
16F
330
14F
100
AcDbEntity
  8
AM_9
100
AcDbLine
 10
-0.8080165203954348
 20
1.051375
 30
0.0
 11
-0.8080165203954348
 21
-2.132833333333333
 31
0.0
  0
LINE
  5
170
330
14F
100
AcDbEntity
  8
AM_9
100
AcDbLine
 10
1.336431816442575
 20
-1.692833333333334
 30
0.0
 11
1.336431816442575
 21
-2.132833333333334
 31
0.0
  0
LINE
  5
171
330
14F
100
AcDbEntity
  8
AM_9
100
AcDbLine
 10
-1.336431816442575
 20
-1.692833333333334
 30
0.0
 11
-1.336431816442575
 21
-2.132833333333334
 31
0.0
  0
LINE
  5
172
330
14F
100
AcDbEntity
  8
AM_9
100
AcDbLine
 10
-0.5405104314374977
 20
1.051375
 30
0.0
 11
-0.540510431437498
 21
-2.45
 31
0.0
  0
LINE
  5
173
330
14F
100
AcDbEntity
  8
AM_9
100
AcDbLine
 10
-0.7714803145653192
 20
-2.202833333333333
 30
0.0
 11
-0.7714803145653194
 21
1.051375
 31
0.0
  0
LINE
  5
174
330
14F
100
AcDbEntity
  8
AM_9
100
AcDbLine
 10
-1.71875
 20
1.051375
 30
0.0
 11
-1.71875
 21
-2.45
 31
0.0
  0
LINE
  5
175
330
14F
100
AcDbEntity
  8
AM_9
100
AcDbLine
 10
1.71875
 20
-2.45
 30
0.0
 11
1.71875
 21
1.051375
 31
0.0
  0
LINE
  5
176
330
14F
100
AcDbEntity
  8
AM_9
100
AcDbLine
 10
-0.5770466372676131
 20
1.051375
 30
0.0
 11
-0.5770466372676131
 21
-2.132833333333333
 31
0.0
  0
LINE
  5
177
330
14F
100
AcDbEntity
  8
AM_9
100
AcDbLine
 10
-1.80921052631579
 20
1.721875
 30
0.0
 11
-1.80921052631579
 21
1.051375
 31
0.0
  0
LINE
  5
178
330
14F
100
AcDbEntity
  8
AM_9
100
AcDbLine
 10
1.80921052631579
 20
1.051375
 30
0.0
 11
1.80921052631579
 21
1.721875
 31
0.0
  0
LINE
  5
179
330
14F
100
AcDbEntity
  8
AM_9
100
AcDbLine
 10
-0.5752154790865559
 20
-2.202833333333333
 30
0.0
 11
-0.5752154790865558
 21
-2.132833333333334
 31
0.0
  0
LINE
  5
17A
330
14F
100
AcDbEntity
  8
AM_9
100
AcDbLine
 10
-0.8061853622143774
 20
-2.132833333333334
 30
0.0
 11
-0.8061853622143774
 21
-2.202833333333333
 31
0.0
  0
LINE
  5
17B
330
14F
100
AcDbEntity
  8
AM_9
100
AcDbLine
 10
-1.80921052631579
 20
-2.132833333333334
 30
0.0
 11
-1.80921052631579
 21
-2.202833333333333
 31
0.0
  0
LINE
  5
17C
330
14F
100
AcDbEntity
  8
AM_9
100
AcDbLine
 10
1.80921052631579
 20
-2.202833333333333
 30
0.0
 11
1.80921052631579
 21
-2.132833333333334
 31
0.0
  0
LINE
  5
17D
330
14F
100
AcDbEntity
  8
AM_9
100
AcDbLine
 10
1.336431816442575
 20
-1.692833333333334
 30
0.0
 11
1.593048406283363
 21
-1.692833333333334
 31
0.0
  0
LINE
  5
17E
330
14F
100
AcDbEntity
  8
AM_9
100
AcDbLine
 10
-1.593048406283363
 20
-1.692833333333334
 30
0.0
 11
-1.336431816442575
 21
-1.692833333333334
 31
0.0
  0
LINE
  5
17F
330
14F
100
AcDbEntity
  8
AM_9
100
AcDbLine
 10
2.0234375
 20
1.721875
 30
0.0
 11
-2.0234375
 21
1.721875
 31
0.0
  0
LINE
  5
180
330
14F
100
AcDbEntity
  8
AM_9
100
AcDbLine
 10
-2.0234375
 20
1.746874999999999
 30
0.0
 11
-2.0234375
 21
1.721875
 31
0.0
  0
LINE
  5
181
330
14F
100
AcDbEntity
  8
AM_9
100
AcDbLine
 10
2.0234375
 20
1.721875
 30
0.0
 11
2.0234375
 21
1.746874999999999
 31
0.0
  0
LINE
  5
182
330
14F
100
AcDbEntity
  8
AM_9
100
AcDbLine
 10
-2.248263888888889
 20
1.694991987179484
 30
0.0
 11
-2.248263888888889
 21
1.376374999999998
 31
0.0
  0
LINE
  5
183
330
14F
100
AcDbEntity
  8
AM_9
100
AcDbLine
 10
2.248263888888889
 20
1.376374999999998
 30
0.0
 11
2.248263888888889
 21
1.694991987179484
 31
0.0
  0
LINE
  5
184
330
14F
100
AcDbEntity
  8
AM_9
100
AcDbLine
 10
2.196380876068376
 20
1.746875
 30
0.0
 11
-2.196380876068362
 21
1.746875
 31
0.0
  0
LINE
  5
185
330
14F
100
AcDbEntity
  8
AM_9
100
AcDbLine
 10
2.248263888888889
 20
1.694991987179484
 30
0.0
 11
-2.248263888888889
 21
1.694991987179484
 31
0.0
  0
ARC
  5
186
330
14F
100
AcDbEntity
  8
AM_9
100
AcDbCircle
 10
-2.196380876068375
 20
1.694991987179486
 30
0.0
 40
0.0518830128205134
100
AcDbArc
 50
90.0
 51
180.0
  0
ARC
  5
187
330
14F
100
AcDbEntity
  8
AM_9
100
AcDbCircle
 10
2.196380876068375
 20
1.694991987179486
 30
0.0
 40
0.0518830128205137
100
AcDbArc
 50
0.0
 51
90.0
  0
LINE
  5
188
330
14F
100
AcDbEntity
  8
AM_9
100
AcDbLine
 10
0.0
 20
-1.292833333333334
 30
0.0
 11
-0.0979499999999999
 21
-1.338508168449616
 31
0.0
  0
LINE
  5
189
330
14F
100
AcDbEntity
  8
AM_9
100
AcDbLine
 10
0.0979499999999999
 20
-1.338508168449616
 30
0.0
 11
0.0
 21
-1.292833333333334
 31
0.0
  0
LINE
  5
18A
330
14F
100
AcDbEntity
  8
AM_9
100
AcDbLine
 10
0.09795
 20
-1.338508168449616
 30
0.0
 11
-0.09795
 21
-1.338508168449616
 31
0.0
  0
LINE
  5
18B
330
14F
100
AcDbEntity
  8
AM_9
100
AcDbLine
 10
-0.09795
 20
-1.338508168449616
 30
0.0
 11
-0.09795
 21
-2.105783333333334
 31
0.0
  0
LINE
  5
18C
330
14F
100
AcDbEntity
  8
AM_9
100
AcDbLine
 10
0.09795
 20
-2.105783333333334
 30
0.0
 11
0.09795
 21
-1.338508168449616
 31
0.0
  0
LINE
  5
18D
330
14F
100
AcDbEntity
  8
AM_9
100
AcDbLine
 10
0.09795
 20
-2.105783333333334
 30
0.0
 11
-0.09795
 21
-2.105783333333334
 31
0.0
  0
LINE
  5
18E
330
14F
100
AcDbEntity
  8
AM_9
100
AcDbLine
 10
-0.09795
 20
-2.105783333333334
 30
0.0
 11
-0.1250000000000002
 21
-2.132833333333334
 31
0.0
  0
LINE
  5
18F
330
14F
100
AcDbEntity
  8
AM_9
100
AcDbLine
 10
0.1250000000000002
 20
-2.132833333333334
 30
0.0
 11
0.09795
 21
-2.105783333333334
 31
0.0
  0
LINE
  5
190
330
14F
100
AcDbEntity
  8
AM_9
100
AcDbLine
 10
2.524892688519368
 20
-1.42
 30
0.0
 11
2.554448754797947
 21
-0.5736250000000002
 31
0.0
  0
LINE
  5
191
330
14F
100
AcDbEntity
  8
AM_9
100
AcDbLine
 10
-2.554448754797947
 20
-0.5736250000000002
 30
0.0
 11
-2.524892688519368
 21
-1.42
 31
0.0
  0
LINE
  5
192
330
14F
100
AcDbEntity
  8
AM_9
100
AcDbLine
 10
2.704226135594409
 20
1.376375
 30
0.0
 11
-2.704226135583595
 21
1.376375
 31
0.0
  0
ARC
  5
193
330
14F
100
AcDbEntity
  8
AM_9
100
AcDbCircle
 10
-2.704226135594418
 20
1.276375000000016
 30
0.0
 40
0.0999999999999837
100
AcDbArc
 50
90.0
 51
150.0000000000055
  0
ARC
  5
194
330
14F
100
AcDbEntity
  8
AM_9
100
AcDbCircle
 10
2.704226135594407
 20
1.276374999999996
 30
0.0
 40
0.1000000000000035
100
AcDbArc
 50
30.00000000000095
 51
90.0
  0
LINE
  5
195
330
14F
100
AcDbEntity
  8
AM_9
100
AcDbLine
 10
2.790828675972853
 20
1.326375
 30
0.0
 11
-2.790828675972853
 21
1.326375
 31
0.0
  0
LINE
  5
196
330
14F
100
AcDbEntity
  8
AM_9
100
AcDbLine
 10
-2.790828675972853
 20
1.326375
 30
0.0
 11
-2.9496
 21
1.051375
 31
0.0
  0
LINE
  5
197
330
14F
100
AcDbEntity
  8
AM_9
100
AcDbLine
 10
2.9496
 20
1.051375
 30
0.0
 11
2.790828675972853
 21
1.326375
 31
0.0
  0
LINE
  5
198
330
14F
100
AcDbEntity
  8
AM_9
100
AcDbLine
 10
-3.06835
 20
0.2857847093716567
 30
0.0
 11
-3.06835
 21
0.1919652906283428
 31
0.0
  0
LINE
  5
199
330
14F
100
AcDbEntity
  8
AM_9
100
AcDbLine
 10
3.06835
 20
0.1919652906283428
 30
0.0
 11
3.06835
 21
0.2857847093716567
 31
0.0
  0
LINE
  5
19A
330
14F
100
AcDbEntity
  8
AM_9
100
AcDbLine
 10
3.06835
 20
0.2857847093716567
 30
0.0
 11
-3.06835
 21
0.2857847093716567
 31
0.0
  0
LINE
  5
19B
330
14F
100
AcDbEntity
  8
AM_9
100
AcDbLine
 10
3.06835
 20
0.2857847093716567
 30
0.0
 11
3.1496
 21
0.3326944187433141
 31
0.0
  0
LINE
  5
19C
330
14F
100
AcDbEntity
  8
AM_9
100
AcDbLine
 10
-3.1496
 20
0.3326944187433141
 30
0.0
 11
-3.06835
 21
0.2857847093716567
 31
0.0
  0
LINE
  5
19D
330
14F
100
AcDbEntity
  8
AM_9
100
AcDbLine
 10
3.0996
 20
-0.5736250000000004
 30
0.0
 11
-3.09959999999705
 21
-0.5736250000000004
 31
0.0
  0
ARC
  5
19E
330
14F
100
AcDbEntity
  8
AM_9
100
AcDbCircle
 10
-3.0996
 20
-0.5236250000000009
 30
0.0
 40
0.0499999999999994
100
AcDbArc
 50
180.0
 51
270.0
  0
ARC
  5
19F
330
14F
100
AcDbEntity
  8
AM_9
100
AcDbCircle
 10
3.0996
 20
-0.5236250000000009
 30
0.0
 40
0.0499999999999995
100
AcDbArc
 50
270.0
 51
0.0
  0
LINE
  5
1A0
330
14F
100
AcDbEntity
  8
AM_9
100
AcDbLine
 10
3.0996
 20
1.051375
 30
0.0
 11
-3.09959999999705
 21
1.051375
 31
0.0
  0
ARC
  5
1A1
330
14F
100
AcDbEntity
  8
AM_9
100
AcDbCircle
 10
-3.0996
 20
1.001375000000001
 30
0.0
 40
0.0499999999999992
100
AcDbArc
 50
90.0
 51
180.0
  0
ARC
  5
1A2
330
14F
100
AcDbEntity
  8
AM_9
100
AcDbCircle
 10
3.0996
 20
1.001375000000001
 30
0.0
 40
0.0499999999999994
100
AcDbArc
 50
0.0
 51
90.0
  0
LINE
  5
1A3
330
14F
100
AcDbEntity
  8
AM_9
100
AcDbLine
 10
3.1496
 20
1.001375
 30
0.0
 11
-3.1496
 21
1.001375
 31
0.0
  0
LINE
  5
1A4
330
14F
100
AcDbEntity
  8
AM_9
100
AcDbLine
 10
3.1496
 20
0.3326944187433141
 30
0.0
 11
-3.1496
 21
0.3326944187433141
 31
0.0
  0
LINE
  5
1A5
330
14F
100
AcDbEntity
  8
AM_9
100
AcDbLine
 10
-3.1496
 20
1.001375
 30
0.0
 11
-3.1496
 21
0.3326944187433141
 31
0.0
  0
LINE
  5
1A6
330
14F
100
AcDbEntity
  8
AM_9
100
AcDbLine
 10
3.1496
 20
0.3326944187433141
 30
0.0
 11
3.1496
 21
1.001375
 31
0.0
  0
LINE
  5
1A7
330
14F
100
AcDbEntity
  8
AM_9
100
AcDbLine
 10
3.06835
 20
0.1919652906283428
 30
0.0
 11
-3.06835
 21
0.1919652906283428
 31
0.0
  0
LINE
  5
1A8
330
14F
100
AcDbEntity
  8
AM_9
100
AcDbLine
 10
-3.06835
 20
0.1919652906283428
 30
0.0
 11
-3.1496
 21
0.1450555812566858
 31
0.0
  0
LINE
  5
1A9
330
14F
100
AcDbEntity
  8
AM_9
100
AcDbLine
 10
3.1496
 20
0.1450555812566858
 30
0.0
 11
3.06835
 21
0.1919652906283428
 31
0.0
  0
LINE
  5
1AA
330
14F
100
AcDbEntity
  8
AM_9
100
AcDbLine
 10
3.1496
 20
0.1450555812566858
 30
0.0
 11
-3.1496
 21
0.1450555812566858
 31
0.0
  0
LINE
  5
1AB
330
14F
100
AcDbEntity
  8
AM_9
100
AcDbLine
 10
3.1496
 20
-0.5236250000000007
 30
0.0
 11
-3.1496
 21
-0.5236250000000007
 31
0.0
  0
LINE
  5
1AC
330
14F
100
AcDbEntity
  8
AM_9
100
AcDbLine
 10
-3.1496
 20
0.1450555812566858
 30
0.0
 11
-3.1496
 21
-0.5236250000000007
 31
0.0
  0
LINE
  5
1AD
330
14F
100
AcDbEntity
  8
AM_9
100
AcDbLine
 10
3.1496
 20
-0.5236250000000007
 30
0.0
 11
3.1496
 21
0.1450555812566858
 31
0.0
  0
LINE
  5
1AE
330
14F
100
AcDbEntity
  8
AM_5
100
AcDbLine
 10
-0.09795
 20
-1.372833333333333
 30
0.0
 11
-0.1250000000000002
 21
-1.372833333333333
 31
0.0
  0
LINE
  5
1AF
330
14F
100
AcDbEntity
  8
AM_5
100
AcDbLine
 10
-0.1250000000000002
 20
-1.372833333333333
 30
0.0
 11
-0.09795
 21
-1.357216008551754
 31
0.0
  0
LINE
  5
1B0
330
14F
100
AcDbEntity
  8
AM_5
100
AcDbLine
 10
0.09795
 20
-1.372833333333346
 30
0.0
 11
0.1250000000000002
 21
-1.372833333333346
 31
0.0
  0
LINE
  5
1B1
330
14F
100
AcDbEntity
  8
AM_5
100
AcDbLine
 10
0.1250000000000002
 20
-1.372833333333346
 30
0.0
 11
0.09795
 21
-1.357216008551766
 31
0.0
  0
ARC
  5
1B2
330
14F
100
AcDbEntity
  8
AM_4
100
AcDbCircle
 10
2.451715561259646
 20
-2.082833333333333
 30
0.0
 40
0.0500000000000007
100
AcDbArc
 50
270.0
 51
357.9999999999991
  0
ARC
  5
1B3
330
14F
100
AcDbEntity
  8
AM_4
100
AcDbCircle
 10
-2.451715561259646
 20
-2.082833333333333
 30
0.0
 40
0.0500000000000003
100
AcDbArc
 50
182.0000000000008
 51
270.0
  0
LWPOLYLINE
  5
1B4
330
14F
100
AcDbEntity
  8
AM_4
100
AcDbPolyline
 90
        6
 70
     0
 43
0.0
 10
1.936880151435482
 20
-2.084578308168459
 10
1.934486066876636
 20
-2.100954277847101
 10
1.928394861241001
 20
-2.115294505113439
 10
1.919278208205407
 20
-2.126017061431032
 10
1.908118701042668
 20
-2.131922213756794
 10
1.90136493504007
 20
-2.132833333333334
  0
LWPOLYLINE
  5
1B5
330
14F
100
AcDbEntity
  8
AM_4
100
AcDbPolyline
 90
        6
 70
     0
 43
0.0
 10
-1.901364935040069
 20
-2.132833333333334
 10
-1.906574535217859
 20
-2.13229324476616
 10
-1.917978192677443
 20
-2.127033839127761
 10
-1.927485891094621
 20
-2.116735702644239
 10
-1.934003513616657
 20
-2.102611909572901
 10
-1.936880151435481
 20
-2.084578308168459
  0
LINE
  5
1B6
330
14F
100
AcDbEntity
  8
AM_4
100
AcDbLine
 10
1.689985207035849
 20
-1.692833333333334
 30
0.0
 11
1.689985207035849
 21
-2.132833333333334
 31
0.0
  0
LINE
  5
1B7
330
14F
100
AcDbEntity
  8
AM_4
100
AcDbLine
 10
-1.689985207035848
 20
-1.692833333333334
 30
0.0
 11
-1.689985207035848
 21
-2.132833333333334
 31
0.0
  0
LINE
  5
1B8
330
14F
100
AcDbEntity
  8
AM_4
100
AcDbLine
 10
-0.7714803145653195
 20
-2.45
 30
0.0
 11
-0.7714803145653192
 21
-2.202833333333333
 31
0.0
  0
LINE
  5
1B9
330
14F
100
AcDbEntity
  8
AM_4
100
AcDbLine
 10
-0.5752154790865559
 20
-2.45
 30
0.0
 11
-0.5752154790865559
 21
-2.202833333333333
 31
0.0
  0
LINE
  5
1BA
330
14F
100
AcDbEntity
  8
AM_4
100
AcDbLine
 10
-0.8061853622143774
 20
-2.202833333333333
 30
0.0
 11
-0.8061853622143776
 21
-2.45
 31
0.0
  0
LINE
  5
1BB
330
14F
100
AcDbEntity
  8
AM_4
100
AcDbLine
 10
-1.80921052631579
 20
-2.202833333333333
 30
0.0
 11
-1.80921052631579
 21
-2.45
 31
0.0
  0
LINE
  5
1BC
330
14F
100
AcDbEntity
  8
AM_4
100
AcDbLine
 10
1.80921052631579
 20
-2.45
 30
0.0
 11
1.80921052631579
 21
-2.202833333333333
 31
0.0
  0
LINE
  5
1BD
330
14F
100
AcDbEntity
  8
AM_4
100
AcDbLine
 10
-0.1174999953448325
 20
-2.45
 30
0.0
 11
-1.80921052631579
 21
-2.45
 31
0.0
  0
LINE
  5
1BE
330
14F
100
AcDbEntity
  8
AM_4
100
AcDbLine
 10
1.80921052631579
 20
-2.45
 30
0.0
 11
0.1175
 21
-2.45
 31
0.0
  0
LWPOLYLINE
  5
1BF
330
14F
100
AcDbEntity
  8
AM_4
100
AcDbPolyline
 90
        6
 70
     0
 43
0.0
 10
1.547811544446796
 20
-2.132833333333334
 10
1.553021144624585
 20
-2.13229324476616
 10
1.56442480208417
 20
-2.127033839127761
 10
1.573932500501348
 20
-2.11673570264424
 10
1.580450123023384
 20
-2.102611909572901
 10
1.583326760842208
 20
-2.084578308168459
  0
LWPOLYLINE
  5
1C0
330
14F
100
AcDbEntity
  8
AM_4
100
AcDbPolyline
 90
        6
 70
     0
 43
0.0
 10
-1.583326760842207
 20
-2.084578308168459
 10
-1.580932676283362
 20
-2.100954277847101
 10
-1.574841470647727
 20
-2.115294505113438
 10
-1.565724817612132
 20
-2.126017061431032
 10
-1.554565310449393
 20
-2.131922213756794
 10
-1.547811544446795
 20
-2.132833333333334
  0
LINE
  5
1C1
330
14F
100
AcDbEntity
  8
AM_4
100
AcDbLine
 10
-1.936880151435481
 20
-2.084578308168459
 30
0.0
 11
-2.501685102610601
 21
-2.084578308168459
 31
0.0
  0
LINE
  5
1C2
330
14F
100
AcDbEntity
  8
AM_4
100
AcDbLine
 10
-1.936880151435481
 20
-2.084578308168459
 30
0.0
 11
-1.946601796876636
 21
-1.692833333333334
 31
0.0
  0
LINE
  5
1C3
330
14F
100
AcDbEntity
  8
AM_4
100
AcDbLine
 10
-1.946601796876636
 20
-1.692833333333334
 30
0.0
 11
-1.593048406283363
 21
-1.692833333333334
 31
0.0
  0
LINE
  5
1C4
330
14F
100
AcDbEntity
  8
AM_4
100
AcDbLine
 10
-1.593048406283363
 20
-1.692833333333334
 30
0.0
 11
-1.583326760842207
 21
-2.084578308168459
 31
0.0
  0
LINE
  5
1C5
330
14F
100
AcDbEntity
  8
AM_4
100
AcDbLine
 10
1.583326760842208
 20
-2.084578308168459
 30
0.0
 11
-1.583326760842207
 21
-2.084578308168459
 31
0.0
  0
LINE
  5
1C6
330
14F
100
AcDbEntity
  8
AM_4
100
AcDbLine
 10
1.583326760842208
 20
-2.084578308168459
 30
0.0
 11
1.593048406283363
 21
-1.692833333333334
 31
0.0
  0
LINE
  5
1C7
330
14F
100
AcDbEntity
  8
AM_4
100
AcDbLine
 10
1.593048406283363
 20
-1.692833333333334
 30
0.0
 11
1.946601796876637
 21
-1.692833333333334
 31
0.0
  0
LINE
  5
1C8
330
14F
100
AcDbEntity
  8
AM_4
100
AcDbLine
 10
1.946601796876637
 20
-1.692833333333334
 30
0.0
 11
1.936880151435482
 21
-2.084578308168459
 31
0.0
  0
LINE
  5
1C9
330
14F
100
AcDbEntity
  8
AM_4
100
AcDbLine
 10
2.501685102610601
 20
-2.084578308168459
 30
0.0
 11
2.524892688519368
 21
-1.42
 31
0.0
  0
LINE
  5
1CA
330
14F
100
AcDbEntity
  8
AM_4
100
AcDbLine
 10
-2.524892688519368
 20
-1.42
 30
0.0
 11
-2.501685102610601
 21
-2.084578308168459
 31
0.0
  0
LINE
  5
1CB
330
14F
100
AcDbEntity
  8
AM_4
100
AcDbLine
 10
2.501685102610601
 20
-2.084578308168459
 30
0.0
 11
1.936880151435482
 21
-2.084578308168459
 31
0.0
  0
ENDBLK
  5
152
330
14F
100
AcDbEntity
  8
0
100
AcDbBlockEnd
  0
BLOCK
  5
1CE
330
1CC
100
AcDbEntity
  8
0
100
AcDbBlockBegin
  2
7_B072298_0_in_072298_4
 70
     2
 10
0.0
 20
0.0
 30
0.0
  3
7_B072298_0_in_072298_4
  1

  0
ATTDEF
  5
1D0
330
1CC
100
AcDbEntity
  8
AM_6
100
AcDbText
 10
10.125
 20
3.641
 30
0.0
 40
0.5
  1
SFC-207-500-(Contact Seal)-Housing
100
AcDbAttributeDefinition
  3

  2
NN
 70
     8
280
     0
  0
ATTDEF
  5
1D1
330
1CC
100
AcDbEntity
  8
AM_6
100
AcDbText
 10
10.125
 20
3.141
 30
0.0
 40
0.5
  1
Steal Imperial Piloted Flange Bearing-Inch-207-500
100
AcDbAttributeDefinition
  3

  2
NT
 70
     8
280
     0
  0
ATTDEF
  5
1D2
330
1CC
100
AcDbEntity
  8
AM_6
100
AcDbText
 10
10.125
 20
2.641
 30
0.0
 40
0.5
  1
B072298
100
AcDbAttributeDefinition
  3

  2
NB
 70
     8
280
     0
  0
ATTDEF
  5
1D3
330
1CC
100
AcDbEntity
  8
AM_6
100
AcDbText
 10
10.125
 20
2.141
 30
0.0
 40
0.5
  1
$PN.
100
AcDbAttributeDefinition
  3

  2
NBSYN
 70
     8
280
     0
  0
ATTDEF
  5
1D4
330
1CC
100
AcDbEntity
  8
AM_6
100
AcDbText
 10
10.125
 20
1.641
 30
0.0
 40
0.5
  1
B072298
100
AcDbAttributeDefinition
  3

  2
LINA
 70
     8
280
     0
  0
ATTDEF
  5
1D5
330
1CC
100
AcDbEntity
  8
AM_6
100
AcDbText
 10
10.125
 20
1.141
 30
0.0
 40
0.5
  1
3-7/16
100
AcDbAttributeDefinition
  3

  2
SS
 70
     8
280
     0
  0
ATTDEF
  5
1D6
330
1CC
100
AcDbEntity
  8
AM_6
100
AcDbText
 10
10.125
 20
0.641
 30
0.0
 40
0.5
  1
3.43750
100
AcDbAttributeDefinition
  3

  2
SS1
 70
     8
280
     0
  0
ATTDEF
  5
1D7
330
1CC
100
AcDbEntity
  8
AM_6
100
AcDbText
 10
10.125
 20
0.141
 30
0.0
 40
0.5
  1
072298
100
AcDbAttributeDefinition
  3

  2
PN1
 70
     8
280
     0
  0
ATTDEF
  5
1D8
330
1CC
100
AcDbEntity
  8
AM_6
100
AcDbText
 10
10.125
 20
-0.359
 30
0.0
 40
0.5
  1
072329
100
AcDbAttributeDefinition
  3

  2
PN2
 70
     8
280
     0
  0
ATTDEF
  5
1D9
330
1CC
100
AcDbEntity
  8
AM_6
100
AcDbText
 10
10.125
 20
-0.859
 30
0.0
 40
0.5
  1
Non-Expansion
100
AcDbAttributeDefinition
  3

  2
TYPE
 70
     8
280
     0
  0
ATTDEF
  5
1DA
330
1CC
100
AcDbEntity
  8
AM_6
100
AcDbText
 10
10.125
 20
-1.359
 30
0.0
 40
0.5
  1
Contact Seal
100
AcDbAttributeDefinition
  3

  2
ST
 70
     8
280
     0
  0
ATTDEF
  5
1DB
330
1CC
100
AcDbEntity
  8
AM_6
100
AcDbText
 10
10.125
 20
-1.859
 30
0.0
 40
0.5
  1
SFC-IP-307R
100
AcDbAttributeDefinition
  3

  2
DESCRIPTIONS
 70
     8
280
     0
  0
ATTDEF
  5
1DC
330
1CC
100
AcDbEntity
  8
AM_6
100
AcDbText
 10
10.125
 20
-2.359
 30
0.0
 40
0.5
  1
4.17
100
AcDbAttributeDefinition
  3

  2
A
 70
     8
280
     0
  0
ATTDEF
  5
1DD
330
1CC
100
AcDbEntity
  8
AM_6
100
AcDbText
 10
10.125
 20
-2.859
 30
0.0
 40
0.5
  1
4.170
100
AcDbAttributeDefinition
  3

  2
A1
 70
     8
280
     0
  0
ATTDEF
  5
1DE
330
1CC
100
AcDbEntity
  8
AM_6
100
AcDbText
 10
10.125
 20
-3.359
 30
0.0
 40
0.5
  1
10.25
100
AcDbAttributeDefinition
  3

  2
B
 70
     8
280
     0
  0
ATTDEF
  5
1DF
330
1CC
100
AcDbEntity
  8
AM_6
100
AcDbText
 10
10.125
 20
-3.859
 30
0.0
 40
0.5
  1
10.2500
100
AcDbAttributeDefinition
  3

  2
B1
 70
     8
280
     0
  0
ATTDEF
  5
1E0
330
1CC
100
AcDbEntity
  8
AM_6
100
AcDbText
 10
10.125
 20
-4.359
 30
0.0
 40
0.5
  1
3.31
100
AcDbAttributeDefinition
  3

  2
C
 70
     8
280
     0
  0
ATTDEF
  5
1E1
330
1CC
100
AcDbEntity
  8
AM_6
100
AcDbText
 10
10.125
 20
-4.859
 30
0.0
 40
0.5
  1
3.3100
100
AcDbAttributeDefinition
  3

  2
C1
 70
     8
280
     0
  0
ATTDEF
  5
1E2
330
1CC
100
AcDbEntity
  8
AM_6
100
AcDbText
 10
10.125
 20
-5.359
 30
0.0
 40
0.5
  1
6.10
100
AcDbAttributeDefinition
  3

  2
D
 70
     8
280
     0
  0
ATTDEF
  5
1E3
330
1CC
100
AcDbEntity
  8
AM_6
100
AcDbText
 10
10.125
 20
-5.859
 30
0.0
 40
0.5
  1
6.1000
100
AcDbAttributeDefinition
  3

  2
D1
 70
     8
280
     0
  0
ATTDEF
  5
1E4
330
1CC
100
AcDbEntity
  8
AM_6
100
AcDbText
 10
10.125
 20
-6.359
 30
0.0
 40
0.5
  1
8.630
100
AcDbAttributeDefinition
  3

  2
DD
 70
     8
280
     0
  0
ATTDEF
  5
1E5
330
1CC
100
AcDbEntity
  8
AM_6
100
AcDbText
 10
10.125
 20
-6.859
 30
0.0
 40
0.5
  1
8.6300
100
AcDbAttributeDefinition
  3

  2
DD1
 70
     8
280
     0
  0
ATTDEF
  5
1E6
330
1CC
100
AcDbEntity
  8
AM_6
100
AcDbText
 10
10.125
 20
-7.359
 30
0.0
 40
0.5
  1
1.3400
100
AcDbAttributeDefinition
  3

  2
E
 70
     8
280
     0
  0
ATTDEF
  5
1E7
330
1CC
100
AcDbEntity
  8
AM_6
100
AcDbText
 10
10.125
 20
-7.859
 30
0.0
 40
0.5
  1
1.3400
100
AcDbAttributeDefinition
  3

  2
E1
 70
     8
280
     0
  0
ATTDEF
  5
1E8
330
1CC
100
AcDbEntity
  8
AM_6
100
AcDbText
 10
10.125
 20
-8.359
 30
0.0
 40
0.5
  1
0.7500
100
AcDbAttributeDefinition
  3

  2
F
 70
     8
280
     0
  0
ATTDEF
  5
1E9
330
1CC
100
AcDbEntity
  8
AM_6
100
AcDbText
 10
10.125
 20
-8.859
 30
0.0
 40
0.5
  1
0.75000
100
AcDbAttributeDefinition
  3

  2
F1
 70
     8
280
     0
  0
ATTDEF
  5
1EA
330
1CC
100
AcDbEntity
  8
AM_6
100
AcDbText
 10
10.125
 20
-9.359
 30
0.0
 40
0.5
  1
2.46
100
AcDbAttributeDefinition
  3

  2
G
 70
     8
280
     0
  0
ATTDEF
  5
1EB
330
1CC
100
AcDbEntity
  8
AM_6
100
AcDbText
 10
10.125
 20
-9.859
 30
0.0
 40
0.5
  1
2.46
100
AcDbAttributeDefinition
  3

  2
G1
 70
     8
280
     0
  0
ATTDEF
  5
1EC
330
1CC
100
AcDbEntity
  8
AM_6
100
AcDbText
 10
10.125
 20
-10.359
 30
0.0
 40
0.5
  1
0.88
100
AcDbAttributeDefinition
  3

  2
H
 70
     8
280
     0
  0
ATTDEF
  5
1ED
330
1CC
100
AcDbEntity
  8
AM_6
100
AcDbText
 10
10.125
 20
-10.859
 30
0.0
 40
0.5
  1
0.88
100
AcDbAttributeDefinition
  3

  2
H1
 70
     8
280
     0
  0
ATTDEF
  5
1EE
330
1CC
100
AcDbEntity
  8
AM_6
100
AcDbText
 10
10.125
 20
-11.359
 30
0.0
 40
0.5
  1
7.375
100
AcDbAttributeDefinition
  3

  2
K
 70
     8
280
     0
  0
ATTDEF
  5
1EF
330
1CC
100
AcDbEntity
  8
AM_6
100
AcDbText
 10
10.125
 20
-11.859
 30
0.0
 40
0.5
  1
7.375
100
AcDbAttributeDefinition
  3

  2
K1
 70
     8
280
     0
  0
ATTDEF
  5
1F0
330
1CC
100
AcDbEntity
  8
AM_6
100
AcDbText
 10
10.125
 20
-12.359
 30
0.0
 40
0.5
  1
5.00
100
AcDbAttributeDefinition
  3

  2
L
 70
     8
280
     0
  0
ATTDEF
  5
1F1
330
1CC
100
AcDbEntity
  8
AM_6
100
AcDbText
 10
10.125
 20
-12.859
 30
0.0
 40
0.5
  1
5.00
100
AcDbAttributeDefinition
  3

  2
L1
 70
     8
280
     0
  0
ATTDEF
  5
1F2
330
1CC
100
AcDbEntity
  8
AM_6
100
AcDbText
 10
10.125
 20
-13.359
 30
0.0
 40
0.5
  1
0.7500
100
AcDbAttributeDefinition
  3

  2
M
 70
     8
280
     0
  0
ATTDEF
  5
1F3
330
1CC
100
AcDbEntity
  8
AM_6
100
AcDbText
 10
10.125
 20
-13.859
 30
0.0
 40
0.5
  1
0.7500
100
AcDbAttributeDefinition
  3

  2
M1
 70
     8
280
     0
  0
ATTDEF
  5
1F4
330
1CC
100
AcDbEntity
  8
AM_6
100
AcDbText
 10
10.125
 20
-14.359
 30
0.0
 40
0.5
  1
4.34
100
AcDbAttributeDefinition
  3

  2
N
 70
     8
280
     0
  0
ATTDEF
  5
1F5
330
1CC
100
AcDbEntity
  8
AM_6
100
AcDbText
 10
10.125
 20
-14.859
 30
0.0
 40
0.5
  1
4.34
100
AcDbAttributeDefinition
  3

  2
N1
 70
     8
280
     0
  0
ATTDEF
  5
1F6
330
1CC
100
AcDbEntity
  8
AM_6
100
AcDbText
 10
10.125
 20
-15.359
 30
0.0
 40
0.5
  1
1.71
100
AcDbAttributeDefinition
  3

  2
P
 70
     8
280
     0
  0
ATTDEF
  5
1F7
330
1CC
100
AcDbEntity
  8
AM_6
100
AcDbText
 10
10.125
 20
-15.859
 30
0.0
 40
0.5
  1
1.71
100
AcDbAttributeDefinition
  3

  2
P1
 70
     8
280
     0
  0
ATTDEF
  5
1F8
330
1CC
100
AcDbEntity
  8
AM_6
100
AcDbText
 10
10.125
 20
-16.359
 30
0.0
 40
0.5
  1
1.89
100
AcDbAttributeDefinition
  3

  2
Q
 70
     8
280
     0
  0
ATTDEF
  5
1F9
330
1CC
100
AcDbEntity
  8
AM_6
100
AcDbText
 10
10.125
 20
-16.859
 30
0.0
 40
0.5
  1
1.89
100
AcDbAttributeDefinition
  3

  2
Q1
 70
     8
280
     0
  0
ATTDEF
  5
1FA
330
1CC
100
AcDbEntity
  8
AM_6
100
AcDbText
 10
10.125
 20
-17.359
 30
0.0
 40
0.5
  1
0.25
100
AcDbAttributeDefinition
  3

  2
X
 70
     8
280
     0
  0
ATTDEF
  5
1FB
330
1CC
100
AcDbEntity
  8
AM_6
100
AcDbText
 10
10.125
 20
-17.859
 30
0.0
 40
0.5
  1
0.25
100
AcDbAttributeDefinition
  3

  2
X1
 70
     8
280
     0
  0
ATTDEF
  5
1FC
330
1CC
100
AcDbEntity
  8
AM_6
100
AcDbText
 10
10.125
 20
-18.359
 30
0.0
 40
0.5
  1
0.025
100
AcDbAttributeDefinition
  3

  2
Y
 70
     8
280
     0
  0
ATTDEF
  5
1FD
330
1CC
100
AcDbEntity
  8
AM_6
100
AcDbText
 10
10.125
 20
-18.859
 30
0.0
 40
0.5
  1
0.025
100
AcDbAttributeDefinition
  3

  2
Y1
 70
     8
280
     0
  0
ATTDEF
  5
1FE
330
1CC
100
AcDbEntity
  8
AM_6
100
AcDbText
 10
10.125
 20
-19.359
 30
0.0
 40
0.5
  1
4.05
100
AcDbAttributeDefinition
  3

  2
Z
 70
     8
280
     0
  0
ATTDEF
  5
1FF
330
1CC
100
AcDbEntity
  8
AM_6
100
AcDbText
 10
10.125
 20
-19.859
 30
0.0
 40
0.5
  1
4.05
100
AcDbAttributeDefinition
  3

  2
Z1
 70
     8
280
     0
  0
ATTDEF
  5
200
330
1CC
100
AcDbEntity
  8
AM_6
100
AcDbText
 10
10.125
 20
-20.359
 30
0.0
 40
0.5
  1
6.2992
100
AcDbAttributeDefinition
  3

  2
BORE
 70
     8
280
     0
  0
ATTDEF
  5
201
330
1CC
100
AcDbEntity
  8
AM_6
100
AcDbText
 10
10.125
 20
-20.859
 30
0.0
 40
0.5
  1
0.1151670
100
AcDbAttributeDefinition
  3

  2
O
 70
     8
280
     0
  0
ATTDEF
  5
202
330
1CC
100
AcDbEntity
  8
AM_6
100
AcDbText
 10
10.125
 20
-21.359
 30
0.0
 40
0.5
  1
baldor
100
AcDbAttributeDefinition
  3

  2
COMPANY
 70
     8
280
     0
  0
LINE
  5
203
330
1CC
100
AcDbEntity
  8
AM_9
100
AcDbLine
 10
-4.63585
 20
0.0
 30
0.0
 11
-4.63585
 21
-0.82585
 31
0.0
  0
LINE
  5
204
330
1CC
100
AcDbEntity
  8
AM_9
100
AcDbLine
 10
-3.99415
 20
-0.82585
 30
0.0
 11
-3.99415
 21
0.0
 31
0.0
  0
LINE
  5
205
330
1CC
100
AcDbEntity
  8
AM_9
100
AcDbLine
 10
3.99415
 20
0.0
 30
0.0
 11
3.99415
 21
-0.82585
 31
0.0
  0
LINE
  5
206
330
1CC
100
AcDbEntity
  8
AM_9
100
AcDbLine
 10
4.63585
 20
-0.82585
 30
0.0
 11
4.63585
 21
0.0
 31
0.0
  0
LINE
  5
207
330
1CC
100
AcDbEntity
  8
AM_9
100
AcDbLine
 10
-3.99415
 20
-0.82585
 30
0.0
 11
-4.63585
 21
-0.82585
 31
0.0
  0
LINE
  5
208
330
1CC
100
AcDbEntity
  8
AM_9
100
AcDbLine
 10
-4.63585
 20
-0.82585
 30
0.0
 11
-4.69
 21
-0.88
 31
0.0
  0
LINE
  5
209
330
1CC
100
AcDbEntity
  8
AM_9
100
AcDbLine
 10
-3.94
 20
-0.88
 30
0.0
 11
-3.99415
 21
-0.82585
 31
0.0
  0
LINE
  5
20A
330
1CC
100
AcDbEntity
  8
AM_9
100
AcDbLine
 10
4.63585
 20
-0.82585
 30
0.0
 11
3.99415
 21
-0.82585
 31
0.0
  0
LINE
  5
20B
330
1CC
100
AcDbEntity
  8
AM_9
100
AcDbLine
 10
3.99415
 20
-0.82585
 30
0.0
 11
3.94
 21
-0.88
 31
0.0
  0
LINE
  5
20C
330
1CC
100
AcDbEntity
  8
AM_9
100
AcDbLine
 10
4.69
 20
-0.88
 30
0.0
 11
4.63585
 21
-0.82585
 31
0.0
  0
LINE
  5
20D
330
1CC
100
AcDbEntity
  8
AM_9
100
AcDbLine
 10
3.1496
 20
-1.42
 30
0.0
 11
3.1496
 21
1.889999999999999
 31
0.0
  0
LINE
  5
20E
330
1CC
100
AcDbEntity
  8
AM_9
100
AcDbLine
 10
-3.1496
 20
1.889999999999999
 30
0.0
 11
-3.1496
 21
-1.42
 31
0.0
  0
LINE
  5
20F
330
1CC
100
AcDbEntity
  8
AM_9
100
AcDbLine
 10
-1.7825
 20
-0.8799999999999998
 30
0.0
 11
-1.7825
 21
0.0000000000000002
 31
0.0
  0
LINE
  5
210
330
1CC
100
AcDbEntity
  8
AM_9
100
AcDbLine
 10
-2.532499999999999
 20
0.0000000000000002
 30
0.0
 11
-2.532499999999999
 21
-0.8799999999999998
 31
0.0
  0
LINE
  5
211
330
1CC
100
AcDbEntity
  8
AM_9
100
AcDbLine
 10
2.532499999999999
 20
-0.8799999999999998
 30
0.0
 11
2.532499999999999
 21
0.0000000000000002
 31
0.0
  0
LINE
  5
212
330
1CC
100
AcDbEntity
  8
AM_9
100
AcDbLine
 10
1.7825
 20
0.0000000000000002
 30
0.0
 11
1.7825
 21
-0.8799999999999998
 31
0.0
  0
LINE
  5
213
330
1CC
100
AcDbEntity
  8
AM_9
100
AcDbLine
 10
0.1245599989737231
 20
-1.42
 30
0.0
 11
-0.1245599989737232
 21
-1.42
 31
0.0
  0
LINE
  5
214
330
1CC
100
AcDbEntity
  8
AM_5
100
AcDbLine
 10
4.69
 20
-0.0000000000000001
 30
0.0
 11
4.69
 21
-0.88
 31
0.0
  0
LINE
  5
215
330
1CC
100
AcDbEntity
  8
AM_5
100
AcDbLine
 10
3.94
 20
-0.0000000000000001
 30
0.0
 11
3.94
 21
-0.8799999999999994
 31
0.0
  0
LINE
  5
216
330
1CC
100
AcDbEntity
  8
AM_5
100
AcDbLine
 10
-3.94
 20
-0.0000000000000001
 30
0.0
 11
-3.94
 21
-0.88
 31
0.0
  0
LINE
  5
217
330
1CC
100
AcDbEntity
  8
AM_5
100
AcDbLine
 10
-4.69
 20
-0.0000000000000001
 30
0.0
 11
-4.69
 21
-0.88
 31
0.0
  0
LINE
  5
21A
330
1CC
100
AcDbEntity
  8
AM_7
100
AcDbLine
 10
-2.1575
 20
0.0440000000000002
 30
0.0
 11
-2.1575
 21
-0.9239999999999998
 31
0.0
  0
LINE
  5
21B
330
1CC
100
AcDbEntity
  8
AM_7
100
AcDbLine
 10
2.1575
 20
0.0439999999999998
 30
0.0
 11
2.1575
 21
-0.9240000000000004
 31
0.0
  0
LINE
  5
21C
330
1CC
100
AcDbEntity
  8
AM_7
100
AcDbLine
 10
4.315
 20
0.044
 30
0.0
 11
4.315
 21
-0.924
 31
0.0
  0
LINE
  5
21D
330
1CC
100
AcDbEntity
  8
AM_7
100
AcDbLine
 10
-4.315
 20
0.044
 30
0.0
 11
-4.315
 21
-0.924
 31
0.0
  0
LINE
  5
21E
330
1CC
100
AcDbEntity
  8
AM_7
100
AcDbLine
 10
0.0
 20
3.641
 30
0.0
 11
0.0
 21
-3.641
 31
0.0
  0
LINE
  5
21F
330
1CC
100
AcDbEntity
  8
AM_4
100
AcDbLine
 10
-3.503124999999999
 20
1.89
 30
0.0
 11
3.503124999999999
 21
1.89
 31
0.0
  0
LINE
  5
220
330
1CC
100
AcDbEntity
  8
AM_4
100
AcDbLine
 10
-3.503124999999999
 20
1.89
 30
0.0
 11
-3.522331423220461
 21
1.34
 31
0.0
  0
LINE
  5
221
330
1CC
100
AcDbEntity
  8
AM_4
100
AcDbLine
 10
3.522331423220461
 20
1.34
 30
0.0
 11
3.503124999999999
 21
1.89
 31
0.0
  0
LINE
  5
222
330
1CC
100
AcDbEntity
  8
AM_4
100
AcDbLine
 10
-3.6875
 20
-0.8799999999999999
 30
0.0
 11
-3.6875
 21
-1.42
 31
0.0
  0
LINE
  5
223
330
1CC
100
AcDbEntity
  8
AM_4
100
AcDbLine
 10
-3.6875
 20
-1.42
 30
0.0
 11
-0.1245599989737232
 21
-1.42
 31
0.0
  0
LINE
  5
224
330
1CC
100
AcDbEntity
  8
AM_4
100
AcDbLine
 10
0.1245599989737231
 20
-1.42
 30
0.0
 11
3.6875
 21
-1.42
 31
0.0
  0
LINE
  5
225
330
1CC
100
AcDbEntity
  8
AM_4
100
AcDbLine
 10
3.6875
 20
-1.42
 30
0.0
 11
3.6875
 21
-0.8799999999999999
 31
0.0
  0
LINE
  5
226
330
1CC
100
AcDbEntity
  8
AM_4
100
AcDbLine
 10
-3.6875
 20
1.34
 30
0.0
 11
3.6875
 21
1.34
 31
0.0
  0
LINE
  5
227
330
1CC
100
AcDbEntity
  8
AM_4
100
AcDbLine
 10
3.6875
 20
-0.0000000000000003
 30
0.0
 11
3.6875
 21
1.34
 31
0.0
  0
LINE
  5
228
330
1CC
100
AcDbEntity
  8
AM_4
100
AcDbLine
 10
-3.6875
 20
1.34
 30
0.0
 11
-3.6875
 21
-0.0000000000000003
 31
0.0
  0
LINE
  5
229
330
1CC
100
AcDbEntity
  8
AM_4
100
AcDbLine
 10
-0.88
 20
-0.8799999999999998
 30
0.0
 11
-0.88
 21
-1.42
 31
0.0
  0
LINE
  5
22A
330
1CC
100
AcDbEntity
  8
AM_4
100
AcDbLine
 10
0.88
 20
-0.8799999999999998
 30
0.0
 11
0.88
 21
-1.42
 31
0.0
  0
LINE
  5
22B
330
1CC
100
AcDbEntity
  8
AM_4
100
AcDbLine
 10
-5.125
 20
0.0
 30
0.0
 11
5.125
 21
0.0
 31
0.0
  0
LINE
  5
22C
330
1CC
100
AcDbEntity
  8
AM_4
100
AcDbLine
 10
-5.125
 20
-0.8799999999999999
 30
0.0
 11
5.125
 21
-0.8799999999999999
 31
0.0
  0
LINE
  5
22D
330
1CC
100
AcDbEntity
  8
AM_4
100
AcDbLine
 10
5.125
 20
-0.8799999999999999
 30
0.0
 11
5.125
 21
0.0
 31
0.0
  0
LINE
  5
22E
330
1CC
100
AcDbEntity
  8
AM_4
100
AcDbLine
 10
-5.125
 20
0.0
 30
0.0
 11
-5.125
 21
-0.8799999999999999
 31
0.0
  0
ENDBLK
  5
1CF
330
1CC
100
AcDbEntity
  8
0
100
AcDbBlockEnd
  0
ENDSEC
  0
SECTION
  2
ENTITIES
  0
INSERT
  5
6F
330
1F
100
AcDbEntity
  8
0
100
AcDbBlockReference
  2
1_072298_4
 10
0.0
 20
0.0
 30
0.0
  0
POINT
  5
230
330
1F
100
AcDbEntity
  8
ConnectionPoints
100
AcDbPoint
 10
0.0
 20
-2.318000333333333
 30
-2.204861111111111
  0
POINT
  5
231
330
1F
100
AcDbEntity
  8
ConnectionPoints
100
AcDbPoint
 10
0.0
 20
-2.318000333333333
 30
2.204861111111111
  0
POINT
  5
232
330
1F
100
AcDbEntity
  8
ConnectionPoints
100
AcDbPoint
 10
0.0
 20
-2.132833333333334
 30
0.0000000000000001
  0
POINT
  5
233
330
1F
100
AcDbEntity
  8
ConnectionPoints
100
AcDbPoint
 10
0.0
 20
-2.45
 30
0.0000000000000002
  0
POINT
  5
234
330
1F
100
AcDbEntity
  8
ConnectionPoints
100
AcDbPoint
 10
0.0
 20
-2.331833333333333
 30
0.0000000000000001
  0
POINT
  5
235
330
1F
100
AcDbEntity
  8
ConnectionPoints
100
AcDbPoint
 10
0.0
 20
-2.132833333333334
 30
2.204861111111111
  0
POINT
  5
236
330
1F
100
AcDbEntity
  8
ConnectionPoints
100
AcDbPoint
 10
0.0
 20
-2.318000000000001
 30
2.204861111111111
  0
POINT
  5
237
330
1F
100
AcDbEntity
  8
ConnectionPoints
100
AcDbPoint
 10
0.0
 20
-2.132833333333334
 30
-2.204861111111111
  0
POINT
  5
238
330
1F
100
AcDbEntity
  8
ConnectionPoints
100
AcDbPoint
 10
0.0
 20
-2.318000000000001
 30
-2.204861111111111
  0
POINT
  5
239
330
1F
100
AcDbEntity
  8
ConnectionPoints
100
AcDbPoint
 10
0.0
 20
-2.132833333333334
 30
0.0000000000000001
  0
POINT
  5
23A
330
1F
100
AcDbEntity
  8
ConnectionPoints
100
AcDbPoint
 10
0.0
 20
-1.150000000000001
 30
4.056250000000001
  0
POINT
  5
23B
330
1F
100
AcDbEntity
  8
ConnectionPoints
100
AcDbPoint
 10
0.0
 20
-1.150000000000001
 30
-4.056250000000002
  0
POINT
  5
23C
330
1F
100
AcDbEntity
  8
ConnectionPoints
100
AcDbPoint
 10
0.0
 20
-2.2
 30
0.0000000000000001
  0
POINT
  5
23D
330
1F
100
AcDbEntity
  8
ConnectionPoints
100
AcDbPoint
 10
0.0
 20
-2.45
 30
0.0000000000000002
  0
ENDSEC
  0
SECTION
  2
OBJECTS
  0
DICTIONARY
  5
C
330
0
100
AcDbDictionary
281
     1
  3
ACAD_DETAILVIEWSTYLE
350
245
  3
ACAD_GROUP
350
D
  3
ACAD_LAYOUT
350
1A
  3
ACAD_MATERIAL
350
43
  3
ACAD_MLEADERSTYLE
350
6B
  3
ACAD_MLINESTYLE
350
17
  3
ACAD_PLOTSETTINGS
350
19
  3
ACAD_PLOTSTYLENAME
350
E
  3
ACAD_SCALELIST
350
47
  3
ACAD_SECTIONVIEWSTYLE
350
246
  3
ACAD_TABLESTYLE
350
69
  3
ACAD_VISUALSTYLE
350
2A
  3
ACDB_RECOMPOSE_DATA
350
242
  3
AcDbVariableDictionary
350
23E
  0
SUN
  5
6D
330
29
100
AcDbSun
 90
        1
290
     0
 63
     7
421
 16777215
 40
1.0
291
     1
 91
  2455826
 92
 54000000
292
     0
 70
     2
 71
   256
280
     1
  0
DICTIONARY
  5
245
102
{ACAD_REACTORS
330
C
102
}
330
C
100
AcDbDictionary
281
     1
  0
DICTIONARY
  5
D
102
{ACAD_REACTORS
330
C
102
}
330
C
100
AcDbDictionary
281
     1
  0
DICTIONARY
  5
1A
102
{ACAD_REACTORS
330
C
102
}
330
C
100
AcDbDictionary
281
     1
  3
Layout1
350
1E
  3
Layout2
350
26
  3
Model
350
22
  0
DICTIONARY
  5
43
102
{ACAD_REACTORS
330
C
102
}
330
C
100
AcDbDictionary
281
     1
  3
ByBlock
350
45
  3
ByLayer
350
44
  3
Global
350
46
  0
DICTIONARY
  5
6B
102
{ACAD_REACTORS
330
C
102
}
330
C
100
AcDbDictionary
281
     1
  3
Standard
350
6C
  0
DICTIONARY
  5
17
102
{ACAD_REACTORS
330
C
102
}
330
C
100
AcDbDictionary
281
     1
  3
Standard
350
18
  0
DICTIONARY
  5
19
102
{ACAD_REACTORS
330
C
102
}
330
C
100
AcDbDictionary
281
     1
  0
ACDBDICTIONARYWDFLT
  5
E
102
{ACAD_REACTORS
330
C
102
}
330
C
100
AcDbDictionary
281
     1
  3
Normal
350
F
100
AcDbDictionaryWithDefault
340
F
  0
DICTIONARY
  5
47
102
{ACAD_REACTORS
330
C
102
}
330
C
100
AcDbDictionary
281
     1
  3
A0
350
48
  3
A1
350
49
  3
A2
350
4A
  3
A3
350
4B
  3
A4
350
4C
  3
A5
350
4D
  3
A6
350
4E
  3
A7
350
4F
  3
A8
350
50
  3
A9
350
51
  3
B0
350
52
  3
B1
350
53
  3
B2
350
54
  3
B3
350
55
  3
B4
350
56
  3
B5
350
57
  3
B6
350
58
  3
B7
350
59
  3
B8
350
5A
  3
B9
350
5B
  3
C0
350
5C
  3
C1
350
5D
  3
C2
350
5E
  3
C3
350
5F
  3
C4
350
60
  3
C5
350
61
  3
C6
350
62
  3
C7
350
63
  3
C8
350
64
  3
C9
350
65
  3
D0
350
66
  3
D1
350
67
  3
D2
350
68
  0
DICTIONARY
  5
246
102
{ACAD_REACTORS
330
C
102
}
330
C
100
AcDbDictionary
281
     1
  0
DICTIONARY
  5
69
102
{ACAD_REACTORS
330
C
102
}
330
C
100
AcDbDictionary
281
     1
  3
Standard
350
6A
  0
DICTIONARY
  5
2A
102
{ACAD_REACTORS
330
C
102
}
330
C
100
AcDbDictionary
281
     1
  3
2dWireframe
350
2F
  3
Basic
350
32
  3
Brighten
350
36
  3
ColorChange
350
3A
  3
Conceptual
350
34
  3
Dim
350
35
  3
EdgeColorOff
350
3D
  3
Facepattern
350
39
  3
Flat
350
2B
  3
FlatWithEdges
350
2C
  3
Gouraud
350
2D
  3
GouraudWithEdges
350
2E
  3
Hidden
350
31
  3
JitterOff
350
3B
  3
Linepattern
350
38
  3
OverhangOff
350
3C
  3
Realistic
350
33
  3
Shaded
350
42
  3
Shaded with edges
350
41
  3
Shades of Gray
350
3E
  3
Sketchy
350
3F
  3
Thicken
350
37
  3
Wireframe
350
30
  3
X-Ray
350
40
  0
XRECORD
  5
242
102
{ACAD_REACTORS
330
C
102
}
330
C
100
AcDbXrecord
280
     1
 90
        1
330
6A
  0
DICTIONARY
  5
23E
102
{ACAD_REACTORS
330
C
102
}
330
C
100
AcDbDictionary
281
     1
  3
CANNOSCALE
350
23F
  3
CMLEADERSTYLE
350
244
  3
CTABLESTYLE
350
243
  0
LAYOUT
  5
1E
102
{ACAD_REACTORS
330
1A
102
}
330
1A
100
AcDbPlotSettings
  1

  2
none_device
  4

  6

 40
0.0
 41
0.0
 42
0.0
 43
0.0
 44
0.0
 45
0.0
 46
0.0
 47
0.0
 48
0.0
 49
0.0
140
0.0
141
0.0
142
1.0
143
1.0
 70
   688
 72
     0
 73
     0
 74
     5
  7

 75
    16
 76
     0
 77
     2
 78
   300
147
1.0
148
0.0
149
0.0
100
AcDbLayout
  1
Layout1
 70
     1
 71
     1
 10
0.0
 20
0.0
 11
12.0
 21
9.0
 12
0.0
 22
0.0
 32
0.0
 14
1.000000000000000E+20
 24
1.000000000000000E+20
 34
1.000000000000000E+20
 15
-1.000000000000000E+20
 25
-1.000000000000000E+20
 35
-1.000000000000000E+20
146
0.0
 13
0.0
 23
0.0
 33
0.0
 16
1.0
 26
0.0
 36
0.0
 17
0.0
 27
1.0
 37
0.0
 76
     0
330
1B
  0
LAYOUT
  5
26
102
{ACAD_REACTORS
330
1A
102
}
330
1A
100
AcDbPlotSettings
  1

  2
none_device
  4

  6

 40
0.0
 41
0.0
 42
0.0
 43
0.0
 44
0.0
 45
0.0
 46
0.0
 47
0.0
 48
0.0
 49
0.0
140
0.0
141
0.0
142
1.0
143
1.0
 70
   688
 72
     0
 73
     0
 74
     5
  7

 75
    16
 76
     0
 77
     2
 78
   300
147
1.0
148
0.0
149
0.0
100
AcDbLayout
  1
Layout2
 70
     1
 71
     2
 10
0.0
 20
0.0
 11
0.0
 21
0.0
 12
0.0
 22
0.0
 32
0.0
 14
0.0
 24
0.0
 34
0.0
 15
0.0
 25
0.0
 35
0.0
146
0.0
 13
0.0
 23
0.0
 33
0.0
 16
1.0
 26
0.0
 36
0.0
 17
0.0
 27
1.0
 37
0.0
 76
     0
330
23
  0
LAYOUT
  5
22
102
{ACAD_REACTORS
330
1A
102
}
330
1A
100
AcDbPlotSettings
  1

  2
none_device
  4
Letter_(8.50_x_11.00_Inches)
  6

 40
6.35
 41
6.35
 42
6.35000508
 43
6.35000508
 44
215.9
 45
279.4
 46
0.0
 47
0.0
 48
0.0
 49
0.0
140
0.0
141
0.0
142
1.0
143
1.0
 70
  1712
 72
     0
 73
     0
 74
     0
  7

 75
     0
 76
     0
 77
     2
 78
   300
147
1.0
148
0.0
149
0.0
100
AcDbLayout
  1
Model
 70
     1
 71
     0
 10
0.0
 20
0.0
 11
12.0
 21
9.0
 12
0.0
 22
0.0
 32
0.0
 14
1.000000000000000E+20
 24
1.000000000000000E+20
 34
1.000000000000000E+20
 15
-1.000000000000000E+20
 25
-1.000000000000000E+20
 35
-1.000000000000000E+20
146
0.0
 13
0.0
 23
0.0
 33
0.0
 16
1.0
 26
0.0
 36
0.0
 17
0.0
 27
1.0
 37
0.0
 76
     0
330
1F
331
29
  0
MATERIAL
  5
45
102
{ACAD_REACTORS
330
43
102
}
330
43
100
AcDbMaterial
  1
ByBlock
 72
     1
 94
      127
  0
MATERIAL
  5
44
102
{ACAD_REACTORS
330
43
102
}
330
43
100
AcDbMaterial
  1
ByLayer
 72
     1
 94
      127
  0
MATERIAL
  5
46
102
{ACAD_REACTORS
330
43
102
}
330
43
100
AcDbMaterial
  1
Global
 72
     1
 94
      127
  0
MLEADERSTYLE
  5
6C
102
{ACAD_REACTORS
330
6B
102
}
330
6B
100
AcDbMLeaderStyle
179
     2
170
     2
171
     1
172
     0
 90
        2
 40
0.0
 41
0.0
173
     1
 91
-1056964608
340
14
 92
       -2
290
     1
 42
0.09
291
     1
 43
0.36
  3
Standard
341
0
 44
0.18
300

342
11
174
     1
178
     6
175
     1
176
     0
 93
-1056964608
 45
0.18
292
     0
297
     0
 46
0.18
343
0
 94
-1056964608
 47
1.0
 49
1.0
140
1.0
293
     1
141
0.0
294
     1
177
     0
142
1.0
295
     0
296
     0
143
0.125
271
     0
272
     9
273
     9
298
     0
  0
MLINESTYLE
  5
18
102
{ACAD_REACTORS
330
17
102
}
330
17
100
AcDbMlineStyle
  2
Standard
 70
     0
  3

 62
   256
 51
90.0
 52
90.0
 71
     2
 49
0.5
 62
   256
  6
BYLAYER
 49
-0.5
 62
   256
  6
BYLAYER
  0
ACDBPLACEHOLDER
  5
F
102
{ACAD_REACTORS
330
E
102
}
330
E
  0
SCALE
  5
48
102
{ACAD_REACTORS
330
47
102
}
330
47
100
AcDbScale
 70
     0
300
1:1
140
1.0
141
1.0
290
     1
  0
SCALE
  5
49
102
{ACAD_REACTORS
330
47
102
}
330
47
100
AcDbScale
 70
     0
300
1:2
140
1.0
141
2.0
290
     0
  0
SCALE
  5
4A
102
{ACAD_REACTORS
330
47
102
}
330
47
100
AcDbScale
 70
     0
300
1:4
140
1.0
141
4.0
290
     0
  0
SCALE
  5
4B
102
{ACAD_REACTORS
330
47
102
}
330
47
100
AcDbScale
 70
     0
300
1:5
140
1.0
141
5.0
290
     0
  0
SCALE
  5
4C
102
{ACAD_REACTORS
330
47
102
}
330
47
100
AcDbScale
 70
     0
300
1:8
140
1.0
141
8.0
290
     0
  0
SCALE
  5
4D
102
{ACAD_REACTORS
330
47
102
}
330
47
100
AcDbScale
 70
     0
300
1:10
140
1.0
141
10.0
290
     0
  0
SCALE
  5
4E
102
{ACAD_REACTORS
330
47
102
}
330
47
100
AcDbScale
 70
     0
300
1:16
140
1.0
141
16.0
290
     0
  0
SCALE
  5
4F
102
{ACAD_REACTORS
330
47
102
}
330
47
100
AcDbScale
 70
     0
300
1:20
140
1.0
141
20.0
290
     0
  0
SCALE
  5
50
102
{ACAD_REACTORS
330
47
102
}
330
47
100
AcDbScale
 70
     0
300
1:30
140
1.0
141
30.0
290
     0
  0
SCALE
  5
51
102
{ACAD_REACTORS
330
47
102
}
330
47
100
AcDbScale
 70
     0
300
1:40
140
1.0
141
40.0
290
     0
  0
SCALE
  5
52
102
{ACAD_REACTORS
330
47
102
}
330
47
100
AcDbScale
 70
     0
300
1:50
140
1.0
141
50.0
290
     0
  0
SCALE
  5
53
102
{ACAD_REACTORS
330
47
102
}
330
47
100
AcDbScale
 70
     0
300
1:100
140
1.0
141
100.0
290
     0
  0
SCALE
  5
54
102
{ACAD_REACTORS
330
47
102
}
330
47
100
AcDbScale
 70
     0
300
2:1
140
2.0
141
1.0
290
     0
  0
SCALE
  5
55
102
{ACAD_REACTORS
330
47
102
}
330
47
100
AcDbScale
 70
     0
300
4:1
140
4.0
141
1.0
290
     0
  0
SCALE
  5
56
102
{ACAD_REACTORS
330
47
102
}
330
47
100
AcDbScale
 70
     0
300
8:1
140
8.0
141
1.0
290
     0
  0
SCALE
  5
57
102
{ACAD_REACTORS
330
47
102
}
330
47
100
AcDbScale
 70
     0
300
10:1
140
10.0
141
1.0
290
     0
  0
SCALE
  5
58
102
{ACAD_REACTORS
330
47
102
}
330
47
100
AcDbScale
 70
     0
300
100:1
140
100.0
141
1.0
290
     0
  0
SCALE
  5
59
102
{ACAD_REACTORS
330
47
102
}
330
47
100
AcDbScale
 70
     0
300
1/128" = 1'-0"
140
0.0078125
141
12.0
290
     0
  0
SCALE
  5
5A
102
{ACAD_REACTORS
330
47
102
}
330
47
100
AcDbScale
 70
     0
300
1/64" = 1'-0"
140
0.015625
141
12.0
290
     0
  0
SCALE
  5
5B
102
{ACAD_REACTORS
330
47
102
}
330
47
100
AcDbScale
 70
     0
300
1/32" = 1'-0"
140
0.03125
141
12.0
290
     0
  0
SCALE
  5
5C
102
{ACAD_REACTORS
330
47
102
}
330
47
100
AcDbScale
 70
     0
300
1/16" = 1'-0"
140
0.0625
141
12.0
290
     0
  0
SCALE
  5
5D
102
{ACAD_REACTORS
330
47
102
}
330
47
100
AcDbScale
 70
     0
300
3/32" = 1'-0"
140
0.09375
141
12.0
290
     0
  0
SCALE
  5
5E
102
{ACAD_REACTORS
330
47
102
}
330
47
100
AcDbScale
 70
     0
300
1/8" = 1'-0"
140
0.125
141
12.0
290
     0
  0
SCALE
  5
5F
102
{ACAD_REACTORS
330
47
102
}
330
47
100
AcDbScale
 70
     0
300
3/16" = 1'-0"
140
0.1875
141
12.0
290
     0
  0
SCALE
  5
60
102
{ACAD_REACTORS
330
47
102
}
330
47
100
AcDbScale
 70
     0
300
1/4" = 1'-0"
140
0.25
141
12.0
290
     0
  0
SCALE
  5
61
102
{ACAD_REACTORS
330
47
102
}
330
47
100
AcDbScale
 70
     0
300
3/8" = 1'-0"
140
0.375
141
12.0
290
     0
  0
SCALE
  5
62
102
{ACAD_REACTORS
330
47
102
}
330
47
100
AcDbScale
 70
     0
300
1/2" = 1'-0"
140
0.5
141
12.0
290
     0
  0
SCALE
  5
63
102
{ACAD_REACTORS
330
47
102
}
330
47
100
AcDbScale
 70
     0
300
3/4" = 1'-0"
140
0.75
141
12.0
290
     0
  0
SCALE
  5
64
102
{ACAD_REACTORS
330
47
102
}
330
47
100
AcDbScale
 70
     0
300
1" = 1'-0"
140
1.0
141
12.0
290
     0
  0
SCALE
  5
65
102
{ACAD_REACTORS
330
47
102
}
330
47
100
AcDbScale
 70
     0
300
1-1/2" = 1'-0"
140
1.5
141
12.0
290
     0
  0
SCALE
  5
66
102
{ACAD_REACTORS
330
47
102
}
330
47
100
AcDbScale
 70
     0
300
3" = 1'-0"
140
3.0
141
12.0
290
     0
  0
SCALE
  5
67
102
{ACAD_REACTORS
330
47
102
}
330
47
100
AcDbScale
 70
     0
300
6" = 1'-0"
140
6.0
141
12.0
290
     0
  0
SCALE
  5
68
102
{ACAD_REACTORS
330
47
102
}
330
47
100
AcDbScale
 70
     0
300
1'-0" = 1'-0"
140
12.0
141
12.0
290
     0
  0
TABLESTYLE
  5
6A
102
{ACAD_REACTORS
330
69
102
}
102
{ACAD_XDICTIONARY
360
240
102
}
330
69
100
AcDbTableStyle
  3
Standard
 70
     0
 71
     0
 40
0.06
 41
0.06
280
     0
281
     0
  7
Standard
140
0.18
170
     2
 62
     0
 63
   257
283
     0
 90
        4
 91
        0
  1

274
    -2
284
     1
 64
     0
275
    -2
285
     1
 65
     0
276
    -2
286
     1
 66
     0
277
    -2
287
     1
 67
     0
278
    -2
288
     1
 68
     0
279
    -2
289
     1
 69
     0
  7
Standard
140
0.25
170
     5
 62
     0
 63
   257
283
     0
 90
        4
 91
        0
  1

274
    -2
284
     1
 64
     0
275
    -2
285
     1
 65
     0
276
    -2
286
     1
 66
     0
277
    -2
287
     1
 67
     0
278
    -2
288
     1
 68
     0
279
    -2
289
     1
 69
     0
  7
Standard
140
0.18
170
     5
 62
     0
 63
   257
283
     0
 90
        4
 91
        0
  1

274
    -2
284
     1
 64
     0
275
    -2
285
     1
 65
     0
276
    -2
286
     1
 66
     0
277
    -2
287
     1
 67
     0
278
    -2
288
     1
 68
     0
279
    -2
289
     1
 69
     0
  0
VISUALSTYLE
  5
2F
102
{ACAD_REACTORS
330
2A
102
}
330
2A
100
AcDbVisualStyle
  2
2dWireframe
 70
     4
177
     3
291
     0
 70
    58
 90
        0
176
     1
 90
        2
176
     1
 90
        0
176
     1
 90
        0
176
     1
 40
0.6
176
     1
 40
30.0
176
     1
 62
     7
420
 16777215
176
     1
 90
        1
176
     1
 90
        4
176
     1
 62
     7
176
     1
 62
   257
176
     1
 90
        1
176
     1
 90
        1
176
     1
 40
1.0
176
     1
 90
        0
176
     1
 62
   257
176
     1
 40
1.0
176
     1
 90
        1
176
     1
 90
        6
176
     1
 90
        2
176
     1
 62
     7
176
     1
 90
        5
176
     1
 90
        0
176
     1
 90
        0
176
     1
290
     0
176
     1
 90
        1
176
     1
 40
0.0
176
     1
 90
        0
176
     1
290
     1
176
     1
290
     1
176
     1
290
     0
176
     1
290
     0
176
     1
290
     0
176
     1
290
     0
176
     1
290
     0
176
     1
290
     0
176
     1
290
     0
176
     1
 90
       50
176
     1
 40
0.0
176
     1
 40
1.0
176
     1
 90
        0
176
     1
 62
    18
420
        0
176
     1
 90
       50
176
     1
 90
        3
176
     1
 62
     5
420
      255
176
     1
290
     0
176
     1
 90
       50
176
     1
 90
       50
176
     1
 90
       50
176
     1
290
     0
176
     1
 90
       50
176
     1
 62
   256
176
     0
 40
1.0
176
     0
 90
        2
176
     1
  1
strokes_ogs.tif
176
     1
290
     0
176
     1
 40
1.0
176
     1
 40
1.0
176
     1
  0
VISUALSTYLE
  5
32
102
{ACAD_REACTORS
330
2A
102
}
330
2A
100
AcDbVisualStyle
  2
Basic
 70
     7
177
     3
291
     1
 70
    58
 90
        1
176
     1
 90
        0
176
     1
 90
        1
176
     1
 90
        0
176
     1
 40
0.6
176
     1
 40
30.0
176
     1
 62
     7
420
 16777215
176
     1
 90
        0
176
     1
 90
        4
176
     1
 62
     7
176
     1
 62
   257
176
     1
 90
        1
176
     1
 90
        1
176
     1
 40
1.0
176
     1
 90
        8
176
     1
 62
     7
176
     1
 40
1.0
176
     1
 90
        1
176
     1
 90
        6
176
     1
 90
        2
176
     1
 62
     7
176
     1
 90
        5
176
     1
 90
        0
176
     1
 90
        0
176
     1
290
     0
176
     1
 90
        1
176
     1
 40
0.0
176
     1
 90
        0
176
     1
290
     0
176
     1
290
     1
176
     1
290
     1
176
     1
290
     0
176
     1
290
     0
176
     1
290
     0
176
     1
290
     0
176
     1
290
     0
176
     1
290
     0
176
     1
 90
       50
176
     1
 40
0.0
176
     1
 40
1.0
176
     1
 90
        0
176
     1
 62
    18
420
        0
176
     1
 90
       50
176
     1
 90
        3
176
     1
 62
     5
420
      255
176
     1
290
     0
176
     1
 90
       50
176
     1
 90
       50
176
     1
 90
       50
176
     1
290
     0
176
     1
 90
       50
176
     1
 62
   256
176
     0
 40
1.0
176
     0
 90
        2
176
     1
  1
strokes_ogs.tif
176
     1
290
     0
176
     1
 40
1.0
176
     1
 40
1.0
176
     1
  0
VISUALSTYLE
  5
36
102
{ACAD_REACTORS
330
2A
102
}
330
2A
100
AcDbVisualStyle
  2
Brighten
 70
    12
177
     3
291
     1
 70
    58
 90
        2
176
     1
 90
        2
176
     1
 90
        0
176
     1
 90
        0
176
     1
 40
0.6
176
     1
 40
30.0
176
     1
 62
     7
420
 16777215
176
     1
 90
        1
176
     1
 90
        4
176
     1
 62
     7
176
     1
 62
   257
176
     1
 90
        1
176
     1
 90
        1
176
     1
 40
1.0
176
     1
 90
        8
176
     1
 62
     7
176
     1
 40
1.0
176
     1
 90
        1
176
     1
 90
        6
176
     1
 90
        2
176
     1
 62
     7
176
     1
 90
        5
176
     1
 90
        0
176
     1
 90
        0
176
     1
290
     0
176
     1
 90
        1
176
     1
 40
50.0
176
     1
 90
        0
176
     1
290
     0
176
     1
290
     1
176
     1
290
     1
176
     1
290
     0
176
     1
290
     0
176
     1
290
     0
176
     1
290
     0
176
     1
290
     0
176
     1
290
     0
176
     1
 90
       50
176
     1
 40
0.0
176
     1
 40
1.0
176
     1
 90
        0
176
     1
 62
    18
420
        0
176
     1
 90
       50
176
     1
 90
        3
176
     1
 62
     5
420
      255
176
     1
290
     0
176
     1
 90
       50
176
     1
 90
       50
176
     1
 90
       50
176
     1
290
     0
176
     1
 90
       50
176
     1
 62
   256
176
     0
 40
1.0
176
     0
 90
        2
176
     1
  1
strokes_ogs.tif
176
     1
290
     0
176
     1
 40
1.0
176
     1
 40
1.0
176
     1
  0
VISUALSTYLE
  5
3A
102
{ACAD_REACTORS
330
2A
102
}
330
2A
100
AcDbVisualStyle
  2
ColorChange
 70
    16
177
     3
291
     1
 70
    58
 90
        2
176
     1
 90
        2
176
     1
 90
        3
176
     1
 90
        0
176
     1
 40
0.6
176
     1
 40
30.0
176
     1
 62
     8
420
  8421504
176
     1
 90
        1
176
     1
 90
        4
176
     1
 62
     7
176
     1
 62
   257
176
     1
 90
        1
176
     1
 90
        1
176
     1
 40
1.0
176
     1
 90
        8
176
     1
 62
     8
420
  8421504
176
     1
 40
1.0
176
     1
 90
        1
176
     1
 90
        6
176
     1
 90
        2
176
     1
 62
     7
176
     1
 90
        5
176
     1
 90
        0
176
     1
 90
        0
176
     1
290
     0
176
     1
 90
        1
176
     1
 40
0.0
176
     1
 90
        0
176
     1
290
     0
176
     1
290
     1
176
     1
290
     1
176
     1
290
     0
176
     1
290
     0
176
     1
290
     0
176
     1
290
     0
176
     1
290
     0
176
     1
290
     0
176
     1
 90
       50
176
     1
 40
0.0
176
     1
 40
1.0
176
     1
 90
        0
176
     1
 62
    18
420
        0
176
     1
 90
       50
176
     1
 90
        3
176
     1
 62
     5
420
      255
176
     1
290
     0
176
     1
 90
       50
176
     1
 90
       50
176
     1
 90
       50
176
     1
290
     0
176
     1
 90
       50
176
     1
 62
   256
176
     0
 40
1.0
176
     0
 90
        2
176
     1
  1
strokes_ogs.tif
176
     1
290
     0
176
     1
 40
1.0
176
     1
 40
1.0
176
     1
  0
VISUALSTYLE
  5
34
102
{ACAD_REACTORS
330
2A
102
}
330
2A
100
AcDbVisualStyle
  2
Conceptual
 70
     9
177
     3
291
     0
 70
    58
 90
        3
176
     1
 90
        2
176
     1
 90
        0
176
     1
 90
        0
176
     1
 40
0.6
176
     1
 40
30.0
176
     1
 62
     7
420
 16777215
176
     1
 90
        2
176
     1
 90
        2
176
     1
 62
     7
176
     1
 62
   257
176
     1
 90
        1
176
     1
 90
        1
176
     1
 40
179.0
176
     1
 90
        8
176
     1
 62
     7
176
     1
 40
1.0
176
     1
 90
        1
176
     1
 90
        6
176
     1
 90
        2
176
     1
 62
     7
176
     1
 90
        3
176
     1
 90
        0
176
     1
 90
        0
176
     1
290
     0
176
     1
 90
        1
176
     1
 40
0.0
176
     1
 90
        0
176
     1
290
     0
176
     1
290
     1
176
     1
290
     1
176
     1
290
     0
176
     1
290
     0
176
     1
290
     0
176
     1
290
     0
176
     1
290
     0
176
     1
290
     0
176
     1
 90
       50
176
     1
 40
0.0
176
     1
 40
1.0
176
     1
 90
        0
176
     1
 62
    18
420
        0
176
     1
 90
       50
176
     1
 90
        3
176
     1
 62
     5
420
      255
176
     1
290
     0
176
     1
 90
       50
176
     1
 90
       50
176
     1
 90
       50
176
     1
290
     0
176
     1
 90
       50
176
     1
 62
   256
176
     0
 40
1.0
176
     0
 90
        2
176
     1
  1
strokes_ogs.tif
176
     1
290
     0
176
     1
 40
1.0
176
     1
 40
1.0
176
     1
  0
VISUALSTYLE
  5
35
102
{ACAD_REACTORS
330
2A
102
}
330
2A
100
AcDbVisualStyle
  2
Dim
 70
    11
177
     3
291
     1
 70
    58
 90
        2
176
     1
 90
        2
176
     1
 90
        0
176
     1
 90
        0
176
     1
 40
0.6
176
     1
 40
30.0
176
     1
 62
     7
420
 16777215
176
     1
 90
        1
176
     1
 90
        4
176
     1
 62
     7
176
     1
 62
   257
176
     1
 90
        1
176
     1
 90
        1
176
     1
 40
1.0
176
     1
 90
        8
176
     1
 62
     7
176
     1
 40
1.0
176
     1
 90
        1
176
     1
 90
        6
176
     1
 90
        2
176
     1
 62
     7
176
     1
 90
        5
176
     1
 90
        0
176
     1
 90
        0
176
     1
290
     0
176
     1
 90
        1
176
     1
 40
-50.0
176
     1
 90
        0
176
     1
290
     0
176
     1
290
     1
176
     1
290
     1
176
     1
290
     0
176
     1
290
     0
176
     1
290
     0
176
     1
290
     0
176
     1
290
     0
176
     1
290
     0
176
     1
 90
       50
176
     1
 40
0.0
176
     1
 40
1.0
176
     1
 90
        0
176
     1
 62
    18
420
        0
176
     1
 90
       50
176
     1
 90
        3
176
     1
 62
     5
420
      255
176
     1
290
     0
176
     1
 90
       50
176
     1
 90
       50
176
     1
 90
       50
176
     1
290
     0
176
     1
 90
       50
176
     1
 62
   256
176
     0
 40
1.0
176
     0
 90
        2
176
     1
  1
strokes_ogs.tif
176
     1
290
     0
176
     1
 40
1.0
176
     1
 40
1.0
176
     1
  0
VISUALSTYLE
  5
3D
102
{ACAD_REACTORS
330
2A
102
}
330
2A
100
AcDbVisualStyle
  2
EdgeColorOff
 70
    22
177
     3
291
     1
 70
    58
 90
        2
176
     0
 90
        2
176
     0
 90
        0
176
     0
 90
        0
176
     0
 40
0.6
176
     0
 40
30.0
176
     0
 62
     7
420
 16777215
176
     0
 90
        1
176
     0
 90
        4
176
     0
 62
     7
176
     0
 62
   257
176
     0
 90
        1
176
     0
 90
        1
176
     0
 40
1.0
176
     0
 90
        8
176
     2
 62
     7
176
     0
 40
1.0
176
     0
 90
        1
176
     0
 90
        6
176
     0
 90
        2
176
     0
 62
     7
176
     0
 90
        5
176
     0
 90
        0
176
     0
 90
        0
176
     0
290
     0
176
     0
 90
        1
176
     0
 40
0.0
176
     0
 90
        0
176
     0
290
     0
176
     0
290
     1
176
     0
290
     1
176
     0
290
     0
176
     0
290
     0
176
     0
290
     0
176
     0
290
     0
176
     0
290
     0
176
     0
290
     0
176
     0
 90
       50
176
     0
 40
0.0
176
     0
 40
1.0
176
     0
 90
        0
176
     0
 62
    18
420
        0
176
     0
 90
       50
176
     0
 90
        3
176
     0
 62
     5
420
      255
176
     0
290
     0
176
     0
 90
       50
176
     0
 90
       50
176
     0
 90
       50
176
     0
290
     0
176
     0
 90
       50
176
     0
 62
   256
176
     0
 40
1.0
176
     0
 90
        2
176
     0
  1
strokes_ogs.tif
176
     0
290
     0
176
     0
 40
1.0
176
     0
 40
1.0
176
     0
  0
VISUALSTYLE
  5
39
102
{ACAD_REACTORS
330
2A
102
}
330
2A
100
AcDbVisualStyle
  2
Facepattern
 70
    15
177
     3
291
     1
 70
    58
 90
        2
176
     1
 90
        2
176
     1
 90
        0
176
     1
 90
        0
176
     1
 40
0.6
176
     1
 40
30.0
176
     1
 62
     7
420
 16777215
176
     1
 90
        1
176
     1
 90
        4
176
     1
 62
     7
176
     1
 62
   257
176
     1
 90
        1
176
     1
 90
        1
176
     1
 40
1.0
176
     1
 90
        8
176
     1
 62
     7
176
     1
 40
1.0
176
     1
 90
        1
176
     1
 90
        6
176
     1
 90
        2
176
     1
 62
     7
176
     1
 90
        5
176
     1
 90
        0
176
     1
 90
        0
176
     1
290
     0
176
     1
 90
        1
176
     1
 40
0.0
176
     1
 90
        0
176
     1
290
     0
176
     1
290
     1
176
     1
290
     1
176
     1
290
     0
176
     1
290
     0
176
     1
290
     0
176
     1
290
     0
176
     1
290
     0
176
     1
290
     0
176
     1
 90
       50
176
     1
 40
0.0
176
     1
 40
1.0
176
     1
 90
        0
176
     1
 62
    18
420
        0
176
     1
 90
       50
176
     1
 90
        3
176
     1
 62
     5
420
      255
176
     1
290
     0
176
     1
 90
       50
176
     1
 90
       50
176
     1
 90
       50
176
     1
290
     0
176
     1
 90
       50
176
     1
 62
   256
176
     0
 40
1.0
176
     0
 90
        2
176
     1
  1
strokes_ogs.tif
176
     1
290
     0
176
     1
 40
1.0
176
     1
 40
1.0
176
     1
  0
VISUALSTYLE
  5
2B
102
{ACAD_REACTORS
330
2A
102
}
330
2A
100
AcDbVisualStyle
  2
Flat
 70
     0
177
     3
291
     1
 70
    58
 90
        2
176
     1
 90
        1
176
     1
 90
        1
176
     1
 90
        2
176
     1
 40
0.6
176
     1
 40
30.0
176
     1
 62
     7
420
 16777215
176
     1
 90
        0
176
     1
 90
        0
176
     1
 62
     7
176
     1
 62
   257
176
     1
 90
        1
176
     1
 90
        1
176
     1
 40
1.0
176
     1
 90
        8
176
     1
 62
     7
176
     1
 40
1.0
176
     1
 90
        1
176
     1
 90
        6
176
     1
 90
        2
176
     1
 62
     7
176
     1
 90
        5
176
     1
 90
        0
176
     1
 90
        0
176
     1
290
     0
176
     1
 90
       13
176
     1
 40
0.0
176
     1
 90
        0
176
     1
290
     0
176
     1
290
     1
176
     1
290
     1
176
     1
290
     0
176
     1
290
     0
176
     1
290
     0
176
     1
290
     0
176
     1
290
     0
176
     1
290
     0
176
     1
 90
       50
176
     1
 40
0.0
176
     1
 40
1.0
176
     1
 90
        0
176
     1
 62
    18
420
        0
176
     1
 90
       50
176
     1
 90
        3
176
     1
 62
     5
420
      255
176
     1
290
     0
176
     1
 90
       50
176
     1
 90
       50
176
     1
 90
       50
176
     1
290
     0
176
     1
 90
       50
176
     1
 62
   256
176
     0
 40
1.0
176
     0
 90
        2
176
     1
  1
strokes_ogs.tif
176
     1
290
     0
176
     1
 40
1.0
176
     1
 40
1.0
176
     1
  0
VISUALSTYLE
  5
2C
102
{ACAD_REACTORS
330
2A
102
}
330
2A
100
AcDbVisualStyle
  2
FlatWithEdges
 70
     1
177
     3
291
     1
 70
    58
 90
        2
176
     1
 90
        1
176
     1
 90
        1
176
     1
 90
        2
176
     1
 40
0.6
176
     1
 40
30.0
176
     1
 62
     7
420
 16777215
176
     1
 90
        1
176
     1
 90
        0
176
     1
 62
     7
176
     1
 62
   257
176
     1
 90
        1
176
     1
 90
        1
176
     1
 40
1.0
176
     1
 90
        0
176
     1
 62
   257
176
     1
 40
1.0
176
     1
 90
        1
176
     1
 90
        6
176
     1
 90
        2
176
     1
 62
     7
176
     1
 90
        5
176
     1
 90
        0
176
     1
 90
        0
176
     1
290
     0
176
     1
 90
       13
176
     1
 40
0.0
176
     1
 90
        0
176
     1
290
     0
176
     1
290
     1
176
     1
290
     1
176
     1
290
     0
176
     1
290
     0
176
     1
290
     0
176
     1
290
     0
176
     1
290
     0
176
     1
290
     0
176
     1
 90
       50
176
     1
 40
0.0
176
     1
 40
1.0
176
     1
 90
        0
176
     1
 62
    18
420
        0
176
     1
 90
       50
176
     1
 90
        3
176
     1
 62
     5
420
      255
176
     1
290
     0
176
     1
 90
       50
176
     1
 90
       50
176
     1
 90
       50
176
     1
290
     0
176
     1
 90
       50
176
     1
 62
   256
176
     0
 40
1.0
176
     0
 90
        2
176
     1
  1
strokes_ogs.tif
176
     1
290
     0
176
     1
 40
1.0
176
     1
 40
1.0
176
     1
  0
VISUALSTYLE
  5
2D
102
{ACAD_REACTORS
330
2A
102
}
330
2A
100
AcDbVisualStyle
  2
Gouraud
 70
     2
177
     3
291
     1
 70
    58
 90
        2
176
     1
 90
        2
176
     1
 90
        1
176
     1
 90
        2
176
     1
 40
0.6
176
     1
 40
30.0
176
     1
 62
     7
420
 16777215
176
     1
 90
        0
176
     1
 90
        0
176
     1
 62
     7
176
     1
 62
   257
176
     1
 90
        1
176
     1
 90
        1
176
     1
 40
1.0
176
     1
 90
        0
176
     1
 62
     7
176
     1
 40
1.0
176
     1
 90
        1
176
     1
 90
        6
176
     1
 90
        2
176
     1
 62
     7
176
     1
 90
        5
176
     1
 90
        0
176
     1
 90
        0
176
     1
290
     0
176
     1
 90
       13
176
     1
 40
0.0
176
     1
 90
        0
176
     1
290
     0
176
     1
290
     1
176
     1
290
     1
176
     1
290
     0
176
     1
290
     0
176
     1
290
     0
176
     1
290
     0
176
     1
290
     0
176
     1
290
     0
176
     1
 90
       50
176
     1
 40
0.0
176
     1
 40
1.0
176
     1
 90
        0
176
     1
 62
    18
420
        0
176
     1
 90
       50
176
     1
 90
        3
176
     1
 62
     5
420
      255
176
     1
290
     0
176
     1
 90
       50
176
     1
 90
       50
176
     1
 90
       50
176
     1
290
     0
176
     1
 90
       50
176
     1
 62
   256
176
     0
 40
1.0
176
     0
 90
        2
176
     1
  1
strokes_ogs.tif
176
     1
290
     0
176
     1
 40
1.0
176
     1
 40
1.0
176
     1
  0
VISUALSTYLE
  5
2E
102
{ACAD_REACTORS
330
2A
102
}
330
2A
100
AcDbVisualStyle
  2
GouraudWithEdges
 70
     3
177
     3
291
     1
 70
    58
 90
        2
176
     1
 90
        2
176
     1
 90
        1
176
     1
 90
        2
176
     1
 40
0.6
176
     1
 40
30.0
176
     1
 62
     7
420
 16777215
176
     1
 90
        1
176
     1
 90
        0
176
     1
 62
     7
176
     1
 62
   257
176
     1
 90
        1
176
     1
 90
        1
176
     1
 40
1.0
176
     1
 90
        0
176
     1
 62
   257
176
     1
 40
1.0
176
     1
 90
        1
176
     1
 90
        6
176
     1
 90
        2
176
     1
 62
     7
176
     1
 90
        5
176
     1
 90
        0
176
     1
 90
        0
176
     1
290
     0
176
     1
 90
       13
176
     1
 40
0.0
176
     1
 90
        0
176
     1
290
     0
176
     1
290
     1
176
     1
290
     1
176
     1
290
     0
176
     1
290
     0
176
     1
290
     0
176
     1
290
     0
176
     1
290
     0
176
     1
290
     0
176
     1
 90
       50
176
     1
 40
0.0
176
     1
 40
1.0
176
     1
 90
        0
176
     1
 62
    18
420
        0
176
     1
 90
       50
176
     1
 90
        3
176
     1
 62
     5
420
      255
176
     1
290
     0
176
     1
 90
       50
176
     1
 90
       50
176
     1
 90
       50
176
     1
290
     0
176
     1
 90
       50
176
     1
 62
   256
176
     0
 40
1.0
176
     0
 90
        2
176
     1
  1
strokes_ogs.tif
176
     1
290
     0
176
     1
 40
1.0
176
     1
 40
1.0
176
     1
  0
VISUALSTYLE
  5
31
102
{ACAD_REACTORS
330
2A
102
}
330
2A
100
AcDbVisualStyle
  2
Hidden
 70
     6
177
     3
291
     0
 70
    58
 90
        1
176
     1
 90
        2
176
     1
 90
        2
176
     1
 90
        0
176
     1
 40
0.6
176
     1
 40
30.0
176
     1
 62
     7
420
 16777215
176
     1
 90
        2
176
     1
 90
        2
176
     1
 62
     7
176
     1
 62
   257
176
     1
 90
        2
176
     1
 90
        1
176
     1
 40
40.0
176
     1
 90
        0
176
     1
 62
   257
176
     1
 40
1.0
176
     1
 90
        1
176
     1
 90
        6
176
     1
 90
        2
176
     1
 62
     7
176
     1
 90
        3
176
     1
 90
        0
176
     1
 90
        0
176
     1
290
     0
176
     1
 90
        1
176
     1
 40
0.0
176
     1
 90
        0
176
     1
290
     0
176
     1
290
     1
176
     1
290
     1
176
     1
290
     0
176
     1
290
     0
176
     1
290
     0
176
     1
290
     0
176
     1
290
     0
176
     1
290
     0
176
     1
 90
       50
176
     1
 40
0.0
176
     1
 40
1.0
176
     1
 90
        0
176
     1
 62
    18
420
        0
176
     1
 90
       50
176
     1
 90
        3
176
     1
 62
     5
420
      255
176
     1
290
     0
176
     1
 90
       50
176
     1
 90
       50
176
     1
 90
       50
176
     1
290
     0
176
     1
 90
       50
176
     1
 62
   256
176
     0
 40
1.0
176
     0
 90
        2
176
     1
  1
strokes_ogs.tif
176
     1
290
     0
176
     1
 40
1.0
176
     1
 40
1.0
176
     1
  0
VISUALSTYLE
  5
3B
102
{ACAD_REACTORS
330
2A
102
}
330
2A
100
AcDbVisualStyle
  2
JitterOff
 70
    20
177
     3
291
     1
 70
    58
 90
        2
176
     0
 90
        2
176
     0
 90
        0
176
     0
 90
        0
176
     0
 40
0.6
176
     0
 40
30.0
176
     0
 62
     7
420
 16777215
176
     0
 90
        1
176
     0
 90
        4
176
     0
 62
     7
176
     0
 62
   257
176
     0
 90
        1
176
     0
 90
        1
176
     0
 40
1.0
176
     0
 90
       10
176
     2
 62
     7
176
     0
 40
1.0
176
     0
 90
        1
176
     0
 90
        6
176
     0
 90
        2
176
     0
 62
     7
176
     0
 90
        5
176
     0
 90
        0
176
     0
 90
        0
176
     0
290
     0
176
     0
 90
        1
176
     0
 40
0.0
176
     0
 90
        0
176
     0
290
     0
176
     0
290
     1
176
     0
290
     1
176
     0
290
     0
176
     0
290
     0
176
     0
290
     0
176
     0
290
     0
176
     0
290
     0
176
     0
290
     0
176
     0
 90
       50
176
     0
 40
0.0
176
     0
 40
1.0
176
     0
 90
        0
176
     0
 62
    18
420
        0
176
     0
 90
       50
176
     0
 90
        3
176
     0
 62
     5
420
      255
176
     0
290
     0
176
     0
 90
       50
176
     0
 90
       50
176
     0
 90
       50
176
     0
290
     0
176
     0
 90
       50
176
     0
 62
   256
176
     0
 40
1.0
176
     0
 90
        2
176
     0
  1
strokes_ogs.tif
176
     0
290
     0
176
     0
 40
1.0
176
     0
 40
1.0
176
     0
  0
VISUALSTYLE
  5
38
102
{ACAD_REACTORS
330
2A
102
}
330
2A
100
AcDbVisualStyle
  2
Linepattern
 70
    14
177
     3
291
     1
 70
    58
 90
        2
176
     1
 90
        2
176
     1
 90
        0
176
     1
 90
        0
176
     1
 40
0.6
176
     1
 40
30.0
176
     1
 62
     7
420
 16777215
176
     1
 90
        1
176
     1
 90
        4
176
     1
 62
     7
176
     1
 62
   257
176
     1
 90
        7
176
     1
 90
        7
176
     1
 40
1.0
176
     1
 90
        8
176
     1
 62
     7
176
     1
 40
1.0
176
     1
 90
        1
176
     1
 90
        6
176
     1
 90
        2
176
     1
 62
     7
176
     1
 90
        5
176
     1
 90
        0
176
     1
 90
        0
176
     1
290
     0
176
     1
 90
        1
176
     1
 40
0.0
176
     1
 90
        0
176
     1
290
     0
176
     1
290
     1
176
     1
290
     1
176
     1
290
     0
176
     1
290
     0
176
     1
290
     0
176
     1
290
     0
176
     1
290
     0
176
     1
290
     0
176
     1
 90
       50
176
     1
 40
0.0
176
     1
 40
1.0
176
     1
 90
        0
176
     1
 62
    18
420
        0
176
     1
 90
       50
176
     1
 90
        3
176
     1
 62
     5
420
      255
176
     1
290
     0
176
     1
 90
       50
176
     1
 90
       50
176
     1
 90
       50
176
     1
290
     0
176
     1
 90
       50
176
     1
 62
   256
176
     0
 40
1.0
176
     0
 90
        2
176
     1
  1
strokes_ogs.tif
176
     1
290
     0
176
     1
 40
1.0
176
     1
 40
1.0
176
     1
  0
VISUALSTYLE
  5
3C
102
{ACAD_REACTORS
330
2A
102
}
330
2A
100
AcDbVisualStyle
  2
OverhangOff
 70
    21
177
     3
291
     1
 70
    58
 90
        2
176
     0
 90
        2
176
     0
 90
        0
176
     0
 90
        0
176
     0
 40
0.6
176
     0
 40
30.0
176
     0
 62
     7
420
 16777215
176
     0
 90
        1
176
     0
 90
        4
176
     0
 62
     7
176
     0
 62
   257
176
     0
 90
        1
176
     0
 90
        1
176
     0
 40
1.0
176
     0
 90
        9
176
     2
 62
     7
176
     0
 40
1.0
176
     0
 90
        1
176
     0
 90
        6
176
     0
 90
        2
176
     0
 62
     7
176
     0
 90
        5
176
     0
 90
        0
176
     0
 90
        0
176
     0
290
     0
176
     0
 90
        1
176
     0
 40
0.0
176
     0
 90
        0
176
     0
290
     0
176
     0
290
     1
176
     0
290
     1
176
     0
290
     0
176
     0
290
     0
176
     0
290
     0
176
     0
290
     0
176
     0
290
     0
176
     0
290
     0
176
     0
 90
       50
176
     0
 40
0.0
176
     0
 40
1.0
176
     0
 90
        0
176
     0
 62
    18
420
        0
176
     0
 90
       50
176
     0
 90
        3
176
     0
 62
     5
420
      255
176
     0
290
     0
176
     0
 90
       50
176
     0
 90
       50
176
     0
 90
       50
176
     0
290
     0
176
     0
 90
       50
176
     0
 62
   256
176
     0
 40
1.0
176
     0
 90
        2
176
     0
  1
strokes_ogs.tif
176
     0
290
     0
176
     0
 40
1.0
176
     0
 40
1.0
176
     0
  0
VISUALSTYLE
  5
33
102
{ACAD_REACTORS
330
2A
102
}
330
2A
100
AcDbVisualStyle
  2
Realistic
 70
     8
177
     3
291
     0
 70
    58
 90
        2
176
     1
 90
        3
176
     1
 90
        0
176
     1
 90
        2
176
     1
 40
0.6
176
     1
 40
30.0
176
     1
 62
     7
420
 16777215
176
     1
 90
        0
176
     1
 90
        0
176
     1
 62
     7
176
     1
 62
   257
176
     1
 90
        1
176
     1
 90
        1
176
     1
 40
1.0
176
     1
 90
        8
176
     1
 62
   257
176
     1
 40
1.0
176
     1
 90
        1
176
     1
 90
        6
176
     1
 90
        2
176
     1
 62
     7
176
     1
 90
        3
176
     1
 90
        0
176
     1
 90
        0
176
     1
290
     0
176
     1
 90
       13
176
     1
 40
0.0
176
     1
 90
        0
176
     1
290
     0
176
     1
290
     1
176
     1
290
     1
176
     1
290
     0
176
     1
290
     0
176
     1
290
     0
176
     1
290
     0
176
     1
290
     0
176
     1
290
     0
176
     1
 90
       50
176
     1
 40
0.0
176
     1
 40
1.0
176
     1
 90
        0
176
     1
 62
    18
420
        0
176
     1
 90
       50
176
     1
 90
        3
176
     1
 62
     5
420
      255
176
     1
290
     0
176
     1
 90
       50
176
     1
 90
       50
176
     1
 90
       50
176
     1
290
     0
176
     1
 90
       50
176
     1
 62
   256
176
     0
 40
1.0
176
     0
 90
        2
176
     1
  1
strokes_ogs.tif
176
     1
290
     0
176
     1
 40
1.0
176
     1
 40
1.0
176
     1
  0
VISUALSTYLE
  5
42
102
{ACAD_REACTORS
330
2A
102
}
330
2A
100
AcDbVisualStyle
  2
Shaded
 70
    27
177
     3
291
     0
 70
    58
 90
        2
176
     1
 90
        2
176
     1
 90
        1
176
     1
 90
        2
176
     1
 40
0.6
176
     1
 40
30.0
176
     1
 62
     7
420
 16777215
176
     1
 90
        0
176
     1
 90
        4
176
     1
 62
     7
176
     1
 62
   257
176
     1
 90
        1
176
     1
 90
        1
176
     1
 40
1.0
176
     1
 90
        8
176
     1
 62
   257
176
     1
 40
1.0
176
     1
 90
        1
176
     1
 90
        6
176
     1
 90
        2
176
     1
 62
     8
420
  7895160
176
     1
 90
        3
176
     1
 90
        0
176
     1
 90
        0
176
     1
290
     0
176
     1
 90
        5
176
     1
 40
0.0
176
     1
 90
        0
176
     1
290
     0
176
     1
290
     1
176
     1
290
     1
176
     1
290
     0
176
     1
290
     0
176
     1
290
     0
176
     1
290
     0
176
     1
290
     0
176
     1
290
     0
176
     1
 90
       50
176
     1
 40
0.0
176
     1
 40
1.0
176
     1
 90
        0
176
     1
 62
    18
420
        0
176
     1
 90
       50
176
     1
 90
        3
176
     1
 62
     5
420
      255
176
     1
290
     0
176
     1
 90
       50
176
     1
 90
       50
176
     1
 90
       50
176
     1
290
     0
176
     1
 90
       50
176
     1
 62
   256
176
     0
 40
1.0
176
     0
 90
        2
176
     1
  1
strokes_ogs.tif
176
     1
290
     0
176
     1
 40
1.0
176
     1
 40
1.0
176
     1
  0
VISUALSTYLE
  5
41
102
{ACAD_REACTORS
330
2A
102
}
330
2A
100
AcDbVisualStyle
  2
Shaded with edges
 70
    26
177
     3
291
     0
 70
    58
 90
        2
176
     1
 90
        2
176
     1
 90
        1
176
     1
 90
        2
176
     1
 40
0.6
176
     1
 40
30.0
176
     1
 62
     7
420
 16777215
176
     1
 90
        1
176
     1
 90
       10
176
     1
 62
     7
176
     1
 62
   257
176
     1
 90
        2
176
     1
 90
        1
176
     1
 40
1.0
176
     1
 90
        8
176
     1
 62
   257
176
     1
 40
1.0
176
     1
 90
        1
176
     1
 90
        6
176
     1
 90
        2
176
     1
 62
     7
176
     1
 90
        3
176
     1
 90
        0
176
     1
 90
        0
176
     1
290
     0
176
     1
 90
        5
176
     1
 40
0.0
176
     1
 90
        0
176
     1
290
     0
176
     1
290
     1
176
     1
290
     1
176
     1
290
     0
176
     1
290
     0
176
     1
290
     0
176
     1
290
     0
176
     1
290
     0
176
     1
290
     0
176
     1
 90
       50
176
     1
 40
0.0
176
     1
 40
1.0
176
     1
 90
        0
176
     1
 62
    18
420
        0
176
     1
 90
       50
176
     1
 90
        3
176
     1
 62
     5
420
      255
176
     1
290
     0
176
     1
 90
       50
176
     1
 90
       50
176
     1
 90
       50
176
     1
290
     0
176
     1
 90
       50
176
     1
 62
   256
176
     0
 40
1.0
176
     0
 90
        2
176
     1
  1
strokes_ogs.tif
176
     1
290
     0
176
     1
 40
1.0
176
     1
 40
1.0
176
     1
  0
VISUALSTYLE
  5
3E
102
{ACAD_REACTORS
330
2A
102
}
330
2A
100
AcDbVisualStyle
  2
Shades of Gray
 70
    23
177
     3
291
     0
 70
    58
 90
        2
176
     1
 90
        2
176
     1
 90
        3
176
     1
 90
        0
176
     1
 40
0.6
176
     1
 40
30.0
176
     1
 62
     7
420
 16777215
176
     1
 90
        2
176
     1
 90
        2
176
     1
 62
     7
176
     1
 62
     7
176
     1
 90
        1
176
     1
 90
        1
176
     1
 40
40.0
176
     1
 90
        8
176
     1
 62
     7
176
     1
 40
1.0
176
     1
 90
        1
176
     1
 90
        6
176
     1
 90
        2
176
     1
 62
     7
176
     1
 90
        3
176
     1
 90
        0
176
     1
 90
        0
176
     1
290
     0
176
     1
 90
        1
176
     1
 40
0.0
176
     1
 90
        0
176
     1
290
     0
176
     1
290
     1
176
     1
290
     1
176
     1
290
     0
176
     1
290
     0
176
     1
290
     0
176
     1
290
     0
176
     1
290
     0
176
     1
290
     0
176
     1
 90
       50
176
     1
 40
0.0
176
     1
 40
1.0
176
     1
 90
        0
176
     1
 62
    18
420
        0
176
     1
 90
       50
176
     1
 90
        3
176
     1
 62
     5
420
      255
176
     1
290
     0
176
     1
 90
       50
176
     1
 90
       50
176
     1
 90
       50
176
     1
290
     0
176
     1
 90
       50
176
     1
 62
   256
176
     0
 40
1.0
176
     0
 90
        2
176
     1
  1
strokes_ogs.tif
176
     1
290
     0
176
     1
 40
1.0
176
     1
 40
1.0
176
     1
  0
VISUALSTYLE
  5
3F
102
{ACAD_REACTORS
330
2A
102
}
330
2A
100
AcDbVisualStyle
  2
Sketchy
 70
    24
177
     3
291
     0
 70
    58
 90
        1
176
     1
 90
        2
176
     1
 90
        2
176
     1
 90
        0
176
     1
 40
0.6
176
     1
 40
30.0
176
     1
 62
     7
420
 16777215
176
     1
 90
        2
176
     1
 90
        2
176
     1
 62
     7
176
     1
 62
     7
176
     1
 90
        1
176
     1
 90
        1
176
     1
 40
40.0
176
     1
 90
       11
176
     1
 62
     7
176
     1
 40
1.0
176
     1
 90
        1
176
     1
 90
        6
176
     1
 90
        2
176
     1
 62
     7
176
     1
 90
        6
176
     1
 90
        0
176
     1
 90
        0
176
     1
290
     0
176
     1
 90
        1
176
     1
 40
0.0
176
     1
 90
        0
176
     1
290
     0
176
     1
290
     1
176
     1
290
     1
176
     1
290
     0
176
     1
290
     0
176
     1
290
     0
176
     1
290
     0
176
     1
290
     0
176
     1
290
     0
176
     1
 90
       50
176
     1
 40
0.0
176
     1
 40
1.0
176
     1
 90
        0
176
     1
 62
    18
420
        0
176
     1
 90
       50
176
     1
 90
        3
176
     1
 62
     5
420
      255
176
     1
290
     0
176
     1
 90
       50
176
     1
 90
       50
176
     1
 90
       50
176
     1
290
     0
176
     1
 90
       50
176
     1
 62
   256
176
     0
 40
1.0
176
     0
 90
        2
176
     1
  1
strokes_ogs.tif
176
     1
290
     0
176
     1
 40
1.0
176
     1
 40
1.0
176
     1
  0
VISUALSTYLE
  5
37
102
{ACAD_REACTORS
330
2A
102
}
330
2A
100
AcDbVisualStyle
  2
Thicken
 70
    13
177
     3
291
     1
 70
    58
 90
        2
176
     1
 90
        2
176
     1
 90
        0
176
     1
 90
        0
176
     1
 40
0.6
176
     1
 40
30.0
176
     1
 62
     7
420
 16777215
176
     1
 90
        1
176
     1
 90
        4
176
     1
 62
     7
176
     1
 62
   257
176
     1
 90
        1
176
     1
 90
        1
176
     1
 40
1.0
176
     1
 90
       12
176
     1
 62
     7
176
     1
 40
1.0
176
     1
 90
        1
176
     1
 90
        6
176
     1
 90
        2
176
     1
 62
     7
176
     1
 90
        5
176
     1
 90
        0
176
     1
 90
        0
176
     1
290
     0
176
     1
 90
        1
176
     1
 40
0.0
176
     1
 90
        0
176
     1
290
     0
176
     1
290
     1
176
     1
290
     1
176
     1
290
     0
176
     1
290
     0
176
     1
290
     0
176
     1
290
     0
176
     1
290
     0
176
     1
290
     0
176
     1
 90
       50
176
     1
 40
0.0
176
     1
 40
1.0
176
     1
 90
        0
176
     1
 62
    18
420
        0
176
     1
 90
       50
176
     1
 90
        3
176
     1
 62
     5
420
      255
176
     1
290
     0
176
     1
 90
       50
176
     1
 90
       50
176
     1
 90
       50
176
     1
290
     0
176
     1
 90
       50
176
     1
 62
   256
176
     0
 40
1.0
176
     0
 90
        2
176
     1
  1
strokes_ogs.tif
176
     1
290
     0
176
     1
 40
1.0
176
     1
 40
1.0
176
     1
  0
VISUALSTYLE
  5
30
102
{ACAD_REACTORS
330
2A
102
}
330
2A
100
AcDbVisualStyle
  2
Wireframe
 70
     5
177
     3
291
     0
 70
    58
 90
        0
176
     1
 90
        2
176
     1
 90
        0
176
     1
 90
        0
176
     1
 40
0.6
176
     1
 40
30.0
176
     1
 62
     7
420
 16777215
176
     1
 90
        1
176
     1
 90
        4
176
     1
 62
     7
176
     1
 62
   257
176
     1
 90
        1
176
     1
 90
        1
176
     1
 40
1.0
176
     1
 90
        0
176
     1
 62
   257
176
     1
 40
1.0
176
     1
 90
        1
176
     1
 90
        6
176
     1
 90
        2
176
     1
 62
     7
176
     1
 90
        3
176
     1
 90
        0
176
     1
 90
        0
176
     1
290
     0
176
     1
 90
        1
176
     1
 40
0.0
176
     1
 90
        0
176
     1
290
     0
176
     1
290
     1
176
     1
290
     1
176
     1
290
     0
176
     1
290
     0
176
     1
290
     0
176
     1
290
     0
176
     1
290
     0
176
     1
290
     0
176
     1
 90
       50
176
     1
 40
0.0
176
     1
 40
1.0
176
     1
 90
        0
176
     1
 62
    18
420
        0
176
     1
 90
       50
176
     1
 90
        3
176
     1
 62
     5
420
      255
176
     1
290
     0
176
     1
 90
       50
176
     1
 90
       50
176
     1
 90
       50
176
     1
290
     0
176
     1
 90
       50
176
     1
 62
   256
176
     0
 40
1.0
176
     0
 90
        2
176
     1
  1
strokes_ogs.tif
176
     1
290
     0
176
     1
 40
1.0
176
     1
 40
1.0
176
     1
  0
VISUALSTYLE
  5
40
102
{ACAD_REACTORS
330
2A
102
}
330
2A
100
AcDbVisualStyle
  2
X-Ray
 70
    25
177
     3
291
     0
 70
    58
 90
        2
176
     1
 90
        2
176
     1
 90
        1
176
     1
 90
        1
176
     1
 40
0.5
176
     1
 40
30.0
176
     1
 62
     7
420
 16777215
176
     1
 90
        1
176
     1
 90
        0
176
     1
 62
     7
176
     1
 62
   257
176
     1
 90
        1
176
     1
 90
        1
176
     1
 40
1.0
176
     1
 90
        8
176
     1
 62
     7
176
     1
 40
1.0
176
     1
 90
        1
176
     1
 90
        6
176
     1
 90
        2
176
     1
 62
     7
176
     1
 90
        3
176
     1
 90
        0
176
     1
 90
        0
176
     1
290
     0
176
     1
 90
       13
176
     1
 40
0.0
176
     1
 90
        0
176
     1
290
     0
176
     1
290
     1
176
     1
290
     1
176
     1
290
     0
176
     1
290
     0
176
     1
290
     0
176
     1
290
     0
176
     1
290
     0
176
     1
290
     0
176
     1
 90
       50
176
     1
 40
0.0
176
     1
 40
1.0
176
     1
 90
        0
176
     1
 62
    18
420
        0
176
     1
 90
       50
176
     1
 90
        3
176
     1
 62
     5
420
      255
176
     1
290
     0
176
     1
 90
       50
176
     1
 90
       50
176
     1
 90
       50
176
     1
290
     0
176
     1
 90
       50
176
     1
 62
   256
176
     0
 40
1.0
176
     0
 90
        2
176
     1
  1
strokes_ogs.tif
176
     1
290
     0
176
     1
 40
1.0
176
     1
 40
1.0
176
     1
  0
DICTIONARYVAR
  5
23F
102
{ACAD_REACTORS
330
23E
102
}
330
23E
100
DictionaryVariables
280
     0
  1
1:1
  0
DICTIONARYVAR
  5
244
102
{ACAD_REACTORS
330
23E
102
}
330
23E
100
DictionaryVariables
280
     0
  1
Standard
  0
DICTIONARYVAR
  5
243
102
{ACAD_REACTORS
330
23E
102
}
330
23E
100
DictionaryVariables
280
     0
  1
Standard
  0
DICTIONARY
  5
240
330
6A
100
AcDbDictionary
280
     1
281
     1
  3
ACAD_ROUNDTRIP_2008_TABLESTYLE_CELLSTYLEMAP
360
241
  0
CELLSTYLEMAP
  5
241
102
{ACAD_REACTORS
330
240
102
}
330
240
100
AcDbCellStyleMap
 90
        3
300
CELLSTYLE
  1
TABLEFORMAT_BEGIN
 90
        5
170
     1
 91
        0
 92
    32768
 62
   257
 93
        1
300
CONTENTFORMAT
  1
CONTENTFORMAT_BEGIN
 90
        0
 91
        0
 92
        4
 93
        0
300

 40
0.0
140
1.0
 94
        5
 62
     0
340
11
144
0.25
309
CONTENTFORMAT_END
171
     1
301
MARGIN
  1
CELLMARGIN_BEGIN
 40
0.06
 40
0.06
 40
0.06
 40
0.06
 40
0.06
 40
0.06
309
CELLMARGIN_END
 94
        6
 95
        1
302
GRIDFORMAT
  1
GRIDFORMAT_BEGIN
 90
        0
 91
        1
 62
     0
 92
       -2
340
14
 93
        0
 40
0.045
309
GRIDFORMAT_END
 95
        2
302
GRIDFORMAT
  1
GRIDFORMAT_BEGIN
 90
        0
 91
        1
 62
     0
 92
       -2
340
14
 93
        0
 40
0.045
309
GRIDFORMAT_END
 95
        4
302
GRIDFORMAT
  1
GRIDFORMAT_BEGIN
 90
        0
 91
        1
 62
     0
 92
       -2
340
14
 93
        0
 40
0.045
309
GRIDFORMAT_END
 95
        8
302
GRIDFORMAT
  1
GRIDFORMAT_BEGIN
 90
        0
 91
        1
 62
     0
 92
       -2
340
14
 93
        0
 40
0.045
309
GRIDFORMAT_END
 95
       16
302
GRIDFORMAT
  1
GRIDFORMAT_BEGIN
 90
        0
 91
        1
 62
     0
 92
       -2
340
14
 93
        0
 40
0.045
309
GRIDFORMAT_END
 95
       32
302
GRIDFORMAT
  1
GRIDFORMAT_BEGIN
 90
        0
 91
        1
 62
     0
 92
       -2
340
14
 93
        0
 40
0.045
309
GRIDFORMAT_END
309
TABLEFORMAT_END
  1
CELLSTYLE_BEGIN
 90
        1
 91
        1
300
_TITLE
309
CELLSTYLE_END
300
CELLSTYLE
  1
TABLEFORMAT_BEGIN
 90
        5
170
     1
 91
        0
 92
        0
 62
   257
 93
        1
300
CONTENTFORMAT
  1
CONTENTFORMAT_BEGIN
 90
        0
 91
        0
 92
        4
 93
        0
300

 40
0.0
140
1.0
 94
        5
 62
     0
340
11
144
0.18
309
CONTENTFORMAT_END
171
     1
301
MARGIN
  1
CELLMARGIN_BEGIN
 40
0.06
 40
0.06
 40
0.06
 40
0.06
 40
0.06
 40
0.06
309
CELLMARGIN_END
 94
        6
 95
        1
302
GRIDFORMAT
  1
GRIDFORMAT_BEGIN
 90
        0
 91
        1
 62
     0
 92
       -2
340
14
 93
        0
 40
0.045
309
GRIDFORMAT_END
 95
        2
302
GRIDFORMAT
  1
GRIDFORMAT_BEGIN
 90
        0
 91
        1
 62
     0
 92
       -2
340
14
 93
        0
 40
0.045
309
GRIDFORMAT_END
 95
        4
302
GRIDFORMAT
  1
GRIDFORMAT_BEGIN
 90
        0
 91
        1
 62
     0
 92
       -2
340
14
 93
        0
 40
0.045
309
GRIDFORMAT_END
 95
        8
302
GRIDFORMAT
  1
GRIDFORMAT_BEGIN
 90
        0
 91
        1
 62
     0
 92
       -2
340
14
 93
        0
 40
0.045
309
GRIDFORMAT_END
 95
       16
302
GRIDFORMAT
  1
GRIDFORMAT_BEGIN
 90
        0
 91
        1
 62
     0
 92
       -2
340
14
 93
        0
 40
0.045
309
GRIDFORMAT_END
 95
       32
302
GRIDFORMAT
  1
GRIDFORMAT_BEGIN
 90
        0
 91
        1
 62
     0
 92
       -2
340
14
 93
        0
 40
0.045
309
GRIDFORMAT_END
309
TABLEFORMAT_END
  1
CELLSTYLE_BEGIN
 90
        2
 91
        1
300
_HEADER
309
CELLSTYLE_END
300
CELLSTYLE
  1
TABLEFORMAT_BEGIN
 90
        5
170
     1
 91
        0
 92
        0
 62
   257
 93
        1
300
CONTENTFORMAT
  1
CONTENTFORMAT_BEGIN
 90
        0
 91
        0
 92
        4
 93
        0
300

 40
0.0
140
1.0
 94
        2
 62
     0
340
11
144
0.18
309
CONTENTFORMAT_END
171
     1
301
MARGIN
  1
CELLMARGIN_BEGIN
 40
0.06
 40
0.06
 40
0.06
 40
0.06
 40
0.06
 40
0.06
309
CELLMARGIN_END
 94
        6
 95
        1
302
GRIDFORMAT
  1
GRIDFORMAT_BEGIN
 90
        0
 91
        1
 62
     0
 92
       -2
340
14
 93
        0
 40
0.045
309
GRIDFORMAT_END
 95
        2
302
GRIDFORMAT
  1
GRIDFORMAT_BEGIN
 90
        0
 91
        1
 62
     0
 92
       -2
340
14
 93
        0
 40
0.045
309
GRIDFORMAT_END
 95
        4
302
GRIDFORMAT
  1
GRIDFORMAT_BEGIN
 90
        0
 91
        1
 62
     0
 92
       -2
340
14
 93
        0
 40
0.045
309
GRIDFORMAT_END
 95
        8
302
GRIDFORMAT
  1
GRIDFORMAT_BEGIN
 90
        0
 91
        1
 62
     0
 92
       -2
340
14
 93
        0
 40
0.045
309
GRIDFORMAT_END
 95
       16
302
GRIDFORMAT
  1
GRIDFORMAT_BEGIN
 90
        0
 91
        1
 62
     0
 92
       -2
340
14
 93
        0
 40
0.045
309
GRIDFORMAT_END
 95
       32
302
GRIDFORMAT
  1
GRIDFORMAT_BEGIN
 90
        0
 91
        1
 62
     0
 92
       -2
340
14
 93
        0
 40
0.045
309
GRIDFORMAT_END
309
TABLEFORMAT_END
  1
CELLSTYLE_BEGIN
 90
        3
 91
        2
300
_DATA
309
CELLSTYLE_END
  0
ENDSEC
  0
EOF