0
SECTION
  2
HEADER
  9
$ACADVER
  1
AC1027
  9
$ACADMAINTVER
 70
     8
  9
$DWGCODEPAGE
  3
ANSI_1252
  9
$REQUIREDVERSIONS
160
                 0
  9
$COMMENTS
  1
File was created by Cadenas
  9
$CUSTOMPROPERTYTAG
  1
NN
  9
$CUSTOMPROPERTY
  1
Steel IMPERIAL-HD Piloted Flange 2-7/16 thru 5 Inch Bore
  9
$CUSTOMPROPERTYTAG
  1
NT
  9
$CUSTOMPROPERTY
  1
Steal Imperial Piloted Flange Bearing-Inch-207-500
  9
$CUSTOMPROPERTYTAG
  1
NB
  9
$CUSTOMPROPERTY
  1
072294
  9
$CUSTOMPROPERTYTAG
  1
NBSYN
  9
$CUSTOMPROPERTY
  1
$PN.
  9
$CUSTOMPROPERTYTAG
  1
LINA
  9
$CUSTOMPROPERTY
  1
072294
  9
$CUSTOMPROPERTYTAG
  1
SS
  9
$CUSTOMPROPERTY
  1
2-15/16
  9
$CUSTOMPROPERTYTAG
  1
PN
  9
$CUSTOMPROPERTY
  1
072294
  9
$CUSTOMPROPERTYTAG
  1
TYPE
  9
$CUSTOMPROPERTY
  1
Non-Expansion
  9
$CUSTOMPROPERTYTAG
  1
EF
  9
$CUSTOMPROPERTY
  1
Non-Expansion
  9
$CUSTOMPROPERTYTAG
  1
DESCRIPTION
  9
$CUSTOMPROPERTY
  1
SFC-IP-215R
  9
$CUSTOMPROPERTYTAG
  1
ST
  9
$CUSTOMPROPERTY
  1
Contact Seal
  9
$CUSTOMPROPERTYTAG
  1
A
  9
$CUSTOMPROPERTY
  1
3.50
  9
$CUSTOMPROPERTYTAG
  1
B
  9
$CUSTOMPROPERTY
  1
8.75
  9
$CUSTOMPROPERTYTAG
  1
C
  9
$CUSTOMPROPERTY
  1
2.83
  9
$CUSTOMPROPERTYTAG
  1
D
  9
$CUSTOMPROPERTY
  1
5.30
  9
$CUSTOMPROPERTYTAG
  1
DD
  9
$CUSTOMPROPERTY
  1
7.500
  9
$CUSTOMPROPERTYTAG
  1
E
  9
$CUSTOMPROPERTY
  1
1.44
  9
$CUSTOMPROPERTYTAG
  1
F
  9
$CUSTOMPROPERTY
  1
0.625
  9
$CUSTOMPROPERTYTAG
  1
G
  9
$CUSTOMPROPERTY
  1
1.89
  9
$CUSTOMPROPERTYTAG
  1
H
  9
$CUSTOMPROPERTY
  1
0.63
  9
$CUSTOMPROPERTYTAG
  1
K
  9
$CUSTOMPROPERTY
  1
6.375
  9
$CUSTOMPROPERTYTAG
  1
L
  9
$CUSTOMPROPERTY
  1
4.20
  9
$CUSTOMPROPERTYTAG
  1
M
  9
$CUSTOMPROPERTY
  1
0.625
  9
$CUSTOMPROPERTYTAG
  1
N
  9
$CUSTOMPROPERTY
  1
3.77
  9
$CUSTOMPROPERTYTAG
  1
P
  9
$CUSTOMPROPERTY
  1
1.62
  9
$CUSTOMPROPERTYTAG
  1
Q
  9
$CUSTOMPROPERTY
  1
1.88
  9
$CUSTOMPROPERTYTAG
  1
X
  9
$CUSTOMPROPERTY
  1
0.25
  9
$CUSTOMPROPERTYTAG
  1
Y
  9
$CUSTOMPROPERTY
  1
0.025
  9
$CUSTOMPROPERTYTAG
  1
Z
  9
$CUSTOMPROPERTY
  1
3.47
  9
$CUSTOMPROPERTYTAG
  1
COMPANY
  9
$CUSTOMPROPERTY
  1
baldor
  9
$INSBASE
 10
0.0
 20
0.0
 30
0.0
  9
$EXTMIN
 10
1.000000000000000E+20
 20
1.000000000000000E+20
 30
1.000000000000000E+20
  9
$EXTMAX
 10
-1.000000000000000E+20
 20
-1.000000000000000E+20
 30
-1.000000000000000E+20
  9
$LIMMIN
 10
0.0
 20
0.0
  9
$LIMMAX
 10
12.0
 20
9.0
  9
$ORTHOMODE
 70
     0
  9
$REGENMODE
 70
     1
  9
$FILLMODE
 70
     1
  9
$QTEXTMODE
 70
     0
  9
$MIRRTEXT
 70
     1
  9
$LTSCALE
 40
1.0
  9
$ATTMODE
 70
     1
  9
$TEXTSIZE
 40
0.2
  9
$TRACEWID
 40
0.05
  9
$TEXTSTYLE
  7
Standard
  9
$CLAYER
  8
0
  9
$CELTYPE
  6
ByLayer
  9
$CECOLOR
 62
   256
  9
$CELTSCALE
 40
1.0
  9
$DISPSILH
 70
     0
  9
$DIMSCALE
 40
1.0
  9
$DIMASZ
 40
0.18
  9
$DIMEXO
 40
0.0625
  9
$DIMDLI
 40
0.38
  9
$DIMRND
 40
0.0
  9
$DIMDLE
 40
0.0
  9
$DIMEXE
 40
0.18
  9
$DIMTP
 40
0.0
  9
$DIMTM
 40
0.0
  9
$DIMTXT
 40
0.18
  9
$DIMCEN
 40
0.09
  9
$DIMTSZ
 40
0.0
  9
$DIMTOL
 70
     0
  9
$DIMLIM
 70
     0
  9
$DIMTIH
 70
     1
  9
$DIMTOH
 70
     1
  9
$DIMSE1
 70
     0
  9
$DIMSE2
 70
     0
  9
$DIMTAD
 70
     0
  9
$DIMZIN
 70
     0
  9
$DIMBLK
  1

  9
$DIMASO
 70
     1
  9
$DIMSHO
 70
     1
  9
$DIMPOST
  1

  9
$DIMAPOST
  1

  9
$DIMALT
 70
     0
  9
$DIMALTD
 70
     2
  9
$DIMALTF
 40
25.4
  9
$DIMLFAC
 40
1.0
  9
$DIMTOFL
 70
     0
  9
$DIMTVP
 40
0.0
  9
$DIMTIX
 70
     0
  9
$DIMSOXD
 70
     0
  9
$DIMSAH
 70
     0
  9
$DIMBLK1
  1

  9
$DIMBLK2
  1

  9
$DIMSTYLE
  2
Standard
  9
$DIMCLRD
 70
     0
  9
$DIMCLRE
 70
     0
  9
$DIMCLRT
 70
     0
  9
$DIMTFAC
 40
1.0
  9
$DIMGAP
 40
0.09
  9
$DIMJUST
 70
     0
  9
$DIMSD1
 70
     0
  9
$DIMSD2
 70
     0
  9
$DIMTOLJ
 70
     1
  9
$DIMTZIN
 70
     0
  9
$DIMALTZ
 70
     0
  9
$DIMALTTZ
 70
     0
  9
$DIMUPT
 70
     0
  9
$DIMDEC
 70
     4
  9
$DIMTDEC
 70
     4
  9
$DIMALTU
 70
     2
  9
$DIMALTTD
 70
     2
  9
$DIMTXSTY
  7
Standard
  9
$DIMAUNIT
 70
     0
  9
$DIMADEC
 70
     0
  9
$DIMALTRND
 40
0.0
  9
$DIMAZIN
 70
     0
  9
$DIMDSEP
 70
    46
  9
$DIMATFIT
 70
     3
  9
$DIMFRAC
 70
     0
  9
$DIMLDRBLK
  1

  9
$DIMLUNIT
 70
     2
  9
$DIMLWD
 70
    -2
  9
$DIMLWE
 70
    -2
  9
$DIMTMOVE
 70
     0
  9
$DIMFXL
 40
1.0
  9
$DIMFXLON
 70
     0
  9
$DIMJOGANG
 40
0.7853981633974483
  9
$DIMTFILL
 70
     0
  9
$DIMTFILLCLR
 70
     0
  9
$DIMARCSYM
 70
     0
  9
$DIMLTYPE
  6

  9
$DIMLTEX1
  6

  9
$DIMLTEX2
  6

  9
$DIMTXTDIRECTION
 70
     0
  9
$LUNITS
 70
     2
  9
$LUPREC
 70
     4
  9
$SKETCHINC
 40
0.1
  9
$FILLETRAD
 40
0.5
  9
$AUNITS
 70
     0
  9
$AUPREC
 70
     0
  9
$MENU
  1
.
  9
$ELEVATION
 40
0.0
  9
$PELEVATION
 40
0.0
  9
$THICKNESS
 40
0.0
  9
$LIMCHECK
 70
     0
  9
$CHAMFERA
 40
0.0
  9
$CHAMFERB
 40
0.0
  9
$CHAMFERC
 40
0.0
  9
$CHAMFERD
 40
0.0
  9
$SKPOLY
 70
     0
  9
$TDCREATE
 40
2458168.89767368
  9
$TDUCREATE
 40
2458168.856007014
  9
$TDUPDATE
 40
2458168.897674039
  9
$TDUUPDATE
 40
2458168.856007372
  9
$TDINDWG
 40
0.0000000116
  9
$TDUSRTIMER
 40
0.0000000116
  9
$USRTIMER
 70
     1
  9
$ANGBASE
 50
0.0
  9
$ANGDIR
 70
     0
  9
$PDMODE
 70
     0
  9
$PDSIZE
 40
0.0
  9
$PLINEWID
 40
0.0
  9
$SPLFRAME
 70
     0
  9
$SPLINETYPE
 70
     6
  9
$SPLINESEGS
 70
     8
  9
$HANDSEED
  5
285
  9
$SURFTAB1
 70
     6
  9
$SURFTAB2
 70
     6
  9
$SURFTYPE
 70
     6
  9
$SURFU
 70
     6
  9
$SURFV
 70
     6
  9
$UCSBASE
  2

  9
$UCSNAME
  2

  9
$UCSORG
 10
0.0
 20
0.0
 30
0.0
  9
$UCSXDIR
 10
1.0
 20
0.0
 30
0.0
  9
$UCSYDIR
 10
0.0
 20
1.0
 30
0.0
  9
$UCSORTHOREF
  2

  9
$UCSORTHOVIEW
 70
     0
  9
$UCSORGTOP
 10
0.0
 20
0.0
 30
0.0
  9
$UCSORGBOTTOM
 10
0.0
 20
0.0
 30
0.0
  9
$UCSORGLEFT
 10
0.0
 20
0.0
 30
0.0
  9
$UCSORGRIGHT
 10
0.0
 20
0.0
 30
0.0
  9
$UCSORGFRONT
 10
0.0
 20
0.0
 30
0.0
  9
$UCSORGBACK
 10
0.0
 20
0.0
 30
0.0
  9
$PUCSBASE
  2

  9
$PUCSNAME
  2

  9
$PUCSORG
 10
0.0
 20
0.0
 30
0.0
  9
$PUCSXDIR
 10
1.0
 20
0.0
 30
0.0
  9
$PUCSYDIR
 10
0.0
 20
1.0
 30
0.0
  9
$PUCSORTHOREF
  2

  9
$PUCSORTHOVIEW
 70
     0
  9
$PUCSORGTOP
 10
0.0
 20
0.0
 30
0.0
  9
$PUCSORGBOTTOM
 10
0.0
 20
0.0
 30
0.0
  9
$PUCSORGLEFT
 10
0.0
 20
0.0
 30
0.0
  9
$PUCSORGRIGHT
 10
0.0
 20
0.0
 30
0.0
  9
$PUCSORGFRONT
 10
0.0
 20
0.0
 30
0.0
  9
$PUCSORGBACK
 10
0.0
 20
0.0
 30
0.0
  9
$USERI1
 70
     0
  9
$USERI2
 70
     0
  9
$USERI3
 70
     0
  9
$USERI4
 70
     0
  9
$USERI5
 70
     0
  9
$USERR1
 40
0.0
  9
$USERR2
 40
0.0
  9
$USERR3
 40
0.0
  9
$USERR4
 40
0.0
  9
$USERR5
 40
0.0
  9
$WORLDVIEW
 70
     1
  9
$SHADEDGE
 70
     3
  9
$SHADEDIF
 70
    70
  9
$TILEMODE
 70
     1
  9
$MAXACTVP
 70
    64
  9
$PINSBASE
 10
0.0
 20
0.0
 30
0.0
  9
$PLIMCHECK
 70
     0
  9
$PEXTMIN
 10
1.000000000000000E+20
 20
1.000000000000000E+20
 30
1.000000000000000E+20
  9
$PEXTMAX
 10
-1.000000000000000E+20
 20
-1.000000000000000E+20
 30
-1.000000000000000E+20
  9
$PLIMMIN
 10
0.0
 20
0.0
  9
$PLIMMAX
 10
12.0
 20
9.0
  9
$UNITMODE
 70
     0
  9
$VISRETAIN
 70
     1
  9
$PLINEGEN
 70
     0
  9
$PSLTSCALE
 70
     1
  9
$TREEDEPTH
 70
  3020
  9
$CMLSTYLE
  2
Standard
  9
$CMLJUST
 70
     0
  9
$CMLSCALE
 40
1.0
  9
$PROXYGRAPHICS
 70
     1
  9
$MEASUREMENT
 70
     0
  9
$CELWEIGHT
370
    -1
  9
$ENDCAPS
280
     0
  9
$JOINSTYLE
280
     0
  9
$LWDISPLAY
290
     0
  9
$INSUNITS
 70
     1
  9
$HYPERLINKBASE
  1

  9
$STYLESHEET
  1

  9
$XEDIT
290
     1
  9
$CEPSNTYPE
380
     0
  9
$PSTYLEMODE
290
     1
  9
$FINGERPRINTGUID
  2
{A5B80BB3-74B0-49FB-BD29-A75D21AFEA3F}
  9
$VERSIONGUID
  2
{FAEB1C32-E019-11D5-929B-00C0DF256EC4}
  9
$EXTNAMES
290
     1
  9
$PSVPSCALE
 40
0.0
  9
$OLESTARTUP
290
     0
  9
$SORTENTS
280
   127
  9
$INDEXCTL
280
     0
  9
$HIDETEXT
280
     1
  9
$XCLIPFRAME
280
     2
  9
$HALOGAP
280
     0
  9
$OBSCOLOR
 70
   257
  9
$OBSLTYPE
280
     0
  9
$INTERSECTIONDISPLAY
280
     0
  9
$INTERSECTIONCOLOR
 70
   257
  9
$DIMASSOC
280
     2
  9
$PROJECTNAME
  1

  9
$CAMERADISPLAY
290
     0
  9
$LENSLENGTH
 40
50.0
  9
$CAMERAHEIGHT
 40
0.0
  9
$STEPSPERSEC
 40
2.0
  9
$STEPSIZE
 40
6.0
  9
$3DDWFPREC
 40
2.0
  9
$PSOLWIDTH
 40
0.25
  9
$PSOLHEIGHT
 40
4.0
  9
$LOFTANG1
 40
1.570796326794897
  9
$LOFTANG2
 40
1.570796326794897
  9
$LOFTMAG1
 40
0.0
  9
$LOFTMAG2
 40
0.0
  9
$LOFTPARAM
 70
     7
  9
$LOFTNORMALS
280
     1
  9
$LATITUDE
 40
37.795
  9
$LONGITUDE
 40
-122.394
  9
$NORTHDIRECTION
 40
0.0
  9
$TIMEZONE
 70
 -8000
  9
$LIGHTGLYPHDISPLAY
280
     1
  9
$TILEMODELIGHTSYNCH
280
     1
  9
$CMATERIAL
347
44
  9
$SOLIDHIST
280
     0
  9
$SHOWHIST
280
     1
  9
$DWFFRAME
280
     2
  9
$DGNFRAME
280
     2
  9
$REALWORLDSCALE
290
     1
  9
$INTERFERECOLOR
 62
   256
  9
$CSHADOW
280
     0
  9
$SHADOWPLANELOCATION
 40
0.0
  0
ENDSEC
  0
SECTION
  2
CLASSES
  0
CLASS
  1
ACDBDICTIONARYWDFLT
  2
AcDbDictionaryWithDefault
  3
ObjectDBX Classes
 90
        0
 91
        4
280
     0
281
     0
  0
CLASS
  1
VISUALSTYLE
  2
AcDbVisualStyle
  3
ObjectDBX Classes
 90
     4095
 91
        4
280
     0
281
     0
  0
CLASS
  1
MATERIAL
  2
AcDbMaterial
  3
ObjectDBX Classes
 90
     1153
 91
        4
280
     0
281
     0
  0
CLASS
  1
SCALE
  2
AcDbScale
  3
ObjectDBX Classes
 90
     1153
 91
        4
280
     0
281
     0
  0
CLASS
  1
TABLESTYLE
  2
AcDbTableStyle
  3
ObjectDBX Classes
 90
     4095
 91
        4
280
     0
281
     0
  0
CLASS
  1
MLEADERSTYLE
  2
AcDbMLeaderStyle
  3
ACDB_MLEADERSTYLE_CLASS
 90
     4095
 91
        4
280
     0
281
     0
  0
CLASS
  1
SUN
  2
AcDbSun
  3
SCENEOE
 90
     1153
 91
        4
280
     0
281
     0
  0
CLASS
  1
DICTIONARYVAR
  2
AcDbDictionaryVar
  3
ObjectDBX Classes
 90
        0
 91
        4
280
     0
281
     0
  0
CLASS
  1
CELLSTYLEMAP
  2
AcDbCellStyleMap
  3
ObjectDBX Classes
 90
     1152
 91
        4
280
     0
281
     0
  0
ENDSEC
  0
SECTION
  2
TABLES
  0
TABLE
  2
VPORT
  5
8
330
0
100
AcDbSymbolTable
 70
     1
  0
VPORT
  5
29
330
8
100
AcDbSymbolTableRecord
100
AcDbViewportTableRecord
  2
*Active
 70
     0
 10
0.0
 20
0.0
 11
1.0
 21
1.0
 12
0.0
 22
0.0
 13
0.0
 23
0.0
 14
0.5
 24
0.5
 15
0.5
 25
0.5
 16
0.0
 26
0.0
 36
1.0
 17
-0.0000000000000018
 27
-0.0000000000000018
 37
0.0
 40
9.371249999999996
 41
1.0
 42
50.0
 43
0.0
 44
0.0
 50
0.0
 51
0.0
 71
     0
 72
   100
 73
     1
 74
     3
 75
     0
 76
     0
 77
     0
 78
     0
281
     0
 65
     1
110
0.0
120
0.0
130
0.0
111
1.0
121
0.0
131
0.0
112
0.0
122
1.0
132
0.0
 79
     0
146
0.0
348
2F
 60
     3
 61
     5
292
     1
282
     1
141
0.0
142
0.0
 63
   250
361
6D
  0
ENDTAB
  0
TABLE
  2
LTYPE
  5
5
330
0
100
AcDbSymbolTable
 70
     3
  0
LTYPE
  5
14
330
5
100
AcDbSymbolTableRecord
100
AcDbLinetypeTableRecord
  2
ByBlock
 70
     0
  3

 72
    65
 73
     0
 40
0.0
  0
LTYPE
  5
15
330
5
100
AcDbSymbolTableRecord
100
AcDbLinetypeTableRecord
  2
ByLayer
 70
     0
  3

 72
    65
 73
     0
 40
0.0
  0
LTYPE
  5
16
330
5
100
AcDbSymbolTableRecord
100
AcDbLinetypeTableRecord
  2
Continuous
 70
     0
  3
Solid line
 72
    65
 73
     0
 40
0.0
  0
LTYPE
  5
9D
330
5
100
AcDbSymbolTableRecord
100
AcDbLinetypeTableRecord
  2
Dashed
 70
     0
  3

 72
    65
 73
     2
 40
2.0
 49
1.0
 74
     0
 49
-1.0
 74
     0
  0
LTYPE
  5
144
330
5
100
AcDbSymbolTableRecord
100
AcDbLinetypeTableRecord
  2
Center
 70
     0
  3

 72
    65
 73
     4
 40
1.5
 49
0.45
 74
     0
 49
-0.5
 74
     0
 49
0.05
 74
     0
 49
-0.5
 74
     0
  0
ENDTAB
  0
TABLE
  2
LAYER
  5
2
330
0
100
AcDbSymbolTable
 70
     7
  0
LAYER
  5
10
330
2
100
AcDbSymbolTableRecord
100
AcDbLayerTableRecord
  2
0
 70
     0
 62
     7
  6
Continuous
370
    -3
390
F
347
46
348
0
  0
LAYER
  5
72
330
2
100
AcDbSymbolTableRecord
100
AcDbLayerTableRecord
  2
AM_6
 70
     0
 62
    -2
  6
Continuous
370
    35
390
F
347
46
348
0
  0
LAYER
  5
9E
330
2
100
AcDbSymbolTableRecord
100
AcDbLayerTableRecord
  2
AM_9
 70
     0
 62
     6
  6
Dashed
370
    25
390
F
347
46
348
0
  0
LAYER
  5
BB
330
2
100
AcDbSymbolTableRecord
100
AcDbLayerTableRecord
  2
AM_4
 70
     0
 62
     7
  6
Continuous
370
    50
390
F
347
46
348
0
  0
LAYER
  5
142
330
2
100
AcDbSymbolTableRecord
100
AcDbLayerTableRecord
  2
AM_5
 70
     0
 62
     3
  6
Continuous
370
    25
390
F
347
46
348
0
  0
LAYER
  5
145
330
2
100
AcDbSymbolTableRecord
100
AcDbLayerTableRecord
  2
AM_7
 70
     0
 62
     7
  6
Center
370
    25
390
F
347
46
348
0
  0
LAYER
  5
26C
330
2
100
AcDbSymbolTableRecord
100
AcDbLayerTableRecord
  2
ConnectionPoints
 70
     0
 62
     7
  6
Continuous
370
    50
390
F
347
46
348
0
  0
ENDTAB
  0
TABLE
  2
STYLE
  5
3
330
0
100
AcDbSymbolTable
 70
     1
  0
STYLE
  5
11
330
3
100
AcDbSymbolTableRecord
100
AcDbTextStyleTableRecord
  2
Standard
 70
     0
 40
0.0
 41
1.0
 50
0.0
 71
     0
 42
0.2
  3
txt
  4

  0
ENDTAB
  0
TABLE
  2
VIEW
  5
6
330
0
100
AcDbSymbolTable
 70
     0
  0
ENDTAB
  0
TABLE
  2
UCS
  5
7
330
0
100
AcDbSymbolTable
 70
     0
  0
ENDTAB
  0
TABLE
  2
APPID
  5
9
330
0
100
AcDbSymbolTable
 70
     1
  0
APPID
  5
12
330
9
100
AcDbSymbolTableRecord
100
AcDbRegAppTableRecord
  2
ACAD
 70
     0
  0
ENDTAB
  0
TABLE
  2
DIMSTYLE
  5
A
330
0
100
AcDbSymbolTable
 70
     1
100
AcDbDimStyleTable
  0
DIMSTYLE
105
27
330
A
100
AcDbSymbolTableRecord
100
AcDbDimStyleTableRecord
  2
Standard
 70
     0
178
     0
340
11
  0
ENDTAB
  0
TABLE
  2
BLOCK_RECORD
  5
1
330
0
100
AcDbSymbolTable
 70
     9
  0
BLOCK_RECORD
  5
1F
330
1
100
AcDbSymbolTableRecord
100
AcDbBlockTableRecord
  2
*Model_Space
340
22
 70
     0
280
     1
281
     0
  0
BLOCK_RECORD
  5
1B
330
1
100
AcDbSymbolTableRecord
100
AcDbBlockTableRecord
  2
*Paper_Space
340
1E
 70
     0
280
     1
281
     0
  0
BLOCK_RECORD
  5
23
330
1
100
AcDbSymbolTableRecord
100
AcDbBlockTableRecord
  2
*Paper_Space0
340
26
 70
     0
280
     1
281
     0
  0
BLOCK_RECORD
  5
6E
330
1
100
AcDbSymbolTableRecord
100
AcDbBlockTableRecord
  2
1_072294_0
340
0
102
{BLKREFS
331
6F
102
}
 70
     0
280
     1
281
     0
  0
BLOCK_RECORD
  5
91
330
1
100
AcDbSymbolTableRecord
100
AcDbBlockTableRecord
  2
2_405015E_Inch_1_0_in_072294_0
340
0
102
{BLKREFS
331
92
102
}
 70
     0
280
     1
281
     0
  0
BLOCK_RECORD
  5
D9
330
1
100
AcDbSymbolTableRecord
100
AcDbBlockTableRecord
  2
3_405015E_Inch_2_0_in_072294_0
340
0
102
{BLKREFS
331
DA
102
}
 70
     0
280
     1
281
     0
  0
BLOCK_RECORD
  5
132
330
1
100
AcDbSymbolTableRecord
100
AcDbBlockTableRecord
  2
4_ASME_B18_3_10_1_0_in_072294_0
340
0
102
{BLKREFS
331
133
102
}
 70
     0
280
     1
281
     0
  0
BLOCK_RECORD
  5
150
330
1
100
AcDbSymbolTableRecord
100
AcDbBlockTableRecord
  2
5_ASME_B18_3_10_2_0_in_072294_0
340
0
102
{BLKREFS
331
151
102
}
 70
     0
280
     1
281
     0
  0
BLOCK_RECORD
  5
16B
330
1
100
AcDbSymbolTableRecord
100
AcDbBlockTableRecord
  2
6_070899LW_0_in_072294_0
340
0
102
{BLKREFS
331
16C
102
}
 70
     0
280
     1
281
     0
  0
BLOCK_RECORD
  5
1B6
330
1
100
AcDbSymbolTableRecord
100
AcDbBlockTableRecord
  2
7_070899I_0_in_072294_0
340
0
102
{BLKREFS
331
1B7
102
}
 70
     0
280
     1
281
     0
  0
BLOCK_RECORD
  5
210
330
1
100
AcDbSymbolTableRecord
100
AcDbBlockTableRecord
  2
8_B072294_0_in_072294_0
340
0
102
{BLKREFS
331
211
102
}
 70
     0
280
     1
281
     0
  0
ENDTAB
  0
ENDSEC
  0
SECTION
  2
BLOCKS
  0
BLOCK
  5
20
330
1F
100
AcDbEntity
  8
0
100
AcDbBlockBegin
  2
*Model_Space
 70
     0
 10
0.0
 20
0.0
 30
0.0
  3
*Model_Space
  1

  0
ENDBLK
  5
21
330
1F
100
AcDbEntity
  8
0
100
AcDbBlockEnd
  0
BLOCK
  5
1C
330
1B
100
AcDbEntity
 67
     1
  8
0
100
AcDbBlockBegin
  2
*Paper_Space
 70
     0
 10
0.0
 20
0.0
 30
0.0
  3
*Paper_Space
  1

  0
ENDBLK
  5
1D
330
1B
100
AcDbEntity
 67
     1
  8
0
100
AcDbBlockEnd
  0
BLOCK
  5
24
330
23
100
AcDbEntity
  8
0
100
AcDbBlockBegin
  2
*Paper_Space0
 70
     0
 10
0.0
 20
0.0
 30
0.0
  3
*Paper_Space0
  1

  0
ENDBLK
  5
25
330
23
100
AcDbEntity
  8
0
100
AcDbBlockEnd
  0
BLOCK
  5
70
330
6E
100
AcDbEntity
  8
0
100
AcDbBlockBegin
  2
1_072294_0
 70
     2
 10
0.0
 20
0.0
 30
0.0
  3
1_072294_0
  1

  0
ATTDEF
  5
73
330
6E
100
AcDbEntity
  8
AM_6
100
AcDbText
 10
9.59375
 20
4.59375
 30
0.0
 40
0.5
  1
Steel IMPERIAL-HD Piloted Flange 2-7/16 thru 5 Inch Bore
100
AcDbAttributeDefinition
  3

  2
NN
 70
     8
280
     0
  0
ATTDEF
  5
74
330
6E
100
AcDbEntity
  8
AM_6
100
AcDbText
 10
9.59375
 20
4.09375
 30
0.0
 40
0.5
  1
Steal Imperial Piloted Flange Bearing-Inch-207-500
100
AcDbAttributeDefinition
  3

  2
NT
 70
     8
280
     0
  0
ATTDEF
  5
75
330
6E
100
AcDbEntity
  8
AM_6
100
AcDbText
 10
9.59375
 20
3.59375
 30
0.0
 40
0.5
  1
072294
100
AcDbAttributeDefinition
  3

  2
NB
 70
     8
280
     0
  0
ATTDEF
  5
76
330
6E
100
AcDbEntity
  8
AM_6
100
AcDbText
 10
9.59375
 20
3.09375
 30
0.0
 40
0.5
  1
$PN.
100
AcDbAttributeDefinition
  3

  2
NBSYN
 70
     8
280
     0
  0
ATTDEF
  5
77
330
6E
100
AcDbEntity
  8
AM_6
100
AcDbText
 10
9.59375
 20
2.59375
 30
0.0
 40
0.5
  1
072294
100
AcDbAttributeDefinition
  3

  2
LINA
 70
     8
280
     0
  0
ATTDEF
  5
78
330
6E
100
AcDbEntity
  8
AM_6
100
AcDbText
 10
9.59375
 20
2.09375
 30
0.0
 40
0.5
  1
2-15/16
100
AcDbAttributeDefinition
  3

  2
SS
 70
     8
280
     0
  0
ATTDEF
  5
79
330
6E
100
AcDbEntity
  8
AM_6
100
AcDbText
 10
9.59375
 20
1.59375
 30
0.0
 40
0.5
  1
072294
100
AcDbAttributeDefinition
  3

  2
PN
 70
     8
280
     0
  0
ATTDEF
  5
7A
330
6E
100
AcDbEntity
  8
AM_6
100
AcDbText
 10
9.59375
 20
1.09375
 30
0.0
 40
0.5
  1
Non-Expansion
100
AcDbAttributeDefinition
  3

  2
TYPE
 70
     8
280
     0
  0
ATTDEF
  5
7B
330
6E
100
AcDbEntity
  8
AM_6
100
AcDbText
 10
9.59375
 20
0.59375
 30
0.0
 40
0.5
  1
Non-Expansion
100
AcDbAttributeDefinition
  3

  2
EF
 70
     8
280
     0
  0
ATTDEF
  5
7C
330
6E
100
AcDbEntity
  8
AM_6
100
AcDbText
 10
9.59375
 20
0.09375
 30
0.0
 40
0.5
  1
SFC-IP-215R
100
AcDbAttributeDefinition
  3

  2
DESCRIPTION
 70
     8
280
     0
  0
ATTDEF
  5
7D
330
6E
100
AcDbEntity
  8
AM_6
100
AcDbText
 10
9.59375
 20
-0.40625
 30
0.0
 40
0.5
  1
Contact Seal
100
AcDbAttributeDefinition
  3

  2
ST
 70
     8
280
     0
  0
ATTDEF
  5
7E
330
6E
100
AcDbEntity
  8
AM_6
100
AcDbText
 10
9.59375
 20
-0.90625
 30
0.0
 40
0.5
  1
3.50
100
AcDbAttributeDefinition
  3

  2
A
 70
     8
280
     0
  0
ATTDEF
  5
7F
330
6E
100
AcDbEntity
  8
AM_6
100
AcDbText
 10
9.59375
 20
-1.40625
 30
0.0
 40
0.5
  1
8.75
100
AcDbAttributeDefinition
  3

  2
B
 70
     8
280
     0
  0
ATTDEF
  5
80
330
6E
100
AcDbEntity
  8
AM_6
100
AcDbText
 10
9.59375
 20
-1.90625
 30
0.0
 40
0.5
  1
2.83
100
AcDbAttributeDefinition
  3

  2
C
 70
     8
280
     0
  0
ATTDEF
  5
81
330
6E
100
AcDbEntity
  8
AM_6
100
AcDbText
 10
9.59375
 20
-2.40625
 30
0.0
 40
0.5
  1
5.30
100
AcDbAttributeDefinition
  3

  2
D
 70
     8
280
     0
  0
ATTDEF
  5
82
330
6E
100
AcDbEntity
  8
AM_6
100
AcDbText
 10
9.59375
 20
-2.90625
 30
0.0
 40
0.5
  1
7.500
100
AcDbAttributeDefinition
  3

  2
DD
 70
     8
280
     0
  0
ATTDEF
  5
83
330
6E
100
AcDbEntity
  8
AM_6
100
AcDbText
 10
9.59375
 20
-3.40625
 30
0.0
 40
0.5
  1
1.44
100
AcDbAttributeDefinition
  3

  2
E
 70
     8
280
     0
  0
ATTDEF
  5
84
330
6E
100
AcDbEntity
  8
AM_6
100
AcDbText
 10
9.59375
 20
-3.90625
 30
0.0
 40
0.5
  1
0.625
100
AcDbAttributeDefinition
  3

  2
F
 70
     8
280
     0
  0
ATTDEF
  5
85
330
6E
100
AcDbEntity
  8
AM_6
100
AcDbText
 10
9.59375
 20
-4.40625
 30
0.0
 40
0.5
  1
1.89
100
AcDbAttributeDefinition
  3

  2
G
 70
     8
280
     0
  0
ATTDEF
  5
86
330
6E
100
AcDbEntity
  8
AM_6
100
AcDbText
 10
9.59375
 20
-4.90625
 30
0.0
 40
0.5
  1
0.63
100
AcDbAttributeDefinition
  3

  2
H
 70
     8
280
     0
  0
ATTDEF
  5
87
330
6E
100
AcDbEntity
  8
AM_6
100
AcDbText
 10
9.59375
 20
-5.40625
 30
0.0
 40
0.5
  1
6.375
100
AcDbAttributeDefinition
  3

  2
K
 70
     8
280
     0
  0
ATTDEF
  5
88
330
6E
100
AcDbEntity
  8
AM_6
100
AcDbText
 10
9.59375
 20
-5.90625
 30
0.0
 40
0.5
  1
4.20
100
AcDbAttributeDefinition
  3

  2
L
 70
     8
280
     0
  0
ATTDEF
  5
89
330
6E
100
AcDbEntity
  8
AM_6
100
AcDbText
 10
9.59375
 20
-6.40625
 30
0.0
 40
0.5
  1
0.625
100
AcDbAttributeDefinition
  3

  2
M
 70
     8
280
     0
  0
ATTDEF
  5
8A
330
6E
100
AcDbEntity
  8
AM_6
100
AcDbText
 10
9.59375
 20
-6.90625
 30
0.0
 40
0.5
  1
3.77
100
AcDbAttributeDefinition
  3

  2
N
 70
     8
280
     0
  0
ATTDEF
  5
8B
330
6E
100
AcDbEntity
  8
AM_6
100
AcDbText
 10
9.59375
 20
-7.40625
 30
0.0
 40
0.5
  1
1.62
100
AcDbAttributeDefinition
  3

  2
P
 70
     8
280
     0
  0
ATTDEF
  5
8C
330
6E
100
AcDbEntity
  8
AM_6
100
AcDbText
 10
9.59375
 20
-7.90625
 30
0.0
 40
0.5
  1
1.88
100
AcDbAttributeDefinition
  3

  2
Q
 70
     8
280
     0
  0
ATTDEF
  5
8D
330
6E
100
AcDbEntity
  8
AM_6
100
AcDbText
 10
9.59375
 20
-8.40625
 30
0.0
 40
0.5
  1
0.25
100
AcDbAttributeDefinition
  3

  2
X
 70
     8
280
     0
  0
ATTDEF
  5
8E
330
6E
100
AcDbEntity
  8
AM_6
100
AcDbText
 10
9.59375
 20
-8.90625
 30
0.0
 40
0.5
  1
0.025
100
AcDbAttributeDefinition
  3

  2
Y
 70
     8
280
     0
  0
ATTDEF
  5
8F
330
6E
100
AcDbEntity
  8
AM_6
100
AcDbText
 10
9.59375
 20
-9.40625
 30
0.0
 40
0.5
  1
3.47
100
AcDbAttributeDefinition
  3

  2
Z
 70
     8
280
     0
  0
ATTDEF
  5
90
330
6E
100
AcDbEntity
  8
AM_6
100
AcDbText
 10
9.59375
 20
-9.90625
 30
0.0
 40
0.5
  1
baldor
100
AcDbAttributeDefinition
  3

  2
COMPANY
 70
     8
280
     0
  0
INSERT
  5
92
330
6E
100
AcDbEntity
  8
0
100
AcDbBlockReference
  2
2_405015E_Inch_1_0_in_072294_0
 10
0.0
 20
0.0
 30
0.0
  0
INSERT
  5
DA
330
6E
100
AcDbEntity
  8
0
100
AcDbBlockReference
  2
3_405015E_Inch_2_0_in_072294_0
 10
0.0
 20
0.0
 30
0.0
  0
INSERT
  5
133
330
6E
100
AcDbEntity
  8
0
100
AcDbBlockReference
  2
4_ASME_B18_3_10_1_0_in_072294_0
 10
0.0
 20
0.0
 30
0.0
  0
INSERT
  5
151
330
6E
100
AcDbEntity
  8
0
100
AcDbBlockReference
  2
5_ASME_B18_3_10_2_0_in_072294_0
 10
0.0
 20
0.0
 30
0.0
  0
INSERT
  5
16C
330
6E
100
AcDbEntity
  8
0
100
AcDbBlockReference
  2
6_070899LW_0_in_072294_0
 10
0.0
 20
0.0
 30
0.0
  0
INSERT
  5
1B7
330
6E
100
AcDbEntity
  8
0
100
AcDbBlockReference
  2
7_070899I_0_in_072294_0
 10
0.0
 20
0.0
 30
0.0
  0
INSERT
  5
211
330
6E
100
AcDbEntity
  8
0
100
AcDbBlockReference
  2
8_B072294_0_in_072294_0
 10
0.0
 20
0.0
 30
0.0
  0
ENDBLK
  5
71
330
6E
100
AcDbEntity
  8
0
100
AcDbBlockEnd
  0
BLOCK
  5
93
330
91
100
AcDbEntity
  8
0
100
AcDbBlockBegin
  2
2_405015E_Inch_1_0_in_072294_0
 70
     2
 10
0.0
 20
0.0
 30
0.0
  3
2_405015E_Inch_1_0_in_072294_0
  1

  0
ATTDEF
  5
95
330
91
100
AcDbEntity
  8
AM_6
100
AcDbText
 10
5.21875
 20
-3.226328257225762
 30
0.0
 40
0.5
  1
405015E -Inch
100
AcDbAttributeDefinition
  3

  2
NN
 70
     8
280
     0
  0
ATTDEF
  5
96
330
91
100
AcDbEntity
  8
AM_6
100
AcDbText
 10
5.21875
 20
-3.726328257225762
 30
0.0
 40
0.5
  1
Grease Fitting
100
AcDbAttributeDefinition
  3

  2
NT
 70
     8
280
     0
  0
ATTDEF
  5
97
330
91
100
AcDbEntity
  8
AM_6
100
AcDbText
 10
5.21875
 20
-4.226328257225762
 30
0.0
 40
0.5
  1
405015E-Inch
100
AcDbAttributeDefinition
  3

  2
NB
 70
     8
280
     0
  0
ATTDEF
  5
98
330
91
100
AcDbEntity
  8
AM_6
100
AcDbText
 10
5.21875
 20
-4.726328257225762
 30
0.0
 40
0.5
  1
$MN.-Inch
100
AcDbAttributeDefinition
  3

  2
NBSYN
 70
     8
280
     0
  0
ATTDEF
  5
99
330
91
100
AcDbEntity
  8
AM_6
100
AcDbText
 10
5.21875
 20
-5.226328257225762
 30
0.0
 40
0.5
  1
405015E
100
AcDbAttributeDefinition
  3

  2
LINA
 70
     8
280
     0
  0
ATTDEF
  5
9A
330
91
100
AcDbEntity
  8
AM_6
100
AcDbText
 10
5.21875
 20
-5.726328257225762
 30
0.0
 40
0.5
  1
405015E
100
AcDbAttributeDefinition
  3

  2
MN
 70
     8
280
     0
  0
ATTDEF
  5
9B
330
91
100
AcDbEntity
  8
AM_6
100
AcDbText
 10
5.21875
 20
-6.226328257225762
 30
0.0
 40
0.5
  1
1/8 x 27PTF
100
AcDbAttributeDefinition
  3

  2
T
 70
     8
280
     0
  0
ATTDEF
  5
9C
330
91
100
AcDbEntity
  8
AM_6
100
AcDbText
 10
5.21875
 20
-6.726328257225762
 30
0.0
 40
0.5
  1
baldor
100
AcDbAttributeDefinition
  3

  2
COMPANY
 70
     8
280
     0
  0
ELLIPSE
  5
9F
330
91
100
AcDbEntity
  8
AM_9
100
AcDbEllipse
 10
0.0
 20
-3.387367033497835
 30
0.0
 11
0.161902872472269
 21
0.0
 31
0.0
210
0.0
220
0.0
230
1.0
 40
0.8937251314284185
 41
0.0
 42
6.283185307179586
  0
LWPOLYLINE
  5
A0
330
91
100
AcDbEntity
  8
AM_9
100
AcDbPolyline
 90
        3
 70
     0
 43
0.0
 10
-0.0540194865360533
 20
-3.705222615460679
 10
-0.0544416102741496
 20
-3.704988427206357
 10
-0.109375
 20
-3.6755600210851
  0
LINE
  5
A1
330
91
100
AcDbEntity
  8
AM_9
100
AcDbLine
 10
0.0
 20
-3.736064555727256
 30
0.0
 11
-0.0540194865360533
 21
-3.705222615460679
 31
0.0
  0
LWPOLYLINE
  5
A2
330
91
100
AcDbEntity
  8
AM_9
100
AcDbPolyline
 90
        3
 70
     0
 43
0.0
 10
0.0621490866598405
 20
-3.700732969646091
 10
0.0546875
 20
-3.704852064376745
 10
0.0
 20
-3.736064555727256
  0
LINE
  5
A3
330
91
100
AcDbEntity
  8
AM_9
100
AcDbLine
 10
0.109375
 20
-3.6755600210851
 30
0.0
 11
0.1042338783266926
 21
-3.678222482084081
 31
0.0
  0
LINE
  5
A4
330
91
100
AcDbEntity
  8
AM_9
100
AcDbLine
 10
-0.0709226946926059
 20
-3.739726417804726
 30
0.0
 11
-0.0222189519981965
 21
-3.762744046045637
 31
0.0
  0
LINE
  5
A5
330
91
100
AcDbEntity
  8
AM_9
100
AcDbLine
 10
-0.0855421778725808
 20
-3.732511807326485
 30
0.0
 11
-0.0709226946926059
 21
-3.739726417804726
 31
0.0
  0
LINE
  5
A6
330
91
100
AcDbEntity
  8
AM_9
100
AcDbLine
 10
0.070934995873513
 20
-3.739720410076412
 30
0.0
 11
0.0899956479174439
 21
-3.730283892014867
 31
0.0
  0
LINE
  5
A7
330
91
100
AcDbEntity
  8
AM_9
100
AcDbLine
 10
0.0234163567388851
 20
-3.762195264330628
 30
0.0
 11
0.070934995873513
 21
-3.739720410076412
 31
0.0
  0
LWPOLYLINE
  5
A8
330
91
100
AcDbEntity
  8
AM_9
100
AcDbPolyline
 90
        3
 70
     0
 43
0.0
 10
-0.109375
 20
-3.6755600210851
 10
-0.1640625
 20
-3.648415390681712
 10
-0.21875
 20
-3.62319120833719
  0
LWPOLYLINE
  5
A9
330
91
100
AcDbEntity
  8
AM_9
100
AcDbPolyline
 90
        3
 70
     0
 43
0.0
 10
0.21875
 20
-3.62319120833719
 10
0.1643083897258504
 20
-3.648297999029535
 10
0.109375
 20
-3.6755600210851
  0
LINE
  5
AA
330
91
100
AcDbEntity
  8
AM_9
100
AcDbLine
 10
0.0
 20
-3.772790330626279
 30
0.0
 11
0.0
 21
-3.736064555727256
 31
0.0
  0
LINE
  5
AB
330
91
100
AcDbEntity
  8
AM_9
100
AcDbLine
 10
-0.1982323142550756
 20
-3.392786259064329
 30
0.0
 11
-0.2053527444159303
 21
-3.494801469262335
 31
0.0
  0
LINE
  5
AC
330
91
100
AcDbEntity
  8
AM_9
100
AcDbLine
 10
0.2053527444159303
 20
-3.494801469262335
 30
0.0
 11
0.1982323142550756
 21
-3.392786259064329
 31
0.0
  0
ELLIPSE
  5
AD
330
91
100
AcDbEntity
  8
AM_9
100
AcDbEllipse
 10
0.0
 20
-3.551111496793273
 30
0.0
 11
-0.2187499999999956
 21
3.259629037943257E-9
 31
0.0
210
0.0
220
0.0
230
1.0
 40
0.8937251314284231
 41
1.156898543940237
 42
1.984694137370159
  0
ELLIPSE
  5
AE
330
91
100
AcDbEntity
  8
AM_9
100
AcDbEllipse
 10
0.0
 20
-3.551111496793272
 30
0.0
 11
-0.2137499999999979
 21
3.185123231361731E-9
 31
0.0
210
0.0
220
0.0
230
1.0
 40
0.8937251314284209
 41
1.087133592595508
 42
2.054459089080633
  0
ELLIPSE
  5
AF
330
91
100
AcDbEntity
  8
AM_9
100
AcDbEllipse
 10
0.0
 20
-3.559329314844272
 30
0.0
 11
-0.1725340532830159
 21
2.112932760969643E-17
 31
0.0
210
0.0
220
0.0
230
1.0
 40
0.8937251314284183
 41
0.6869696589428109
 42
2.454622994646983
  0
LINE
  5
B0
330
91
100
AcDbEntity
  8
AM_9
100
AcDbLine
 10
0.054664043518648
 20
-3.678337130013243
 30
0.0
 11
0.0618589201030681
 21
-3.674416224758507
 31
0.0
  0
LINE
  5
B1
330
91
100
AcDbEntity
  8
AM_9
100
AcDbLine
 10
-0.0618589201030681
 20
-3.674416224758507
 30
0.0
 11
-0.054664043518648
 21
-3.678337130013243
 31
0.0
  0
ELLIPSE
  5
B2
330
91
100
AcDbEntity
  8
AM_9
100
AcDbEllipse
 10
0.0
 20
-3.583749636115189
 30
0.0
 11
-0.1188200907348976
 21
1.455126437928905E-17
 31
0.0
210
0.0
220
0.0
230
1.0
 40
0.893725131428421
 41
6.259774645875768
 42
9.448188622073197
  0
ELLIPSE
  5
B3
330
91
100
AcDbEntity
  8
AM_9
100
AcDbEllipse
 10
0.0000000000000024
 20
-3.598216068426202
 30
0.0
 11
-0.1050000000000024
 21
1.285879139104750E-17
 31
0.0
210
0.0
220
0.0
230
1.0
 40
0.8937251314284135
 41
5.70822375995444
 42
9.999739507994548
  0
LINE
  5
B4
330
91
100
AcDbEntity
  8
AM_9
100
AcDbLine
 10
-0.105
 20
-3.598216068426203
 30
0.0
 11
-0.105
 21
-3.611674517464184
 31
0.0
  0
LINE
  5
B5
330
91
100
AcDbEntity
  8
AM_9
100
AcDbLine
 10
0.105
 20
-3.611674517464184
 30
0.0
 11
0.105
 21
-3.598216068426203
 31
0.0
  0
ELLIPSE
  5
B6
330
91
100
AcDbEntity
  8
AM_9
100
AcDbEllipse
 10
0.0
 20
-3.611674517464184
 30
0.0
 11
-0.1050000000000002
 21
1.285879139104723E-17
 31
0.0
210
0.0
220
0.0
230
1.0
 40
0.8937251314284196
 41
4.800806125599166
 42
10.9071571423498
  0
ELLIPSE
  5
B7
330
91
100
AcDbEntity
  8
AM_9
100
AcDbEllipse
 10
0.0
 20
-3.638591415540148
 30
0.0
 11
-0.1349999999999981
 21
1.653273178848903E-17
 31
0.0
210
0.0
220
0.0
230
1.0
 40
0.8937251314284234
 41
0.935500185440012
 42
2.206092468149782
  0
ELLIPSE
  5
B8
330
91
100
AcDbEntity
  8
AM_9
100
AcDbEllipse
 10
-0.0000000000000002
 20
-3.50625
 30
0.0
 11
-0.2057518972230694
 21
2.519734023527271E-17
 31
0.0
210
0.0
220
0.0
230
1.0
 40
0.8937251314284198
 41
0.0
 42
6.283185307179586
  0
ELLIPSE
  5
B9
330
91
100
AcDbEntity
  8
AM_9
100
AcDbEllipse
 10
-0.0000000000000207
 20
-3.403837821824826
 30
0.0
 11
-0.1986176267812362
 21
2.432364408918845E-17
 31
0.0
210
0.0
220
0.0
230
1.0
 40
0.8937251314284347
 41
0.0
 42
6.283185307179586
  0
ELLIPSE
  5
BA
330
91
100
AcDbEntity
  8
AM_9
100
AcDbEllipse
 10
0.0
 20
-3.50625
 30
0.0
 11
-0.2187499999999992
 21
2.678914873134825E-17
 31
0.0
210
0.0
220
0.0
230
1.0
 40
0.8937251314284206
 41
0.0
 42
6.283185307179586
  0
LINE
  5
BC
330
91
100
AcDbEntity
  8
AM_4
100
AcDbLine
 10
-0.0222189519981965
 20
-3.762744046045637
 30
0.0
 11
0.0
 21
-3.772790330626279
 31
0.0
  0
LINE
  5
BD
330
91
100
AcDbEntity
  8
AM_4
100
AcDbLine
 10
-0.1093749999999999
 20
-3.720421517878369
 30
0.0
 11
-0.0855421778725808
 21
-3.732511807326485
 31
0.0
  0
LINE
  5
BE
330
91
100
AcDbEntity
  8
AM_4
100
AcDbLine
 10
0.0899956479174439
 20
-3.730283892014867
 30
0.0
 11
0.109375
 21
-3.720421517878369
 31
0.0
  0
LINE
  5
BF
330
91
100
AcDbEntity
  8
AM_4
100
AcDbLine
 10
0.0
 20
-3.772790330626279
 30
0.0
 11
0.0234163567388851
 21
-3.762195264330628
 31
0.0
  0
LWPOLYLINE
  5
C0
330
91
100
AcDbEntity
  8
AM_4
100
AcDbPolyline
 90
        3
 70
     0
 43
0.0
 10
-0.21875
 20
-3.659916983236213
 10
-0.1643083897258504
 20
-3.690993111757112
 10
-0.1093749999999999
 20
-3.720421517878369
  0
LWPOLYLINE
  5
C1
330
91
100
AcDbEntity
  8
AM_4
100
AcDbPolyline
 90
        3
 70
     0
 43
0.0
 10
0.109375
 20
-3.720421517878369
 10
0.1640625
 20
-3.691129474586724
 10
0.21875
 20
-3.659916983236213
  0
ELLIPSE
  5
C2
330
91
100
AcDbEntity
  8
AM_4
100
AcDbEllipse
 10
0.0000000000000016
 20
-3.55111149679327
 30
0.0
 11
-0.2187500000000016
 21
2.678914873134854E-17
 31
0.0
210
0.0
220
0.0
230
1.0
 40
0.8937251314284168
 41
1.984694123509841
 42
7.440083837259526
  0
ELLIPSE
  5
C3
330
91
100
AcDbEntity
  8
AM_4
100
AcDbEllipse
 10
0.0000000000026189
 20
-3.55111149679629
 30
0.0
 11
-0.2137499999944895
 21
2.617682533109983E-17
 31
0.0
210
0.0
220
0.0
230
1.0
 40
0.8937251314338285
 41
2.05445907503645
 42
7.370318885711235
  0
LINE
  5
C4
330
91
100
AcDbEntity
  8
AM_4
100
AcDbLine
 10
-0.21875
 20
-3.659916983236213
 30
0.0
 11
-0.21875
 21
-3.397444513557057
 31
0.0
  0
LWPOLYLINE
  5
C5
330
91
100
AcDbEntity
  8
AM_4
100
AcDbPolyline
 90
        3
 70
     0
 43
0.0
 10
-0.1093749999999999
 20
-3.38180147570817
 10
-0.1640625
 20
-3.408946106111558
 10
-0.21875
 20
-3.434170288456081
  0
LWPOLYLINE
  5
C6
330
91
100
AcDbEntity
  8
AM_4
100
AcDbPolyline
 90
        3
 70
     0
 43
0.0
 10
-0.109375
 20
-3.336939978914901
 10
-0.0546875
 20
-3.309795348511514
 10
0.0
 20
-3.284571166166991
  0
LWPOLYLINE
  5
C7
330
91
100
AcDbEntity
  8
AM_4
100
AcDbPolyline
 90
        3
 70
     0
 43
0.0
 10
-0.21875
 20
-3.397444513557057
 10
-0.1643083897258504
 20
-3.366368385036158
 10
-0.109375
 20
-3.336939978914901
  0
LWPOLYLINE
  5
C8
330
91
100
AcDbEntity
  8
AM_4
100
AcDbPolyline
 90
        3
 70
     0
 43
0.0
 10
0.0
 20
-3.321296941066015
 10
-0.0544416102741496
 20
-3.352373069586914
 10
-0.1093749999999999
 20
-3.38180147570817
  0
LINE
  5
C9
330
91
100
AcDbEntity
  8
AM_4
100
AcDbLine
 10
0.0
 20
-3.321296941066015
 30
0.0
 11
0.0
 21
-3.284571166166991
 31
0.0
  0
LWPOLYLINE
  5
CA
330
91
100
AcDbEntity
  8
AM_4
100
AcDbPolyline
 90
        3
 70
     0
 43
0.0
 10
0.109375
 20
-3.38180147570817
 10
0.0546875
 20
-3.352509432416525
 10
0.0
 20
-3.321296941066015
  0
LWPOLYLINE
  5
CB
330
91
100
AcDbEntity
  8
AM_4
100
AcDbPolyline
 90
        3
 70
     0
 43
0.0
 10
0.21875
 20
-3.434170288456081
 10
0.1643083897258504
 20
-3.409063497763735
 10
0.109375
 20
-3.38180147570817
  0
LINE
  5
CC
330
91
100
AcDbEntity
  8
AM_4
100
AcDbLine
 10
0.21875
 20
-3.659916983236213
 30
0.0
 11
0.21875
 21
-3.397444513557057
 31
0.0
  0
LWPOLYLINE
  5
CD
330
91
100
AcDbEntity
  8
AM_4
100
AcDbPolyline
 90
        3
 70
     0
 43
0.0
 10
0.109375
 20
-3.336939978914901
 10
0.1640625
 20
-3.366232022206547
 10
0.21875
 20
-3.397444513557057
  0
LWPOLYLINE
  5
CE
330
91
100
AcDbEntity
  8
AM_4
100
AcDbPolyline
 90
        3
 70
     0
 43
0.0
 10
0.0
 20
-3.284571166166991
 10
0.0544416102741496
 20
-3.309677956859337
 10
0.109375
 20
-3.336939978914901
  0
ELLIPSE
  5
CF
330
91
100
AcDbEntity
  8
AM_4
100
AcDbEllipse
 10
-0.0000000000000003
 20
-3.559329314844273
 30
0.0
 11
-0.1725340532830157
 21
2.570957760527445E-9
 31
0.0
210
0.0
220
0.0
230
1.0
 40
0.8937251314284191
 41
2.454623009970457
 42
6.970154981445861
  0
ELLIPSE
  5
D0
330
91
100
AcDbEntity
  8
AM_4
100
AcDbEllipse
 10
0.0
 20
-3.583749636115189
 30
0.0
 11
-0.1188200907348976
 21
1.455126437928905E-17
 31
0.0
210
0.0
220
0.0
230
1.0
 40
0.8937251314284174
 41
3.16500331489361
 42
6.259774645875768
  0
ELLIPSE
  5
D1
330
91
100
AcDbEntity
  8
AM_4
100
AcDbEllipse
 10
-0.0000000000000004
 20
-3.598216068426203
 30
0.0
 11
-0.1049999999999993
 21
1.285879139104712E-17
 31
0.0
210
0.0
220
0.0
230
1.0
 40
0.8937251314284228
 41
3.716554200814951
 42
5.708223759954424
  0
ELLIPSE
  5
D2
330
91
100
AcDbEntity
  8
AM_4
100
AcDbEllipse
 10
0.0000000000000019
 20
-3.611674517464264
 30
0.0
 11
-0.1050000000001419
 21
1.564621938214910E-9
 31
0.0
210
0.0
220
0.0
230
1.0
 40
0.8937251314279707
 41
4.623971848514058
 42
4.80080613894277
  0
LINE
  5
D3
330
91
100
AcDbEntity
  8
AM_4
100
AcDbLine
 10
-0.0092717088150264
 20
-3.518199945612638
 30
0.0
 11
-0.0119207684764625
 21
-3.518409823159586
 31
0.0
  0
LINE
  5
D4
330
91
100
AcDbEntity
  8
AM_4
100
AcDbLine
 10
0.0119207684764625
 20
-3.518409823159586
 30
0.0
 11
0.0092717088150264
 21
-3.518199945612638
 31
0.0
  0
LINE
  5
D5
330
91
100
AcDbEntity
  8
AM_4
100
AcDbLine
 10
0.0609306999312588
 20
-3.748342555260966
 30
0.0
 11
0.0801111469542139
 21
-3.735704445908899
 31
0.0
  0
LINE
  5
D6
330
91
100
AcDbEntity
  8
AM_4
100
AcDbLine
 10
-0.0801111469542139
 20
-3.735704445908899
 30
0.0
 11
-0.0609306999312588
 21
-3.748342555260966
 31
0.0
  0
ELLIPSE
  5
D7
330
91
100
AcDbEntity
  8
AM_4
100
AcDbEllipse
 10
0.0000000000000003
 20
-3.638591415540146
 30
0.0
 11
-0.1349999999999998
 21
1.653273178848924E-17
 31
0.0
210
0.0
220
0.0
230
1.0
 40
0.8937251314284184
 41
2.206092468149768
 42
7.218685492619607
  0
ELLIPSE
  5
D8
330
91
100
AcDbEntity
  8
AM_4
100
AcDbEllipse
 10
0.0000000000000003
 20
-3.674480612974762
 30
0.0
 11
-0.1026779019331877
 21
1.257441639456442E-17
 31
0.0
210
0.0
220
0.0
230
1.0
 40
0.8937251314284193
 41
0.0
 42
6.283185307179586
  0
ENDBLK
  5
94
330
91
100
AcDbEntity
  8
0
100
AcDbBlockEnd
  0
BLOCK
  5
DB
330
D9
100
AcDbEntity
  8
0
100
AcDbBlockBegin
  2
3_405015E_Inch_2_0_in_072294_0
 70
     2
 10
0.0
 20
0.0
 30
0.0
  3
3_405015E_Inch_2_0_in_072294_0
  1

  0
ATTDEF
  5
DD
330
D9
100
AcDbEntity
  8
AM_6
100
AcDbText
 10
5.21875
 20
3.772790330626279
 30
0.0
 40
0.5
  1
405015E -Inch
100
AcDbAttributeDefinition
  3

  2
NN
 70
     8
280
     0
  0
ATTDEF
  5
DE
330
D9
100
AcDbEntity
  8
AM_6
100
AcDbText
 10
5.21875
 20
3.272790330626279
 30
0.0
 40
0.5
  1
Grease Fitting
100
AcDbAttributeDefinition
  3

  2
NT
 70
     8
280
     0
  0
ATTDEF
  5
DF
330
D9
100
AcDbEntity
  8
AM_6
100
AcDbText
 10
5.21875
 20
2.772790330626279
 30
0.0
 40
0.5
  1
405015E-Inch
100
AcDbAttributeDefinition
  3

  2
NB
 70
     8
280
     0
  0
ATTDEF
  5
E0
330
D9
100
AcDbEntity
  8
AM_6
100
AcDbText
 10
5.21875
 20
2.272790330626279
 30
0.0
 40
0.5
  1
$MN.-Inch
100
AcDbAttributeDefinition
  3

  2
NBSYN
 70
     8
280
     0
  0
ATTDEF
  5
E1
330
D9
100
AcDbEntity
  8
AM_6
100
AcDbText
 10
5.21875
 20
1.772790330626279
 30
0.0
 40
0.5
  1
405015E
100
AcDbAttributeDefinition
  3

  2
LINA
 70
     8
280
     0
  0
ATTDEF
  5
E2
330
D9
100
AcDbEntity
  8
AM_6
100
AcDbText
 10
5.21875
 20
1.272790330626279
 30
0.0
 40
0.5
  1
405015E
100
AcDbAttributeDefinition
  3

  2
MN
 70
     8
280
     0
  0
ATTDEF
  5
E3
330
D9
100
AcDbEntity
  8
AM_6
100
AcDbText
 10
5.21875
 20
0.7727903306262793
 30
0.0
 40
0.5
  1
1/8 x 27PTF
100
AcDbAttributeDefinition
  3

  2
T
 70
     8
280
     0
  0
ATTDEF
  5
E4
330
D9
100
AcDbEntity
  8
AM_6
100
AcDbText
 10
5.21875
 20
0.2727903306262793
 30
0.0
 40
0.5
  1
baldor
100
AcDbAttributeDefinition
  3

  2
COMPANY
 70
     8
280
     0
  0
ELLIPSE
  5
E5
330
D9
100
AcDbEntity
  8
AM_9
100
AcDbEllipse
 10
0.0
 20
3.387367033497836
 30
0.0
 11
-0.161902872472269
 21
1.982738345459263E-17
 31
0.0
210
0.0
220
0.0
230
1.0
 40
0.8937251314284185
 41
0.0
 42
6.283185307179586
  0
LWPOLYLINE
  5
E6
330
D9
100
AcDbEntity
  8
AM_9
100
AcDbPolyline
 90
        3
 70
     0
 43
0.0
 10
0.0540194865360532
 20
3.70522261546068
 10
0.0544416102741496
 20
3.704988427206357
 10
0.109375
 20
3.6755600210851
  0
LINE
  5
E7
330
D9
100
AcDbEntity
  8
AM_9
100
AcDbLine
 10
0.0
 20
3.736064555727256
 30
0.0
 11
0.0540194865360532
 21
3.70522261546068
 31
0.0
  0
LWPOLYLINE
  5
E8
330
D9
100
AcDbEntity
  8
AM_9
100
AcDbPolyline
 90
        3
 70
     0
 43
0.0
 10
-0.062149086659842
 20
3.70073296964609
 10
-0.0546875
 20
3.704852064376746
 10
0.0
 20
3.736064555727256
  0
LINE
  5
E9
330
D9
100
AcDbEntity
  8
AM_9
100
AcDbLine
 10
-0.109375
 20
3.6755600210851
 30
0.0
 11
-0.1042338783266923
 21
3.678222482084082
 31
0.0
  0
LINE
  5
EA
330
D9
100
AcDbEntity
  8
AM_9
100
AcDbLine
 10
0.0709226946926032
 20
3.739726417804727
 30
0.0
 11
0.0222189519981965
 21
3.762744046045637
 31
0.0
  0
LINE
  5
EB
330
D9
100
AcDbEntity
  8
AM_9
100
AcDbLine
 10
0.0855421778725804
 20
3.732511807326486
 30
0.0
 11
0.0709226946926032
 21
3.739726417804727
 31
0.0
  0
LINE
  5
EC
330
D9
100
AcDbEntity
  8
AM_9
100
AcDbLine
 10
-0.0709349958735102
 20
3.739720410076413
 30
0.0
 11
-0.0899956479174438
 21
3.730283892014867
 31
0.0
  0
LINE
  5
ED
330
D9
100
AcDbEntity
  8
AM_9
100
AcDbLine
 10
-0.0234163567388851
 20
3.762195264330628
 30
0.0
 11
-0.0709349958735102
 21
3.739720410076413
 31
0.0
  0
ELLIPSE
  5
EE
330
D9
100
AcDbEntity
  8
AM_9
100
AcDbEllipse
 10
0.0000000000000013
 20
3.506250000000001
 30
0.0
 11
0.2187499999999989
 21
0.0
 31
0.0
210
0.0
220
0.0
230
1.0
 40
0.8937251314284196
 41
0.0
 42
1.047197551196603
  0
LWPOLYLINE
  5
EF
330
D9
100
AcDbEntity
  8
AM_9
100
AcDbPolyline
 90
        3
 70
     0
 43
0.0
 10
0.109375
 20
3.6755600210851
 10
0.1640625
 20
3.648415390681712
 10
0.21875
 20
3.62319120833719
  0
LWPOLYLINE
  5
F0
330
D9
100
AcDbEntity
  8
AM_9
100
AcDbPolyline
 90
        3
 70
     0
 43
0.0
 10
-0.21875
 20
3.62319120833719
 10
-0.1643083897258504
 20
3.648297999029535
 10
-0.109375
 20
3.6755600210851
  0
LINE
  5
F1
330
D9
100
AcDbEntity
  8
AM_9
100
AcDbLine
 10
0.0
 20
3.772790330626279
 30
0.0
 11
0.0
 21
3.736064555727256
 31
0.0
  0
ELLIPSE
  5
F2
330
D9
100
AcDbEntity
  8
AM_9
100
AcDbEllipse
 10
0.0
 20
3.506250000000001
 30
0.0
 11
0.2057518972230696
 21
0.0
 31
0.0
210
0.0
220
0.0
230
1.0
 40
0.893725131428421
 41
4.71238898038469
 42
9.487077222827818
  0
LINE
  5
F3
330
D9
100
AcDbEntity
  8
AM_9
100
AcDbLine
 10
0.1982323142550756
 20
3.392786259064329
 30
0.0
 11
0.2053527444159303
 21
3.494801469262335
 31
0.0
  0
LINE
  5
F4
330
D9
100
AcDbEntity
  8
AM_9
100
AcDbLine
 10
-0.2053527444159303
 20
3.494801469262335
 30
0.0
 11
-0.1982323142550756
 21
3.392786259064329
 31
0.0
  0
ELLIPSE
  5
F5
330
D9
100
AcDbEntity
  8
AM_9
100
AcDbEllipse
 10
0.0
 20
3.506250000000001
 30
0.0
 11
0.2057518972230697
 21
0.0
 31
0.0
210
0.0
220
0.0
230
1.0
 40
0.8937251314284208
 41
3.203891915648235
 42
4.71238898038469
  0
ELLIPSE
  5
F6
330
D9
100
AcDbEntity
  8
AM_9
100
AcDbEllipse
 10
-0.0000000000000006
 20
3.4038378218248
 30
0.0
 11
0.1986176267812149
 21
0.0
 31
0.0
210
0.0
220
0.0
230
1.0
 40
0.8937251314284208
 41
3.252997531553019
 42
9.487077222827818
  0
ELLIPSE
  5
F7
330
D9
100
AcDbEntity
  8
AM_9
100
AcDbEllipse
 10
-0.0000000000000707
 20
3.403837821824744
 30
0.0
 11
0.1986176267811444
 21
0.0
 31
0.0
210
0.0
220
0.0
230
1.0
 40
0.8937251314283959
 41
3.203891915647937
 42
3.252997531552744
  0
ELLIPSE
  5
F8
330
D9
100
AcDbEntity
  8
AM_9
100
AcDbEllipse
 10
0.0
 20
3.506249999999999
 30
0.0
 11
0.2187499999999989
 21
3.259629011154160E-9
 31
0.0
210
0.0
220
0.0
230
1.0
 40
0.8937251314284195
 41
4.188790190629959
 42
6.283187037607677
  0
ELLIPSE
  5
F9
330
D9
100
AcDbEntity
  8
AM_9
100
AcDbEllipse
 10
-0.0000000000000008
 20
3.50625
 30
0.0
 11
0.218749999999999
 21
3.259629011154161E-9
 31
0.0
210
0.0
220
0.0
230
1.0
 40
0.893725131428421
 41
1.047197537040164
 42
4.188790190629962
  0
ELLIPSE
  5
FA
330
D9
100
AcDbEntity
  8
AM_9
100
AcDbEllipse
 10
0.0
 20
3.551111496793273
 30
0.0
 11
0.2187499999999959
 21
3.259629011154114E-9
 31
0.0
210
0.0
220
0.0
230
1.0
 40
0.8937251314284218
 41
1.15689851621994
 42
1.984694109649251
  0
ELLIPSE
  5
FB
330
D9
100
AcDbEntity
  8
AM_9
100
AcDbEllipse
 10
0.0
 20
3.551111496793269
 30
0.0
 11
0.2137500000000007
 21
3.185123205184947E-9
 31
0.0
210
0.0
220
0.0
230
1.0
 40
0.8937251314284198
 41
1.087133564509609
 42
2.054459060993837
  0
ELLIPSE
  5
FC
330
D9
100
AcDbEntity
  8
AM_9
100
AcDbEllipse
 10
0.0
 20
3.559329314844272
 30
0.0
 11
0.1725340532830162
 21
0.0
 31
0.0
210
0.0
220
0.0
230
1.0
 40
0.8937251314284195
 41
0.6869696589429353
 42
2.454622994646858
  0
ELLIPSE
  5
FD
330
D9
100
AcDbEntity
  8
AM_9
100
AcDbEllipse
 10
0.0000000000000006
 20
3.583749636115189
 30
0.0
 11
0.118820090734897
 21
0.0
 31
0.0
210
0.0
220
0.0
230
1.0
 40
0.8937251314284183
 41
6.259774645875869
 42
7.306416453525594
  0
LINE
  5
FE
330
D9
100
AcDbEntity
  8
AM_9
100
AcDbLine
 10
-0.0546640435186475
 20
3.678337130013243
 30
0.0
 11
-0.0618589201030674
 21
3.674416224758507
 31
0.0
  0
LINE
  5
FF
330
D9
100
AcDbEntity
  8
AM_9
100
AcDbLine
 10
0.0618589201030674
 20
3.674416224758507
 30
0.0
 11
0.0546640435186475
 21
3.678337130013243
 31
0.0
  0
ELLIPSE
  5
100
330
D9
100
AcDbEntity
  8
AM_9
100
AcDbEllipse
 10
0.0
 20
3.598216068426201
 30
0.0
 11
0.1050000000000018
 21
1.564621925354031E-9
 31
0.0
210
0.0
220
0.0
230
1.0
 40
0.8937251314284186
 41
0.0000017304280906
 42
2.118361493016765
  0
ELLIPSE
  5
101
330
D9
100
AcDbEntity
  8
AM_9
100
AcDbEllipse
 10
0.0000000000000013
 20
3.598216068426203
 30
0.0
 11
0.1050000000000013
 21
0.0
 31
0.0
210
0.0
220
0.0
230
1.0
 40
0.8937251314284186
 41
2.118361507243796
 42
3.141592653589793
  0
ELLIPSE
  5
102
330
D9
100
AcDbEntity
  8
AM_9
100
AcDbEllipse
 10
0.0
 20
3.58374963611519
 30
0.0
 11
0.1188200907348964
 21
0.0
 31
0.0
210
0.0
220
0.0
230
1.0
 40
0.8937251314284189
 41
1.023231146345998
 42
3.165003314893516
  0
ELLIPSE
  5
103
330
D9
100
AcDbEntity
  8
AM_9
100
AcDbEllipse
 10
0.0000000000000007
 20
3.598216068426202
 30
0.0
 11
0.1049999999999993
 21
0.0
 31
0.0
210
0.0
220
0.0
230
1.0
 40
0.8937251314284191
 41
5.708223759955096
 42
6.283185307179586
  0
LINE
  5
104
330
D9
100
AcDbEntity
  8
AM_9
100
AcDbLine
 10
0.105
 20
3.598216068426203
 30
0.0
 11
0.105
 21
3.611674517464184
 31
0.0
  0
LINE
  5
105
330
D9
100
AcDbEntity
  8
AM_9
100
AcDbLine
 10
-0.105
 20
3.611674517464184
 30
0.0
 11
-0.105
 21
3.598216068426203
 31
0.0
  0
ELLIPSE
  5
106
330
D9
100
AcDbEntity
  8
AM_9
100
AcDbEllipse
 10
0.0
 20
3.611674517464184
 30
0.0
 11
0.1050000000000001
 21
0.0
 31
0.0
210
0.0
220
0.0
230
1.0
 40
0.8937251314284204
 41
0.0
 42
4.623971835170256
  0
ELLIPSE
  5
107
330
D9
100
AcDbEntity
  8
AM_9
100
AcDbEllipse
 10
-0.0000000000000008
 20
3.598216068426202
 30
0.0
 11
0.1049999999999991
 21
0.0
 31
0.0
210
0.0
220
0.0
230
1.0
 40
0.8937251314284202
 41
3.141592653589793
 42
3.716554200814277
  0
ELLIPSE
  5
108
330
D9
100
AcDbEntity
  8
AM_9
100
AcDbEllipse
 10
-0.0000000000000007
 20
3.611674517464185
 30
0.0
 11
0.105000000000001
 21
0.0
 31
0.0
210
0.0
220
0.0
230
1.0
 40
0.8937251314284168
 41
4.80080612559913
 42
6.283185307179586
  0
ELLIPSE
  5
109
330
D9
100
AcDbEntity
  8
AM_9
100
AcDbEllipse
 10
0.0
 20
3.638591415540146
 30
0.0
 11
0.1349999999999996
 21
0.0
 31
0.0
210
0.0
220
0.0
230
1.0
 40
0.8937251314284161
 41
0.9355001854400253
 42
2.206092468149768
  0
LINE
  5
10A
330
D9
100
AcDbEntity
  8
AM_4
100
AcDbLine
 10
0.0222189519981965
 20
3.762744046045637
 30
0.0
 11
0.0
 21
3.772790330626279
 31
0.0
  0
LINE
  5
10B
330
D9
100
AcDbEntity
  8
AM_4
100
AcDbLine
 10
0.1093749999999999
 20
3.720421517878369
 30
0.0
 11
0.0855421778725804
 21
3.732511807326486
 31
0.0
  0
LINE
  5
10C
330
D9
100
AcDbEntity
  8
AM_4
100
AcDbLine
 10
-0.0899956479174438
 20
3.730283892014867
 30
0.0
 11
-0.109375
 21
3.720421517878369
 31
0.0
  0
LINE
  5
10D
330
D9
100
AcDbEntity
  8
AM_4
100
AcDbLine
 10
0.0
 20
3.772790330626279
 30
0.0
 11
-0.0234163567388851
 21
3.762195264330628
 31
0.0
  0
LWPOLYLINE
  5
10E
330
D9
100
AcDbEntity
  8
AM_4
100
AcDbPolyline
 90
        3
 70
     0
 43
0.0
 10
0.21875
 20
3.659916983236213
 10
0.1643083897258504
 20
3.690993111757112
 10
0.1093749999999999
 20
3.720421517878369
  0
LWPOLYLINE
  5
10F
330
D9
100
AcDbEntity
  8
AM_4
100
AcDbPolyline
 90
        3
 70
     0
 43
0.0
 10
-0.109375
 20
3.720421517878369
 10
-0.1640625
 20
3.691129474586724
 10
-0.21875
 20
3.659916983236213
  0
ELLIPSE
  5
110
330
D9
100
AcDbEntity
  8
AM_4
100
AcDbEllipse
 10
-0.0000000000000016
 20
3.55111149679327
 30
0.0
 11
0.2187499999999985
 21
0.0
 31
0.0
210
0.0
220
0.0
230
1.0
 40
0.8937251314284214
 41
1.984694123509539
 42
3.141592653589793
  0
ELLIPSE
  5
111
330
D9
100
AcDbEntity
  8
AM_4
100
AcDbEllipse
 10
-0.0000000000000013
 20
3.551111496793269
 30
0.0
 11
0.2187499999999986
 21
0.0
 31
0.0
210
0.0
220
0.0
230
1.0
 40
0.8937251314284209
 41
3.141592653589793
 42
4.188790204786393
  0
ELLIPSE
  5
112
330
D9
100
AcDbEntity
  8
AM_4
100
AcDbEllipse
 10
0.0000000000000012
 20
3.551111496793269
 30
0.0
 11
0.2187499999999987
 21
0.0
 31
0.0
210
0.0
220
0.0
230
1.0
 40
0.8937251314284207
 41
4.188790204786384
 42
6.283185307179586
  0
ELLIPSE
  5
113
330
D9
100
AcDbEntity
  8
AM_4
100
AcDbEllipse
 10
0.0000000000000014
 20
3.55111149679327
 30
0.0
 11
0.2187499999999985
 21
0.0
 31
0.0
210
0.0
220
0.0
230
1.0
 40
0.8937251314284214
 41
0.0
 42
1.156898530080253
  0
ELLIPSE
  5
114
330
D9
100
AcDbEntity
  8
AM_4
100
AcDbEllipse
 10
0.0000000000017544
 20
3.551111496791205
 30
0.0
 11
0.2137500000036961
 21
0.0
 31
0.0
210
0.0
220
0.0
230
1.0
 40
0.8937251314249482
 41
2.054459075037653
 42
4.71238898038469
  0
ELLIPSE
  5
115
330
D9
100
AcDbEntity
  8
AM_4
100
AcDbEllipse
 10
-0.0000000000006444
 20
3.55111149679282
 30
0.0
 11
0.2137500000013398
 21
3.185123205204903E-9
 31
0.0
210
0.0
220
0.0
230
1.0
 40
0.89372513142596
 41
1.051269431959108
 42
1.087133564509167
  0
ELLIPSE
  5
116
330
D9
100
AcDbEntity
  8
AM_4
100
AcDbEllipse
 10
-0.0000000000000003
 20
3.55111149679327
 30
0.0
 11
0.2137500000000004
 21
0.0
 31
0.0
210
0.0
220
0.0
230
1.0
 40
0.893725131428419
 41
6.175682516693972
 42
7.334454753283577
  0
ELLIPSE
  5
117
330
D9
100
AcDbEntity
  8
AM_4
100
AcDbEllipse
 10
-0.0000000000000003
 20
3.55111149679327
 30
0.0
 11
0.2137500000000003
 21
0.0
 31
0.0
210
0.0
220
0.0
230
1.0
 40
0.8937251314284193
 41
4.71238898038469
 42
6.175682516693973
  0
LWPOLYLINE
  5
118
330
D9
100
AcDbEntity
  8
AM_4
100
AcDbPolyline
 90
        3
 70
     0
 43
0.0
 10
-0.21875
 20
3.434170288456081
 10
-0.1643083897258504
 20
3.409063497763735
 10
-0.109375
 20
3.38180147570817
  0
LINE
  5
119
330
D9
100
AcDbEntity
  8
AM_4
100
AcDbLine
 10
-0.21875
 20
3.659916983236213
 30
0.0
 11
-0.21875
 21
3.397444513557057
 31
0.0
  0
LWPOLYLINE
  5
11A
330
D9
100
AcDbEntity
  8
AM_4
100
AcDbPolyline
 90
        3
 70
     0
 43
0.0
 10
-0.109375
 20
3.336939978914901
 10
-0.1640625
 20
3.366232022206546
 10
-0.21875
 20
3.397444513557057
  0
LWPOLYLINE
  5
11B
330
D9
100
AcDbEntity
  8
AM_4
100
AcDbPolyline
 90
        3
 70
     0
 43
0.0
 10
0.0
 20
3.284571166166991
 10
-0.0544416102741496
 20
3.309677956859337
 10
-0.109375
 20
3.336939978914901
  0
LWPOLYLINE
  5
11C
330
D9
100
AcDbEntity
  8
AM_4
100
AcDbPolyline
 90
        3
 70
     0
 43
0.0
 10
-0.109375
 20
3.38180147570817
 10
-0.0546875
 20
3.352509432416525
 10
0.0
 20
3.321296941066014
  0
LINE
  5
11D
330
D9
100
AcDbEntity
  8
AM_4
100
AcDbLine
 10
0.21875
 20
3.659916983236213
 30
0.0
 11
0.21875
 21
3.397444513557057
 31
0.0
  0
LWPOLYLINE
  5
11E
330
D9
100
AcDbEntity
  8
AM_4
100
AcDbPolyline
 90
        3
 70
     0
 43
0.0
 10
0.1093749999999999
 20
3.38180147570817
 10
0.1640625
 20
3.408946106111558
 10
0.21875
 20
3.434170288456081
  0
LWPOLYLINE
  5
11F
330
D9
100
AcDbEntity
  8
AM_4
100
AcDbPolyline
 90
        3
 70
     0
 43
0.0
 10
0.0
 20
3.321296941066014
 10
0.0544416102741496
 20
3.352373069586914
 10
0.1093749999999999
 20
3.38180147570817
  0
LINE
  5
120
330
D9
100
AcDbEntity
  8
AM_4
100
AcDbLine
 10
0.0
 20
3.321296941066014
 30
0.0
 11
0.0
 21
3.284571166166991
 31
0.0
  0
LWPOLYLINE
  5
121
330
D9
100
AcDbEntity
  8
AM_4
100
AcDbPolyline
 90
        3
 70
     0
 43
0.0
 10
0.109375
 20
3.336939978914901
 10
0.0546875
 20
3.309795348511514
 10
0.0
 20
3.284571166166991
  0
LWPOLYLINE
  5
122
330
D9
100
AcDbEntity
  8
AM_4
100
AcDbPolyline
 90
        3
 70
     0
 43
0.0
 10
0.21875
 20
3.397444513557057
 10
0.1643083897258504
 20
3.366368385036158
 10
0.109375
 20
3.336939978914901
  0
ELLIPSE
  5
123
330
D9
100
AcDbEntity
  8
AM_4
100
AcDbEllipse
 10
-0.0000000000000002
 20
3.559329314844272
 30
0.0
 11
0.1725340532830152
 21
0.0
 31
0.0
210
0.0
220
0.0
230
1.0
 40
0.8937251314284191
 41
2.454622994646861
 42
4.71238898038469
  0
ELLIPSE
  5
124
330
D9
100
AcDbEntity
  8
AM_4
100
AcDbEllipse
 10
0.0000000000000002
 20
3.559329314844272
 30
0.0
 11
0.1725340532830153
 21
0.0
 31
0.0
210
0.0
220
0.0
230
1.0
 40
0.8937251314284191
 41
4.71238898038469
 42
6.970154966122518
  0
ELLIPSE
  5
125
330
D9
100
AcDbEntity
  8
AM_4
100
AcDbEllipse
 10
0.0000000000000006
 20
3.583749636115189
 30
0.0
 11
0.1188200907348968
 21
1.770557325108303E-9
 31
0.0
210
0.0
220
0.0
230
1.0
 40
0.8937251314284195
 41
3.165003298222249
 42
6.259774629204622
  0
ELLIPSE
  5
126
330
D9
100
AcDbEntity
  8
AM_4
100
AcDbEllipse
 10
-0.0000000000000011
 20
3.598216068426205
 30
0.0
 11
0.1050000000000025
 21
0.0
 31
0.0
210
0.0
220
0.0
230
1.0
 40
0.8937251314284169
 41
3.71655420081431
 42
5.70822375995508
  0
ELLIPSE
  5
127
330
D9
100
AcDbEntity
  8
AM_4
100
AcDbEllipse
 10
0.0000000000000004
 20
3.611674517464175
 30
0.0
 11
0.105000000000043
 21
0.0
 31
0.0
210
0.0
220
0.0
230
1.0
 40
0.8937251314279706
 41
4.71238898038469
 42
4.800806125599085
  0
LINE
  5
128
330
D9
100
AcDbEntity
  8
AM_4
100
AcDbLine
 10
0.009271708815022
 20
3.518199945612637
 30
0.0
 11
0.0119207684764568
 21
3.518409823159586
 31
0.0
  0
LINE
  5
129
330
D9
100
AcDbEntity
  8
AM_4
100
AcDbLine
 10
-0.0119207684764568
 20
3.518409823159586
 30
0.0
 11
-0.009271708815022
 21
3.518199945612637
 31
0.0
  0
ELLIPSE
  5
12A
330
D9
100
AcDbEntity
  8
AM_4
100
AcDbEllipse
 10
-0.0000000000000002
 20
3.638591415540146
 30
0.0
 11
0.1350000000000001
 21
0.0
 31
0.0
210
0.0
220
0.0
230
1.0
 40
0.8937251314284196
 41
4.800806125599125
 42
7.21868549261961
  0
ELLIPSE
  5
12B
330
D9
100
AcDbEntity
  8
AM_4
100
AcDbEllipse
 10
0.0000000000000082
 20
3.638591415540265
 30
0.0
 11
0.1350000000002012
 21
0.0
 31
0.0
210
0.0
220
0.0
230
1.0
 40
0.8937251314279698
 41
2.206092468150161
 42
4.71238898038469
  0
ELLIPSE
  5
12C
330
D9
100
AcDbEntity
  8
AM_4
100
AcDbEllipse
 10
-0.0000000000000004
 20
3.611674517464175
 30
0.0
 11
0.105000000000043
 21
0.0
 31
0.0
210
0.0
220
0.0
230
1.0
 40
0.8937251314279706
 41
4.623971835170295
 42
4.71238898038469
  0
ELLIPSE
  5
12D
330
D9
100
AcDbEntity
  8
AM_4
100
AcDbEllipse
 10
0.0000000000000001
 20
3.674480612974761
 30
0.0
 11
0.1026779019331872
 21
0.0
 31
0.0
210
0.0
220
0.0
230
1.0
 40
0.8937251314284194
 41
4.71238898038469
 42
7.218685492619616
  0
ELLIPSE
  5
12E
330
D9
100
AcDbEntity
  8
AM_4
100
AcDbEllipse
 10
-0.0000000000000082
 20
3.638591415540265
 30
0.0
 11
0.1350000000002011
 21
0.0
 31
0.0
210
0.0
220
0.0
230
1.0
 40
0.8937251314279706
 41
4.71238898038469
 42
4.800806125599054
  0
LINE
  5
12F
330
D9
100
AcDbEntity
  8
AM_4
100
AcDbLine
 10
-0.0609306999312584
 20
3.748342555260965
 30
0.0
 11
-0.0801111469542133
 21
3.735704445908899
 31
0.0
  0
LINE
  5
130
330
D9
100
AcDbEntity
  8
AM_4
100
AcDbLine
 10
0.0801111469542133
 20
3.735704445908899
 30
0.0
 11
0.0609306999312584
 21
3.748342555260965
 31
0.0
  0
ELLIPSE
  5
131
330
D9
100
AcDbEntity
  8
AM_4
100
AcDbEllipse
 10
0.0
 20
3.674480612974763
 30
0.0
 11
0.1026779019331861
 21
1.530019967752488E-9
 31
0.0
210
0.0
220
0.0
230
1.0
 40
0.8937251314284158
 41
0.9355001709408439
 42
4.712388967067146
  0
ENDBLK
  5
DC
330
D9
100
AcDbEntity
  8
0
100
AcDbBlockEnd
  0
BLOCK
  5
134
330
132
100
AcDbEntity
  8
0
100
AcDbBlockBegin
  2
4_ASME_B18_3_10_1_0_in_072294_0
 70
     2
 10
0.0
 20
0.0
 30
0.0
  3
4_ASME_B18_3_10_1_0_in_072294_0
  1

  0
ATTDEF
  5
136
330
132
100
AcDbEntity
  8
AM_6
100
AcDbText
 10
5.189525
 20
-1.705784722222222
 30
0.0
 40
0.5
  1
ANSI/ASME-B18.3-1998
100
AcDbAttributeDefinition
  3

  2
NN
 70
     8
280
     0
  0
ATTDEF
  5
137
330
132
100
AcDbEntity
  8
AM_6
100
AcDbText
 10
5.189525
 20
-2.205784722222222
 30
0.0
 40
0.5
  1
Socket Button Head Cap Screws
100
AcDbAttributeDefinition
  3

  2
NT
 70
     8
280
     0
  0
ATTDEF
  5
138
330
132
100
AcDbEntity
  8
AM_6
100
AcDbText
 10
5.189525
 20
-2.705784722222222
 30
0.0
 40
0.5
  1
ASME-B18.3-10
100
AcDbAttributeDefinition
  3

  2
NB
 70
     8
280
     0
  0
ATTDEF
  5
139
330
132
100
AcDbEntity
  8
AM_6
100
AcDbText
 10
5.189525
 20
-3.205784722222222
 30
0.0
 40
0.5
  1
ASME-B18.3-$NS.
100
AcDbAttributeDefinition
  3

  2
NBSYN
 70
     8
280
     0
  0
ATTDEF
  5
13A
330
132
100
AcDbEntity
  8
AM_6
100
AcDbText
 10
5.189525
 20
-3.705784722222222
 30
0.0
 40
0.5
  1
ASME-B18.3-10
100
AcDbAttributeDefinition
  3

  2
LINA
 70
     8
280
     0
  0
ATTDEF
  5
13B
330
132
100
AcDbEntity
  8
AM_6
100
AcDbText
 10
5.189525
 20
-4.205784722222222
 30
0.0
 40
0.5
  1
10
100
AcDbAttributeDefinition
  3

  2
NS
 70
     8
280
     0
  0
ATTDEF
  5
13C
330
132
100
AcDbEntity
  8
AM_6
100
AcDbText
 10
5.189525
 20
-4.705784722222222
 30
0.0
 40
0.5
  1
0.361
100
AcDbAttributeDefinition
  3

  2
A
 70
     8
280
     0
  0
ATTDEF
  5
13D
330
132
100
AcDbEntity
  8
AM_6
100
AcDbText
 10
5.189525
 20
-5.205784722222222
 30
0.0
 40
0.5
  1
0.101
100
AcDbAttributeDefinition
  3

  2
H
 70
     8
280
     0
  0
ATTDEF
  5
13E
330
132
100
AcDbEntity
  8
AM_6
100
AcDbText
 10
5.189525
 20
-5.705784722222222
 30
0.0
 40
0.5
  1
0.800
100
AcDbAttributeDefinition
  3

  2
L
 70
     8
280
     0
  0
ATTDEF
  5
13F
330
132
100
AcDbEntity
  8
AM_6
100
AcDbText
 10
5.189525
 20
-6.205784722222222
 30
0.0
 40
0.5
  1
0.020
100
AcDbAttributeDefinition
  3

  2
S
 70
     8
280
     0
  0
ATTDEF
  5
140
330
132
100
AcDbEntity
  8
AM_6
100
AcDbText
 10
5.189525
 20
-6.705784722222222
 30
0.0
 40
0.5
  1
0.125000
100
AcDbAttributeDefinition
  3

  2
J
 70
     8
280
     0
  0
ATTDEF
  5
141
330
132
100
AcDbEntity
  8
AM_6
100
AcDbText
 10
5.189525
 20
-7.205784722222222
 30
0.0
 40
0.5
  1
baldor
100
AcDbAttributeDefinition
  3

  2
COMPANY
 70
     8
280
     0
  0
ARC
  5
143
330
132
100
AcDbEntity
  8
AM_5
100
AcDbCircle
 10
0.0000000000000002
 20
-1.886284722222222
 30
0.0
 40
0.0702
100
AcDbArc
 50
75.00000000000024
 51
15.00000000000027
  0
LINE
  5
146
330
132
100
AcDbEntity
  8
AM_7
100
AcDbLine
 10
-0.1895250000000001
 20
-1.886284722222222
 30
0.0
 11
0.1895250000000001
 21
-1.886284722222222
 31
0.0
  0
CIRCLE
  5
147
330
132
100
AcDbEntity
  8
AM_4
100
AcDbCircle
 10
0.0
 20
-1.886284722222222
 30
0.0
 40
0.0995
  0
LINE
  5
148
330
132
100
AcDbEntity
  8
AM_4
100
AcDbLine
 10
-0.0625
 20
-1.922369114046574
 30
0.0
 11
-0.0625
 21
-1.850200330397871
 31
0.0
  0
LINE
  5
149
330
132
100
AcDbEntity
  8
AM_4
100
AcDbLine
 10
-0.0625
 20
-1.850200330397871
 30
0.0
 11
0.0
 21
-1.814115938573519
 31
0.0
  0
LINE
  5
14A
330
132
100
AcDbEntity
  8
AM_4
100
AcDbLine
 10
0.0
 20
-1.814115938573519
 30
0.0
 11
0.0625
 21
-1.850200330397871
 31
0.0
  0
LINE
  5
14B
330
132
100
AcDbEntity
  8
AM_4
100
AcDbLine
 10
0.0625
 20
-1.850200330397871
 30
0.0
 11
0.0625
 21
-1.922369114046574
 31
0.0
  0
LINE
  5
14C
330
132
100
AcDbEntity
  8
AM_4
100
AcDbLine
 10
0.0625
 20
-1.922369114046574
 30
0.0
 11
0.0
 21
-1.958453505870925
 31
0.0
  0
LINE
  5
14D
330
132
100
AcDbEntity
  8
AM_4
100
AcDbLine
 10
0.0
 20
-1.958453505870925
 30
0.0
 11
-0.0625
 21
-1.922369114046574
 31
0.0
  0
CIRCLE
  5
14E
330
132
100
AcDbEntity
  8
AM_4
100
AcDbCircle
 10
0.0
 20
-1.886284722222222
 30
0.0
 40
0.1805000000000001
  0
CIRCLE
  5
14F
330
132
100
AcDbEntity
  8
AM_5
100
AcDbCircle
 10
0.0000000000000002
 20
-1.886284722222223
 30
0.0
 40
0.0701999999999999
  0
ENDBLK
  5
135
330
132
100
AcDbEntity
  8
0
100
AcDbBlockEnd
  0
BLOCK
  5
152
330
150
100
AcDbEntity
  8
0
100
AcDbBlockBegin
  2
5_ASME_B18_3_10_2_0_in_072294_0
 70
     2
 10
0.0
 20
0.0
 30
0.0
  3
5_ASME_B18_3_10_2_0_in_072294_0
  1

  0
ATTDEF
  5
154
330
150
100
AcDbEntity
  8
AM_6
100
AcDbText
 10
5.189525
 20
2.066784722222222
 30
0.0
 40
0.5
  1
ANSI/ASME-B18.3-1998
100
AcDbAttributeDefinition
  3

  2
NN
 70
     8
280
     0
  0
ATTDEF
  5
155
330
150
100
AcDbEntity
  8
AM_6
100
AcDbText
 10
5.189525
 20
1.566784722222222
 30
0.0
 40
0.5
  1
Socket Button Head Cap Screws
100
AcDbAttributeDefinition
  3

  2
NT
 70
     8
280
     0
  0
ATTDEF
  5
156
330
150
100
AcDbEntity
  8
AM_6
100
AcDbText
 10
5.189525
 20
1.066784722222222
 30
0.0
 40
0.5
  1
ASME-B18.3-10
100
AcDbAttributeDefinition
  3

  2
NB
 70
     8
280
     0
  0
ATTDEF
  5
157
330
150
100
AcDbEntity
  8
AM_6
100
AcDbText
 10
5.189525
 20
0.5667847222222218
 30
0.0
 40
0.5
  1
ASME-B18.3-$NS.
100
AcDbAttributeDefinition
  3

  2
NBSYN
 70
     8
280
     0
  0
ATTDEF
  5
158
330
150
100
AcDbEntity
  8
AM_6
100
AcDbText
 10
5.189525
 20
0.0667847222222218
 30
0.0
 40
0.5
  1
ASME-B18.3-10
100
AcDbAttributeDefinition
  3

  2
LINA
 70
     8
280
     0
  0
ATTDEF
  5
159
330
150
100
AcDbEntity
  8
AM_6
100
AcDbText
 10
5.189525
 20
-0.4332152777777782
 30
0.0
 40
0.5
  1
10
100
AcDbAttributeDefinition
  3

  2
NS
 70
     8
280
     0
  0
ATTDEF
  5
15A
330
150
100
AcDbEntity
  8
AM_6
100
AcDbText
 10
5.189525
 20
-0.9332152777777782
 30
0.0
 40
0.5
  1
0.361
100
AcDbAttributeDefinition
  3

  2
A
 70
     8
280
     0
  0
ATTDEF
  5
15B
330
150
100
AcDbEntity
  8
AM_6
100
AcDbText
 10
5.189525
 20
-1.433215277777778
 30
0.0
 40
0.5
  1
0.101
100
AcDbAttributeDefinition
  3

  2
H
 70
     8
280
     0
  0
ATTDEF
  5
15C
330
150
100
AcDbEntity
  8
AM_6
100
AcDbText
 10
5.189525
 20
-1.933215277777778
 30
0.0
 40
0.5
  1
0.800
100
AcDbAttributeDefinition
  3

  2
L
 70
     8
280
     0
  0
ATTDEF
  5
15D
330
150
100
AcDbEntity
  8
AM_6
100
AcDbText
 10
5.189525
 20
-2.433215277777778
 30
0.0
 40
0.5
  1
0.020
100
AcDbAttributeDefinition
  3

  2
S
 70
     8
280
     0
  0
ATTDEF
  5
15E
330
150
100
AcDbEntity
  8
AM_6
100
AcDbText
 10
5.189525
 20
-2.933215277777778
 30
0.0
 40
0.5
  1
0.125000
100
AcDbAttributeDefinition
  3

  2
J
 70
     8
280
     0
  0
ATTDEF
  5
15F
330
150
100
AcDbEntity
  8
AM_6
100
AcDbText
 10
5.189525
 20
-3.433215277777778
 30
0.0
 40
0.5
  1
baldor
100
AcDbAttributeDefinition
  3

  2
COMPANY
 70
     8
280
     0
  0
ARC
  5
160
330
150
100
AcDbEntity
  8
AM_5
100
AcDbCircle
 10
-0.0000000000000001
 20
1.886284722222222
 30
0.0
 40
0.0702000000000003
100
AcDbArc
 50
75.0000000000001
 51
15.00000000000019
  0
LINE
  5
161
330
150
100
AcDbEntity
  8
AM_7
100
AcDbLine
 10
-0.1895249999999999
 20
1.886284722222222
 30
0.0
 11
0.1895249999999999
 21
1.886284722222222
 31
0.0
  0
LINE
  5
162
330
150
100
AcDbEntity
  8
AM_4
100
AcDbLine
 10
0.0625
 20
1.922369114046574
 30
0.0
 11
0.0625
 21
1.850200330397871
 31
0.0
  0
LINE
  5
163
330
150
100
AcDbEntity
  8
AM_4
100
AcDbLine
 10
0.0625
 20
1.850200330397871
 30
0.0
 11
0.0
 21
1.814115938573519
 31
0.0
  0
LINE
  5
164
330
150
100
AcDbEntity
  8
AM_4
100
AcDbLine
 10
0.0
 20
1.814115938573519
 30
0.0
 11
-0.0625
 21
1.850200330397871
 31
0.0
  0
CIRCLE
  5
165
330
150
100
AcDbEntity
  8
AM_4
100
AcDbCircle
 10
0.0
 20
1.886284722222222
 30
0.0
 40
0.0995
  0
LINE
  5
166
330
150
100
AcDbEntity
  8
AM_4
100
AcDbLine
 10
-0.0625
 20
1.850200330397871
 30
0.0
 11
-0.0625
 21
1.922369114046574
 31
0.0
  0
LINE
  5
167
330
150
100
AcDbEntity
  8
AM_4
100
AcDbLine
 10
-0.0625
 20
1.922369114046574
 30
0.0
 11
0.0
 21
1.958453505870925
 31
0.0
  0
LINE
  5
168
330
150
100
AcDbEntity
  8
AM_4
100
AcDbLine
 10
0.0
 20
1.958453505870925
 30
0.0
 11
0.0625
 21
1.922369114046574
 31
0.0
  0
CIRCLE
  5
169
330
150
100
AcDbEntity
  8
AM_4
100
AcDbCircle
 10
0.0
 20
1.886284722222222
 30
0.0
 40
0.1804999999999999
  0
CIRCLE
  5
16A
330
150
100
AcDbEntity
  8
AM_5
100
AcDbCircle
 10
0.0000000000000002
 20
1.886284722222222
 30
0.0
 40
0.0701999999999999
  0
ENDBLK
  5
153
330
150
100
AcDbEntity
  8
0
100
AcDbBlockEnd
  0
BLOCK
  5
16D
330
16B
100
AcDbEntity
  8
0
100
AcDbBlockBegin
  2
6_070899LW_0_in_072294_0
 70
     2
 10
0.0
 20
0.0
 30
0.0
  3
6_070899LW_0_in_072294_0
  1

  0
ATTDEF
  5
16F
330
16B
100
AcDbEntity
  8
AM_6
100
AcDbText
 10
7.140625
 20
2.140625
 30
0.0
 40
0.5
  1
Imperial Insert Lockwasher -Inch
100
AcDbAttributeDefinition
  3

  2
NN
 70
     8
280
     0
  0
ATTDEF
  5
170
330
16B
100
AcDbEntity
  8
AM_6
100
AcDbText
 10
7.140625
 20
1.640625
 30
0.0
 40
0.5
  1
Imperial Bearings
100
AcDbAttributeDefinition
  3

  2
NT
 70
     8
280
     0
  0
ATTDEF
  5
171
330
16B
100
AcDbEntity
  8
AM_6
100
AcDbText
 10
7.140625
 20
1.140625
 30
0.0
 40
0.5
  1
070899LW
100
AcDbAttributeDefinition
  3

  2
NB
 70
     8
280
     0
  0
ATTDEF
  5
172
330
16B
100
AcDbEntity
  8
AM_6
100
AcDbText
 10
7.140625
 20
0.640625
 30
0.0
 40
0.5
  1
$PN.LW
100
AcDbAttributeDefinition
  3

  2
NBSYN
 70
     8
280
     0
  0
ATTDEF
  5
173
330
16B
100
AcDbEntity
  8
AM_6
100
AcDbText
 10
7.140625
 20
0.140625
 30
0.0
 40
0.5
  1
070899
100
AcDbAttributeDefinition
  3

  2
LINA
 70
     8
280
     0
  0
ATTDEF
  5
174
330
16B
100
AcDbEntity
  8
AM_6
100
AcDbText
 10
7.140625
 20
-0.359375
 30
0.0
 40
0.5
  1
2-15/16
100
AcDbAttributeDefinition
  3

  2
SS
 70
     8
280
     0
  0
ATTDEF
  5
175
330
16B
100
AcDbEntity
  8
AM_6
100
AcDbText
 10
7.140625
 20
-0.859375
 30
0.0
 40
0.5
  1
2.937500
100
AcDbAttributeDefinition
  3

  2
SS1
 70
     8
280
     0
  0
ATTDEF
  5
176
330
16B
100
AcDbEntity
  8
AM_6
100
AcDbText
 10
7.140625
 20
-1.359375
 30
0.0
 40
0.5
  1
070899
100
AcDbAttributeDefinition
  3

  2
PN
 70
     8
280
     0
  0
ATTDEF
  5
177
330
16B
100
AcDbEntity
  8
AM_6
100
AcDbText
 10
7.140625
 20
-1.859375
 30
0.0
 40
0.5
  1
INS-IP-215R
100
AcDbAttributeDefinition
  3

  2
DESCRIPTION
 70
     8
280
     0
  0
ATTDEF
  5
178
330
16B
100
AcDbEntity
  8
AM_6
100
AcDbText
 10
7.140625
 20
-2.359375
 30
0.0
 40
0.5
  1
5.1181
100
AcDbAttributeDefinition
  3

  2
A
 70
     8
280
     0
  0
ATTDEF
  5
179
330
16B
100
AcDbEntity
  8
AM_6
100
AcDbText
 10
7.140625
 20
-2.859375
 30
0.0
 40
0.5
  1
1-9/32
100
AcDbAttributeDefinition
  3

  2
B
 70
     8
280
     0
  0
ATTDEF
  5
17A
330
16B
100
AcDbEntity
  8
AM_6
100
AcDbText
 10
7.140625
 20
-3.359375
 30
0.0
 40
0.5
  1
3-1/2
100
AcDbAttributeDefinition
  3

  2
C
 70
     8
280
     0
  0
ATTDEF
  5
17B
330
16B
100
AcDbEntity
  8
AM_6
100
AcDbText
 10
7.140625
 20
-3.859375
 30
0.0
 40
0.5
  1
1.219
100
AcDbAttributeDefinition
  3

  2
D
 70
     8
280
     0
  0
ATTDEF
  5
17C
330
16B
100
AcDbEntity
  8
AM_6
100
AcDbText
 10
7.140625
 20
-4.359375
 30
0.0
 40
0.5
  1
4-9/32
100
AcDbAttributeDefinition
  3

  2
E
 70
     8
280
     0
  0
ATTDEF
  5
17D
330
16B
100
AcDbEntity
  8
AM_6
100
AcDbText
 10
7.140625
 20
-4.859375
 30
0.0
 40
0.5
  1
0.1900
100
AcDbAttributeDefinition
  3

  2
NDM
 70
     8
280
     0
  0
ATTDEF
  5
17E
330
16B
100
AcDbEntity
  8
AM_6
100
AcDbText
 10
7.140625
 20
-5.359375
 30
0.0
 40
0.5
  1
0.1450
100
AcDbAttributeDefinition
  3

  2
KDM
 70
     8
280
     0
  0
ATTDEF
  5
17F
330
16B
100
AcDbEntity
  8
AM_6
100
AcDbText
 10
7.140625
 20
-5.859375
 30
0.0
 40
0.5
  1
3.74
100
AcDbAttributeDefinition
  3

  2
AL
 70
     8
280
     0
  0
ATTDEF
  5
180
330
16B
100
AcDbEntity
  8
AM_6
100
AcDbText
 10
7.140625
 20
-6.359375
 30
0.0
 40
0.5
  1
0.50
100
AcDbAttributeDefinition
  3

  2
BL
 70
     8
280
     0
  0
ATTDEF
  5
181
330
16B
100
AcDbEntity
  8
AM_6
100
AcDbText
 10
7.140625
 20
-6.859375
 30
0.0
 40
0.5
  1
0.07
100
AcDbAttributeDefinition
  3

  2
CL
 70
     8
280
     0
  0
ATTDEF
  5
182
330
16B
100
AcDbEntity
  8
AM_6
100
AcDbText
 10
7.140625
 20
-7.359375
 30
0.0
 40
0.5
  1
0.44
100
AcDbAttributeDefinition
  3

  2
DL
 70
     8
280
     0
  0
ATTDEF
  5
183
330
16B
100
AcDbEntity
  8
AM_6
100
AcDbText
 10
7.140625
 20
-7.859375
 30
0.0
 40
0.5
  1
baldor
100
AcDbAttributeDefinition
  3

  2
COMPANY
 70
     8
280
     0
  0
ARC
  5
184
330
16B
100
AcDbEntity
  8
AM_9
100
AcDbCircle
 10
-0.0000000000000043
 20
0.000000000000016
 30
0.0
 40
1.546052631578931
100
AcDbArc
 50
107.8625134239753
 51
117.1374865760249
  0
LINE
  5
185
330
16B
100
AcDbEntity
  8
AM_9
100
AcDbLine
 10
0.095000000000001
 20
-1.732807525218889
 30
0.0
 11
0.0950000000000009
 21
-1.886284722222223
 31
0.0
  0
LINE
  5
186
330
16B
100
AcDbEntity
  8
AM_9
100
AcDbLine
 10
-0.0949999999999991
 20
-1.886284722222222
 30
0.0
 11
-0.0949999999999991
 21
-1.732807525218888
 31
0.0
  0
LINE
  5
187
330
16B
100
AcDbEntity
  8
AM_9
100
AcDbLine
 10
-0.0950000000000003
 20
1.732807525218889
 30
0.0
 11
-0.0950000000000001
 21
1.886284722222223
 31
0.0
  0
LINE
  5
188
330
16B
100
AcDbEntity
  8
AM_9
100
AcDbLine
 10
0.0949999999999998
 20
1.886284722222223
 30
0.0
 11
0.0949999999999996
 21
1.732807525218889
 31
0.0
  0
LINE
  5
189
330
16B
100
AcDbEntity
  8
AM_7
100
AcDbLine
 10
1.234076032210069
 20
-1.333826037233439
 30
0.0
 11
1.433576042256812
 21
-1.333826037233439
 31
0.0
  0
LINE
  5
18A
330
16B
100
AcDbEntity
  8
AM_7
100
AcDbLine
 10
1.33382603723344
 20
-1.433576042256811
 30
0.0
 11
1.33382603723344
 21
-1.234076032210068
 31
0.0
  0
LINE
  5
18B
330
16B
100
AcDbEntity
  8
AM_7
100
AcDbLine
 10
-1.886314871701891
 20
-0.0997500050233734
 30
0.0
 11
-1.886314871701891
 21
0.0997500050233712
 31
0.0
  0
LINE
  5
18C
330
16B
100
AcDbEntity
  8
AM_7
100
AcDbLine
 10
1.234076032210067
 20
1.33382603723344
 30
0.0
 11
1.433576042256811
 21
1.33382603723344
 31
0.0
  0
LINE
  5
18D
330
16B
100
AcDbEntity
  8
AM_7
100
AcDbLine
 10
1.333826037233439
 20
1.234076032210068
 30
0.0
 11
1.333826037233439
 21
1.433576042256812
 31
0.0
  0
LINE
  5
18E
330
16B
100
AcDbEntity
  8
AM_7
100
AcDbLine
 10
1.886314871701891
 20
-0.0997500050233714
 30
0.0
 11
1.886314871701891
 21
0.0997500050233723
 31
0.0
  0
LINE
  5
18F
330
16B
100
AcDbEntity
  8
AM_7
100
AcDbLine
 10
-1.433576042256811
 20
-1.333826037233441
 30
0.0
 11
-1.234076032210067
 21
-1.333826037233441
 31
0.0
  0
LINE
  5
190
330
16B
100
AcDbEntity
  8
AM_7
100
AcDbLine
 10
-1.333826037233439
 20
-1.433576042256812
 30
0.0
 11
-1.333826037233439
 21
-1.234076032210069
 31
0.0
  0
LINE
  5
191
330
16B
100
AcDbEntity
  8
AM_7
100
AcDbLine
 10
-1.433576042256812
 20
1.33382603723344
 30
0.0
 11
-1.234076032210068
 21
1.33382603723344
 31
0.0
  0
LINE
  5
192
330
16B
100
AcDbEntity
  8
AM_7
100
AcDbLine
 10
-1.33382603723344
 20
1.234076032210068
 30
0.0
 11
-1.33382603723344
 21
1.433576042256811
 31
0.0
  0
ARC
  5
193
330
16B
100
AcDbEntity
  8
AM_4
100
AcDbCircle
 10
-1.33382603723344
 20
1.33382603723344
 30
0.0
 40
0.0950000047841638
100
AcDbArc
 50
44.98181644337486
 51
225.0181835566481
  0
LINE
  5
194
330
16B
100
AcDbEntity
  8
AM_4
100
AcDbLine
 10
0.0950000000000009
 20
-1.584993375150047
 30
0.0
 11
0.095000000000001
 21
-1.732807525218889
 31
0.0
  0
LINE
  5
195
330
16B
100
AcDbEntity
  8
AM_4
100
AcDbLine
 10
-0.4742268428538741
 20
1.471525616878291
 30
0.0
 11
-0.490268482040907
 21
1.510253559766322
 31
0.0
  0
ARC
  5
196
330
16B
100
AcDbEntity
  8
AM_4
100
AcDbCircle
 10
0.0000000000000027
 20
-0.0000000000000022
 30
0.0
 40
1.587837837837835
100
AcDbArc
 50
318.4300427424374
 51
356.5699572575626
  0
CIRCLE
  5
197
330
16B
100
AcDbEntity
  8
AM_4
100
AcDbCircle
 10
0.0
 20
0.0
 30
0.0
 40
2.140625
  0
ARC
  5
198
330
16B
100
AcDbEntity
  8
AM_4
100
AcDbCircle
 10
0.0000000000000009
 20
0.0000000000000006
 30
0.0
 40
1.587837837837839
100
AcDbArc
 50
183.4300427424376
 51
221.5699572575625
  0
ARC
  5
199
330
16B
100
AcDbEntity
  8
AM_4
100
AcDbCircle
 10
1.333826037233439
 20
1.33382603723344
 30
0.0
 40
0.0950000047841636
100
AcDbArc
 50
314.981816443352
 51
135.0181835566479
  0
ARC
  5
19A
330
16B
100
AcDbEntity
  8
AM_4
100
AcDbCircle
 10
0.0000000000000002
 20
-0.0000000000000006
 30
0.0
 40
1.587837837837837
100
AcDbArc
 50
3.430042742437487
 51
41.56995725756256
  0
LINE
  5
19B
330
16B
100
AcDbEntity
  8
AM_4
100
AcDbLine
 10
1.400979862544638
 20
1.266629574119195
 30
0.0
 11
1.187934707917074
 21
1.05358441949163
 31
0.0
  0
LINE
  5
19C
330
16B
100
AcDbEntity
  8
AM_4
100
AcDbLine
 10
1.187934707917075
 20
-1.05358441949163
 30
0.0
 11
1.400979862544639
 21
-1.266629574119194
 31
0.0
  0
LINE
  5
19D
330
16B
100
AcDbEntity
  8
AM_4
100
AcDbLine
 10
-1.584993375150047
 20
-0.0950000000000012
 30
0.0
 11
-1.886284722222222
 21
-0.0950000000000013
 31
0.0
  0
LINE
  5
19E
330
16B
100
AcDbEntity
  8
AM_4
100
AcDbLine
 10
-1.266629574119221
 20
1.400979862544665
 30
0.0
 11
-1.05358441949163
 21
1.187934707917074
 31
0.0
  0
LINE
  5
19F
330
16B
100
AcDbEntity
  8
AM_4
100
AcDbLine
 10
-1.187934707917074
 20
1.05358441949163
 30
0.0
 11
-1.400979862544639
 21
1.266629574119194
 31
0.0
  0
LINE
  5
1A0
330
16B
100
AcDbEntity
  8
AM_4
100
AcDbLine
 10
1.584993375150048
 20
0.095000000000001
 30
0.0
 11
1.886284722222222
 21
0.0950000000000005
 31
0.0
  0
LINE
  5
1A1
330
16B
100
AcDbEntity
  8
AM_4
100
AcDbLine
 10
-1.05358441949163
 20
-1.187934707917075
 30
0.0
 11
-1.266629574119194
 21
-1.400979862544639
 31
0.0
  0
ARC
  5
1A2
330
16B
100
AcDbEntity
  8
AM_4
100
AcDbCircle
 10
0.0000000000000001
 20
0.0000000000000031
 30
0.0
 40
1.587837837837841
100
AcDbArc
 50
228.4300427424376
 51
266.5699572575625
  0
LINE
  5
1A3
330
16B
100
AcDbEntity
  8
AM_4
100
AcDbLine
 10
-0.0949999999999991
 20
-1.732807525218888
 30
0.0
 11
-0.094999999999999
 21
-1.584993375150047
 31
0.0
  0
LINE
  5
1A4
330
16B
100
AcDbEntity
  8
AM_4
100
AcDbLine
 10
1.053584419491633
 20
1.187934707917072
 30
0.0
 11
1.266629574119194
 21
1.400979862544639
 31
0.0
  0
LINE
  5
1A5
330
16B
100
AcDbEntity
  8
AM_4
100
AcDbLine
 10
1.886284722222223
 20
-0.0949999999999994
 30
0.0
 11
1.584993375150047
 21
-0.0949999999999994
 31
0.0
  0
ARC
  5
1A6
330
16B
100
AcDbEntity
  8
AM_4
100
AcDbCircle
 10
0.0000000000000029
 20
-0.0000000000000075
 30
0.0
 40
1.58783783783783
100
AcDbArc
 50
273.4300427424374
 51
311.5699572575626
  0
LINE
  5
1A7
330
16B
100
AcDbEntity
  8
AM_4
100
AcDbLine
 10
1.266629574119222
 20
-1.400979862544665
 30
0.0
 11
1.05358441949163
 21
-1.187934707917073
 31
0.0
  0
ARC
  5
1A8
330
16B
100
AcDbEntity
  8
AM_4
100
AcDbCircle
 10
1.33382603723344
 20
-1.333826037233439
 30
0.0
 40
0.0950000047841638
100
AcDbArc
 50
224.9818164433749
 51
45.01818355664806
  0
ARC
  5
1A9
330
16B
100
AcDbEntity
  8
AM_4
100
AcDbCircle
 10
1.886314871701892
 20
0.0000000000000006
 30
0.0
 40
0.0950000047841637
100
AcDbArc
 50
269.981816443352
 51
90.01818355664824
  0
ARC
  5
1AA
330
16B
100
AcDbEntity
  8
AM_4
100
AcDbCircle
 10
-1.333826037233439
 20
-1.333826037233441
 30
0.0
 40
0.0950000047841633
100
AcDbArc
 50
134.9818164433518
 51
315.0181835566482
  0
LINE
  5
1AB
330
16B
100
AcDbEntity
  8
AM_4
100
AcDbLine
 10
-1.400979862544637
 20
-1.266629574119195
 30
0.0
 11
-1.187934707917073
 21
-1.053584419491631
 31
0.0
  0
ARC
  5
1AC
330
16B
100
AcDbEntity
  8
AM_4
100
AcDbCircle
 10
-1.886314871701892
 20
-0.0000000000000011
 30
0.0
 40
0.0950000047841639
100
AcDbArc
 50
89.98181644335163
 51
270.0181835566483
  0
LINE
  5
1AD
330
16B
100
AcDbEntity
  8
AM_4
100
AcDbLine
 10
-1.886284722222222
 20
0.0949999999999991
 30
0.0
 11
-1.584993375150047
 21
0.0949999999999987
 31
0.0
  0
ARC
  5
1AE
330
16B
100
AcDbEntity
  8
AM_4
100
AcDbCircle
 10
0.0000000000000051
 20
-0.0000000000000011
 30
0.0
 40
1.587837837837843
100
AcDbArc
 50
138.4300427424376
 51
176.5699572575626
  0
ARC
  5
1AF
330
16B
100
AcDbEntity
  8
AM_4
100
AcDbCircle
 10
-0.0000000000000043
 20
0.0000000000000064
 30
0.0
 40
1.58783783783783
100
AcDbArc
 50
117.0151907492985
 51
131.5699572575626
  0
LINE
  5
1B0
330
16B
100
AcDbEntity
  8
AM_4
100
AcDbLine
 10
-0.7212383651687279
 20
1.414582701675049
 30
0.0
 11
-0.7051967259816958
 21
1.375854758787018
 31
0.0
  0
ARC
  5
1B1
330
16B
100
AcDbEntity
  8
AM_4
100
AcDbCircle
 10
0.0000000000000354
 20
-0.0000000000000868
 30
0.0
 40
1.468750000000093
100
AcDbArc
 50
107.6178576675272
 51
117.3821423324728
  0
ARC
  5
1B2
330
16B
100
AcDbEntity
  8
AM_4
100
AcDbCircle
 10
0.000000000000003
 20
-0.0000000000000255
 30
0.0
 40
1.587837837837863
100
AcDbArc
 50
93.4300427424375
 51
107.9848092507013
  0
LINE
  5
1B3
330
16B
100
AcDbEntity
  8
AM_4
100
AcDbLine
 10
-0.0949999999999995
 20
1.584993375150048
 30
0.0
 11
-0.0950000000000003
 21
1.732807525218889
 31
0.0
  0
LINE
  5
1B4
330
16B
100
AcDbEntity
  8
AM_4
100
AcDbLine
 10
0.0949999999999996
 20
1.732807525218889
 30
0.0
 11
0.0949999999999997
 21
1.584993375150047
 31
0.0
  0
ARC
  5
1B5
330
16B
100
AcDbEntity
  8
AM_4
100
AcDbCircle
 10
0.0000000000000041
 20
0.000000000000008
 30
0.0
 40
1.587837837837829
100
AcDbArc
 50
48.43004274243728
 51
86.56995725756266
  0
ENDBLK
  5
16E
330
16B
100
AcDbEntity
  8
0
100
AcDbBlockEnd
  0
BLOCK
  5
1B8
330
1B6
100
AcDbEntity
  8
0
100
AcDbBlockBegin
  2
7_070899I_0_in_072294_0
 70
     2
 10
0.0
 20
0.0
 30
0.0
  3
7_070899I_0_in_072294_0
  1

  0
ATTDEF
  5
1BA
330
1B6
100
AcDbEntity
  8
AM_6
100
AcDbText
 10
7.509050000000001
 20
2.509050000000001
 30
0.0
 40
0.5
  1
Imperial Insert -Inch
100
AcDbAttributeDefinition
  3

  2
NN
 70
     8
280
     0
  0
ATTDEF
  5
1BB
330
1B6
100
AcDbEntity
  8
AM_6
100
AcDbText
 10
7.509050000000001
 20
2.009050000000001
 30
0.0
 40
0.5
  1
Imperial Bearings
100
AcDbAttributeDefinition
  3

  2
NT
 70
     8
280
     0
  0
ATTDEF
  5
1BC
330
1B6
100
AcDbEntity
  8
AM_6
100
AcDbText
 10
7.509050000000001
 20
1.509050000000001
 30
0.0
 40
0.5
  1
070899I
100
AcDbAttributeDefinition
  3

  2
NB
 70
     8
280
     0
  0
ATTDEF
  5
1BD
330
1B6
100
AcDbEntity
  8
AM_6
100
AcDbText
 10
7.509050000000001
 20
1.009050000000001
 30
0.0
 40
0.5
  1
$PN.I
100
AcDbAttributeDefinition
  3

  2
NBSYN
 70
     8
280
     0
  0
ATTDEF
  5
1BE
330
1B6
100
AcDbEntity
  8
AM_6
100
AcDbText
 10
7.509050000000001
 20
0.5090500000000011
 30
0.0
 40
0.5
  1
070899
100
AcDbAttributeDefinition
  3

  2
LINA
 70
     8
280
     0
  0
ATTDEF
  5
1BF
330
1B6
100
AcDbEntity
  8
AM_6
100
AcDbText
 10
7.509050000000001
 20
0.0090500000000011
 30
0.0
 40
0.5
  1
2-15/16
100
AcDbAttributeDefinition
  3

  2
SS
 70
     8
280
     0
  0
ATTDEF
  5
1C0
330
1B6
100
AcDbEntity
  8
AM_6
100
AcDbText
 10
7.509050000000001
 20
-0.4909499999999989
 30
0.0
 40
0.5
  1
2.937500
100
AcDbAttributeDefinition
  3

  2
SS1
 70
     8
280
     0
  0
ATTDEF
  5
1C1
330
1B6
100
AcDbEntity
  8
AM_6
100
AcDbText
 10
7.509050000000001
 20
-0.9909499999999989
 30
0.0
 40
0.5
  1
070899
100
AcDbAttributeDefinition
  3

  2
PN
 70
     8
280
     0
  0
ATTDEF
  5
1C2
330
1B6
100
AcDbEntity
  8
AM_6
100
AcDbText
 10
7.509050000000001
 20
-1.490949999999999
 30
0.0
 40
0.5
  1
INS-IP-215R
100
AcDbAttributeDefinition
  3

  2
DESCRIPTION
 70
     8
280
     0
  0
ATTDEF
  5
1C3
330
1B6
100
AcDbEntity
  8
AM_6
100
AcDbText
 10
7.509050000000001
 20
-1.990949999999999
 30
0.0
 40
0.5
  1
Contact Seal
100
AcDbAttributeDefinition
  3

  2
ST
 70
     8
280
     0
  0
ATTDEF
  5
1C4
330
1B6
100
AcDbEntity
  8
AM_6
100
AcDbText
 10
7.509050000000001
 20
-2.490949999999999
 30
0.0
 40
0.5
  1
5.1181
100
AcDbAttributeDefinition
  3

  2
A
 70
     8
280
     0
  0
ATTDEF
  5
1C5
330
1B6
100
AcDbEntity
  8
AM_6
100
AcDbText
 10
7.509050000000001
 20
-2.990949999999999
 30
0.0
 40
0.5
  1
1-9/32
100
AcDbAttributeDefinition
  3

  2
B
 70
     8
280
     0
  0
ATTDEF
  5
1C6
330
1B6
100
AcDbEntity
  8
AM_6
100
AcDbText
 10
7.509050000000001
 20
-3.490949999999999
 30
0.0
 40
0.5
  1
3-1/2
100
AcDbAttributeDefinition
  3

  2
C
 70
     8
280
     0
  0
ATTDEF
  5
1C7
330
1B6
100
AcDbEntity
  8
AM_6
100
AcDbText
 10
7.509050000000001
 20
-3.990949999999999
 30
0.0
 40
0.5
  1
1.219
100
AcDbAttributeDefinition
  3

  2
D
 70
     8
280
     0
  0
ATTDEF
  5
1C8
330
1B6
100
AcDbEntity
  8
AM_6
100
AcDbText
 10
7.509050000000001
 20
-4.490949999999999
 30
0.0
 40
0.5
  1
4-9/32
100
AcDbAttributeDefinition
  3

  2
E
 70
     8
280
     0
  0
ATTDEF
  5
1C9
330
1B6
100
AcDbEntity
  8
AM_6
100
AcDbText
 10
7.509050000000001
 20
-4.990949999999999
 30
0.0
 40
0.5
  1
0.1900
100
AcDbAttributeDefinition
  3

  2
NDM
 70
     8
280
     0
  0
ATTDEF
  5
1CA
330
1B6
100
AcDbEntity
  8
AM_6
100
AcDbText
 10
7.509050000000001
 20
-5.490949999999999
 30
0.0
 40
0.5
  1
0.101
100
AcDbAttributeDefinition
  3

  2
H
 70
     8
280
     0
  0
ATTDEF
  5
1CB
330
1B6
100
AcDbEntity
  8
AM_6
100
AcDbText
 10
7.509050000000001
 20
-5.990949999999999
 30
0.0
 40
0.5
  1
0.1450
100
AcDbAttributeDefinition
  3

  2
KDM
 70
     8
280
     0
  0
ATTDEF
  5
1CC
330
1B6
100
AcDbEntity
  8
AM_6
100
AcDbText
 10
7.509050000000001
 20
-6.490949999999999
 30
0.0
 40
0.5
  1
3.74
100
AcDbAttributeDefinition
  3

  2
AL
 70
     8
280
     0
  0
ATTDEF
  5
1CD
330
1B6
100
AcDbEntity
  8
AM_6
100
AcDbText
 10
7.509050000000001
 20
-6.990949999999999
 30
0.0
 40
0.5
  1
0.50
100
AcDbAttributeDefinition
  3

  2
BL
 70
     8
280
     0
  0
ATTDEF
  5
1CE
330
1B6
100
AcDbEntity
  8
AM_6
100
AcDbText
 10
7.509050000000001
 20
-7.490949999999999
 30
0.0
 40
0.5
  1
0.07
100
AcDbAttributeDefinition
  3

  2
CL
 70
     8
280
     0
  0
ATTDEF
  5
1CF
330
1B6
100
AcDbEntity
  8
AM_6
100
AcDbText
 10
7.509050000000001
 20
-7.990949999999999
 30
0.0
 40
0.5
  1
0.44
100
AcDbAttributeDefinition
  3

  2
DL
 70
     8
280
     0
  0
ATTDEF
  5
1D0
330
1B6
100
AcDbEntity
  8
AM_6
100
AcDbText
 10
7.509050000000001
 20
-8.490949999999998
 30
0.0
 40
0.5
  1
0.8000
100
AcDbAttributeDefinition
  3

  2
LL
 70
     8
280
     0
  0
ATTDEF
  5
1D1
330
1B6
100
AcDbEntity
  8
AM_6
100
AcDbText
 10
7.509050000000001
 20
-8.990949999999998
 30
0.0
 40
0.5
  1
0.025
100
AcDbAttributeDefinition
  3

  2
Y
 70
     8
280
     0
  0
ATTDEF
  5
1D2
330
1B6
100
AcDbEntity
  8
AM_6
100
AcDbText
 10
7.509050000000001
 20
-9.490949999999998
 30
0.0
 40
0.5
  1
0.025000
100
AcDbAttributeDefinition
  3

  2
Y1
 70
     8
280
     0
  0
ATTDEF
  5
1D3
330
1B6
100
AcDbEntity
  8
AM_6
100
AcDbText
 10
7.509050000000001
 20
-9.990949999999998
 30
0.0
 40
0.5
  1
3-15/32
100
AcDbAttributeDefinition
  3

  2
Z
 70
     8
280
     0
  0
ATTDEF
  5
1D4
330
1B6
100
AcDbEntity
  8
AM_6
100
AcDbText
 10
7.509050000000001
 20
-10.49095
 30
0.0
 40
0.5
  1
3.468750
100
AcDbAttributeDefinition
  3

  2
Z1
 70
     8
280
     0
  0
ATTDEF
  5
1D5
330
1B6
100
AcDbEntity
  8
AM_6
100
AcDbText
 10
7.509050000000001
 20
-10.99095
 30
0.0
 40
0.5
  1
baldor
100
AcDbAttributeDefinition
  3

  2
COMPANY
 70
     8
280
     0
  0
CIRCLE
  5
1D6
330
1B6
100
AcDbEntity
  8
AM_9
100
AcDbCircle
 10
0.0
 20
0.0
 30
0.0
 40
1.734375
  0
CIRCLE
  5
1D7
330
1B6
100
AcDbEntity
  8
AM_9
100
AcDbCircle
 10
0.0
 20
0.0
 30
0.0
 40
1.882612179487178
  0
CIRCLE
  5
1D8
330
1B6
100
AcDbEntity
  8
AM_9
100
AcDbCircle
 10
0.0
 20
0.0
 30
0.0
 40
1.927083333333333
  0
CIRCLE
  5
1D9
330
1B6
100
AcDbEntity
  8
AM_9
100
AcDbCircle
 10
0.0
 20
0.0
 30
0.0
 40
2.153368966601195
  0
CIRCLE
  5
1DA
330
1B6
100
AcDbEntity
  8
AM_9
100
AcDbCircle
 10
0.0
 20
0.0
 30
0.0
 40
2.239971506979639
  0
CIRCLE
  5
1DB
330
1B6
100
AcDbEntity
  8
AM_9
100
AcDbCircle
 10
0.0
 20
0.0
 30
0.0
 40
2.35905
  0
CIRCLE
  5
1DC
330
1B6
100
AcDbEntity
  8
AM_9
100
AcDbCircle
 10
0.0
 20
0.0
 30
0.0
 40
2.4949875
  0
CIRCLE
  5
1DD
330
1B6
100
AcDbEntity
  8
AM_9
100
AcDbCircle
 10
0.0
 20
-1.886284722222222
 30
0.0
 40
0.0724499999999999
  0
LINE
  5
1DE
330
1B6
100
AcDbEntity
  8
AM_9
100
AcDbLine
 10
1.499066376115481
 20
-1.145512985522207
 30
0.0
 11
1.68126873179059
 21
-1.327715341197316
 31
0.0
  0
LINE
  5
1DF
330
1B6
100
AcDbEntity
  8
AM_9
100
AcDbLine
 10
1.68126873179059
 20
1.327715341197316
 30
0.0
 11
1.499066376115481
 21
1.145512985522207
 31
0.0
  0
LINE
  5
1E0
330
1B6
100
AcDbEntity
  8
AM_9
100
AcDbLine
 10
1.327715341197316
 20
-1.68126873179059
 30
0.0
 11
1.145512985522207
 21
-1.499066376115481
 31
0.0
  0
LINE
  5
1E1
330
1B6
100
AcDbEntity
  8
AM_9
100
AcDbLine
 10
-1.145512985522207
 20
-1.499066376115481
 30
0.0
 11
-1.327715341197316
 21
-1.68126873179059
 31
0.0
  0
CIRCLE
  5
1E2
330
1B6
100
AcDbEntity
  8
AM_9
100
AcDbCircle
 10
0.0
 20
1.886284722222222
 30
0.0
 40
0.0724499999999999
  0
LINE
  5
1E3
330
1B6
100
AcDbEntity
  8
AM_9
100
AcDbLine
 10
-1.49906637611548
 20
1.145512985522207
 30
0.0
 11
-1.68126873179059
 21
1.327715341197317
 31
0.0
  0
LINE
  5
1E4
330
1B6
100
AcDbEntity
  8
AM_9
100
AcDbLine
 10
-1.68126873179059
 20
-1.327715341197316
 30
0.0
 11
-1.499066376115481
 21
-1.145512985522207
 31
0.0
  0
LINE
  5
1E5
330
1B6
100
AcDbEntity
  8
AM_9
100
AcDbLine
 10
1.145512985522207
 20
1.499066376115481
 30
0.0
 11
1.327715341197316
 21
1.68126873179059
 31
0.0
  0
LINE
  5
1E6
330
1B6
100
AcDbEntity
  8
AM_9
100
AcDbLine
 10
-1.327715341197316
 20
1.68126873179059
 30
0.0
 11
-1.145512985522207
 21
1.499066376115481
 31
0.0
  0
LINE
  5
1E7
330
1B6
100
AcDbEntity
  8
AM_9
100
AcDbLine
 10
-1.389464825031566
 20
1.255114536606122
 30
0.0
 11
-1.49906637611548
 21
1.145512985522207
 31
0.0
  0
LINE
  5
1E8
330
1B6
100
AcDbEntity
  8
AM_9
100
AcDbLine
 10
-1.145512985522207
 20
1.499066376115481
 30
0.0
 11
-1.255114536606122
 21
1.389464825031566
 31
0.0
  0
ARC
  5
1E9
330
1B6
100
AcDbEntity
  8
AM_9
100
AcDbCircle
 10
0.0000000000000042
 20
0.0000000000000002
 30
0.0
 40
2.09234056125965
100
AcDbArc
 50
141.8622900604192
 51
218.1377099395808
  0
LINE
  5
1EA
330
1B6
100
AcDbEntity
  8
AM_9
100
AcDbLine
 10
-1.255114536606121
 20
-1.389464825031567
 30
0.0
 11
-1.145512985522207
 21
-1.499066376115481
 31
0.0
  0
LINE
  5
1EB
330
1B6
100
AcDbEntity
  8
AM_9
100
AcDbLine
 10
-1.499066376115481
 20
-1.145512985522207
 30
0.0
 11
-1.389464825031565
 21
-1.255114536606123
 31
0.0
  0
ARC
  5
1EC
330
1B6
100
AcDbEntity
  8
AM_9
100
AcDbCircle
 10
0.0000000000000002
 20
0.0000000000000036
 30
0.0
 40
2.09234056125965
100
AcDbArc
 50
231.8622900604191
 51
308.1377099395809
  0
LINE
  5
1ED
330
1B6
100
AcDbEntity
  8
AM_9
100
AcDbLine
 10
1.389464825031566
 20
-1.255114536606122
 30
0.0
 11
1.499066376115481
 21
-1.145512985522207
 31
0.0
  0
LINE
  5
1EE
330
1B6
100
AcDbEntity
  8
AM_9
100
AcDbLine
 10
1.145512985522207
 20
-1.499066376115481
 30
0.0
 11
1.255114536606123
 21
-1.389464825031566
 31
0.0
  0
ARC
  5
1EF
330
1B6
100
AcDbEntity
  8
AM_9
100
AcDbCircle
 10
-0.0000000000000036
 20
-0.0000000000000001
 30
0.0
 40
2.09234056125965
100
AcDbArc
 50
321.8622900604191
 51
38.13770993958088
  0
LINE
  5
1F0
330
1B6
100
AcDbEntity
  8
AM_9
100
AcDbLine
 10
1.255114536606122
 20
1.389464825031566
 30
0.0
 11
1.145512985522207
 21
1.499066376115481
 31
0.0
  0
LINE
  5
1F1
330
1B6
100
AcDbEntity
  8
AM_9
100
AcDbLine
 10
1.499066376115481
 20
1.145512985522207
 30
0.0
 11
1.389464825031566
 21
1.255114536606123
 31
0.0
  0
ARC
  5
1F2
330
1B6
100
AcDbEntity
  8
AM_9
100
AcDbCircle
 10
0.0000000000000572
 20
-0.0000000000001403
 30
0.0
 40
1.550131926121523
100
AcDbArc
 50
107.8747439502849
 51
117.125256049715
  0
ARC
  5
1F3
330
1B6
100
AcDbEntity
  8
AM_9
100
AcDbCircle
 10
-0.0000000000000002
 20
-0.0000000000000036
 30
0.0
 40
2.09234056125965
100
AcDbArc
 50
51.86229006041911
 51
128.1377099395809
  0
CIRCLE
  5
1F4
330
1B6
100
AcDbEntity
  8
AM_4
100
AcDbCircle
 10
0.0
 20
0.0
 30
0.0
 40
2.509050000000001
  0
LINE
  5
1F5
330
1B6
100
AcDbEntity
  8
AM_4
100
AcDbLine
 10
1.327715341197316
 20
1.68126873179059
 30
0.0
 11
1.337454706708775
 21
1.691008097302048
 31
0.0
  0
LINE
  5
1F6
330
1B6
100
AcDbEntity
  8
AM_4
100
AcDbLine
 10
1.337454706708775
 20
-1.691008097302049
 30
0.0
 11
1.327715341197316
 21
-1.68126873179059
 31
0.0
  0
LINE
  5
1F7
330
1B6
100
AcDbEntity
  8
AM_4
100
AcDbLine
 10
1.68126873179059
 20
-1.327715341197316
 30
0.0
 11
1.691008097302049
 21
-1.337454706708775
 31
0.0
  0
LINE
  5
1F8
330
1B6
100
AcDbEntity
  8
AM_4
100
AcDbLine
 10
-1.68126873179059
 20
1.327715341197317
 30
0.0
 11
-1.691008097302048
 21
1.337454706708775
 31
0.0
  0
LINE
  5
1F9
330
1B6
100
AcDbEntity
  8
AM_4
100
AcDbLine
 10
-1.337454706708775
 20
1.691008097302049
 30
0.0
 11
-1.327715341197316
 21
1.68126873179059
 31
0.0
  0
LINE
  5
1FA
330
1B6
100
AcDbEntity
  8
AM_4
100
AcDbLine
 10
1.691008097302049
 20
1.337454706708775
 30
0.0
 11
1.68126873179059
 21
1.327715341197316
 31
0.0
  0
LINE
  5
1FB
330
1B6
100
AcDbEntity
  8
AM_4
100
AcDbLine
 10
-1.327715341197316
 20
-1.68126873179059
 30
0.0
 11
-1.337454706708775
 21
-1.691008097302048
 31
0.0
  0
LINE
  5
1FC
330
1B6
100
AcDbEntity
  8
AM_4
100
AcDbLine
 10
-1.691008097302049
 20
-1.337454706708775
 30
0.0
 11
-1.68126873179059
 21
-1.327715341197316
 31
0.0
  0
CIRCLE
  5
1FD
330
1B6
100
AcDbEntity
  8
AM_4
100
AcDbCircle
 10
0.0
 20
0.0
 30
0.0
 40
2.18836896705553
  0
ARC
  5
1FE
330
1B6
100
AcDbEntity
  8
AM_4
100
AcDbCircle
 10
-0.000000000000008
 20
0.000000000000008
 30
0.0
 40
2.15599013857638
100
AcDbArc
 50
308.3412310743164
 51
321.6587689256835
  0
ARC
  5
1FF
330
1B6
100
AcDbEntity
  8
AM_4
100
AcDbCircle
 10
-0.0000000000000622
 20
-0.00000000000006
 30
0.0
 40
2.155990138576283
100
AcDbArc
 50
218.3412310743161
 51
231.6587689256839
  0
ARC
  5
200
330
1B6
100
AcDbEntity
  8
AM_4
100
AcDbCircle
 10
-0.0000000000000089
 20
0.0000000000000091
 30
0.0
 40
2.155990138576356
100
AcDbArc
 50
128.3412310743163
 51
141.6587689256837
  0
ARC
  5
201
330
1B6
100
AcDbEntity
  8
AM_4
100
AcDbCircle
 10
0.0000000000000797
 20
0.0000000000000775
 30
0.0
 40
2.155990138576259
100
AcDbArc
 50
38.3412310743161
 51
51.65876892568399
  0
ARC
  5
202
330
1B6
100
AcDbEntity
  8
AM_4
100
AcDbCircle
 10
0.0000000000000002
 20
0.0
 30
0.0
 40
2.142310102610601
100
AcDbArc
 50
321.7014838103576
 51
38.2985161896424
  0
ARC
  5
203
330
1B6
100
AcDbEntity
  8
AM_4
100
AcDbCircle
 10
0.0000000000000002
 20
-0.0000000000000002
 30
0.0
 40
2.142310102610601
100
AcDbArc
 50
231.7014838103576
 51
308.2985161896424
  0
ARC
  5
204
330
1B6
100
AcDbEntity
  8
AM_4
100
AcDbCircle
 10
0.0000000000000004
 20
0.0
 30
0.0
 40
2.142310102610602
100
AcDbArc
 50
141.7014838103576
 51
218.2985161896424
  0
LINE
  5
205
330
1B6
100
AcDbEntity
  8
AM_4
100
AcDbLine
 10
-1.255114536606122
 20
1.389464825031566
 30
0.0
 11
-1.389464825031566
 21
1.255114536606122
 31
0.0
  0
LINE
  5
206
330
1B6
100
AcDbEntity
  8
AM_4
100
AcDbLine
 10
-1.389464825031565
 20
-1.255114536606123
 30
0.0
 11
-1.255114536606121
 21
-1.389464825031567
 31
0.0
  0
LINE
  5
207
330
1B6
100
AcDbEntity
  8
AM_4
100
AcDbLine
 10
1.255114536606123
 20
-1.389464825031566
 30
0.0
 11
1.389464825031566
 21
-1.255114536606122
 31
0.0
  0
LINE
  5
208
330
1B6
100
AcDbEntity
  8
AM_4
100
AcDbLine
 10
1.389464825031566
 20
1.255114536606123
 30
0.0
 11
1.255114536606122
 21
1.389464825031566
 31
0.0
  0
ARC
  5
209
330
1B6
100
AcDbEntity
  8
AM_4
100
AcDbCircle
 10
-0.0000000000000001
 20
-0.0000000000000002
 30
0.0
 40
2.142310102610602
100
AcDbArc
 50
51.70148381035759
 51
128.2985161896424
  0
ARC
  5
20A
330
1B6
100
AcDbEntity
  8
AM_4
100
AcDbCircle
 10
0.0000000000000014
 20
0.0000000000000006
 30
0.0
 40
1.546052631578947
100
AcDbArc
 50
117.1374865760248
 51
107.8625134239753
  0
ARC
  5
20B
330
1B6
100
AcDbEntity
  8
AM_4
100
AcDbCircle
 10
0.000000000000002
 20
0.0000000000000009
 30
0.0
 40
1.46875
100
AcDbArc
 50
117.3821423324732
 51
107.617857667527
  0
LINE
  5
20C
330
1B6
100
AcDbEntity
  8
AM_4
100
AcDbLine
 10
-0.4445421002191376
 20
1.399860308613956
 30
0.0
 11
-0.4742268428538741
 21
1.471525616878291
 31
0.0
  0
LINE
  5
20D
330
1B6
100
AcDbEntity
  8
AM_4
100
AcDbLine
 10
-0.7051967259816958
 20
1.375854758787018
 30
0.0
 11
-0.6755119833469592
 21
1.304189450522683
 31
0.0
  0
CIRCLE
  5
20E
330
1B6
100
AcDbEntity
  8
AM_5
100
AcDbCircle
 10
0.0
 20
1.886284722222222
 30
0.0
 40
0.0950000000000001
  0
CIRCLE
  5
20F
330
1B6
100
AcDbEntity
  8
AM_5
100
AcDbCircle
 10
0.0
 20
-1.886284722222222
 30
0.0
 40
0.0950000000000001
  0
ENDBLK
  5
1B9
330
1B6
100
AcDbEntity
  8
0
100
AcDbBlockEnd
  0
BLOCK
  5
212
330
210
100
AcDbEntity
  8
0
100
AcDbBlockBegin
  2
8_B072294_0_in_072294_0
 70
     2
 10
0.0
 20
0.0
 30
0.0
  3
8_B072294_0_in_072294_0
  1

  0
ATTDEF
  5
214
330
210
100
AcDbEntity
  8
AM_6
100
AcDbText
 10
9.59375
 20
4.59375
 30
0.0
 40
0.5
  1
SFC-207-500-(Contact Seal)-Housing
100
AcDbAttributeDefinition
  3

  2
NN
 70
     8
280
     0
  0
ATTDEF
  5
215
330
210
100
AcDbEntity
  8
AM_6
100
AcDbText
 10
9.59375
 20
4.09375
 30
0.0
 40
0.5
  1
Steal Imperial Piloted Flange Bearing-Inch-207-500
100
AcDbAttributeDefinition
  3

  2
NT
 70
     8
280
     0
  0
ATTDEF
  5
216
330
210
100
AcDbEntity
  8
AM_6
100
AcDbText
 10
9.59375
 20
3.59375
 30
0.0
 40
0.5
  1
B072294
100
AcDbAttributeDefinition
  3

  2
NB
 70
     8
280
     0
  0
ATTDEF
  5
217
330
210
100
AcDbEntity
  8
AM_6
100
AcDbText
 10
9.59375
 20
3.09375
 30
0.0
 40
0.5
  1
$PN.
100
AcDbAttributeDefinition
  3

  2
NBSYN
 70
     8
280
     0
  0
ATTDEF
  5
218
330
210
100
AcDbEntity
  8
AM_6
100
AcDbText
 10
9.59375
 20
2.59375
 30
0.0
 40
0.5
  1
B072294
100
AcDbAttributeDefinition
  3

  2
LINA
 70
     8
280
     0
  0
ATTDEF
  5
219
330
210
100
AcDbEntity
  8
AM_6
100
AcDbText
 10
9.59375
 20
2.09375
 30
0.0
 40
0.5
  1
2-15/16
100
AcDbAttributeDefinition
  3

  2
SS
 70
     8
280
     0
  0
ATTDEF
  5
21A
330
210
100
AcDbEntity
  8
AM_6
100
AcDbText
 10
9.59375
 20
1.59375
 30
0.0
 40
0.5
  1
2.93750
100
AcDbAttributeDefinition
  3

  2
SS1
 70
     8
280
     0
  0
ATTDEF
  5
21B
330
210
100
AcDbEntity
  8
AM_6
100
AcDbText
 10
9.59375
 20
1.09375
 30
0.0
 40
0.5
  1
072294
100
AcDbAttributeDefinition
  3

  2
PN1
 70
     8
280
     0
  0
ATTDEF
  5
21C
330
210
100
AcDbEntity
  8
AM_6
100
AcDbText
 10
9.59375
 20
0.59375
 30
0.0
 40
0.5
  1
072325
100
AcDbAttributeDefinition
  3

  2
PN2
 70
     8
280
     0
  0
ATTDEF
  5
21D
330
210
100
AcDbEntity
  8
AM_6
100
AcDbText
 10
9.59375
 20
0.09375
 30
0.0
 40
0.5
  1
Non-Expansion
100
AcDbAttributeDefinition
  3

  2
TYPE
 70
     8
280
     0
  0
ATTDEF
  5
21E
330
210
100
AcDbEntity
  8
AM_6
100
AcDbText
 10
9.59375
 20
-0.40625
 30
0.0
 40
0.5
  1
Contact Seal
100
AcDbAttributeDefinition
  3

  2
ST
 70
     8
280
     0
  0
ATTDEF
  5
21F
330
210
100
AcDbEntity
  8
AM_6
100
AcDbText
 10
9.59375
 20
-0.90625
 30
0.0
 40
0.5
  1
SFC-IP-215R
100
AcDbAttributeDefinition
  3

  2
DESCRIPTIONS
 70
     8
280
     0
  0
ATTDEF
  5
220
330
210
100
AcDbEntity
  8
AM_6
100
AcDbText
 10
9.59375
 20
-1.40625
 30
0.0
 40
0.5
  1
3.50
100
AcDbAttributeDefinition
  3

  2
A
 70
     8
280
     0
  0
ATTDEF
  5
221
330
210
100
AcDbEntity
  8
AM_6
100
AcDbText
 10
9.59375
 20
-1.90625
 30
0.0
 40
0.5
  1
3.500
100
AcDbAttributeDefinition
  3

  2
A1
 70
     8
280
     0
  0
ATTDEF
  5
222
330
210
100
AcDbEntity
  8
AM_6
100
AcDbText
 10
9.59375
 20
-2.40625
 30
0.0
 40
0.5
  1
8.75
100
AcDbAttributeDefinition
  3

  2
B
 70
     8
280
     0
  0
ATTDEF
  5
223
330
210
100
AcDbEntity
  8
AM_6
100
AcDbText
 10
9.59375
 20
-2.90625
 30
0.0
 40
0.5
  1
8.7500
100
AcDbAttributeDefinition
  3

  2
B1
 70
     8
280
     0
  0
ATTDEF
  5
224
330
210
100
AcDbEntity
  8
AM_6
100
AcDbText
 10
9.59375
 20
-3.40625
 30
0.0
 40
0.5
  1
2.83
100
AcDbAttributeDefinition
  3

  2
C
 70
     8
280
     0
  0
ATTDEF
  5
225
330
210
100
AcDbEntity
  8
AM_6
100
AcDbText
 10
9.59375
 20
-3.90625
 30
0.0
 40
0.5
  1
2.8300
100
AcDbAttributeDefinition
  3

  2
C1
 70
     8
280
     0
  0
ATTDEF
  5
226
330
210
100
AcDbEntity
  8
AM_6
100
AcDbText
 10
9.59375
 20
-4.40625
 30
0.0
 40
0.5
  1
5.30
100
AcDbAttributeDefinition
  3

  2
D
 70
     8
280
     0
  0
ATTDEF
  5
227
330
210
100
AcDbEntity
  8
AM_6
100
AcDbText
 10
9.59375
 20
-4.90625
 30
0.0
 40
0.5
  1
5.3000
100
AcDbAttributeDefinition
  3

  2
D1
 70
     8
280
     0
  0
ATTDEF
  5
228
330
210
100
AcDbEntity
  8
AM_6
100
AcDbText
 10
9.59375
 20
-5.40625
 30
0.0
 40
0.5
  1
7.500
100
AcDbAttributeDefinition
  3

  2
DD
 70
     8
280
     0
  0
ATTDEF
  5
229
330
210
100
AcDbEntity
  8
AM_6
100
AcDbText
 10
9.59375
 20
-5.90625
 30
0.0
 40
0.5
  1
7.5000
100
AcDbAttributeDefinition
  3

  2
DD1
 70
     8
280
     0
  0
ATTDEF
  5
22A
330
210
100
AcDbEntity
  8
AM_6
100
AcDbText
 10
9.59375
 20
-6.40625
 30
0.0
 40
0.5
  1
1.4400
100
AcDbAttributeDefinition
  3

  2
E
 70
     8
280
     0
  0
ATTDEF
  5
22B
330
210
100
AcDbEntity
  8
AM_6
100
AcDbText
 10
9.59375
 20
-6.90625
 30
0.0
 40
0.5
  1
1.4400
100
AcDbAttributeDefinition
  3

  2
E1
 70
     8
280
     0
  0
ATTDEF
  5
22C
330
210
100
AcDbEntity
  8
AM_6
100
AcDbText
 10
9.59375
 20
-7.40625
 30
0.0
 40
0.5
  1
0.6250
100
AcDbAttributeDefinition
  3

  2
F
 70
     8
280
     0
  0
ATTDEF
  5
22D
330
210
100
AcDbEntity
  8
AM_6
100
AcDbText
 10
9.59375
 20
-7.90625
 30
0.0
 40
0.5
  1
0.62500
100
AcDbAttributeDefinition
  3

  2
F1
 70
     8
280
     0
  0
ATTDEF
  5
22E
330
210
100
AcDbEntity
  8
AM_6
100
AcDbText
 10
9.59375
 20
-8.40625
 30
0.0
 40
0.5
  1
1.89
100
AcDbAttributeDefinition
  3

  2
G
 70
     8
280
     0
  0
ATTDEF
  5
22F
330
210
100
AcDbEntity
  8
AM_6
100
AcDbText
 10
9.59375
 20
-8.90625
 30
0.0
 40
0.5
  1
1.89
100
AcDbAttributeDefinition
  3

  2
G1
 70
     8
280
     0
  0
ATTDEF
  5
230
330
210
100
AcDbEntity
  8
AM_6
100
AcDbText
 10
9.59375
 20
-9.40625
 30
0.0
 40
0.5
  1
0.63
100
AcDbAttributeDefinition
  3

  2
H
 70
     8
280
     0
  0
ATTDEF
  5
231
330
210
100
AcDbEntity
  8
AM_6
100
AcDbText
 10
9.59375
 20
-9.90625
 30
0.0
 40
0.5
  1
0.63
100
AcDbAttributeDefinition
  3

  2
H1
 70
     8
280
     0
  0
ATTDEF
  5
232
330
210
100
AcDbEntity
  8
AM_6
100
AcDbText
 10
9.59375
 20
-10.40625
 30
0.0
 40
0.5
  1
6.375
100
AcDbAttributeDefinition
  3

  2
K
 70
     8
280
     0
  0
ATTDEF
  5
233
330
210
100
AcDbEntity
  8
AM_6
100
AcDbText
 10
9.59375
 20
-10.90625
 30
0.0
 40
0.5
  1
6.375
100
AcDbAttributeDefinition
  3

  2
K1
 70
     8
280
     0
  0
ATTDEF
  5
234
330
210
100
AcDbEntity
  8
AM_6
100
AcDbText
 10
9.59375
 20
-11.40625
 30
0.0
 40
0.5
  1
4.20
100
AcDbAttributeDefinition
  3

  2
L
 70
     8
280
     0
  0
ATTDEF
  5
235
330
210
100
AcDbEntity
  8
AM_6
100
AcDbText
 10
9.59375
 20
-11.90625
 30
0.0
 40
0.5
  1
4.20
100
AcDbAttributeDefinition
  3

  2
L1
 70
     8
280
     0
  0
ATTDEF
  5
236
330
210
100
AcDbEntity
  8
AM_6
100
AcDbText
 10
9.59375
 20
-12.40625
 30
0.0
 40
0.5
  1
0.6250
100
AcDbAttributeDefinition
  3

  2
M
 70
     8
280
     0
  0
ATTDEF
  5
237
330
210
100
AcDbEntity
  8
AM_6
100
AcDbText
 10
9.59375
 20
-12.90625
 30
0.0
 40
0.5
  1
0.6250
100
AcDbAttributeDefinition
  3

  2
M1
 70
     8
280
     0
  0
ATTDEF
  5
238
330
210
100
AcDbEntity
  8
AM_6
100
AcDbText
 10
9.59375
 20
-13.40625
 30
0.0
 40
0.5
  1
3.77
100
AcDbAttributeDefinition
  3

  2
N
 70
     8
280
     0
  0
ATTDEF
  5
239
330
210
100
AcDbEntity
  8
AM_6
100
AcDbText
 10
9.59375
 20
-13.90625
 30
0.0
 40
0.5
  1
3.77
100
AcDbAttributeDefinition
  3

  2
N1
 70
     8
280
     0
  0
ATTDEF
  5
23A
330
210
100
AcDbEntity
  8
AM_6
100
AcDbText
 10
9.59375
 20
-14.40625
 30
0.0
 40
0.5
  1
1.62
100
AcDbAttributeDefinition
  3

  2
P
 70
     8
280
     0
  0
ATTDEF
  5
23B
330
210
100
AcDbEntity
  8
AM_6
100
AcDbText
 10
9.59375
 20
-14.90625
 30
0.0
 40
0.5
  1
1.62
100
AcDbAttributeDefinition
  3

  2
P1
 70
     8
280
     0
  0
ATTDEF
  5
23C
330
210
100
AcDbEntity
  8
AM_6
100
AcDbText
 10
9.59375
 20
-15.40625
 30
0.0
 40
0.5
  1
1.88
100
AcDbAttributeDefinition
  3

  2
Q
 70
     8
280
     0
  0
ATTDEF
  5
23D
330
210
100
AcDbEntity
  8
AM_6
100
AcDbText
 10
9.59375
 20
-15.90625
 30
0.0
 40
0.5
  1
1.88
100
AcDbAttributeDefinition
  3

  2
Q1
 70
     8
280
     0
  0
ATTDEF
  5
23E
330
210
100
AcDbEntity
  8
AM_6
100
AcDbText
 10
9.59375
 20
-16.40625
 30
0.0
 40
0.5
  1
0.25
100
AcDbAttributeDefinition
  3

  2
X
 70
     8
280
     0
  0
ATTDEF
  5
23F
330
210
100
AcDbEntity
  8
AM_6
100
AcDbText
 10
9.59375
 20
-16.90625
 30
0.0
 40
0.5
  1
0.25
100
AcDbAttributeDefinition
  3

  2
X1
 70
     8
280
     0
  0
ATTDEF
  5
240
330
210
100
AcDbEntity
  8
AM_6
100
AcDbText
 10
9.59375
 20
-17.40625
 30
0.0
 40
0.5
  1
0.025
100
AcDbAttributeDefinition
  3

  2
Y
 70
     8
280
     0
  0
ATTDEF
  5
241
330
210
100
AcDbEntity
  8
AM_6
100
AcDbText
 10
9.59375
 20
-17.90625
 30
0.0
 40
0.5
  1
0.025
100
AcDbAttributeDefinition
  3

  2
Y1
 70
     8
280
     0
  0
ATTDEF
  5
242
330
210
100
AcDbEntity
  8
AM_6
100
AcDbText
 10
9.59375
 20
-18.40625
 30
0.0
 40
0.5
  1
3.47
100
AcDbAttributeDefinition
  3

  2
Z
 70
     8
280
     0
  0
ATTDEF
  5
243
330
210
100
AcDbEntity
  8
AM_6
100
AcDbText
 10
9.59375
 20
-18.90625
 30
0.0
 40
0.5
  1
3.47
100
AcDbAttributeDefinition
  3

  2
Z1
 70
     8
280
     0
  0
ATTDEF
  5
244
330
210
100
AcDbEntity
  8
AM_6
100
AcDbText
 10
9.59375
 20
-19.40625
 30
0.0
 40
0.5
  1
5.1181
100
AcDbAttributeDefinition
  3

  2
BORE
 70
     8
280
     0
  0
ATTDEF
  5
245
330
210
100
AcDbEntity
  8
AM_6
100
AcDbText
 10
9.59375
 20
-19.90625
 30
0.0
 40
0.5
  1
0.1021670
100
AcDbAttributeDefinition
  3

  2
O
 70
     8
280
     0
  0
ATTDEF
  5
246
330
210
100
AcDbEntity
  8
AM_6
100
AcDbText
 10
9.59375
 20
-20.40625
 30
0.0
 40
0.5
  1
baldor
100
AcDbAttributeDefinition
  3

  2
COMPANY
 70
     8
280
     0
  0
CIRCLE
  5
247
330
210
100
AcDbEntity
  8
AM_9
100
AcDbCircle
 10
0.0
 20
0.0
 30
0.0
 40
3.028125
  0
CIRCLE
  5
248
330
210
100
AcDbEntity
  8
AM_9
100
AcDbCircle
 10
0.0
 20
0.0
 30
0.0
 40
3.043490138576369
  0
ARC
  5
249
330
210
100
AcDbEntity
  8
AM_9
100
AcDbCircle
 10
0.0000000000000084
 20
0.0000000000000002
 30
0.0
 40
3.187499999999998
100
AcDbArc
 50
78.60060094505994
 51
281.3993990549401
  0
ARC
  5
24A
330
210
100
AcDbEntity
  8
AM_5
100
AcDbCircle
 10
3.75
 20
-0.0000000000000002
 30
0.0
 40
0.3125
100
AcDbArc
 50
74.99999999999996
 51
15.0
  0
ARC
  5
24B
330
210
100
AcDbEntity
  8
AM_5
100
AcDbCircle
 10
-3.75
 20
-0.0000000000000002
 30
0.0
 40
0.3125000000000001
100
AcDbArc
 50
75.0
 51
14.99999999999997
  0
LINE
  5
24C
330
210
100
AcDbEntity
  8
AM_7
100
AcDbLine
 10
-4.59375
 20
0.0
 30
0.0
 11
4.59375
 21
0.0
 31
0.0
  0
LINE
  5
24D
330
210
100
AcDbEntity
  8
AM_7
100
AcDbLine
 10
0.0
 20
-4.59375
 30
0.0
 11
0.0
 21
4.59375
 31
0.0
  0
LINE
  5
24E
330
210
100
AcDbEntity
  8
AM_7
100
AcDbLine
 10
-2.203125
 20
-3.247595264191644
 30
0.0
 11
-1.546875
 21
-3.247595264191644
 31
0.0
  0
LINE
  5
24F
330
210
100
AcDbEntity
  8
AM_7
100
AcDbLine
 10
-1.875
 20
-3.575720264191644
 30
0.0
 11
-1.875
 21
-2.919470264191644
 31
0.0
  0
LINE
  5
250
330
210
100
AcDbEntity
  8
AM_7
100
AcDbLine
 10
-2.203125
 20
3.247595264191644
 30
0.0
 11
-1.546875
 21
3.247595264191644
 31
0.0
  0
LINE
  5
251
330
210
100
AcDbEntity
  8
AM_7
100
AcDbLine
 10
-1.875
 20
2.919470264191644
 30
0.0
 11
-1.875
 21
3.575720264191644
 31
0.0
  0
LINE
  5
252
330
210
100
AcDbEntity
  8
AM_7
100
AcDbLine
 10
1.546875
 20
3.247595264191644
 30
0.0
 11
2.203125
 21
3.247595264191644
 31
0.0
  0
LINE
  5
253
330
210
100
AcDbEntity
  8
AM_7
100
AcDbLine
 10
1.875
 20
2.919470264191644
 30
0.0
 11
1.875
 21
3.575720264191644
 31
0.0
  0
LINE
  5
254
330
210
100
AcDbEntity
  8
AM_7
100
AcDbLine
 10
1.546875
 20
-3.247595264191644
 30
0.0
 11
2.203125
 21
-3.247595264191644
 31
0.0
  0
LINE
  5
255
330
210
100
AcDbEntity
  8
AM_7
100
AcDbLine
 10
1.875
 20
-3.575720264191644
 30
0.0
 11
1.875
 21
-2.919470264191644
 31
0.0
  0
LINE
  5
256
330
210
100
AcDbEntity
  8
AM_7
100
AcDbLine
 10
3.75
 20
-0.328125
 30
0.0
 11
3.75
 21
0.328125
 31
0.0
  0
LINE
  5
257
330
210
100
AcDbEntity
  8
AM_7
100
AcDbLine
 10
-3.75
 20
-0.328125
 30
0.0
 11
-3.75
 21
0.328125
 31
0.0
  0
CIRCLE
  5
258
330
210
100
AcDbEntity
  8
AM_4
100
AcDbCircle
 10
3.75
 20
0.0
 30
0.0
 40
0.2632999999999999
  0
CIRCLE
  5
259
330
210
100
AcDbEntity
  8
AM_4
100
AcDbCircle
 10
0.0
 20
0.0
 30
0.0
 40
4.375
  0
CIRCLE
  5
25A
330
210
100
AcDbEntity
  8
AM_4
100
AcDbCircle
 10
-1.875
 20
-3.247595264191644
 30
0.0
 40
0.3125
  0
CIRCLE
  5
25B
330
210
100
AcDbEntity
  8
AM_4
100
AcDbCircle
 10
-1.875
 20
3.247595264191644
 30
0.0
 40
0.3125
  0
CIRCLE
  5
25C
330
210
100
AcDbEntity
  8
AM_4
100
AcDbCircle
 10
1.875
 20
3.247595264191644
 30
0.0
 40
0.3125
  0
CIRCLE
  5
25D
330
210
100
AcDbEntity
  8
AM_4
100
AcDbCircle
 10
1.875
 20
-3.247595264191644
 30
0.0
 40
0.3125
  0
CIRCLE
  5
25E
330
210
100
AcDbEntity
  8
AM_4
100
AcDbCircle
 10
-3.75
 20
0.0
 30
0.0
 40
0.2633000000000004
  0
LINE
  5
25F
330
210
100
AcDbEntity
  8
AM_4
100
AcDbLine
 10
-0.63
 20
-3.124620977014652
 30
0.0
 11
-0.63
 21
-3.824999999999999
 31
0.0
  0
LINE
  5
260
330
210
100
AcDbEntity
  8
AM_4
100
AcDbLine
 10
0.63
 20
-3.124620977014652
 30
0.0
 11
0.63
 21
-3.824999999999999
 31
0.0
  0
LINE
  5
261
330
210
100
AcDbEntity
  8
AM_4
100
AcDbLine
 10
0.63
 20
-3.824999999999999
 30
0.0
 11
-0.63
 21
-3.824999999999999
 31
0.0
  0
LINE
  5
262
330
210
100
AcDbEntity
  8
AM_4
100
AcDbLine
 10
-0.63
 20
3.824999999999999
 30
0.0
 11
-0.63
 21
3.124620977014652
 31
0.0
  0
LINE
  5
263
330
210
100
AcDbEntity
  8
AM_4
100
AcDbLine
 10
0.63
 20
3.824999999999999
 30
0.0
 11
0.63
 21
3.124620977014652
 31
0.0
  0
LINE
  5
264
330
210
100
AcDbEntity
  8
AM_4
100
AcDbLine
 10
0.63
 20
3.824999999999999
 30
0.0
 11
-0.63
 21
3.824999999999999
 31
0.0
  0
CIRCLE
  5
265
330
210
100
AcDbEntity
  8
AM_4
100
AcDbCircle
 10
0.0
 20
0.0
 30
0.0
 40
2.55905
  0
LINE
  5
266
330
210
100
AcDbEntity
  8
AM_4
100
AcDbLine
 10
0.63
 20
-3.1875
 30
0.0
 11
-0.63
 21
-3.1875
 31
0.0
  0
ARC
  5
267
330
210
100
AcDbEntity
  8
AM_4
100
AcDbCircle
 10
0.0000000000000002
 20
0.0
 30
0.0
 40
3.1875
100
AcDbArc
 50
281.3993990549402
 51
78.60060094505977
  0
LINE
  5
268
330
210
100
AcDbEntity
  8
AM_4
100
AcDbLine
 10
0.63
 20
3.1875
 30
0.0
 11
-0.63
 21
3.1875
 31
0.0
  0
ARC
  5
269
330
210
100
AcDbEntity
  8
AM_4
100
AcDbCircle
 10
-0.0000000000000007
 20
0.0000000000000002
 30
0.0
 40
3.187499999999999
100
AcDbArc
 50
101.3993990549402
 51
258.6006009450597
  0
ARC
  5
26A
330
210
100
AcDbEntity
  8
AM_5
100
AcDbCircle
 10
3.75
 20
0.0
 30
0.0
 40
0.3125000000000002
100
AcDbArc
 50
165.0
 51
105.0
  0
ARC
  5
26B
330
210
100
AcDbEntity
  8
AM_5
100
AcDbCircle
 10
-3.75
 20
-0.0000000000000001
 30
0.0
 40
0.3125000000000002
100
AcDbArc
 50
165.0
 51
105.0
  0
ENDBLK
  5
213
330
210
100
AcDbEntity
  8
0
100
AcDbBlockEnd
  0
ENDSEC
  0
SECTION
  2
ENTITIES
  0
INSERT
  5
6F
330
1F
100
AcDbEntity
  8
0
100
AcDbBlockReference
  2
1_072294_0
 10
0.0
 20
0.0
 30
0.0
  0
POINT
  5
26D
330
1F
100
AcDbEntity
  8
ConnectionPoints
100
AcDbPoint
 10
0.0
 20
3.506250000000001
 30
0.7899999999999998
  0
POINT
  5
26E
330
1F
100
AcDbEntity
  8
ConnectionPoints
100
AcDbPoint
 10
0.0
 20
-1.886284722222222
 30
1.789000333333334
  0
POINT
  5
26F
330
1F
100
AcDbEntity
  8
ConnectionPoints
100
AcDbPoint
 10
0.0
 20
1.886284722222222
 30
1.789000333333334
  0
POINT
  5
270
330
1F
100
AcDbEntity
  8
ConnectionPoints
100
AcDbPoint
 10
0.0
 20
0.0
 30
1.616833333333334
  0
POINT
  5
271
330
1F
100
AcDbEntity
  8
ConnectionPoints
100
AcDbPoint
 10
0.0
 20
0.0
 30
1.89
  0
POINT
  5
272
330
1F
100
AcDbEntity
  8
ConnectionPoints
100
AcDbPoint
 10
0.0
 20
0.0
 30
1.815833333333333
  0
POINT
  5
273
330
1F
100
AcDbEntity
  8
ConnectionPoints
100
AcDbPoint
 10
0.0
 20
1.886284722222222
 30
1.616833333333334
  0
POINT
  5
274
330
1F
100
AcDbEntity
  8
ConnectionPoints
100
AcDbPoint
 10
0.0
 20
1.886284722222222
 30
1.789
  0
POINT
  5
275
330
1F
100
AcDbEntity
  8
ConnectionPoints
100
AcDbPoint
 10
0.0
 20
-1.886284722222222
 30
1.616833333333334
  0
POINT
  5
276
330
1F
100
AcDbEntity
  8
ConnectionPoints
100
AcDbPoint
 10
0.0
 20
-1.886284722222222
 30
1.789
  0
POINT
  5
277
330
1F
100
AcDbEntity
  8
ConnectionPoints
100
AcDbPoint
 10
0.0
 20
0.0
 30
1.616833333333334
  0
POINT
  5
278
330
1F
100
AcDbEntity
  8
ConnectionPoints
100
AcDbPoint
 10
0.0
 20
3.506250000000001
 30
0.7899999999999998
  0
POINT
  5
279
330
1F
100
AcDbEntity
  8
ConnectionPoints
100
AcDbPoint
 10
0.0
 20
-3.506250000000001
 30
0.7899999999999987
  0
POINT
  5
27A
330
1F
100
AcDbEntity
  8
ConnectionPoints
100
AcDbPoint
 10
0.0
 20
0.0
 30
1.64
  0
POINT
  5
27B
330
1F
100
AcDbEntity
  8
ConnectionPoints
100
AcDbPoint
 10
0.0
 20
0.0
 30
1.89
  0
ENDSEC
  0
SECTION
  2
OBJECTS
  0
DICTIONARY
  5
C
330
0
100
AcDbDictionary
281
     1
  3
ACAD_DETAILVIEWSTYLE
350
283
  3
ACAD_GROUP
350
D
  3
ACAD_LAYOUT
350
1A
  3
ACAD_MATERIAL
350
43
  3
ACAD_MLEADERSTYLE
350
6B
  3
ACAD_MLINESTYLE
350
17
  3
ACAD_PLOTSETTINGS
350
19
  3
ACAD_PLOTSTYLENAME
350
E
  3
ACAD_SCALELIST
350
47
  3
ACAD_SECTIONVIEWSTYLE
350
284
  3
ACAD_TABLESTYLE
350
69
  3
ACAD_VISUALSTYLE
350
2A
  3
ACDB_RECOMPOSE_DATA
350
280
  3
AcDbVariableDictionary
350
27C
  0
SUN
  5
6D
330
29
100
AcDbSun
 90
        1
290
     0
 63
     7
421
 16777215
 40
1.0
291
     1
 91
  2455826
 92
 54000000
292
     0
 70
     2
 71
   256
280
     1
  0
DICTIONARY
  5
283
102
{ACAD_REACTORS
330
C
102
}
330
C
100
AcDbDictionary
281
     1
  0
DICTIONARY
  5
D
102
{ACAD_REACTORS
330
C
102
}
330
C
100
AcDbDictionary
281
     1
  0
DICTIONARY
  5
1A
102
{ACAD_REACTORS
330
C
102
}
330
C
100
AcDbDictionary
281
     1
  3
Layout1
350
1E
  3
Layout2
350
26
  3
Model
350
22
  0
DICTIONARY
  5
43
102
{ACAD_REACTORS
330
C
102
}
330
C
100
AcDbDictionary
281
     1
  3
ByBlock
350
45
  3
ByLayer
350
44
  3
Global
350
46
  0
DICTIONARY
  5
6B
102
{ACAD_REACTORS
330
C
102
}
330
C
100
AcDbDictionary
281
     1
  3
Standard
350
6C
  0
DICTIONARY
  5
17
102
{ACAD_REACTORS
330
C
102
}
330
C
100
AcDbDictionary
281
     1
  3
Standard
350
18
  0
DICTIONARY
  5
19
102
{ACAD_REACTORS
330
C
102
}
330
C
100
AcDbDictionary
281
     1
  0
ACDBDICTIONARYWDFLT
  5
E
102
{ACAD_REACTORS
330
C
102
}
330
C
100
AcDbDictionary
281
     1
  3
Normal
350
F
100
AcDbDictionaryWithDefault
340
F
  0
DICTIONARY
  5
47
102
{ACAD_REACTORS
330
C
102
}
330
C
100
AcDbDictionary
281
     1
  3
A0
350
48
  3
A1
350
49
  3
A2
350
4A
  3
A3
350
4B
  3
A4
350
4C
  3
A5
350
4D
  3
A6
350
4E
  3
A7
350
4F
  3
A8
350
50
  3
A9
350
51
  3
B0
350
52
  3
B1
350
53
  3
B2
350
54
  3
B3
350
55
  3
B4
350
56
  3
B5
350
57
  3
B6
350
58
  3
B7
350
59
  3
B8
350
5A
  3
B9
350
5B
  3
C0
350
5C
  3
C1
350
5D
  3
C2
350
5E
  3
C3
350
5F
  3
C4
350
60
  3
C5
350
61
  3
C6
350
62
  3
C7
350
63
  3
C8
350
64
  3
C9
350
65
  3
D0
350
66
  3
D1
350
67
  3
D2
350
68
  0
DICTIONARY
  5
284
102
{ACAD_REACTORS
330
C
102
}
330
C
100
AcDbDictionary
281
     1
  0
DICTIONARY
  5
69
102
{ACAD_REACTORS
330
C
102
}
330
C
100
AcDbDictionary
281
     1
  3
Standard
350
6A
  0
DICTIONARY
  5
2A
102
{ACAD_REACTORS
330
C
102
}
330
C
100
AcDbDictionary
281
     1
  3
2dWireframe
350
2F
  3
Basic
350
32
  3
Brighten
350
36
  3
ColorChange
350
3A
  3
Conceptual
350
34
  3
Dim
350
35
  3
EdgeColorOff
350
3D
  3
Facepattern
350
39
  3
Flat
350
2B
  3
FlatWithEdges
350
2C
  3
Gouraud
350
2D
  3
GouraudWithEdges
350
2E
  3
Hidden
350
31
  3
JitterOff
350
3B
  3
Linepattern
350
38
  3
OverhangOff
350
3C
  3
Realistic
350
33
  3
Shaded
350
42
  3
Shaded with edges
350
41
  3
Shades of Gray
350
3E
  3
Sketchy
350
3F
  3
Thicken
350
37
  3
Wireframe
350
30
  3
X-Ray
350
40
  0
XRECORD
  5
280
102
{ACAD_REACTORS
330
C
102
}
330
C
100
AcDbXrecord
280
     1
 90
        1
330
6A
  0
DICTIONARY
  5
27C
102
{ACAD_REACTORS
330
C
102
}
330
C
100
AcDbDictionary
281
     1
  3
CANNOSCALE
350
27D
  3
CMLEADERSTYLE
350
282
  3
CTABLESTYLE
350
281
  0
LAYOUT
  5
1E
102
{ACAD_REACTORS
330
1A
102
}
330
1A
100
AcDbPlotSettings
  1

  2
none_device
  4

  6

 40
0.0
 41
0.0
 42
0.0
 43
0.0
 44
0.0
 45
0.0
 46
0.0
 47
0.0
 48
0.0
 49
0.0
140
0.0
141
0.0
142
1.0
143
1.0
 70
   688
 72
     0
 73
     0
 74
     5
  7

 75
    16
 76
     0
 77
     2
 78
   300
147
1.0
148
0.0
149
0.0
100
AcDbLayout
  1
Layout1
 70
     1
 71
     1
 10
0.0
 20
0.0
 11
12.0
 21
9.0
 12
0.0
 22
0.0
 32
0.0
 14
1.000000000000000E+20
 24
1.000000000000000E+20
 34
1.000000000000000E+20
 15
-1.000000000000000E+20
 25
-1.000000000000000E+20
 35
-1.000000000000000E+20
146
0.0
 13
0.0
 23
0.0
 33
0.0
 16
1.0
 26
0.0
 36
0.0
 17
0.0
 27
1.0
 37
0.0
 76
     0
330
1B
  0
LAYOUT
  5
26
102
{ACAD_REACTORS
330
1A
102
}
330
1A
100
AcDbPlotSettings
  1

  2
none_device
  4

  6

 40
0.0
 41
0.0
 42
0.0
 43
0.0
 44
0.0
 45
0.0
 46
0.0
 47
0.0
 48
0.0
 49
0.0
140
0.0
141
0.0
142
1.0
143
1.0
 70
   688
 72
     0
 73
     0
 74
     5
  7

 75
    16
 76
     0
 77
     2
 78
   300
147
1.0
148
0.0
149
0.0
100
AcDbLayout
  1
Layout2
 70
     1
 71
     2
 10
0.0
 20
0.0
 11
0.0
 21
0.0
 12
0.0
 22
0.0
 32
0.0
 14
0.0
 24
0.0
 34
0.0
 15
0.0
 25
0.0
 35
0.0
146
0.0
 13
0.0
 23
0.0
 33
0.0
 16
1.0
 26
0.0
 36
0.0
 17
0.0
 27
1.0
 37
0.0
 76
     0
330
23
  0
LAYOUT
  5
22
102
{ACAD_REACTORS
330
1A
102
}
330
1A
100
AcDbPlotSettings
  1

  2
none_device
  4
Letter_(8.50_x_11.00_Inches)
  6

 40
6.35
 41
6.35
 42
6.35000508
 43
6.35000508
 44
215.9
 45
279.4
 46
0.0
 47
0.0
 48
0.0
 49
0.0
140
0.0
141
0.0
142
1.0
143
1.0
 70
  1712
 72
     0
 73
     0
 74
     0
  7

 75
     0
 76
     0
 77
     2
 78
   300
147
1.0
148
0.0
149
0.0
100
AcDbLayout
  1
Model
 70
     1
 71
     0
 10
0.0
 20
0.0
 11
12.0
 21
9.0
 12
0.0
 22
0.0
 32
0.0
 14
1.000000000000000E+20
 24
1.000000000000000E+20
 34
1.000000000000000E+20
 15
-1.000000000000000E+20
 25
-1.000000000000000E+20
 35
-1.000000000000000E+20
146
0.0
 13
0.0
 23
0.0
 33
0.0
 16
1.0
 26
0.0
 36
0.0
 17
0.0
 27
1.0
 37
0.0
 76
     0
330
1F
331
29
  0
MATERIAL
  5
45
102
{ACAD_REACTORS
330
43
102
}
330
43
100
AcDbMaterial
  1
ByBlock
 72
     1
 94
      127
  0
MATERIAL
  5
44
102
{ACAD_REACTORS
330
43
102
}
330
43
100
AcDbMaterial
  1
ByLayer
 72
     1
 94
      127
  0
MATERIAL
  5
46
102
{ACAD_REACTORS
330
43
102
}
330
43
100
AcDbMaterial
  1
Global
 72
     1
 94
      127
  0
MLEADERSTYLE
  5
6C
102
{ACAD_REACTORS
330
6B
102
}
330
6B
100
AcDbMLeaderStyle
179
     2
170
     2
171
     1
172
     0
 90
        2
 40
0.0
 41
0.0
173
     1
 91
-1056964608
340
14
 92
       -2
290
     1
 42
0.09
291
     1
 43
0.36
  3
Standard
341
0
 44
0.18
300

342
11
174
     1
178
     6
175
     1
176
     0
 93
-1056964608
 45
0.18
292
     0
297
     0
 46
0.18
343
0
 94
-1056964608
 47
1.0
 49
1.0
140
1.0
293
     1
141
0.0
294
     1
177
     0
142
1.0
295
     0
296
     0
143
0.125
271
     0
272
     9
273
     9
298
     0
  0
MLINESTYLE
  5
18
102
{ACAD_REACTORS
330
17
102
}
330
17
100
AcDbMlineStyle
  2
Standard
 70
     0
  3

 62
   256
 51
90.0
 52
90.0
 71
     2
 49
0.5
 62
   256
  6
BYLAYER
 49
-0.5
 62
   256
  6
BYLAYER
  0
ACDBPLACEHOLDER
  5
F
102
{ACAD_REACTORS
330
E
102
}
330
E
  0
SCALE
  5
48
102
{ACAD_REACTORS
330
47
102
}
330
47
100
AcDbScale
 70
     0
300
1:1
140
1.0
141
1.0
290
     1
  0
SCALE
  5
49
102
{ACAD_REACTORS
330
47
102
}
330
47
100
AcDbScale
 70
     0
300
1:2
140
1.0
141
2.0
290
     0
  0
SCALE
  5
4A
102
{ACAD_REACTORS
330
47
102
}
330
47
100
AcDbScale
 70
     0
300
1:4
140
1.0
141
4.0
290
     0
  0
SCALE
  5
4B
102
{ACAD_REACTORS
330
47
102
}
330
47
100
AcDbScale
 70
     0
300
1:5
140
1.0
141
5.0
290
     0
  0
SCALE
  5
4C
102
{ACAD_REACTORS
330
47
102
}
330
47
100
AcDbScale
 70
     0
300
1:8
140
1.0
141
8.0
290
     0
  0
SCALE
  5
4D
102
{ACAD_REACTORS
330
47
102
}
330
47
100
AcDbScale
 70
     0
300
1:10
140
1.0
141
10.0
290
     0
  0
SCALE
  5
4E
102
{ACAD_REACTORS
330
47
102
}
330
47
100
AcDbScale
 70
     0
300
1:16
140
1.0
141
16.0
290
     0
  0
SCALE
  5
4F
102
{ACAD_REACTORS
330
47
102
}
330
47
100
AcDbScale
 70
     0
300
1:20
140
1.0
141
20.0
290
     0
  0
SCALE
  5
50
102
{ACAD_REACTORS
330
47
102
}
330
47
100
AcDbScale
 70
     0
300
1:30
140
1.0
141
30.0
290
     0
  0
SCALE
  5
51
102
{ACAD_REACTORS
330
47
102
}
330
47
100
AcDbScale
 70
     0
300
1:40
140
1.0
141
40.0
290
     0
  0
SCALE
  5
52
102
{ACAD_REACTORS
330
47
102
}
330
47
100
AcDbScale
 70
     0
300
1:50
140
1.0
141
50.0
290
     0
  0
SCALE
  5
53
102
{ACAD_REACTORS
330
47
102
}
330
47
100
AcDbScale
 70
     0
300
1:100
140
1.0
141
100.0
290
     0
  0
SCALE
  5
54
102
{ACAD_REACTORS
330
47
102
}
330
47
100
AcDbScale
 70
     0
300
2:1
140
2.0
141
1.0
290
     0
  0
SCALE
  5
55
102
{ACAD_REACTORS
330
47
102
}
330
47
100
AcDbScale
 70
     0
300
4:1
140
4.0
141
1.0
290
     0
  0
SCALE
  5
56
102
{ACAD_REACTORS
330
47
102
}
330
47
100
AcDbScale
 70
     0
300
8:1
140
8.0
141
1.0
290
     0
  0
SCALE
  5
57
102
{ACAD_REACTORS
330
47
102
}
330
47
100
AcDbScale
 70
     0
300
10:1
140
10.0
141
1.0
290
     0
  0
SCALE
  5
58
102
{ACAD_REACTORS
330
47
102
}
330
47
100
AcDbScale
 70
     0
300
100:1
140
100.0
141
1.0
290
     0
  0
SCALE
  5
59
102
{ACAD_REACTORS
330
47
102
}
330
47
100
AcDbScale
 70
     0
300
1/128" = 1'-0"
140
0.0078125
141
12.0
290
     0
  0
SCALE
  5
5A
102
{ACAD_REACTORS
330
47
102
}
330
47
100
AcDbScale
 70
     0
300
1/64" = 1'-0"
140
0.015625
141
12.0
290
     0
  0
SCALE
  5
5B
102
{ACAD_REACTORS
330
47
102
}
330
47
100
AcDbScale
 70
     0
300
1/32" = 1'-0"
140
0.03125
141
12.0
290
     0
  0
SCALE
  5
5C
102
{ACAD_REACTORS
330
47
102
}
330
47
100
AcDbScale
 70
     0
300
1/16" = 1'-0"
140
0.0625
141
12.0
290
     0
  0
SCALE
  5
5D
102
{ACAD_REACTORS
330
47
102
}
330
47
100
AcDbScale
 70
     0
300
3/32" = 1'-0"
140
0.09375
141
12.0
290
     0
  0
SCALE
  5
5E
102
{ACAD_REACTORS
330
47
102
}
330
47
100
AcDbScale
 70
     0
300
1/8" = 1'-0"
140
0.125
141
12.0
290
     0
  0
SCALE
  5
5F
102
{ACAD_REACTORS
330
47
102
}
330
47
100
AcDbScale
 70
     0
300
3/16" = 1'-0"
140
0.1875
141
12.0
290
     0
  0
SCALE
  5
60
102
{ACAD_REACTORS
330
47
102
}
330
47
100
AcDbScale
 70
     0
300
1/4" = 1'-0"
140
0.25
141
12.0
290
     0
  0
SCALE
  5
61
102
{ACAD_REACTORS
330
47
102
}
330
47
100
AcDbScale
 70
     0
300
3/8" = 1'-0"
140
0.375
141
12.0
290
     0
  0
SCALE
  5
62
102
{ACAD_REACTORS
330
47
102
}
330
47
100
AcDbScale
 70
     0
300
1/2" = 1'-0"
140
0.5
141
12.0
290
     0
  0
SCALE
  5
63
102
{ACAD_REACTORS
330
47
102
}
330
47
100
AcDbScale
 70
     0
300
3/4" = 1'-0"
140
0.75
141
12.0
290
     0
  0
SCALE
  5
64
102
{ACAD_REACTORS
330
47
102
}
330
47
100
AcDbScale
 70
     0
300
1" = 1'-0"
140
1.0
141
12.0
290
     0
  0
SCALE
  5
65
102
{ACAD_REACTORS
330
47
102
}
330
47
100
AcDbScale
 70
     0
300
1-1/2" = 1'-0"
140
1.5
141
12.0
290
     0
  0
SCALE
  5
66
102
{ACAD_REACTORS
330
47
102
}
330
47
100
AcDbScale
 70
     0
300
3" = 1'-0"
140
3.0
141
12.0
290
     0
  0
SCALE
  5
67
102
{ACAD_REACTORS
330
47
102
}
330
47
100
AcDbScale
 70
     0
300
6" = 1'-0"
140
6.0
141
12.0
290
     0
  0
SCALE
  5
68
102
{ACAD_REACTORS
330
47
102
}
330
47
100
AcDbScale
 70
     0
300
1'-0" = 1'-0"
140
12.0
141
12.0
290
     0
  0
TABLESTYLE
  5
6A
102
{ACAD_REACTORS
330
69
102
}
102
{ACAD_XDICTIONARY
360
27E
102
}
330
69
100
AcDbTableStyle
  3
Standard
 70
     0
 71
     0
 40
0.06
 41
0.06
280
     0
281
     0
  7
Standard
140
0.18
170
     2
 62
     0
 63
   257
283
     0
 90
        4
 91
        0
  1

274
    -2
284
     1
 64
     0
275
    -2
285
     1
 65
     0
276
    -2
286
     1
 66
     0
277
    -2
287
     1
 67
     0
278
    -2
288
     1
 68
     0
279
    -2
289
     1
 69
     0
  7
Standard
140
0.25
170
     5
 62
     0
 63
   257
283
     0
 90
        4
 91
        0
  1

274
    -2
284
     1
 64
     0
275
    -2
285
     1
 65
     0
276
    -2
286
     1
 66
     0
277
    -2
287
     1
 67
     0
278
    -2
288
     1
 68
     0
279
    -2
289
     1
 69
     0
  7
Standard
140
0.18
170
     5
 62
     0
 63
   257
283
     0
 90
        4
 91
        0
  1

274
    -2
284
     1
 64
     0
275
    -2
285
     1
 65
     0
276
    -2
286
     1
 66
     0
277
    -2
287
     1
 67
     0
278
    -2
288
     1
 68
     0
279
    -2
289
     1
 69
     0
  0
VISUALSTYLE
  5
2F
102
{ACAD_REACTORS
330
2A
102
}
330
2A
100
AcDbVisualStyle
  2
2dWireframe
 70
     4
177
     3
291
     0
 70
    58
 90
        0
176
     1
 90
        2
176
     1
 90
        0
176
     1
 90
        0
176
     1
 40
0.6
176
     1
 40
30.0
176
     1
 62
     7
420
 16777215
176
     1
 90
        1
176
     1
 90
        4
176
     1
 62
     7
176
     1
 62
   257
176
     1
 90
        1
176
     1
 90
        1
176
     1
 40
1.0
176
     1
 90
        0
176
     1
 62
   257
176
     1
 40
1.0
176
     1
 90
        1
176
     1
 90
        6
176
     1
 90
        2
176
     1
 62
     7
176
     1
 90
        5
176
     1
 90
        0
176
     1
 90
        0
176
     1
290
     0
176
     1
 90
        1
176
     1
 40
0.0
176
     1
 90
        0
176
     1
290
     1
176
     1
290
     1
176
     1
290
     0
176
     1
290
     0
176
     1
290
     0
176
     1
290
     0
176
     1
290
     0
176
     1
290
     0
176
     1
290
     0
176
     1
 90
       50
176
     1
 40
0.0
176
     1
 40
1.0
176
     1
 90
        0
176
     1
 62
    18
420
        0
176
     1
 90
       50
176
     1
 90
        3
176
     1
 62
     5
420
      255
176
     1
290
     0
176
     1
 90
       50
176
     1
 90
       50
176
     1
 90
       50
176
     1
290
     0
176
     1
 90
       50
176
     1
 62
   256
176
     0
 40
1.0
176
     0
 90
        2
176
     1
  1
strokes_ogs.tif
176
     1
290
     0
176
     1
 40
1.0
176
     1
 40
1.0
176
     1
  0
VISUALSTYLE
  5
32
102
{ACAD_REACTORS
330
2A
102
}
330
2A
100
AcDbVisualStyle
  2
Basic
 70
     7
177
     3
291
     1
 70
    58
 90
        1
176
     1
 90
        0
176
     1
 90
        1
176
     1
 90
        0
176
     1
 40
0.6
176
     1
 40
30.0
176
     1
 62
     7
420
 16777215
176
     1
 90
        0
176
     1
 90
        4
176
     1
 62
     7
176
     1
 62
   257
176
     1
 90
        1
176
     1
 90
        1
176
     1
 40
1.0
176
     1
 90
        8
176
     1
 62
     7
176
     1
 40
1.0
176
     1
 90
        1
176
     1
 90
        6
176
     1
 90
        2
176
     1
 62
     7
176
     1
 90
        5
176
     1
 90
        0
176
     1
 90
        0
176
     1
290
     0
176
     1
 90
        1
176
     1
 40
0.0
176
     1
 90
        0
176
     1
290
     0
176
     1
290
     1
176
     1
290
     1
176
     1
290
     0
176
     1
290
     0
176
     1
290
     0
176
     1
290
     0
176
     1
290
     0
176
     1
290
     0
176
     1
 90
       50
176
     1
 40
0.0
176
     1
 40
1.0
176
     1
 90
        0
176
     1
 62
    18
420
        0
176
     1
 90
       50
176
     1
 90
        3
176
     1
 62
     5
420
      255
176
     1
290
     0
176
     1
 90
       50
176
     1
 90
       50
176
     1
 90
       50
176
     1
290
     0
176
     1
 90
       50
176
     1
 62
   256
176
     0
 40
1.0
176
     0
 90
        2
176
     1
  1
strokes_ogs.tif
176
     1
290
     0
176
     1
 40
1.0
176
     1
 40
1.0
176
     1
  0
VISUALSTYLE
  5
36
102
{ACAD_REACTORS
330
2A
102
}
330
2A
100
AcDbVisualStyle
  2
Brighten
 70
    12
177
     3
291
     1
 70
    58
 90
        2
176
     1
 90
        2
176
     1
 90
        0
176
     1
 90
        0
176
     1
 40
0.6
176
     1
 40
30.0
176
     1
 62
     7
420
 16777215
176
     1
 90
        1
176
     1
 90
        4
176
     1
 62
     7
176
     1
 62
   257
176
     1
 90
        1
176
     1
 90
        1
176
     1
 40
1.0
176
     1
 90
        8
176
     1
 62
     7
176
     1
 40
1.0
176
     1
 90
        1
176
     1
 90
        6
176
     1
 90
        2
176
     1
 62
     7
176
     1
 90
        5
176
     1
 90
        0
176
     1
 90
        0
176
     1
290
     0
176
     1
 90
        1
176
     1
 40
50.0
176
     1
 90
        0
176
     1
290
     0
176
     1
290
     1
176
     1
290
     1
176
     1
290
     0
176
     1
290
     0
176
     1
290
     0
176
     1
290
     0
176
     1
290
     0
176
     1
290
     0
176
     1
 90
       50
176
     1
 40
0.0
176
     1
 40
1.0
176
     1
 90
        0
176
     1
 62
    18
420
        0
176
     1
 90
       50
176
     1
 90
        3
176
     1
 62
     5
420
      255
176
     1
290
     0
176
     1
 90
       50
176
     1
 90
       50
176
     1
 90
       50
176
     1
290
     0
176
     1
 90
       50
176
     1
 62
   256
176
     0
 40
1.0
176
     0
 90
        2
176
     1
  1
strokes_ogs.tif
176
     1
290
     0
176
     1
 40
1.0
176
     1
 40
1.0
176
     1
  0
VISUALSTYLE
  5
3A
102
{ACAD_REACTORS
330
2A
102
}
330
2A
100
AcDbVisualStyle
  2
ColorChange
 70
    16
177
     3
291
     1
 70
    58
 90
        2
176
     1
 90
        2
176
     1
 90
        3
176
     1
 90
        0
176
     1
 40
0.6
176
     1
 40
30.0
176
     1
 62
     8
420
  8421504
176
     1
 90
        1
176
     1
 90
        4
176
     1
 62
     7
176
     1
 62
   257
176
     1
 90
        1
176
     1
 90
        1
176
     1
 40
1.0
176
     1
 90
        8
176
     1
 62
     8
420
  8421504
176
     1
 40
1.0
176
     1
 90
        1
176
     1
 90
        6
176
     1
 90
        2
176
     1
 62
     7
176
     1
 90
        5
176
     1
 90
        0
176
     1
 90
        0
176
     1
290
     0
176
     1
 90
        1
176
     1
 40
0.0
176
     1
 90
        0
176
     1
290
     0
176
     1
290
     1
176
     1
290
     1
176
     1
290
     0
176
     1
290
     0
176
     1
290
     0
176
     1
290
     0
176
     1
290
     0
176
     1
290
     0
176
     1
 90
       50
176
     1
 40
0.0
176
     1
 40
1.0
176
     1
 90
        0
176
     1
 62
    18
420
        0
176
     1
 90
       50
176
     1
 90
        3
176
     1
 62
     5
420
      255
176
     1
290
     0
176
     1
 90
       50
176
     1
 90
       50
176
     1
 90
       50
176
     1
290
     0
176
     1
 90
       50
176
     1
 62
   256
176
     0
 40
1.0
176
     0
 90
        2
176
     1
  1
strokes_ogs.tif
176
     1
290
     0
176
     1
 40
1.0
176
     1
 40
1.0
176
     1
  0
VISUALSTYLE
  5
34
102
{ACAD_REACTORS
330
2A
102
}
330
2A
100
AcDbVisualStyle
  2
Conceptual
 70
     9
177
     3
291
     0
 70
    58
 90
        3
176
     1
 90
        2
176
     1
 90
        0
176
     1
 90
        0
176
     1
 40
0.6
176
     1
 40
30.0
176
     1
 62
     7
420
 16777215
176
     1
 90
        2
176
     1
 90
        2
176
     1
 62
     7
176
     1
 62
   257
176
     1
 90
        1
176
     1
 90
        1
176
     1
 40
179.0
176
     1
 90
        8
176
     1
 62
     7
176
     1
 40
1.0
176
     1
 90
        1
176
     1
 90
        6
176
     1
 90
        2
176
     1
 62
     7
176
     1
 90
        3
176
     1
 90
        0
176
     1
 90
        0
176
     1
290
     0
176
     1
 90
        1
176
     1
 40
0.0
176
     1
 90
        0
176
     1
290
     0
176
     1
290
     1
176
     1
290
     1
176
     1
290
     0
176
     1
290
     0
176
     1
290
     0
176
     1
290
     0
176
     1
290
     0
176
     1
290
     0
176
     1
 90
       50
176
     1
 40
0.0
176
     1
 40
1.0
176
     1
 90
        0
176
     1
 62
    18
420
        0
176
     1
 90
       50
176
     1
 90
        3
176
     1
 62
     5
420
      255
176
     1
290
     0
176
     1
 90
       50
176
     1
 90
       50
176
     1
 90
       50
176
     1
290
     0
176
     1
 90
       50
176
     1
 62
   256
176
     0
 40
1.0
176
     0
 90
        2
176
     1
  1
strokes_ogs.tif
176
     1
290
     0
176
     1
 40
1.0
176
     1
 40
1.0
176
     1
  0
VISUALSTYLE
  5
35
102
{ACAD_REACTORS
330
2A
102
}
330
2A
100
AcDbVisualStyle
  2
Dim
 70
    11
177
     3
291
     1
 70
    58
 90
        2
176
     1
 90
        2
176
     1
 90
        0
176
     1
 90
        0
176
     1
 40
0.6
176
     1
 40
30.0
176
     1
 62
     7
420
 16777215
176
     1
 90
        1
176
     1
 90
        4
176
     1
 62
     7
176
     1
 62
   257
176
     1
 90
        1
176
     1
 90
        1
176
     1
 40
1.0
176
     1
 90
        8
176
     1
 62
     7
176
     1
 40
1.0
176
     1
 90
        1
176
     1
 90
        6
176
     1
 90
        2
176
     1
 62
     7
176
     1
 90
        5
176
     1
 90
        0
176
     1
 90
        0
176
     1
290
     0
176
     1
 90
        1
176
     1
 40
-50.0
176
     1
 90
        0
176
     1
290
     0
176
     1
290
     1
176
     1
290
     1
176
     1
290
     0
176
     1
290
     0
176
     1
290
     0
176
     1
290
     0
176
     1
290
     0
176
     1
290
     0
176
     1
 90
       50
176
     1
 40
0.0
176
     1
 40
1.0
176
     1
 90
        0
176
     1
 62
    18
420
        0
176
     1
 90
       50
176
     1
 90
        3
176
     1
 62
     5
420
      255
176
     1
290
     0
176
     1
 90
       50
176
     1
 90
       50
176
     1
 90
       50
176
     1
290
     0
176
     1
 90
       50
176
     1
 62
   256
176
     0
 40
1.0
176
     0
 90
        2
176
     1
  1
strokes_ogs.tif
176
     1
290
     0
176
     1
 40
1.0
176
     1
 40
1.0
176
     1
  0
VISUALSTYLE
  5
3D
102
{ACAD_REACTORS
330
2A
102
}
330
2A
100
AcDbVisualStyle
  2
EdgeColorOff
 70
    22
177
     3
291
     1
 70
    58
 90
        2
176
     0
 90
        2
176
     0
 90
        0
176
     0
 90
        0
176
     0
 40
0.6
176
     0
 40
30.0
176
     0
 62
     7
420
 16777215
176
     0
 90
        1
176
     0
 90
        4
176
     0
 62
     7
176
     0
 62
   257
176
     0
 90
        1
176
     0
 90
        1
176
     0
 40
1.0
176
     0
 90
        8
176
     2
 62
     7
176
     0
 40
1.0
176
     0
 90
        1
176
     0
 90
        6
176
     0
 90
        2
176
     0
 62
     7
176
     0
 90
        5
176
     0
 90
        0
176
     0
 90
        0
176
     0
290
     0
176
     0
 90
        1
176
     0
 40
0.0
176
     0
 90
        0
176
     0
290
     0
176
     0
290
     1
176
     0
290
     1
176
     0
290
     0
176
     0
290
     0
176
     0
290
     0
176
     0
290
     0
176
     0
290
     0
176
     0
290
     0
176
     0
 90
       50
176
     0
 40
0.0
176
     0
 40
1.0
176
     0
 90
        0
176
     0
 62
    18
420
        0
176
     0
 90
       50
176
     0
 90
        3
176
     0
 62
     5
420
      255
176
     0
290
     0
176
     0
 90
       50
176
     0
 90
       50
176
     0
 90
       50
176
     0
290
     0
176
     0
 90
       50
176
     0
 62
   256
176
     0
 40
1.0
176
     0
 90
        2
176
     0
  1
strokes_ogs.tif
176
     0
290
     0
176
     0
 40
1.0
176
     0
 40
1.0
176
     0
  0
VISUALSTYLE
  5
39
102
{ACAD_REACTORS
330
2A
102
}
330
2A
100
AcDbVisualStyle
  2
Facepattern
 70
    15
177
     3
291
     1
 70
    58
 90
        2
176
     1
 90
        2
176
     1
 90
        0
176
     1
 90
        0
176
     1
 40
0.6
176
     1
 40
30.0
176
     1
 62
     7
420
 16777215
176
     1
 90
        1
176
     1
 90
        4
176
     1
 62
     7
176
     1
 62
   257
176
     1
 90
        1
176
     1
 90
        1
176
     1
 40
1.0
176
     1
 90
        8
176
     1
 62
     7
176
     1
 40
1.0
176
     1
 90
        1
176
     1
 90
        6
176
     1
 90
        2
176
     1
 62
     7
176
     1
 90
        5
176
     1
 90
        0
176
     1
 90
        0
176
     1
290
     0
176
     1
 90
        1
176
     1
 40
0.0
176
     1
 90
        0
176
     1
290
     0
176
     1
290
     1
176
     1
290
     1
176
     1
290
     0
176
     1
290
     0
176
     1
290
     0
176
     1
290
     0
176
     1
290
     0
176
     1
290
     0
176
     1
 90
       50
176
     1
 40
0.0
176
     1
 40
1.0
176
     1
 90
        0
176
     1
 62
    18
420
        0
176
     1
 90
       50
176
     1
 90
        3
176
     1
 62
     5
420
      255
176
     1
290
     0
176
     1
 90
       50
176
     1
 90
       50
176
     1
 90
       50
176
     1
290
     0
176
     1
 90
       50
176
     1
 62
   256
176
     0
 40
1.0
176
     0
 90
        2
176
     1
  1
strokes_ogs.tif
176
     1
290
     0
176
     1
 40
1.0
176
     1
 40
1.0
176
     1
  0
VISUALSTYLE
  5
2B
102
{ACAD_REACTORS
330
2A
102
}
330
2A
100
AcDbVisualStyle
  2
Flat
 70
     0
177
     3
291
     1
 70
    58
 90
        2
176
     1
 90
        1
176
     1
 90
        1
176
     1
 90
        2
176
     1
 40
0.6
176
     1
 40
30.0
176
     1
 62
     7
420
 16777215
176
     1
 90
        0
176
     1
 90
        0
176
     1
 62
     7
176
     1
 62
   257
176
     1
 90
        1
176
     1
 90
        1
176
     1
 40
1.0
176
     1
 90
        8
176
     1
 62
     7
176
     1
 40
1.0
176
     1
 90
        1
176
     1
 90
        6
176
     1
 90
        2
176
     1
 62
     7
176
     1
 90
        5
176
     1
 90
        0
176
     1
 90
        0
176
     1
290
     0
176
     1
 90
       13
176
     1
 40
0.0
176
     1
 90
        0
176
     1
290
     0
176
     1
290
     1
176
     1
290
     1
176
     1
290
     0
176
     1
290
     0
176
     1
290
     0
176
     1
290
     0
176
     1
290
     0
176
     1
290
     0
176
     1
 90
       50
176
     1
 40
0.0
176
     1
 40
1.0
176
     1
 90
        0
176
     1
 62
    18
420
        0
176
     1
 90
       50
176
     1
 90
        3
176
     1
 62
     5
420
      255
176
     1
290
     0
176
     1
 90
       50
176
     1
 90
       50
176
     1
 90
       50
176
     1
290
     0
176
     1
 90
       50
176
     1
 62
   256
176
     0
 40
1.0
176
     0
 90
        2
176
     1
  1
strokes_ogs.tif
176
     1
290
     0
176
     1
 40
1.0
176
     1
 40
1.0
176
     1
  0
VISUALSTYLE
  5
2C
102
{ACAD_REACTORS
330
2A
102
}
330
2A
100
AcDbVisualStyle
  2
FlatWithEdges
 70
     1
177
     3
291
     1
 70
    58
 90
        2
176
     1
 90
        1
176
     1
 90
        1
176
     1
 90
        2
176
     1
 40
0.6
176
     1
 40
30.0
176
     1
 62
     7
420
 16777215
176
     1
 90
        1
176
     1
 90
        0
176
     1
 62
     7
176
     1
 62
   257
176
     1
 90
        1
176
     1
 90
        1
176
     1
 40
1.0
176
     1
 90
        0
176
     1
 62
   257
176
     1
 40
1.0
176
     1
 90
        1
176
     1
 90
        6
176
     1
 90
        2
176
     1
 62
     7
176
     1
 90
        5
176
     1
 90
        0
176
     1
 90
        0
176
     1
290
     0
176
     1
 90
       13
176
     1
 40
0.0
176
     1
 90
        0
176
     1
290
     0
176
     1
290
     1
176
     1
290
     1
176
     1
290
     0
176
     1
290
     0
176
     1
290
     0
176
     1
290
     0
176
     1
290
     0
176
     1
290
     0
176
     1
 90
       50
176
     1
 40
0.0
176
     1
 40
1.0
176
     1
 90
        0
176
     1
 62
    18
420
        0
176
     1
 90
       50
176
     1
 90
        3
176
     1
 62
     5
420
      255
176
     1
290
     0
176
     1
 90
       50
176
     1
 90
       50
176
     1
 90
       50
176
     1
290
     0
176
     1
 90
       50
176
     1
 62
   256
176
     0
 40
1.0
176
     0
 90
        2
176
     1
  1
strokes_ogs.tif
176
     1
290
     0
176
     1
 40
1.0
176
     1
 40
1.0
176
     1
  0
VISUALSTYLE
  5
2D
102
{ACAD_REACTORS
330
2A
102
}
330
2A
100
AcDbVisualStyle
  2
Gouraud
 70
     2
177
     3
291
     1
 70
    58
 90
        2
176
     1
 90
        2
176
     1
 90
        1
176
     1
 90
        2
176
     1
 40
0.6
176
     1
 40
30.0
176
     1
 62
     7
420
 16777215
176
     1
 90
        0
176
     1
 90
        0
176
     1
 62
     7
176
     1
 62
   257
176
     1
 90
        1
176
     1
 90
        1
176
     1
 40
1.0
176
     1
 90
        0
176
     1
 62
     7
176
     1
 40
1.0
176
     1
 90
        1
176
     1
 90
        6
176
     1
 90
        2
176
     1
 62
     7
176
     1
 90
        5
176
     1
 90
        0
176
     1
 90
        0
176
     1
290
     0
176
     1
 90
       13
176
     1
 40
0.0
176
     1
 90
        0
176
     1
290
     0
176
     1
290
     1
176
     1
290
     1
176
     1
290
     0
176
     1
290
     0
176
     1
290
     0
176
     1
290
     0
176
     1
290
     0
176
     1
290
     0
176
     1
 90
       50
176
     1
 40
0.0
176
     1
 40
1.0
176
     1
 90
        0
176
     1
 62
    18
420
        0
176
     1
 90
       50
176
     1
 90
        3
176
     1
 62
     5
420
      255
176
     1
290
     0
176
     1
 90
       50
176
     1
 90
       50
176
     1
 90
       50
176
     1
290
     0
176
     1
 90
       50
176
     1
 62
   256
176
     0
 40
1.0
176
     0
 90
        2
176
     1
  1
strokes_ogs.tif
176
     1
290
     0
176
     1
 40
1.0
176
     1
 40
1.0
176
     1
  0
VISUALSTYLE
  5
2E
102
{ACAD_REACTORS
330
2A
102
}
330
2A
100
AcDbVisualStyle
  2
GouraudWithEdges
 70
     3
177
     3
291
     1
 70
    58
 90
        2
176
     1
 90
        2
176
     1
 90
        1
176
     1
 90
        2
176
     1
 40
0.6
176
     1
 40
30.0
176
     1
 62
     7
420
 16777215
176
     1
 90
        1
176
     1
 90
        0
176
     1
 62
     7
176
     1
 62
   257
176
     1
 90
        1
176
     1
 90
        1
176
     1
 40
1.0
176
     1
 90
        0
176
     1
 62
   257
176
     1
 40
1.0
176
     1
 90
        1
176
     1
 90
        6
176
     1
 90
        2
176
     1
 62
     7
176
     1
 90
        5
176
     1
 90
        0
176
     1
 90
        0
176
     1
290
     0
176
     1
 90
       13
176
     1
 40
0.0
176
     1
 90
        0
176
     1
290
     0
176
     1
290
     1
176
     1
290
     1
176
     1
290
     0
176
     1
290
     0
176
     1
290
     0
176
     1
290
     0
176
     1
290
     0
176
     1
290
     0
176
     1
 90
       50
176
     1
 40
0.0
176
     1
 40
1.0
176
     1
 90
        0
176
     1
 62
    18
420
        0
176
     1
 90
       50
176
     1
 90
        3
176
     1
 62
     5
420
      255
176
     1
290
     0
176
     1
 90
       50
176
     1
 90
       50
176
     1
 90
       50
176
     1
290
     0
176
     1
 90
       50
176
     1
 62
   256
176
     0
 40
1.0
176
     0
 90
        2
176
     1
  1
strokes_ogs.tif
176
     1
290
     0
176
     1
 40
1.0
176
     1
 40
1.0
176
     1
  0
VISUALSTYLE
  5
31
102
{ACAD_REACTORS
330
2A
102
}
330
2A
100
AcDbVisualStyle
  2
Hidden
 70
     6
177
     3
291
     0
 70
    58
 90
        1
176
     1
 90
        2
176
     1
 90
        2
176
     1
 90
        0
176
     1
 40
0.6
176
     1
 40
30.0
176
     1
 62
     7
420
 16777215
176
     1
 90
        2
176
     1
 90
        2
176
     1
 62
     7
176
     1
 62
   257
176
     1
 90
        2
176
     1
 90
        1
176
     1
 40
40.0
176
     1
 90
        0
176
     1
 62
   257
176
     1
 40
1.0
176
     1
 90
        1
176
     1
 90
        6
176
     1
 90
        2
176
     1
 62
     7
176
     1
 90
        3
176
     1
 90
        0
176
     1
 90
        0
176
     1
290
     0
176
     1
 90
        1
176
     1
 40
0.0
176
     1
 90
        0
176
     1
290
     0
176
     1
290
     1
176
     1
290
     1
176
     1
290
     0
176
     1
290
     0
176
     1
290
     0
176
     1
290
     0
176
     1
290
     0
176
     1
290
     0
176
     1
 90
       50
176
     1
 40
0.0
176
     1
 40
1.0
176
     1
 90
        0
176
     1
 62
    18
420
        0
176
     1
 90
       50
176
     1
 90
        3
176
     1
 62
     5
420
      255
176
     1
290
     0
176
     1
 90
       50
176
     1
 90
       50
176
     1
 90
       50
176
     1
290
     0
176
     1
 90
       50
176
     1
 62
   256
176
     0
 40
1.0
176
     0
 90
        2
176
     1
  1
strokes_ogs.tif
176
     1
290
     0
176
     1
 40
1.0
176
     1
 40
1.0
176
     1
  0
VISUALSTYLE
  5
3B
102
{ACAD_REACTORS
330
2A
102
}
330
2A
100
AcDbVisualStyle
  2
JitterOff
 70
    20
177
     3
291
     1
 70
    58
 90
        2
176
     0
 90
        2
176
     0
 90
        0
176
     0
 90
        0
176
     0
 40
0.6
176
     0
 40
30.0
176
     0
 62
     7
420
 16777215
176
     0
 90
        1
176
     0
 90
        4
176
     0
 62
     7
176
     0
 62
   257
176
     0
 90
        1
176
     0
 90
        1
176
     0
 40
1.0
176
     0
 90
       10
176
     2
 62
     7
176
     0
 40
1.0
176
     0
 90
        1
176
     0
 90
        6
176
     0
 90
        2
176
     0
 62
     7
176
     0
 90
        5
176
     0
 90
        0
176
     0
 90
        0
176
     0
290
     0
176
     0
 90
        1
176
     0
 40
0.0
176
     0
 90
        0
176
     0
290
     0
176
     0
290
     1
176
     0
290
     1
176
     0
290
     0
176
     0
290
     0
176
     0
290
     0
176
     0
290
     0
176
     0
290
     0
176
     0
290
     0
176
     0
 90
       50
176
     0
 40
0.0
176
     0
 40
1.0
176
     0
 90
        0
176
     0
 62
    18
420
        0
176
     0
 90
       50
176
     0
 90
        3
176
     0
 62
     5
420
      255
176
     0
290
     0
176
     0
 90
       50
176
     0
 90
       50
176
     0
 90
       50
176
     0
290
     0
176
     0
 90
       50
176
     0
 62
   256
176
     0
 40
1.0
176
     0
 90
        2
176
     0
  1
strokes_ogs.tif
176
     0
290
     0
176
     0
 40
1.0
176
     0
 40
1.0
176
     0
  0
VISUALSTYLE
  5
38
102
{ACAD_REACTORS
330
2A
102
}
330
2A
100
AcDbVisualStyle
  2
Linepattern
 70
    14
177
     3
291
     1
 70
    58
 90
        2
176
     1
 90
        2
176
     1
 90
        0
176
     1
 90
        0
176
     1
 40
0.6
176
     1
 40
30.0
176
     1
 62
     7
420
 16777215
176
     1
 90
        1
176
     1
 90
        4
176
     1
 62
     7
176
     1
 62
   257
176
     1
 90
        7
176
     1
 90
        7
176
     1
 40
1.0
176
     1
 90
        8
176
     1
 62
     7
176
     1
 40
1.0
176
     1
 90
        1
176
     1
 90
        6
176
     1
 90
        2
176
     1
 62
     7
176
     1
 90
        5
176
     1
 90
        0
176
     1
 90
        0
176
     1
290
     0
176
     1
 90
        1
176
     1
 40
0.0
176
     1
 90
        0
176
     1
290
     0
176
     1
290
     1
176
     1
290
     1
176
     1
290
     0
176
     1
290
     0
176
     1
290
     0
176
     1
290
     0
176
     1
290
     0
176
     1
290
     0
176
     1
 90
       50
176
     1
 40
0.0
176
     1
 40
1.0
176
     1
 90
        0
176
     1
 62
    18
420
        0
176
     1
 90
       50
176
     1
 90
        3
176
     1
 62
     5
420
      255
176
     1
290
     0
176
     1
 90
       50
176
     1
 90
       50
176
     1
 90
       50
176
     1
290
     0
176
     1
 90
       50
176
     1
 62
   256
176
     0
 40
1.0
176
     0
 90
        2
176
     1
  1
strokes_ogs.tif
176
     1
290
     0
176
     1
 40
1.0
176
     1
 40
1.0
176
     1
  0
VISUALSTYLE
  5
3C
102
{ACAD_REACTORS
330
2A
102
}
330
2A
100
AcDbVisualStyle
  2
OverhangOff
 70
    21
177
     3
291
     1
 70
    58
 90
        2
176
     0
 90
        2
176
     0
 90
        0
176
     0
 90
        0
176
     0
 40
0.6
176
     0
 40
30.0
176
     0
 62
     7
420
 16777215
176
     0
 90
        1
176
     0
 90
        4
176
     0
 62
     7
176
     0
 62
   257
176
     0
 90
        1
176
     0
 90
        1
176
     0
 40
1.0
176
     0
 90
        9
176
     2
 62
     7
176
     0
 40
1.0
176
     0
 90
        1
176
     0
 90
        6
176
     0
 90
        2
176
     0
 62
     7
176
     0
 90
        5
176
     0
 90
        0
176
     0
 90
        0
176
     0
290
     0
176
     0
 90
        1
176
     0
 40
0.0
176
     0
 90
        0
176
     0
290
     0
176
     0
290
     1
176
     0
290
     1
176
     0
290
     0
176
     0
290
     0
176
     0
290
     0
176
     0
290
     0
176
     0
290
     0
176
     0
290
     0
176
     0
 90
       50
176
     0
 40
0.0
176
     0
 40
1.0
176
     0
 90
        0
176
     0
 62
    18
420
        0
176
     0
 90
       50
176
     0
 90
        3
176
     0
 62
     5
420
      255
176
     0
290
     0
176
     0
 90
       50
176
     0
 90
       50
176
     0
 90
       50
176
     0
290
     0
176
     0
 90
       50
176
     0
 62
   256
176
     0
 40
1.0
176
     0
 90
        2
176
     0
  1
strokes_ogs.tif
176
     0
290
     0
176
     0
 40
1.0
176
     0
 40
1.0
176
     0
  0
VISUALSTYLE
  5
33
102
{ACAD_REACTORS
330
2A
102
}
330
2A
100
AcDbVisualStyle
  2
Realistic
 70
     8
177
     3
291
     0
 70
    58
 90
        2
176
     1
 90
        3
176
     1
 90
        0
176
     1
 90
        2
176
     1
 40
0.6
176
     1
 40
30.0
176
     1
 62
     7
420
 16777215
176
     1
 90
        0
176
     1
 90
        0
176
     1
 62
     7
176
     1
 62
   257
176
     1
 90
        1
176
     1
 90
        1
176
     1
 40
1.0
176
     1
 90
        8
176
     1
 62
   257
176
     1
 40
1.0
176
     1
 90
        1
176
     1
 90
        6
176
     1
 90
        2
176
     1
 62
     7
176
     1
 90
        3
176
     1
 90
        0
176
     1
 90
        0
176
     1
290
     0
176
     1
 90
       13
176
     1
 40
0.0
176
     1
 90
        0
176
     1
290
     0
176
     1
290
     1
176
     1
290
     1
176
     1
290
     0
176
     1
290
     0
176
     1
290
     0
176
     1
290
     0
176
     1
290
     0
176
     1
290
     0
176
     1
 90
       50
176
     1
 40
0.0
176
     1
 40
1.0
176
     1
 90
        0
176
     1
 62
    18
420
        0
176
     1
 90
       50
176
     1
 90
        3
176
     1
 62
     5
420
      255
176
     1
290
     0
176
     1
 90
       50
176
     1
 90
       50
176
     1
 90
       50
176
     1
290
     0
176
     1
 90
       50
176
     1
 62
   256
176
     0
 40
1.0
176
     0
 90
        2
176
     1
  1
strokes_ogs.tif
176
     1
290
     0
176
     1
 40
1.0
176
     1
 40
1.0
176
     1
  0
VISUALSTYLE
  5
42
102
{ACAD_REACTORS
330
2A
102
}
330
2A
100
AcDbVisualStyle
  2
Shaded
 70
    27
177
     3
291
     0
 70
    58
 90
        2
176
     1
 90
        2
176
     1
 90
        1
176
     1
 90
        2
176
     1
 40
0.6
176
     1
 40
30.0
176
     1
 62
     7
420
 16777215
176
     1
 90
        0
176
     1
 90
        4
176
     1
 62
     7
176
     1
 62
   257
176
     1
 90
        1
176
     1
 90
        1
176
     1
 40
1.0
176
     1
 90
        8
176
     1
 62
   257
176
     1
 40
1.0
176
     1
 90
        1
176
     1
 90
        6
176
     1
 90
        2
176
     1
 62
     8
420
  7895160
176
     1
 90
        3
176
     1
 90
        0
176
     1
 90
        0
176
     1
290
     0
176
     1
 90
        5
176
     1
 40
0.0
176
     1
 90
        0
176
     1
290
     0
176
     1
290
     1
176
     1
290
     1
176
     1
290
     0
176
     1
290
     0
176
     1
290
     0
176
     1
290
     0
176
     1
290
     0
176
     1
290
     0
176
     1
 90
       50
176
     1
 40
0.0
176
     1
 40
1.0
176
     1
 90
        0
176
     1
 62
    18
420
        0
176
     1
 90
       50
176
     1
 90
        3
176
     1
 62
     5
420
      255
176
     1
290
     0
176
     1
 90
       50
176
     1
 90
       50
176
     1
 90
       50
176
     1
290
     0
176
     1
 90
       50
176
     1
 62
   256
176
     0
 40
1.0
176
     0
 90
        2
176
     1
  1
strokes_ogs.tif
176
     1
290
     0
176
     1
 40
1.0
176
     1
 40
1.0
176
     1
  0
VISUALSTYLE
  5
41
102
{ACAD_REACTORS
330
2A
102
}
330
2A
100
AcDbVisualStyle
  2
Shaded with edges
 70
    26
177
     3
291
     0
 70
    58
 90
        2
176
     1
 90
        2
176
     1
 90
        1
176
     1
 90
        2
176
     1
 40
0.6
176
     1
 40
30.0
176
     1
 62
     7
420
 16777215
176
     1
 90
        1
176
     1
 90
       10
176
     1
 62
     7
176
     1
 62
   257
176
     1
 90
        2
176
     1
 90
        1
176
     1
 40
1.0
176
     1
 90
        8
176
     1
 62
   257
176
     1
 40
1.0
176
     1
 90
        1
176
     1
 90
        6
176
     1
 90
        2
176
     1
 62
     7
176
     1
 90
        3
176
     1
 90
        0
176
     1
 90
        0
176
     1
290
     0
176
     1
 90
        5
176
     1
 40
0.0
176
     1
 90
        0
176
     1
290
     0
176
     1
290
     1
176
     1
290
     1
176
     1
290
     0
176
     1
290
     0
176
     1
290
     0
176
     1
290
     0
176
     1
290
     0
176
     1
290
     0
176
     1
 90
       50
176
     1
 40
0.0
176
     1
 40
1.0
176
     1
 90
        0
176
     1
 62
    18
420
        0
176
     1
 90
       50
176
     1
 90
        3
176
     1
 62
     5
420
      255
176
     1
290
     0
176
     1
 90
       50
176
     1
 90
       50
176
     1
 90
       50
176
     1
290
     0
176
     1
 90
       50
176
     1
 62
   256
176
     0
 40
1.0
176
     0
 90
        2
176
     1
  1
strokes_ogs.tif
176
     1
290
     0
176
     1
 40
1.0
176
     1
 40
1.0
176
     1
  0
VISUALSTYLE
  5
3E
102
{ACAD_REACTORS
330
2A
102
}
330
2A
100
AcDbVisualStyle
  2
Shades of Gray
 70
    23
177
     3
291
     0
 70
    58
 90
        2
176
     1
 90
        2
176
     1
 90
        3
176
     1
 90
        0
176
     1
 40
0.6
176
     1
 40
30.0
176
     1
 62
     7
420
 16777215
176
     1
 90
        2
176
     1
 90
        2
176
     1
 62
     7
176
     1
 62
     7
176
     1
 90
        1
176
     1
 90
        1
176
     1
 40
40.0
176
     1
 90
        8
176
     1
 62
     7
176
     1
 40
1.0
176
     1
 90
        1
176
     1
 90
        6
176
     1
 90
        2
176
     1
 62
     7
176
     1
 90
        3
176
     1
 90
        0
176
     1
 90
        0
176
     1
290
     0
176
     1
 90
        1
176
     1
 40
0.0
176
     1
 90
        0
176
     1
290
     0
176
     1
290
     1
176
     1
290
     1
176
     1
290
     0
176
     1
290
     0
176
     1
290
     0
176
     1
290
     0
176
     1
290
     0
176
     1
290
     0
176
     1
 90
       50
176
     1
 40
0.0
176
     1
 40
1.0
176
     1
 90
        0
176
     1
 62
    18
420
        0
176
     1
 90
       50
176
     1
 90
        3
176
     1
 62
     5
420
      255
176
     1
290
     0
176
     1
 90
       50
176
     1
 90
       50
176
     1
 90
       50
176
     1
290
     0
176
     1
 90
       50
176
     1
 62
   256
176
     0
 40
1.0
176
     0
 90
        2
176
     1
  1
strokes_ogs.tif
176
     1
290
     0
176
     1
 40
1.0
176
     1
 40
1.0
176
     1
  0
VISUALSTYLE
  5
3F
102
{ACAD_REACTORS
330
2A
102
}
330
2A
100
AcDbVisualStyle
  2
Sketchy
 70
    24
177
     3
291
     0
 70
    58
 90
        1
176
     1
 90
        2
176
     1
 90
        2
176
     1
 90
        0
176
     1
 40
0.6
176
     1
 40
30.0
176
     1
 62
     7
420
 16777215
176
     1
 90
        2
176
     1
 90
        2
176
     1
 62
     7
176
     1
 62
     7
176
     1
 90
        1
176
     1
 90
        1
176
     1
 40
40.0
176
     1
 90
       11
176
     1
 62
     7
176
     1
 40
1.0
176
     1
 90
        1
176
     1
 90
        6
176
     1
 90
        2
176
     1
 62
     7
176
     1
 90
        6
176
     1
 90
        0
176
     1
 90
        0
176
     1
290
     0
176
     1
 90
        1
176
     1
 40
0.0
176
     1
 90
        0
176
     1
290
     0
176
     1
290
     1
176
     1
290
     1
176
     1
290
     0
176
     1
290
     0
176
     1
290
     0
176
     1
290
     0
176
     1
290
     0
176
     1
290
     0
176
     1
 90
       50
176
     1
 40
0.0
176
     1
 40
1.0
176
     1
 90
        0
176
     1
 62
    18
420
        0
176
     1
 90
       50
176
     1
 90
        3
176
     1
 62
     5
420
      255
176
     1
290
     0
176
     1
 90
       50
176
     1
 90
       50
176
     1
 90
       50
176
     1
290
     0
176
     1
 90
       50
176
     1
 62
   256
176
     0
 40
1.0
176
     0
 90
        2
176
     1
  1
strokes_ogs.tif
176
     1
290
     0
176
     1
 40
1.0
176
     1
 40
1.0
176
     1
  0
VISUALSTYLE
  5
37
102
{ACAD_REACTORS
330
2A
102
}
330
2A
100
AcDbVisualStyle
  2
Thicken
 70
    13
177
     3
291
     1
 70
    58
 90
        2
176
     1
 90
        2
176
     1
 90
        0
176
     1
 90
        0
176
     1
 40
0.6
176
     1
 40
30.0
176
     1
 62
     7
420
 16777215
176
     1
 90
        1
176
     1
 90
        4
176
     1
 62
     7
176
     1
 62
   257
176
     1
 90
        1
176
     1
 90
        1
176
     1
 40
1.0
176
     1
 90
       12
176
     1
 62
     7
176
     1
 40
1.0
176
     1
 90
        1
176
     1
 90
        6
176
     1
 90
        2
176
     1
 62
     7
176
     1
 90
        5
176
     1
 90
        0
176
     1
 90
        0
176
     1
290
     0
176
     1
 90
        1
176
     1
 40
0.0
176
     1
 90
        0
176
     1
290
     0
176
     1
290
     1
176
     1
290
     1
176
     1
290
     0
176
     1
290
     0
176
     1
290
     0
176
     1
290
     0
176
     1
290
     0
176
     1
290
     0
176
     1
 90
       50
176
     1
 40
0.0
176
     1
 40
1.0
176
     1
 90
        0
176
     1
 62
    18
420
        0
176
     1
 90
       50
176
     1
 90
        3
176
     1
 62
     5
420
      255
176
     1
290
     0
176
     1
 90
       50
176
     1
 90
       50
176
     1
 90
       50
176
     1
290
     0
176
     1
 90
       50
176
     1
 62
   256
176
     0
 40
1.0
176
     0
 90
        2
176
     1
  1
strokes_ogs.tif
176
     1
290
     0
176
     1
 40
1.0
176
     1
 40
1.0
176
     1
  0
VISUALSTYLE
  5
30
102
{ACAD_REACTORS
330
2A
102
}
330
2A
100
AcDbVisualStyle
  2
Wireframe
 70
     5
177
     3
291
     0
 70
    58
 90
        0
176
     1
 90
        2
176
     1
 90
        0
176
     1
 90
        0
176
     1
 40
0.6
176
     1
 40
30.0
176
     1
 62
     7
420
 16777215
176
     1
 90
        1
176
     1
 90
        4
176
     1
 62
     7
176
     1
 62
   257
176
     1
 90
        1
176
     1
 90
        1
176
     1
 40
1.0
176
     1
 90
        0
176
     1
 62
   257
176
     1
 40
1.0
176
     1
 90
        1
176
     1
 90
        6
176
     1
 90
        2
176
     1
 62
     7
176
     1
 90
        3
176
     1
 90
        0
176
     1
 90
        0
176
     1
290
     0
176
     1
 90
        1
176
     1
 40
0.0
176
     1
 90
        0
176
     1
290
     0
176
     1
290
     1
176
     1
290
     1
176
     1
290
     0
176
     1
290
     0
176
     1
290
     0
176
     1
290
     0
176
     1
290
     0
176
     1
290
     0
176
     1
 90
       50
176
     1
 40
0.0
176
     1
 40
1.0
176
     1
 90
        0
176
     1
 62
    18
420
        0
176
     1
 90
       50
176
     1
 90
        3
176
     1
 62
     5
420
      255
176
     1
290
     0
176
     1
 90
       50
176
     1
 90
       50
176
     1
 90
       50
176
     1
290
     0
176
     1
 90
       50
176
     1
 62
   256
176
     0
 40
1.0
176
     0
 90
        2
176
     1
  1
strokes_ogs.tif
176
     1
290
     0
176
     1
 40
1.0
176
     1
 40
1.0
176
     1
  0
VISUALSTYLE
  5
40
102
{ACAD_REACTORS
330
2A
102
}
330
2A
100
AcDbVisualStyle
  2
X-Ray
 70
    25
177
     3
291
     0
 70
    58
 90
        2
176
     1
 90
        2
176
     1
 90
        1
176
     1
 90
        1
176
     1
 40
0.5
176
     1
 40
30.0
176
     1
 62
     7
420
 16777215
176
     1
 90
        1
176
     1
 90
        0
176
     1
 62
     7
176
     1
 62
   257
176
     1
 90
        1
176
     1
 90
        1
176
     1
 40
1.0
176
     1
 90
        8
176
     1
 62
     7
176
     1
 40
1.0
176
     1
 90
        1
176
     1
 90
        6
176
     1
 90
        2
176
     1
 62
     7
176
     1
 90
        3
176
     1
 90
        0
176
     1
 90
        0
176
     1
290
     0
176
     1
 90
       13
176
     1
 40
0.0
176
     1
 90
        0
176
     1
290
     0
176
     1
290
     1
176
     1
290
     1
176
     1
290
     0
176
     1
290
     0
176
     1
290
     0
176
     1
290
     0
176
     1
290
     0
176
     1
290
     0
176
     1
 90
       50
176
     1
 40
0.0
176
     1
 40
1.0
176
     1
 90
        0
176
     1
 62
    18
420
        0
176
     1
 90
       50
176
     1
 90
        3
176
     1
 62
     5
420
      255
176
     1
290
     0
176
     1
 90
       50
176
     1
 90
       50
176
     1
 90
       50
176
     1
290
     0
176
     1
 90
       50
176
     1
 62
   256
176
     0
 40
1.0
176
     0
 90
        2
176
     1
  1
strokes_ogs.tif
176
     1
290
     0
176
     1
 40
1.0
176
     1
 40
1.0
176
     1
  0
DICTIONARYVAR
  5
27D
102
{ACAD_REACTORS
330
27C
102
}
330
27C
100
DictionaryVariables
280
     0
  1
1:1
  0
DICTIONARYVAR
  5
282
102
{ACAD_REACTORS
330
27C
102
}
330
27C
100
DictionaryVariables
280
     0
  1
Standard
  0
DICTIONARYVAR
  5
281
102
{ACAD_REACTORS
330
27C
102
}
330
27C
100
DictionaryVariables
280
     0
  1
Standard
  0
DICTIONARY
  5
27E
330
6A
100
AcDbDictionary
280
     1
281
     1
  3
ACAD_ROUNDTRIP_2008_TABLESTYLE_CELLSTYLEMAP
360
27F
  0
CELLSTYLEMAP
  5
27F
102
{ACAD_REACTORS
330
27E
102
}
330
27E
100
AcDbCellStyleMap
 90
        3
300
CELLSTYLE
  1
TABLEFORMAT_BEGIN
 90
        5
170
     1
 91
        0
 92
    32768
 62
   257
 93
        1
300
CONTENTFORMAT
  1
CONTENTFORMAT_BEGIN
 90
        0
 91
        0
 92
        4
 93
        0
300

 40
0.0
140
1.0
 94
        5
 62
     0
340
11
144
0.25
309
CONTENTFORMAT_END
171
     1
301
MARGIN
  1
CELLMARGIN_BEGIN
 40
0.06
 40
0.06
 40
0.06
 40
0.06
 40
0.06
 40
0.06
309
CELLMARGIN_END
 94
        6
 95
        1
302
GRIDFORMAT
  1
GRIDFORMAT_BEGIN
 90
        0
 91
        1
 62
     0
 92
       -2
340
14
 93
        0
 40
0.045
309
GRIDFORMAT_END
 95
        2
302
GRIDFORMAT
  1
GRIDFORMAT_BEGIN
 90
        0
 91
        1
 62
     0
 92
       -2
340
14
 93
        0
 40
0.045
309
GRIDFORMAT_END
 95
        4
302
GRIDFORMAT
  1
GRIDFORMAT_BEGIN
 90
        0
 91
        1
 62
     0
 92
       -2
340
14
 93
        0
 40
0.045
309
GRIDFORMAT_END
 95
        8
302
GRIDFORMAT
  1
GRIDFORMAT_BEGIN
 90
        0
 91
        1
 62
     0
 92
       -2
340
14
 93
        0
 40
0.045
309
GRIDFORMAT_END
 95
       16
302
GRIDFORMAT
  1
GRIDFORMAT_BEGIN
 90
        0
 91
        1
 62
     0
 92
       -2
340
14
 93
        0
 40
0.045
309
GRIDFORMAT_END
 95
       32
302
GRIDFORMAT
  1
GRIDFORMAT_BEGIN
 90
        0
 91
        1
 62
     0
 92
       -2
340
14
 93
        0
 40
0.045
309
GRIDFORMAT_END
309
TABLEFORMAT_END
  1
CELLSTYLE_BEGIN
 90
        1
 91
        1
300
_TITLE
309
CELLSTYLE_END
300
CELLSTYLE
  1
TABLEFORMAT_BEGIN
 90
        5
170
     1
 91
        0
 92
        0
 62
   257
 93
        1
300
CONTENTFORMAT
  1
CONTENTFORMAT_BEGIN
 90
        0
 91
        0
 92
        4
 93
        0
300

 40
0.0
140
1.0
 94
        5
 62
     0
340
11
144
0.18
309
CONTENTFORMAT_END
171
     1
301
MARGIN
  1
CELLMARGIN_BEGIN
 40
0.06
 40
0.06
 40
0.06
 40
0.06
 40
0.06
 40
0.06
309
CELLMARGIN_END
 94
        6
 95
        1
302
GRIDFORMAT
  1
GRIDFORMAT_BEGIN
 90
        0
 91
        1
 62
     0
 92
       -2
340
14
 93
        0
 40
0.045
309
GRIDFORMAT_END
 95
        2
302
GRIDFORMAT
  1
GRIDFORMAT_BEGIN
 90
        0
 91
        1
 62
     0
 92
       -2
340
14
 93
        0
 40
0.045
309
GRIDFORMAT_END
 95
        4
302
GRIDFORMAT
  1
GRIDFORMAT_BEGIN
 90
        0
 91
        1
 62
     0
 92
       -2
340
14
 93
        0
 40
0.045
309
GRIDFORMAT_END
 95
        8
302
GRIDFORMAT
  1
GRIDFORMAT_BEGIN
 90
        0
 91
        1
 62
     0
 92
       -2
340
14
 93
        0
 40
0.045
309
GRIDFORMAT_END
 95
       16
302
GRIDFORMAT
  1
GRIDFORMAT_BEGIN
 90
        0
 91
        1
 62
     0
 92
       -2
340
14
 93
        0
 40
0.045
309
GRIDFORMAT_END
 95
       32
302
GRIDFORMAT
  1
GRIDFORMAT_BEGIN
 90
        0
 91
        1
 62
     0
 92
       -2
340
14
 93
        0
 40
0.045
309
GRIDFORMAT_END
309
TABLEFORMAT_END
  1
CELLSTYLE_BEGIN
 90
        2
 91
        1
300
_HEADER
309
CELLSTYLE_END
300
CELLSTYLE
  1
TABLEFORMAT_BEGIN
 90
        5
170
     1
 91
        0
 92
        0
 62
   257
 93
        1
300
CONTENTFORMAT
  1
CONTENTFORMAT_BEGIN
 90
        0
 91
        0
 92
        4
 93
        0
300

 40
0.0
140
1.0
 94
        2
 62
     0
340
11
144
0.18
309
CONTENTFORMAT_END
171
     1
301
MARGIN
  1
CELLMARGIN_BEGIN
 40
0.06
 40
0.06
 40
0.06
 40
0.06
 40
0.06
 40
0.06
309
CELLMARGIN_END
 94
        6
 95
        1
302
GRIDFORMAT
  1
GRIDFORMAT_BEGIN
 90
        0
 91
        1
 62
     0
 92
       -2
340
14
 93
        0
 40
0.045
309
GRIDFORMAT_END
 95
        2
302
GRIDFORMAT
  1
GRIDFORMAT_BEGIN
 90
        0
 91
        1
 62
     0
 92
       -2
340
14
 93
        0
 40
0.045
309
GRIDFORMAT_END
 95
        4
302
GRIDFORMAT
  1
GRIDFORMAT_BEGIN
 90
        0
 91
        1
 62
     0
 92
       -2
340
14
 93
        0
 40
0.045
309
GRIDFORMAT_END
 95
        8
302
GRIDFORMAT
  1
GRIDFORMAT_BEGIN
 90
        0
 91
        1
 62
     0
 92
       -2
340
14
 93
        0
 40
0.045
309
GRIDFORMAT_END
 95
       16
302
GRIDFORMAT
  1
GRIDFORMAT_BEGIN
 90
        0
 91
        1
 62
     0
 92
       -2
340
14
 93
        0
 40
0.045
309
GRIDFORMAT_END
 95
       32
302
GRIDFORMAT
  1
GRIDFORMAT_BEGIN
 90
        0
 91
        1
 62
     0
 92
       -2
340
14
 93
        0
 40
0.045
309
GRIDFORMAT_END
309
TABLEFORMAT_END
  1
CELLSTYLE_BEGIN
 90
        3
 91
        2
300
_DATA
309
CELLSTYLE_END
  0
ENDSEC
  0
EOF