0
SECTION
  2
HEADER
  9
$ACADVER
  1
AC1027
  9
$ACADMAINTVER
 70
     8
  9
$DWGCODEPAGE
  3
ANSI_1252
  9
$REQUIREDVERSIONS
160
                 0
  9
$COMMENTS
  1
File was created by Cadenas
  9
$CUSTOMPROPERTYTAG
  1
NN
  9
$CUSTOMPROPERTY
  1
Steel IMPERIAL-HD Piloted Flange 1-1/8 thru 2-1/4 Inch Bore
  9
$CUSTOMPROPERTYTAG
  1
NT
  9
$CUSTOMPROPERTY
  1
Steal Imperial Piloted Flange Bearingsi- Inch - 102-204
  9
$CUSTOMPROPERTYTAG
  1
NB
  9
$CUSTOMPROPERTY
  1
072282
  9
$CUSTOMPROPERTYTAG
  1
NBSYN
  9
$CUSTOMPROPERTY
  1
$PN.
  9
$CUSTOMPROPERTYTAG
  1
LINA
  9
$CUSTOMPROPERTY
  1
072282
  9
$CUSTOMPROPERTYTAG
  1
SS
  9
$CUSTOMPROPERTY
  1
1-5/8
  9
$CUSTOMPROPERTYTAG
  1
PN
  9
$CUSTOMPROPERTY
  1
072282
  9
$CUSTOMPROPERTYTAG
  1
TYPE
  9
$CUSTOMPROPERTY
  1
Non-Expansion
  9
$CUSTOMPROPERTYTAG
  1
EF
  9
$CUSTOMPROPERTY
  1
Non-Expansion
  9
$CUSTOMPROPERTYTAG
  1
DESCRIPTION
  9
$CUSTOMPROPERTY
  1
SFC-IP-110R
  9
$CUSTOMPROPERTYTAG
  1
ST
  9
$CUSTOMPROPERTY
  1
Contact Seal
  9
$CUSTOMPROPERTYTAG
  1
A
  9
$CUSTOMPROPERTY
  1
2.81
  9
$CUSTOMPROPERTYTAG
  1
B
  9
$CUSTOMPROPERTY
  1
6.13
  9
$CUSTOMPROPERTYTAG
  1
C
  9
$CUSTOMPROPERTY
  1
2.19
  9
$CUSTOMPROPERTYTAG
  1
D
  9
$CUSTOMPROPERTY
  1
3.63
  9
$CUSTOMPROPERTYTAG
  1
DD
  9
$CUSTOMPROPERTY
  1
5.1300
  9
$CUSTOMPROPERTYTAG
  1
E
  9
$CUSTOMPROPERTY
  1
1.33
  9
$CUSTOMPROPERTYTAG
  1
F
  9
$CUSTOMPROPERTY
  1
0.4375
  9
$CUSTOMPROPERTYTAG
  1
G
  9
$CUSTOMPROPERTY
  1
1.44
  9
$CUSTOMPROPERTYTAG
  1
H
  9
$CUSTOMPROPERTY
  1
0.31
  9
$CUSTOMPROPERTYTAG
  1
K
  9
$CUSTOMPROPERTY
  1
4.250
  9
$CUSTOMPROPERTYTAG
  1
L
  9
$CUSTOMPROPERTY
  1
3.00
  9
$CUSTOMPROPERTYTAG
  1
M
  9
$CUSTOMPROPERTY
  1
0.4375
  9
$CUSTOMPROPERTYTAG
  1
N
  9
$CUSTOMPROPERTY
  1
3.05
  9
$CUSTOMPROPERTYTAG
  1
P
  9
$CUSTOMPROPERTY
  1
1.37
  9
$CUSTOMPROPERTYTAG
  1
Q
  9
$CUSTOMPROPERTY
  1
1.61
  9
$CUSTOMPROPERTYTAG
  1
X
  9
$CUSTOMPROPERTY
  1
0.25
  9
$CUSTOMPROPERTYTAG
  1
Y
  9
$CUSTOMPROPERTY
  1
0.020
  9
$CUSTOMPROPERTYTAG
  1
Z
  9
$CUSTOMPROPERTY
  1
2.08
  9
$CUSTOMPROPERTYTAG
  1
COMPANY
  9
$CUSTOMPROPERTY
  1
baldor
  9
$INSBASE
 10
0.0
 20
0.0
 30
0.0
  9
$EXTMIN
 10
1.000000000000000E+20
 20
1.000000000000000E+20
 30
1.000000000000000E+20
  9
$EXTMAX
 10
-1.000000000000000E+20
 20
-1.000000000000000E+20
 30
-1.000000000000000E+20
  9
$LIMMIN
 10
0.0
 20
0.0
  9
$LIMMAX
 10
12.0
 20
9.0
  9
$ORTHOMODE
 70
     0
  9
$REGENMODE
 70
     1
  9
$FILLMODE
 70
     1
  9
$QTEXTMODE
 70
     0
  9
$MIRRTEXT
 70
     1
  9
$LTSCALE
 40
1.0
  9
$ATTMODE
 70
     1
  9
$TEXTSIZE
 40
0.2
  9
$TRACEWID
 40
0.05
  9
$TEXTSTYLE
  7
Standard
  9
$CLAYER
  8
0
  9
$CELTYPE
  6
ByLayer
  9
$CECOLOR
 62
   256
  9
$CELTSCALE
 40
1.0
  9
$DISPSILH
 70
     0
  9
$DIMSCALE
 40
1.0
  9
$DIMASZ
 40
0.18
  9
$DIMEXO
 40
0.0625
  9
$DIMDLI
 40
0.38
  9
$DIMRND
 40
0.0
  9
$DIMDLE
 40
0.0
  9
$DIMEXE
 40
0.18
  9
$DIMTP
 40
0.0
  9
$DIMTM
 40
0.0
  9
$DIMTXT
 40
0.18
  9
$DIMCEN
 40
0.09
  9
$DIMTSZ
 40
0.0
  9
$DIMTOL
 70
     0
  9
$DIMLIM
 70
     0
  9
$DIMTIH
 70
     1
  9
$DIMTOH
 70
     1
  9
$DIMSE1
 70
     0
  9
$DIMSE2
 70
     0
  9
$DIMTAD
 70
     0
  9
$DIMZIN
 70
     0
  9
$DIMBLK
  1

  9
$DIMASO
 70
     1
  9
$DIMSHO
 70
     1
  9
$DIMPOST
  1

  9
$DIMAPOST
  1

  9
$DIMALT
 70
     0
  9
$DIMALTD
 70
     2
  9
$DIMALTF
 40
25.4
  9
$DIMLFAC
 40
1.0
  9
$DIMTOFL
 70
     0
  9
$DIMTVP
 40
0.0
  9
$DIMTIX
 70
     0
  9
$DIMSOXD
 70
     0
  9
$DIMSAH
 70
     0
  9
$DIMBLK1
  1

  9
$DIMBLK2
  1

  9
$DIMSTYLE
  2
Standard
  9
$DIMCLRD
 70
     0
  9
$DIMCLRE
 70
     0
  9
$DIMCLRT
 70
     0
  9
$DIMTFAC
 40
1.0
  9
$DIMGAP
 40
0.09
  9
$DIMJUST
 70
     0
  9
$DIMSD1
 70
     0
  9
$DIMSD2
 70
     0
  9
$DIMTOLJ
 70
     1
  9
$DIMTZIN
 70
     0
  9
$DIMALTZ
 70
     0
  9
$DIMALTTZ
 70
     0
  9
$DIMUPT
 70
     0
  9
$DIMDEC
 70
     4
  9
$DIMTDEC
 70
     4
  9
$DIMALTU
 70
     2
  9
$DIMALTTD
 70
     2
  9
$DIMTXSTY
  7
Standard
  9
$DIMAUNIT
 70
     0
  9
$DIMADEC
 70
     0
  9
$DIMALTRND
 40
0.0
  9
$DIMAZIN
 70
     0
  9
$DIMDSEP
 70
    46
  9
$DIMATFIT
 70
     3
  9
$DIMFRAC
 70
     0
  9
$DIMLDRBLK
  1

  9
$DIMLUNIT
 70
     2
  9
$DIMLWD
 70
    -2
  9
$DIMLWE
 70
    -2
  9
$DIMTMOVE
 70
     0
  9
$DIMFXL
 40
1.0
  9
$DIMFXLON
 70
     0
  9
$DIMJOGANG
 40
0.7853981633974483
  9
$DIMTFILL
 70
     0
  9
$DIMTFILLCLR
 70
     0
  9
$DIMARCSYM
 70
     0
  9
$DIMLTYPE
  6

  9
$DIMLTEX1
  6

  9
$DIMLTEX2
  6

  9
$DIMTXTDIRECTION
 70
     0
  9
$LUNITS
 70
     2
  9
$LUPREC
 70
     4
  9
$SKETCHINC
 40
0.1
  9
$FILLETRAD
 40
0.5
  9
$AUNITS
 70
     0
  9
$AUPREC
 70
     0
  9
$MENU
  1
.
  9
$ELEVATION
 40
0.0
  9
$PELEVATION
 40
0.0
  9
$THICKNESS
 40
0.0
  9
$LIMCHECK
 70
     0
  9
$CHAMFERA
 40
0.0
  9
$CHAMFERB
 40
0.0
  9
$CHAMFERC
 40
0.0
  9
$CHAMFERD
 40
0.0
  9
$SKPOLY
 70
     0
  9
$TDCREATE
 40
2458168.897812813
  9
$TDUCREATE
 40
2458168.856146146
  9
$TDUPDATE
 40
2458168.897812997
  9
$TDUUPDATE
 40
2458168.856146331
  9
$TDINDWG
 40
0.0000000116
  9
$TDUSRTIMER
 40
0.0000000116
  9
$USRTIMER
 70
     1
  9
$ANGBASE
 50
0.0
  9
$ANGDIR
 70
     0
  9
$PDMODE
 70
     0
  9
$PDSIZE
 40
0.0
  9
$PLINEWID
 40
0.0
  9
$SPLFRAME
 70
     0
  9
$SPLINETYPE
 70
     6
  9
$SPLINESEGS
 70
     8
  9
$HANDSEED
  5
23A
  9
$SURFTAB1
 70
     6
  9
$SURFTAB2
 70
     6
  9
$SURFTYPE
 70
     6
  9
$SURFU
 70
     6
  9
$SURFV
 70
     6
  9
$UCSBASE
  2

  9
$UCSNAME
  2

  9
$UCSORG
 10
0.0
 20
0.0
 30
0.0
  9
$UCSXDIR
 10
1.0
 20
0.0
 30
0.0
  9
$UCSYDIR
 10
0.0
 20
1.0
 30
0.0
  9
$UCSORTHOREF
  2

  9
$UCSORTHOVIEW
 70
     0
  9
$UCSORGTOP
 10
0.0
 20
0.0
 30
0.0
  9
$UCSORGBOTTOM
 10
0.0
 20
0.0
 30
0.0
  9
$UCSORGLEFT
 10
0.0
 20
0.0
 30
0.0
  9
$UCSORGRIGHT
 10
0.0
 20
0.0
 30
0.0
  9
$UCSORGFRONT
 10
0.0
 20
0.0
 30
0.0
  9
$UCSORGBACK
 10
0.0
 20
0.0
 30
0.0
  9
$PUCSBASE
  2

  9
$PUCSNAME
  2

  9
$PUCSORG
 10
0.0
 20
0.0
 30
0.0
  9
$PUCSXDIR
 10
1.0
 20
0.0
 30
0.0
  9
$PUCSYDIR
 10
0.0
 20
1.0
 30
0.0
  9
$PUCSORTHOREF
  2

  9
$PUCSORTHOVIEW
 70
     0
  9
$PUCSORGTOP
 10
0.0
 20
0.0
 30
0.0
  9
$PUCSORGBOTTOM
 10
0.0
 20
0.0
 30
0.0
  9
$PUCSORGLEFT
 10
0.0
 20
0.0
 30
0.0
  9
$PUCSORGRIGHT
 10
0.0
 20
0.0
 30
0.0
  9
$PUCSORGFRONT
 10
0.0
 20
0.0
 30
0.0
  9
$PUCSORGBACK
 10
0.0
 20
0.0
 30
0.0
  9
$USERI1
 70
     0
  9
$USERI2
 70
     0
  9
$USERI3
 70
     0
  9
$USERI4
 70
     0
  9
$USERI5
 70
     0
  9
$USERR1
 40
0.0
  9
$USERR2
 40
0.0
  9
$USERR3
 40
0.0
  9
$USERR4
 40
0.0
  9
$USERR5
 40
0.0
  9
$WORLDVIEW
 70
     1
  9
$SHADEDGE
 70
     3
  9
$SHADEDIF
 70
    70
  9
$TILEMODE
 70
     1
  9
$MAXACTVP
 70
    64
  9
$PINSBASE
 10
0.0
 20
0.0
 30
0.0
  9
$PLIMCHECK
 70
     0
  9
$PEXTMIN
 10
1.000000000000000E+20
 20
1.000000000000000E+20
 30
1.000000000000000E+20
  9
$PEXTMAX
 10
-1.000000000000000E+20
 20
-1.000000000000000E+20
 30
-1.000000000000000E+20
  9
$PLIMMIN
 10
0.0
 20
0.0
  9
$PLIMMAX
 10
12.0
 20
9.0
  9
$UNITMODE
 70
     0
  9
$VISRETAIN
 70
     1
  9
$PLINEGEN
 70
     0
  9
$PSLTSCALE
 70
     1
  9
$TREEDEPTH
 70
  3020
  9
$CMLSTYLE
  2
Standard
  9
$CMLJUST
 70
     0
  9
$CMLSCALE
 40
1.0
  9
$PROXYGRAPHICS
 70
     1
  9
$MEASUREMENT
 70
     0
  9
$CELWEIGHT
370
    -1
  9
$ENDCAPS
280
     0
  9
$JOINSTYLE
280
     0
  9
$LWDISPLAY
290
     0
  9
$INSUNITS
 70
     1
  9
$HYPERLINKBASE
  1

  9
$STYLESHEET
  1

  9
$XEDIT
290
     1
  9
$CEPSNTYPE
380
     0
  9
$PSTYLEMODE
290
     1
  9
$FINGERPRINTGUID
  2
{2FD3F3C7-6186-4449-A29E-8002A4223500}
  9
$VERSIONGUID
  2
{FAEB1C32-E019-11D5-929B-00C0DF256EC4}
  9
$EXTNAMES
290
     1
  9
$PSVPSCALE
 40
0.0
  9
$OLESTARTUP
290
     0
  9
$SORTENTS
280
   127
  9
$INDEXCTL
280
     0
  9
$HIDETEXT
280
     1
  9
$XCLIPFRAME
280
     2
  9
$HALOGAP
280
     0
  9
$OBSCOLOR
 70
   257
  9
$OBSLTYPE
280
     0
  9
$INTERSECTIONDISPLAY
280
     0
  9
$INTERSECTIONCOLOR
 70
   257
  9
$DIMASSOC
280
     2
  9
$PROJECTNAME
  1

  9
$CAMERADISPLAY
290
     0
  9
$LENSLENGTH
 40
50.0
  9
$CAMERAHEIGHT
 40
0.0
  9
$STEPSPERSEC
 40
2.0
  9
$STEPSIZE
 40
6.0
  9
$3DDWFPREC
 40
2.0
  9
$PSOLWIDTH
 40
0.25
  9
$PSOLHEIGHT
 40
4.0
  9
$LOFTANG1
 40
1.570796326794897
  9
$LOFTANG2
 40
1.570796326794897
  9
$LOFTMAG1
 40
0.0
  9
$LOFTMAG2
 40
0.0
  9
$LOFTPARAM
 70
     7
  9
$LOFTNORMALS
280
     1
  9
$LATITUDE
 40
37.795
  9
$LONGITUDE
 40
-122.394
  9
$NORTHDIRECTION
 40
0.0
  9
$TIMEZONE
 70
 -8000
  9
$LIGHTGLYPHDISPLAY
280
     1
  9
$TILEMODELIGHTSYNCH
280
     1
  9
$CMATERIAL
347
44
  9
$SOLIDHIST
280
     0
  9
$SHOWHIST
280
     1
  9
$DWFFRAME
280
     2
  9
$DGNFRAME
280
     2
  9
$REALWORLDSCALE
290
     1
  9
$INTERFERECOLOR
 62
   256
  9
$CSHADOW
280
     0
  9
$SHADOWPLANELOCATION
 40
0.0
  0
ENDSEC
  0
SECTION
  2
CLASSES
  0
CLASS
  1
ACDBDICTIONARYWDFLT
  2
AcDbDictionaryWithDefault
  3
ObjectDBX Classes
 90
        0
 91
        4
280
     0
281
     0
  0
CLASS
  1
VISUALSTYLE
  2
AcDbVisualStyle
  3
ObjectDBX Classes
 90
     4095
 91
        4
280
     0
281
     0
  0
CLASS
  1
MATERIAL
  2
AcDbMaterial
  3
ObjectDBX Classes
 90
     1153
 91
        4
280
     0
281
     0
  0
CLASS
  1
SCALE
  2
AcDbScale
  3
ObjectDBX Classes
 90
     1153
 91
        4
280
     0
281
     0
  0
CLASS
  1
TABLESTYLE
  2
AcDbTableStyle
  3
ObjectDBX Classes
 90
     4095
 91
        4
280
     0
281
     0
  0
CLASS
  1
MLEADERSTYLE
  2
AcDbMLeaderStyle
  3
ACDB_MLEADERSTYLE_CLASS
 90
     4095
 91
        4
280
     0
281
     0
  0
CLASS
  1
SUN
  2
AcDbSun
  3
SCENEOE
 90
     1153
 91
        4
280
     0
281
     0
  0
CLASS
  1
DICTIONARYVAR
  2
AcDbDictionaryVar
  3
ObjectDBX Classes
 90
        0
 91
        4
280
     0
281
     0
  0
CLASS
  1
CELLSTYLEMAP
  2
AcDbCellStyleMap
  3
ObjectDBX Classes
 90
     1152
 91
        4
280
     0
281
     0
  0
ENDSEC
  0
SECTION
  2
TABLES
  0
TABLE
  2
VPORT
  5
8
330
0
100
AcDbSymbolTable
 70
     1
  0
VPORT
  5
29
330
8
100
AcDbSymbolTableRecord
100
AcDbViewportTableRecord
  2
*Active
 70
     0
 10
0.0
 20
0.0
 11
1.0
 21
1.0
 12
0.0
 22
0.0
 13
0.0
 23
0.0
 14
0.5
 24
0.5
 15
0.5
 25
0.5
 16
0.0
 26
0.0
 36
1.0
 17
0.0
 27
0.0
 37
0.0
 40
4.914359999999999
 41
1.272312162723122
 42
50.0
 43
0.0
 44
0.0
 50
0.0
 51
0.0
 71
     0
 72
   100
 73
     1
 74
     3
 75
     0
 76
     0
 77
     0
 78
     0
281
     0
 65
     1
110
0.0
120
0.0
130
0.0
111
1.0
121
0.0
131
0.0
112
0.0
122
1.0
132
0.0
 79
     0
146
0.0
348
2F
 60
     3
 61
     5
292
     1
282
     1
141
0.0
142
0.0
 63
   250
361
6D
  0
ENDTAB
  0
TABLE
  2
LTYPE
  5
5
330
0
100
AcDbSymbolTable
 70
     3
  0
LTYPE
  5
14
330
5
100
AcDbSymbolTableRecord
100
AcDbLinetypeTableRecord
  2
ByBlock
 70
     0
  3

 72
    65
 73
     0
 40
0.0
  0
LTYPE
  5
15
330
5
100
AcDbSymbolTableRecord
100
AcDbLinetypeTableRecord
  2
ByLayer
 70
     0
  3

 72
    65
 73
     0
 40
0.0
  0
LTYPE
  5
16
330
5
100
AcDbSymbolTableRecord
100
AcDbLinetypeTableRecord
  2
Continuous
 70
     0
  3
Solid line
 72
    65
 73
     0
 40
0.0
  0
LTYPE
  5
9D
330
5
100
AcDbSymbolTableRecord
100
AcDbLinetypeTableRecord
  2
Dashed
 70
     0
  3

 72
    65
 73
     2
 40
2.0
 49
1.0
 74
     0
 49
-1.0
 74
     0
  0
LTYPE
  5
207
330
5
100
AcDbSymbolTableRecord
100
AcDbLinetypeTableRecord
  2
Center
 70
     0
  3

 72
    65
 73
     4
 40
1.5
 49
0.45
 74
     0
 49
-0.5
 74
     0
 49
0.05
 74
     0
 49
-0.5
 74
     0
  0
ENDTAB
  0
TABLE
  2
LAYER
  5
2
330
0
100
AcDbSymbolTable
 70
     7
  0
LAYER
  5
10
330
2
100
AcDbSymbolTableRecord
100
AcDbLayerTableRecord
  2
0
 70
     0
 62
     7
  6
Continuous
370
    -3
390
F
347
46
348
0
  0
LAYER
  5
72
330
2
100
AcDbSymbolTableRecord
100
AcDbLayerTableRecord
  2
AM_6
 70
     0
 62
    -2
  6
Continuous
370
    35
390
F
347
46
348
0
  0
LAYER
  5
9E
330
2
100
AcDbSymbolTableRecord
100
AcDbLayerTableRecord
  2
AM_9
 70
     0
 62
     6
  6
Dashed
370
    25
390
F
347
46
348
0
  0
LAYER
  5
BF
330
2
100
AcDbSymbolTableRecord
100
AcDbLayerTableRecord
  2
AM_4
 70
     0
 62
     7
  6
Continuous
370
    50
390
F
347
46
348
0
  0
LAYER
  5
F1
330
2
100
AcDbSymbolTableRecord
100
AcDbLayerTableRecord
  2
AM_5
 70
     0
 62
     3
  6
Continuous
370
    25
390
F
347
46
348
0
  0
LAYER
  5
208
330
2
100
AcDbSymbolTableRecord
100
AcDbLayerTableRecord
  2
AM_7
 70
     0
 62
     7
  6
Center
370
    25
390
F
347
46
348
0
  0
LAYER
  5
222
330
2
100
AcDbSymbolTableRecord
100
AcDbLayerTableRecord
  2
ConnectionPoints
 70
     0
 62
     7
  6
Continuous
370
    50
390
F
347
46
348
0
  0
ENDTAB
  0
TABLE
  2
STYLE
  5
3
330
0
100
AcDbSymbolTable
 70
     1
  0
STYLE
  5
11
330
3
100
AcDbSymbolTableRecord
100
AcDbTextStyleTableRecord
  2
Standard
 70
     0
 40
0.0
 41
1.0
 50
0.0
 71
     0
 42
0.2
  3
txt
  4

  0
ENDTAB
  0
TABLE
  2
VIEW
  5
6
330
0
100
AcDbSymbolTable
 70
     0
  0
ENDTAB
  0
TABLE
  2
UCS
  5
7
330
0
100
AcDbSymbolTable
 70
     0
  0
ENDTAB
  0
TABLE
  2
APPID
  5
9
330
0
100
AcDbSymbolTable
 70
     1
  0
APPID
  5
12
330
9
100
AcDbSymbolTableRecord
100
AcDbRegAppTableRecord
  2
ACAD
 70
     0
  0
ENDTAB
  0
TABLE
  2
DIMSTYLE
  5
A
330
0
100
AcDbSymbolTable
 70
     1
100
AcDbDimStyleTable
  0
DIMSTYLE
105
27
330
A
100
AcDbSymbolTableRecord
100
AcDbDimStyleTableRecord
  2
Standard
 70
     0
178
     0
340
11
  0
ENDTAB
  0
TABLE
  2
BLOCK_RECORD
  5
1
330
0
100
AcDbSymbolTable
 70
     8
  0
BLOCK_RECORD
  5
1F
330
1
100
AcDbSymbolTableRecord
100
AcDbBlockTableRecord
  2
*Model_Space
340
22
 70
     0
280
     1
281
     0
  0
BLOCK_RECORD
  5
1B
330
1
100
AcDbSymbolTableRecord
100
AcDbBlockTableRecord
  2
*Paper_Space
340
1E
 70
     0
280
     1
281
     0
  0
BLOCK_RECORD
  5
23
330
1
100
AcDbSymbolTableRecord
100
AcDbBlockTableRecord
  2
*Paper_Space0
340
26
 70
     0
280
     1
281
     0
  0
BLOCK_RECORD
  5
6E
330
1
100
AcDbSymbolTableRecord
100
AcDbBlockTableRecord
  2
1_072282_4
340
0
102
{BLKREFS
331
6F
102
}
 70
     0
280
     1
281
     0
  0
BLOCK_RECORD
  5
91
330
1
100
AcDbSymbolTableRecord
100
AcDbBlockTableRecord
  2
2_405015E_Inch_0_in_072282_4
340
0
102
{BLKREFS
331
92
102
}
 70
     0
280
     1
281
     0
  0
BLOCK_RECORD
  5
E1
330
1
100
AcDbSymbolTableRecord
100
AcDbBlockTableRecord
  2
3_ASME_B18_3_10_1_0_in_072282_4
340
0
102
{BLKREFS
331
E2
102
}
 70
     0
280
     1
281
     0
  0
BLOCK_RECORD
  5
F5
330
1
100
AcDbSymbolTableRecord
100
AcDbBlockTableRecord
  2
4_ASME_B18_3_10_2_0_in_072282_4
340
0
102
{BLKREFS
331
F6
102
}
 70
     0
280
     1
281
     0
  0
BLOCK_RECORD
  5
11D
330
1
100
AcDbSymbolTableRecord
100
AcDbBlockTableRecord
  2
5_070886LW_0_in_072282_4
340
0
102
{BLKREFS
331
11E
102
}
 70
     0
280
     1
281
     0
  0
BLOCK_RECORD
  5
153
330
1
100
AcDbSymbolTableRecord
100
AcDbBlockTableRecord
  2
6_070886I_0_in_072282_4
340
0
102
{BLKREFS
331
154
102
}
 70
     0
280
     1
281
     0
  0
BLOCK_RECORD
  5
1CE
330
1
100
AcDbSymbolTableRecord
100
AcDbBlockTableRecord
  2
7_B072282_0_in_072282_4
340
0
102
{BLKREFS
331
1CF
102
}
 70
     0
280
     1
281
     0
  0
ENDTAB
  0
ENDSEC
  0
SECTION
  2
BLOCKS
  0
BLOCK
  5
20
330
1F
100
AcDbEntity
  8
0
100
AcDbBlockBegin
  2
*Model_Space
 70
     0
 10
0.0
 20
0.0
 30
0.0
  3
*Model_Space
  1

  0
ENDBLK
  5
21
330
1F
100
AcDbEntity
  8
0
100
AcDbBlockEnd
  0
BLOCK
  5
1C
330
1B
100
AcDbEntity
 67
     1
  8
0
100
AcDbBlockBegin
  2
*Paper_Space
 70
     0
 10
0.0
 20
0.0
 30
0.0
  3
*Paper_Space
  1

  0
ENDBLK
  5
1D
330
1B
100
AcDbEntity
 67
     1
  8
0
100
AcDbBlockEnd
  0
BLOCK
  5
24
330
23
100
AcDbEntity
  8
0
100
AcDbBlockBegin
  2
*Paper_Space0
 70
     0
 10
0.0
 20
0.0
 30
0.0
  3
*Paper_Space0
  1

  0
ENDBLK
  5
25
330
23
100
AcDbEntity
  8
0
100
AcDbBlockEnd
  0
BLOCK
  5
70
330
6E
100
AcDbEntity
  8
0
100
AcDbBlockBegin
  2
1_072282_4
 70
     2
 10
0.0
 20
0.0
 30
0.0
  3
1_072282_4
  1

  0
ATTDEF
  5
73
330
6E
100
AcDbEntity
  8
AM_6
100
AcDbText
 10
8.065
 20
2.409
 30
0.0
 40
0.5
  1
Steel IMPERIAL-HD Piloted Flange 1-1/8 thru 2-1/4 Inch Bore
100
AcDbAttributeDefinition
  3

  2
NN
 70
     8
280
     0
  0
ATTDEF
  5
74
330
6E
100
AcDbEntity
  8
AM_6
100
AcDbText
 10
8.065
 20
1.909
 30
0.0
 40
0.5
  1
Steal Imperial Piloted Flange Bearingsi- Inch - 102-204
100
AcDbAttributeDefinition
  3

  2
NT
 70
     8
280
     0
  0
ATTDEF
  5
75
330
6E
100
AcDbEntity
  8
AM_6
100
AcDbText
 10
8.065
 20
1.409
 30
0.0
 40
0.5
  1
072282
100
AcDbAttributeDefinition
  3

  2
NB
 70
     8
280
     0
  0
ATTDEF
  5
76
330
6E
100
AcDbEntity
  8
AM_6
100
AcDbText
 10
8.065
 20
0.9089999999999998
 30
0.0
 40
0.5
  1
$PN.
100
AcDbAttributeDefinition
  3

  2
NBSYN
 70
     8
280
     0
  0
ATTDEF
  5
77
330
6E
100
AcDbEntity
  8
AM_6
100
AcDbText
 10
8.065
 20
0.4089999999999998
 30
0.0
 40
0.5
  1
072282
100
AcDbAttributeDefinition
  3

  2
LINA
 70
     8
280
     0
  0
ATTDEF
  5
78
330
6E
100
AcDbEntity
  8
AM_6
100
AcDbText
 10
8.065
 20
-0.0910000000000002
 30
0.0
 40
0.5
  1
1-5/8
100
AcDbAttributeDefinition
  3

  2
SS
 70
     8
280
     0
  0
ATTDEF
  5
79
330
6E
100
AcDbEntity
  8
AM_6
100
AcDbText
 10
8.065
 20
-0.5910000000000002
 30
0.0
 40
0.5
  1
072282
100
AcDbAttributeDefinition
  3

  2
PN
 70
     8
280
     0
  0
ATTDEF
  5
7A
330
6E
100
AcDbEntity
  8
AM_6
100
AcDbText
 10
8.065
 20
-1.091
 30
0.0
 40
0.5
  1
Non-Expansion
100
AcDbAttributeDefinition
  3

  2
TYPE
 70
     8
280
     0
  0
ATTDEF
  5
7B
330
6E
100
AcDbEntity
  8
AM_6
100
AcDbText
 10
8.065
 20
-1.591
 30
0.0
 40
0.5
  1
Non-Expansion
100
AcDbAttributeDefinition
  3

  2
EF
 70
     8
280
     0
  0
ATTDEF
  5
7C
330
6E
100
AcDbEntity
  8
AM_6
100
AcDbText
 10
8.065
 20
-2.091
 30
0.0
 40
0.5
  1
SFC-IP-110R
100
AcDbAttributeDefinition
  3

  2
DESCRIPTION
 70
     8
280
     0
  0
ATTDEF
  5
7D
330
6E
100
AcDbEntity
  8
AM_6
100
AcDbText
 10
8.065
 20
-2.591
 30
0.0
 40
0.5
  1
Contact Seal
100
AcDbAttributeDefinition
  3

  2
ST
 70
     8
280
     0
  0
ATTDEF
  5
7E
330
6E
100
AcDbEntity
  8
AM_6
100
AcDbText
 10
8.065
 20
-3.091
 30
0.0
 40
0.5
  1
2.81
100
AcDbAttributeDefinition
  3

  2
A
 70
     8
280
     0
  0
ATTDEF
  5
7F
330
6E
100
AcDbEntity
  8
AM_6
100
AcDbText
 10
8.065
 20
-3.591
 30
0.0
 40
0.5
  1
6.13
100
AcDbAttributeDefinition
  3

  2
B
 70
     8
280
     0
  0
ATTDEF
  5
80
330
6E
100
AcDbEntity
  8
AM_6
100
AcDbText
 10
8.065
 20
-4.091
 30
0.0
 40
0.5
  1
2.19
100
AcDbAttributeDefinition
  3

  2
C
 70
     8
280
     0
  0
ATTDEF
  5
81
330
6E
100
AcDbEntity
  8
AM_6
100
AcDbText
 10
8.065
 20
-4.591
 30
0.0
 40
0.5
  1
3.63
100
AcDbAttributeDefinition
  3

  2
D
 70
     8
280
     0
  0
ATTDEF
  5
82
330
6E
100
AcDbEntity
  8
AM_6
100
AcDbText
 10
8.065
 20
-5.091
 30
0.0
 40
0.5
  1
5.1300
100
AcDbAttributeDefinition
  3

  2
DD
 70
     8
280
     0
  0
ATTDEF
  5
83
330
6E
100
AcDbEntity
  8
AM_6
100
AcDbText
 10
8.065
 20
-5.591
 30
0.0
 40
0.5
  1
1.33
100
AcDbAttributeDefinition
  3

  2
E
 70
     8
280
     0
  0
ATTDEF
  5
84
330
6E
100
AcDbEntity
  8
AM_6
100
AcDbText
 10
8.065
 20
-6.091
 30
0.0
 40
0.5
  1
0.4375
100
AcDbAttributeDefinition
  3

  2
F
 70
     8
280
     0
  0
ATTDEF
  5
85
330
6E
100
AcDbEntity
  8
AM_6
100
AcDbText
 10
8.065
 20
-6.591
 30
0.0
 40
0.5
  1
1.44
100
AcDbAttributeDefinition
  3

  2
G
 70
     8
280
     0
  0
ATTDEF
  5
86
330
6E
100
AcDbEntity
  8
AM_6
100
AcDbText
 10
8.065
 20
-7.091
 30
0.0
 40
0.5
  1
0.31
100
AcDbAttributeDefinition
  3

  2
H
 70
     8
280
     0
  0
ATTDEF
  5
87
330
6E
100
AcDbEntity
  8
AM_6
100
AcDbText
 10
8.065
 20
-7.591
 30
0.0
 40
0.5
  1
4.250
100
AcDbAttributeDefinition
  3

  2
K
 70
     8
280
     0
  0
ATTDEF
  5
88
330
6E
100
AcDbEntity
  8
AM_6
100
AcDbText
 10
8.065
 20
-8.091000000000001
 30
0.0
 40
0.5
  1
3.00
100
AcDbAttributeDefinition
  3

  2
L
 70
     8
280
     0
  0
ATTDEF
  5
89
330
6E
100
AcDbEntity
  8
AM_6
100
AcDbText
 10
8.065
 20
-8.591000000000001
 30
0.0
 40
0.5
  1
0.4375
100
AcDbAttributeDefinition
  3

  2
M
 70
     8
280
     0
  0
ATTDEF
  5
8A
330
6E
100
AcDbEntity
  8
AM_6
100
AcDbText
 10
8.065
 20
-9.091000000000001
 30
0.0
 40
0.5
  1
3.05
100
AcDbAttributeDefinition
  3

  2
N
 70
     8
280
     0
  0
ATTDEF
  5
8B
330
6E
100
AcDbEntity
  8
AM_6
100
AcDbText
 10
8.065
 20
-9.591000000000001
 30
0.0
 40
0.5
  1
1.37
100
AcDbAttributeDefinition
  3

  2
P
 70
     8
280
     0
  0
ATTDEF
  5
8C
330
6E
100
AcDbEntity
  8
AM_6
100
AcDbText
 10
8.065
 20
-10.091
 30
0.0
 40
0.5
  1
1.61
100
AcDbAttributeDefinition
  3

  2
Q
 70
     8
280
     0
  0
ATTDEF
  5
8D
330
6E
100
AcDbEntity
  8
AM_6
100
AcDbText
 10
8.065
 20
-10.591
 30
0.0
 40
0.5
  1
0.25
100
AcDbAttributeDefinition
  3

  2
X
 70
     8
280
     0
  0
ATTDEF
  5
8E
330
6E
100
AcDbEntity
  8
AM_6
100
AcDbText
 10
8.065
 20
-11.091
 30
0.0
 40
0.5
  1
0.020
100
AcDbAttributeDefinition
  3

  2
Y
 70
     8
280
     0
  0
ATTDEF
  5
8F
330
6E
100
AcDbEntity
  8
AM_6
100
AcDbText
 10
8.065
 20
-11.591
 30
0.0
 40
0.5
  1
2.08
100
AcDbAttributeDefinition
  3

  2
Z
 70
     8
280
     0
  0
ATTDEF
  5
90
330
6E
100
AcDbEntity
  8
AM_6
100
AcDbText
 10
8.065
 20
-12.091
 30
0.0
 40
0.5
  1
baldor
100
AcDbAttributeDefinition
  3

  2
COMPANY
 70
     8
280
     0
  0
INSERT
  5
92
330
6E
100
AcDbEntity
  8
0
100
AcDbBlockReference
  2
2_405015E_Inch_0_in_072282_4
 10
0.0
 20
0.0
 30
0.0
  0
INSERT
  5
E2
330
6E
100
AcDbEntity
  8
0
100
AcDbBlockReference
  2
3_ASME_B18_3_10_1_0_in_072282_4
 10
0.0
 20
0.0
 30
0.0
  0
INSERT
  5
F6
330
6E
100
AcDbEntity
  8
0
100
AcDbBlockReference
  2
4_ASME_B18_3_10_2_0_in_072282_4
 10
0.0
 20
0.0
 30
0.0
  0
INSERT
  5
11E
330
6E
100
AcDbEntity
  8
0
100
AcDbBlockReference
  2
5_070886LW_0_in_072282_4
 10
0.0
 20
0.0
 30
0.0
  0
INSERT
  5
154
330
6E
100
AcDbEntity
  8
0
100
AcDbBlockReference
  2
6_070886I_0_in_072282_4
 10
0.0
 20
0.0
 30
0.0
  0
INSERT
  5
1CF
330
6E
100
AcDbEntity
  8
0
100
AcDbBlockReference
  2
7_B072282_0_in_072282_4
 10
0.0
 20
0.0
 30
0.0
  0
ENDBLK
  5
71
330
6E
100
AcDbEntity
  8
0
100
AcDbBlockEnd
  0
BLOCK
  5
93
330
91
100
AcDbEntity
  8
0
100
AcDbBlockBegin
  2
2_405015E_Inch_0_in_072282_4
 70
     2
 10
0.0
 20
0.0
 30
0.0
  3
2_405015E_Inch_0_in_072282_4
  1

  0
ATTDEF
  5
95
330
91
100
AcDbEntity
  8
AM_6
100
AcDbText
 10
5.218750000000001
 20
-0.1345037848870866
 30
0.0
 40
0.5
  1
405015E -Inch
100
AcDbAttributeDefinition
  3

  2
NN
 70
     8
280
     0
  0
ATTDEF
  5
96
330
91
100
AcDbEntity
  8
AM_6
100
AcDbText
 10
5.218750000000001
 20
-0.6345037848870866
 30
0.0
 40
0.5
  1
Grease Fitting
100
AcDbAttributeDefinition
  3

  2
NT
 70
     8
280
     0
  0
ATTDEF
  5
97
330
91
100
AcDbEntity
  8
AM_6
100
AcDbText
 10
5.218750000000001
 20
-1.134503784887086
 30
0.0
 40
0.5
  1
405015E-Inch
100
AcDbAttributeDefinition
  3

  2
NB
 70
     8
280
     0
  0
ATTDEF
  5
98
330
91
100
AcDbEntity
  8
AM_6
100
AcDbText
 10
5.218750000000001
 20
-1.634503784887086
 30
0.0
 40
0.5
  1
$MN.-Inch
100
AcDbAttributeDefinition
  3

  2
NBSYN
 70
     8
280
     0
  0
ATTDEF
  5
99
330
91
100
AcDbEntity
  8
AM_6
100
AcDbText
 10
5.218750000000001
 20
-2.134503784887086
 30
0.0
 40
0.5
  1
405015E
100
AcDbAttributeDefinition
  3

  2
LINA
 70
     8
280
     0
  0
ATTDEF
  5
9A
330
91
100
AcDbEntity
  8
AM_6
100
AcDbText
 10
5.218750000000001
 20
-2.634503784887086
 30
0.0
 40
0.5
  1
405015E
100
AcDbAttributeDefinition
  3

  2
MN
 70
     8
280
     0
  0
ATTDEF
  5
9B
330
91
100
AcDbEntity
  8
AM_6
100
AcDbText
 10
5.218750000000001
 20
-3.134503784887086
 30
0.0
 40
0.5
  1
1/8 x 27PTF
100
AcDbAttributeDefinition
  3

  2
T
 70
     8
280
     0
  0
ATTDEF
  5
9C
330
91
100
AcDbEntity
  8
AM_6
100
AcDbText
 10
5.218750000000001
 20
-3.634503784887086
 30
0.0
 40
0.5
  1
baldor
100
AcDbAttributeDefinition
  3

  2
COMPANY
 70
     8
280
     0
  0
LWPOLYLINE
  5
9F
330
91
100
AcDbEntity
  8
AM_9
100
AcDbPolyline
 90
        4
 70
     0
 43
0.0
 10
0.0
 20
-0.5881011292660626
 10
-0.0544416102741496
 20
-0.5656306636894508
 10
-0.0818700010907651
 20
-0.5556196993133069
 10
-0.109375
 20
-0.5465855793734681
  0
LWPOLYLINE
  5
A0
330
91
100
AcDbEntity
  8
AM_9
100
AcDbPolyline
 90
        4
 70
     0
 43
0.0
 10
0.109375
 20
-0.5465855793734681
 10
0.08203125
 20
-0.5555637443417067
 10
0.0546875
 20
-0.5655366905117439
 10
0.0
 20
-0.5881011292660626
  0
LINE
  5
A1
330
91
100
AcDbEntity
  8
AM_9
100
AcDbLine
 10
-0.0194958746883885
 20
-0.6535328768184742
 30
0.0
 11
0.0
 21
-0.6572007625785263
 31
0.0
  0
LWPOLYLINE
  5
A2
330
91
100
AcDbEntity
  8
AM_9
100
AcDbPolyline
 90
        3
 70
     0
 43
0.0
 10
-0.1012620502931883
 20
-0.6334589674542581
 10
-0.08203125
 20
-0.6389453578161478
 10
-0.0678223343894413
 20
-0.6426809185022032
  0
LINE
  5
A3
330
91
100
AcDbEntity
  8
AM_9
100
AcDbLine
 10
-0.1049995630218499
 20
-0.6323340085618939
 30
0.0
 11
-0.1012620502931883
 21
-0.6334589674542581
 31
0.0
  0
LINE
  5
A4
330
91
100
AcDbEntity
  8
AM_9
100
AcDbLine
 10
0.1012619516337555
 20
-0.6334589968962293
 30
0.0
 11
0.1049995599826184
 21
-0.6323340094844954
 31
0.0
  0
LWPOLYLINE
  5
A5
330
91
100
AcDbEntity
  8
AM_9
100
AcDbPolyline
 90
        3
 70
     0
 43
0.0
 10
0.0678265545320965
 20
-0.6426798480854753
 10
0.0818700010907651
 20
-0.6389892462814573
 10
0.1012619516337555
 20
-0.6334589968962293
  0
LINE
  5
A6
330
91
100
AcDbEntity
  8
AM_9
100
AcDbLine
 10
0.0
 20
-0.6572007625785263
 30
0.0
 11
0.0206532134872625
 21
-0.6533034447614158
 31
0.0
  0
LWPOLYLINE
  5
A7
330
91
100
AcDbEntity
  8
AM_9
100
AcDbPolyline
 90
        4
 70
     0
 43
0.0
 10
0.21875
 20
-0.5203774096837502
 10
0.1643083897258504
 20
-0.5316165518585995
 10
0.1368799989092349
 20
-0.5385889259808193
 10
0.109375
 20
-0.5465855793734681
  0
LINE
  5
A8
330
91
100
AcDbEntity
  8
AM_9
100
AcDbLine
 10
0.0
 20
-0.6572007625785263
 30
0.0
 11
0.0
 21
-0.5881011292660626
 31
0.0
  0
LWPOLYLINE
  5
A9
330
91
100
AcDbEntity
  8
AM_9
100
AcDbPolyline
 90
        4
 70
     0
 43
0.0
 10
-0.109375
 20
-0.5465855793734681
 10
-0.1367187499999999
 20
-0.5386328144461286
 10
-0.1640625
 20
-0.5316748307205877
 10
-0.21875
 20
-0.5203774096837502
  0
LINE
  5
AA
330
91
100
AcDbEntity
  8
AM_9
100
AcDbLine
 10
-0.1250327765219277
 20
-0.166166684983735
 30
0.0
 11
-0.1533864900816068
 21
-0.1846490610757619
 31
0.0
  0
LINE
  5
AB
330
91
100
AcDbEntity
  8
AM_9
100
AcDbLine
 10
0.1533864900816068
 20
-0.1846490610757619
 30
0.0
 11
0.1250327765219277
 21
-0.166166684983735
 31
0.0
  0
LINE
  5
AC
330
91
100
AcDbEntity
  8
AM_9
100
AcDbLine
 10
-0.1985784775070809
 20
-0.2501966929995843
 30
0.0
 11
-0.2057113417217346
 21
-0.4428094973854833
 31
0.0
  0
LINE
  5
AD
330
91
100
AcDbEntity
  8
AM_9
100
AcDbLine
 10
0.2057113417217346
 20
-0.4428094973854833
 30
0.0
 11
0.1985784775070809
 21
-0.2501966929995843
 31
0.0
  0
LINE
  5
AE
330
91
100
AcDbEntity
  8
AM_9
100
AcDbLine
 10
0.1010332262316124
 20
-0.6333643269292609
 30
0.0
 11
0.105
 21
-0.6258469266716611
 31
0.0
  0
LINE
  5
AF
330
91
100
AcDbEntity
  8
AM_9
100
AcDbLine
 10
-0.105
 20
-0.6258469266716611
 30
0.0
 11
-0.1010332262316124
 21
-0.6333643269292609
 31
0.0
  0
ELLIPSE
  5
B0
330
91
100
AcDbEntity
  8
AM_9
100
AcDbEllipse
 10
0.0000000000000004
 20
-0.6180343777064465
 30
0.0
 11
-0.1050000000000007
 21
1.285879139104729E-17
 31
0.0
210
0.0
220
0.0
230
1.0
 40
0.5362327917445155
 41
0.0
 42
3.141592653589793
  0
LINE
  5
B1
330
91
100
AcDbEntity
  8
AM_9
100
AcDbLine
 10
-0.105
 20
-0.6341762857069544
 30
0.0
 11
-0.105
 21
-0.6433564817610494
 31
0.0
  0
LINE
  5
B2
330
91
100
AcDbEntity
  8
AM_9
100
AcDbLine
 10
0.105
 20
-0.6433564817610494
 30
0.0
 11
0.105
 21
-0.6341762857069535
 31
0.0
  0
ELLIPSE
  5
B3
330
91
100
AcDbEntity
  8
AM_9
100
AcDbEllipse
 10
0.0000000000000004
 20
-0.6433564817610495
 30
0.0
 11
-0.1050000000000002
 21
1.564621938212798E-9
 31
0.0
210
0.0
220
0.0
230
1.0
 40
0.5362327917445108
 41
5.959938338814885
 42
9.74802498071605
  0
ELLIPSE
  5
B4
330
91
100
AcDbEntity
  8
AM_9
100
AcDbEllipse
 10
0.0
 20
-0.5294070135153406
 30
0.0
 11
-0.2187500000000003
 21
2.678914873134838E-17
 31
0.0
210
0.0
220
0.0
230
1.0
 40
0.5362327917445088
 41
1.07014161439031
 42
2.071451039199484
  0
ELLIPSE
  5
B5
330
91
100
AcDbEntity
  8
AM_9
100
AcDbEllipse
 10
-0.0000000000000007
 20
-0.5908157507127585
 30
0.0
 11
-0.1188200907348996
 21
1.455126437928928E-17
 31
0.0
210
0.0
220
0.0
230
1.0
 40
0.5362327917445193
 41
0.2757502371065499
 42
2.865842416483244
  0
LINE
  5
B6
330
91
100
AcDbEntity
  8
AM_9
100
AcDbLine
 10
0.0925746130180445
 20
-0.6307575532896446
 30
0.0
 11
0.1077431526576389
 21
-0.6206484006907989
 31
0.0
  0
LINE
  5
B7
330
91
100
AcDbEntity
  8
AM_9
100
AcDbLine
 10
-0.1077431526576389
 20
-0.6206484006907989
 30
0.0
 11
-0.0925746130180445
 21
-0.6307575532896446
 31
0.0
  0
ELLIPSE
  5
B8
330
91
100
AcDbEntity
  8
AM_9
100
AcDbEllipse
 10
0.0000000000000002
 20
-0.5448688578335078
 30
0.0
 11
-0.172534053283016
 21
2.112932760969644E-17
 31
0.0
210
0.0
220
0.0
230
1.0
 40
0.5362327917445197
 41
0.6775421858499344
 42
2.464050467739855
  0
ELLIPSE
  5
B9
330
91
100
AcDbEntity
  8
AM_9
100
AcDbEllipse
 10
0.0000000000000013
 20
-0.5294070135153371
 30
0.0
 11
-0.2137500000000043
 21
2.617682533177521E-17
 31
0.0
210
0.0
220
0.0
230
1.0
 40
0.5362327917445163
 41
1.057297229363664
 42
2.084295424226119
  0
ELLIPSE
  5
BA
330
91
100
AcDbEntity
  8
AM_9
100
AcDbEllipse
 10
0.0000000000000002
 20
-0.6940006898702534
 30
0.0
 11
-0.1349999999999998
 21
1.653273178848924E-17
 31
0.0
210
0.0
220
0.0
230
1.0
 40
0.5362327917445163
 41
0.2595808682994285
 42
2.882011785290365
  0
ELLIPSE
  5
BB
330
91
100
AcDbEntity
  8
AM_9
100
AcDbEllipse
 10
-0.0000000000000002
 20
-0.2213214141843474
 30
0.0
 11
-0.1619028724722691
 21
1.982738345459264E-17
 31
0.0
210
0.0
220
0.0
230
1.0
 40
0.5362327917445138
 41
0.0
 42
6.283185307179586
  0
ELLIPSE
  5
BC
330
91
100
AcDbEntity
  8
AM_9
100
AcDbEllipse
 10
0.0
 20
-0.4450000000000011
 30
0.0
 11
-0.2187500000000009
 21
3.259629037943337E-9
 31
0.0
210
0.0
220
0.0
230
1.0
 40
0.5362327917445184
 41
0.0
 42
6.283185307179586
  0
ELLIPSE
  5
BD
330
91
100
AcDbEntity
  8
AM_9
100
AcDbEllipse
 10
0.0000000000000002
 20
-0.4449999999999998
 30
0.0
 11
-0.2057518972230692
 21
2.519734023527268E-17
 31
0.0
210
0.0
220
0.0
230
1.0
 40
0.5362327917445129
 41
0.0
 42
6.283185307179586
  0
ELLIPSE
  5
BE
330
91
100
AcDbEntity
  8
AM_9
100
AcDbEllipse
 10
0.0000000000000003
 20
-0.2523112418160244
 30
0.0
 11
-0.1986176267812152
 21
2.432364408918588E-17
 31
0.0
210
0.0
220
0.0
230
1.0
 40
0.5362327917445125
 41
0.0
 42
6.283185307179586
  0
LINE
  5
C0
330
91
100
AcDbEntity
  8
AM_4
100
AcDbLine
 10
-0.109375
 20
-0.6309925928888084
 30
0.0
 11
-0.1049995630218499
 21
-0.6323340085618939
 31
0.0
  0
LINE
  5
C1
330
91
100
AcDbEntity
  8
AM_4
100
AcDbLine
 10
0.1049995599826184
 20
-0.6323340094844954
 30
0.0
 11
0.109375
 21
-0.6309925928888084
 31
0.0
  0
LWPOLYLINE
  5
C2
330
91
100
AcDbEntity
  8
AM_4
100
AcDbPolyline
 90
        4
 70
     0
 43
0.0
 10
0.1093749999999999
 20
-0.6309925928888084
 10
0.1367187499999999
 20
-0.6220144279205698
 10
0.1640625
 20
-0.6120414817505326
 10
0.21875
 20
-0.5894770429962138
  0
LWPOLYLINE
  5
C3
330
91
100
AcDbEntity
  8
AM_4
100
AcDbPolyline
 90
        4
 70
     0
 43
0.0
 10
-0.21875
 20
-0.5894770429962138
 10
-0.1643083897258504
 20
-0.6119475085728256
 10
-0.1368799989092349
 20
-0.6219584729489697
 10
-0.109375
 20
-0.6309925928888084
  0
LINE
  5
C4
330
91
100
AcDbEntity
  8
AM_4
100
AcDbLine
 10
0.105
 20
-0.6258469266716611
 30
0.0
 11
0.1143312105531392
 21
-0.6081634264995802
 31
0.0
  0
LINE
  5
C5
330
91
100
AcDbEntity
  8
AM_4
100
AcDbLine
 10
-0.1143312105531392
 20
-0.6081634264995802
 30
0.0
 11
-0.105
 21
-0.6258469266716611
 31
0.0
  0
ELLIPSE
  5
C6
330
91
100
AcDbEntity
  8
AM_4
100
AcDbEllipse
 10
0.0
 20
-0.5908157507127603
 30
0.0
 11
-0.1188200907348974
 21
1.455126437928902E-17
 31
0.0
210
0.0
220
0.0
230
1.0
 40
0.5362327917445113
 41
2.865842416483268
 42
6.558935544286113
  0
LINE
  5
C7
330
91
100
AcDbEntity
  8
AM_4
100
AcDbLine
 10
-0.105
 20
-0.6180343777064471
 30
0.0
 11
-0.105
 21
-0.6341762857069544
 31
0.0
  0
LINE
  5
C8
330
91
100
AcDbEntity
  8
AM_4
100
AcDbLine
 10
0.105
 20
-0.6341762857069535
 30
0.0
 11
0.105
 21
-0.6180343777064471
 31
0.0
  0
ELLIPSE
  5
C9
330
91
100
AcDbEntity
  8
AM_4
100
AcDbEllipse
 10
0.0
 20
-0.6180343777064474
 30
0.0
 11
-0.1050000000000001
 21
1.285879139104722E-17
 31
0.0
210
0.0
220
0.0
230
1.0
 40
0.5362327917445164
 41
3.141592653589793
 42
6.283185307179586
  0
ELLIPSE
  5
CA
330
91
100
AcDbEntity
  8
AM_4
100
AcDbEllipse
 10
0.0000000000000028
 20
-0.5294070135153377
 30
0.0
 11
-0.2187499999999971
 21
2.678914873134800E-17
 31
0.0
210
0.0
220
0.0
230
1.0
 40
0.5362327917445115
 41
2.071451039199462
 42
7.353326921569894
  0
LINE
  5
CB
330
91
100
AcDbEntity
  8
AM_4
100
AcDbLine
 10
0.1077431526576389
 20
-0.6206484006907989
 30
0.0
 11
0.1344240112620849
 21
-0.6028668028897473
 31
0.0
  0
LINE
  5
CC
330
91
100
AcDbEntity
  8
AM_4
100
AcDbLine
 10
-0.1344240112620849
 20
-0.6028668028897473
 30
0.0
 11
-0.1077431526576389
 21
-0.6206484006907989
 31
0.0
  0
ELLIPSE
  5
CD
330
91
100
AcDbEntity
  8
AM_4
100
AcDbEllipse
 10
0.0
 20
-0.544868857833509
 30
0.0
 11
-0.1725340532830158
 21
2.112932760969642E-17
 31
0.0
210
0.0
220
0.0
230
1.0
 40
0.5362327917445139
 41
2.464050467739862
 42
6.960727493029517
  0
ELLIPSE
  5
CE
330
91
100
AcDbEntity
  8
AM_4
100
AcDbEllipse
 10
0.0
 20
-0.5294070135153398
 30
0.0
 11
-0.2137500000000003
 21
2.617682533177471E-17
 31
0.0
210
0.0
220
0.0
230
1.0
 40
0.5362327917445141
 41
2.084295424226133
 42
7.340482536543247
  0
LINE
  5
CF
330
91
100
AcDbEntity
  8
AM_4
100
AcDbLine
 10
-0.21875
 20
-0.5894770429962138
 30
0.0
 11
-0.21875
 21
-0.3849299705191254
 31
0.0
  0
LWPOLYLINE
  5
D0
330
91
100
AcDbEntity
  8
AM_4
100
AcDbPolyline
 90
        4
 70
     0
 43
0.0
 10
-0.109375
 20
-0.4278214341418712
 10
-0.13671875
 20
-0.4357741990692106
 10
-0.1640625
 20
-0.4427321827947516
 10
-0.21875
 20
-0.4540296038315891
  0
LWPOLYLINE
  5
D1
330
91
100
AcDbEntity
  8
AM_4
100
AcDbPolyline
 90
        4
 70
     0
 43
0.0
 10
-0.109375
 20
-0.3434144206265309
 10
-0.08203125
 20
-0.3354616556991915
 10
-0.0546875
 20
-0.3285036719736505
 10
0.0
 20
-0.317206250936813
  0
LWPOLYLINE
  5
D2
330
91
100
AcDbEntity
  8
AM_4
100
AcDbPolyline
 90
        4
 70
     0
 43
0.0
 10
-0.21875
 20
-0.3849299705191254
 10
-0.1643083897258504
 20
-0.3624595049425136
 10
-0.1368799989092349
 20
-0.3524485405663697
 10
-0.109375
 20
-0.3434144206265309
  0
LWPOLYLINE
  5
D3
330
91
100
AcDbEntity
  8
AM_4
100
AcDbPolyline
 90
        4
 70
     0
 43
0.0
 10
0.0
 20
-0.3863058842492767
 10
-0.0544416102741496
 20
-0.4087763498258885
 10
-0.0818700010907651
 20
-0.4187873142020324
 10
-0.109375
 20
-0.4278214341418712
  0
LINE
  5
D4
330
91
100
AcDbEntity
  8
AM_4
100
AcDbLine
 10
0.0
 20
-0.3863058842492767
 30
0.0
 11
0.0
 21
-0.317206250936813
 31
0.0
  0
LWPOLYLINE
  5
D5
330
91
100
AcDbEntity
  8
AM_4
100
AcDbPolyline
 90
        4
 70
     0
 43
0.0
 10
0.1093749999999999
 20
-0.4278214341418712
 10
0.0820312499999999
 20
-0.4188432691736326
 10
0.0546874999999999
 20
-0.4088703230035954
 10
0.0
 20
-0.3863058842492767
  0
LWPOLYLINE
  5
D6
330
91
100
AcDbEntity
  8
AM_4
100
AcDbPolyline
 90
        4
 70
     0
 43
0.0
 10
0.21875
 20
-0.4540296038315891
 10
0.1643083897258504
 20
-0.4427904616567399
 10
0.1368799989092348
 20
-0.43581808753452
 10
0.1093749999999999
 20
-0.4278214341418712
  0
LINE
  5
D7
330
91
100
AcDbEntity
  8
AM_4
100
AcDbLine
 10
0.21875
 20
-0.5894770429962138
 30
0.0
 11
0.21875
 21
-0.3849299705191254
 31
0.0
  0
LWPOLYLINE
  5
D8
330
91
100
AcDbEntity
  8
AM_4
100
AcDbPolyline
 90
        4
 70
     0
 43
0.0
 10
0.109375
 20
-0.3434144206265309
 10
0.1367187499999999
 20
-0.3523925855947695
 10
0.1640625
 20
-0.3623655317648067
 10
0.21875
 20
-0.3849299705191254
  0
LWPOLYLINE
  5
D9
330
91
100
AcDbEntity
  8
AM_4
100
AcDbPolyline
 90
        4
 70
     0
 43
0.0
 10
0.0
 20
-0.317206250936813
 10
0.0544416102741496
 20
-0.3284453931116622
 10
0.0818700010907651
 20
-0.3354177672338821
 10
0.109375
 20
-0.3434144206265309
  0
LINE
  5
DA
330
91
100
AcDbEntity
  8
AM_4
100
AcDbLine
 10
-0.0995619471227783
 20
-0.6254715410010999
 30
0.0
 11
-0.1280082177292864
 21
-0.671005766036033
 31
0.0
  0
LINE
  5
DB
330
91
100
AcDbEntity
  8
AM_4
100
AcDbLine
 10
0.1280082177292864
 20
-0.671005766036033
 30
0.0
 11
0.0995619471227783
 21
-0.6254715410010999
 31
0.0
  0
ELLIPSE
  5
DC
330
91
100
AcDbEntity
  8
AM_4
100
AcDbEllipse
 10
0.0
 20
-0.6940006898702537
 30
0.0
 11
-0.1350000000000002
 21
1.653273178848929E-17
 31
0.0
210
0.0
220
0.0
230
1.0
 40
0.536232791744509
 41
2.882011785290364
 42
6.542766175479015
  0
ELLIPSE
  5
DD
330
91
100
AcDbEntity
  8
AM_4
100
AcDbEllipse
 10
0.0
 20
-0.6433564817610495
 30
0.0
 11
-0.1049999999999999
 21
1.285879139104720E-17
 31
0.0
210
0.0
220
0.0
230
1.0
 40
0.5362327917445197
 41
3.464839647745476
 42
5.959938313023904
  0
LINE
  5
DE
330
91
100
AcDbEntity
  8
AM_4
100
AcDbLine
 10
0.0992379502945777
 20
-0.7756586624151001
 30
0.0
 11
0.130477181920658
 21
-0.7125817944504675
 31
0.0
  0
LINE
  5
DF
330
91
100
AcDbEntity
  8
AM_4
100
AcDbLine
 10
-0.130477181920658
 20
-0.7125817944504675
 30
0.0
 11
-0.0992379502945777
 21
-0.7756586624151001
 31
0.0
  0
ELLIPSE
  5
E0
330
91
100
AcDbEntity
  8
AM_4
100
AcDbEllipse
 10
0.0000000000000002
 20
-0.7615263006825267
 30
0.0
 11
-0.1026779019331873
 21
1.257441639456437E-17
 31
0.0
210
0.0
220
0.0
230
1.0
 40
0.5362327917445067
 41
0.0
 42
6.283185307179586
  0
ENDBLK
  5
94
330
91
100
AcDbEntity
  8
0
100
AcDbBlockEnd
  0
BLOCK
  5
E3
330
E1
100
AcDbEntity
  8
0
100
AcDbBlockBegin
  2
3_ASME_B18_3_10_1_0_in_072282_4
 70
     2
 10
0.0
 20
0.0
 30
0.0
  3
3_ASME_B18_3_10_1_0_in_072282_4
  1

  0
ATTDEF
  5
E5
330
E1
100
AcDbEntity
  8
AM_6
100
AcDbText
 10
5.095
 20
-1.259
 30
0.0
 40
0.5
  1
ANSI/ASME B18.3-1998
100
AcDbAttributeDefinition
  3

  2
NN
 70
     8
280
     0
  0
ATTDEF
  5
E6
330
E1
100
AcDbEntity
  8
AM_6
100
AcDbText
 10
5.095
 20
-1.759
 30
0.0
 40
0.5
  1
Socket Button Head Cap Screws
100
AcDbAttributeDefinition
  3

  2
NT
 70
     8
280
     0
  0
ATTDEF
  5
E7
330
E1
100
AcDbEntity
  8
AM_6
100
AcDbText
 10
5.095
 20
-2.258999999999999
 30
0.0
 40
0.5
  1
ASME B18.3-10
100
AcDbAttributeDefinition
  3

  2
NB
 70
     8
280
     0
  0
ATTDEF
  5
E8
330
E1
100
AcDbEntity
  8
AM_6
100
AcDbText
 10
5.095
 20
-2.758999999999999
 30
0.0
 40
0.5
  1
ASME B18.3-$NS.
100
AcDbAttributeDefinition
  3

  2
NBSYN
 70
     8
280
     0
  0
ATTDEF
  5
E9
330
E1
100
AcDbEntity
  8
AM_6
100
AcDbText
 10
5.095
 20
-3.258999999999999
 30
0.0
 40
0.5
  1
ASME B18.3-10
100
AcDbAttributeDefinition
  3

  2
LINA
 70
     8
280
     0
  0
ATTDEF
  5
EA
330
E1
100
AcDbEntity
  8
AM_6
100
AcDbText
 10
5.095
 20
-3.758999999999999
 30
0.0
 40
0.5
  1
10
100
AcDbAttributeDefinition
  3

  2
NS
 70
     8
280
     0
  0
ATTDEF
  5
EB
330
E1
100
AcDbEntity
  8
AM_6
100
AcDbText
 10
5.095
 20
-4.258999999999999
 30
0.0
 40
0.5
  1
0.361
100
AcDbAttributeDefinition
  3

  2
A
 70
     8
280
     0
  0
ATTDEF
  5
EC
330
E1
100
AcDbEntity
  8
AM_6
100
AcDbText
 10
5.095
 20
-4.758999999999999
 30
0.0
 40
0.5
  1
0.101
100
AcDbAttributeDefinition
  3

  2
H
 70
     8
280
     0
  0
ATTDEF
  5
ED
330
E1
100
AcDbEntity
  8
AM_6
100
AcDbText
 10
5.095
 20
-5.258999999999999
 30
0.0
 40
0.5
  1
0.800
100
AcDbAttributeDefinition
  3

  2
L
 70
     8
280
     0
  0
ATTDEF
  5
EE
330
E1
100
AcDbEntity
  8
AM_6
100
AcDbText
 10
5.095
 20
-5.758999999999999
 30
0.0
 40
0.5
  1
0.020
100
AcDbAttributeDefinition
  3

  2
S
 70
     8
280
     0
  0
ATTDEF
  5
EF
330
E1
100
AcDbEntity
  8
AM_6
100
AcDbText
 10
5.095
 20
-6.258999999999999
 30
0.0
 40
0.5
  1
0.125000
100
AcDbAttributeDefinition
  3

  2
J
 70
     8
280
     0
  0
ATTDEF
  5
F0
330
E1
100
AcDbEntity
  8
AM_6
100
AcDbText
 10
5.095
 20
-6.758999999999999
 30
0.0
 40
0.5
  1
baldor
100
AcDbAttributeDefinition
  3

  2
COMPANY
 70
     8
280
     0
  0
LINE
  5
F2
330
E1
100
AcDbEntity
  8
AM_5
100
AcDbLine
 10
0.095
 20
-1.259
 30
0.0
 11
-0.095
 21
-1.259
 31
0.0
  0
LINE
  5
F3
330
E1
100
AcDbEntity
  8
AM_5
100
AcDbLine
 10
0.0764
 20
-1.259
 30
0.0
 11
0.095
 21
-1.291216145020781
 31
0.0
  0
LINE
  5
F4
330
E1
100
AcDbEntity
  8
AM_5
100
AcDbLine
 10
-0.0764
 20
-1.259
 30
0.0
 11
-0.095
 21
-1.291216145020781
 31
0.0
  0
ENDBLK
  5
E4
330
E1
100
AcDbEntity
  8
0
100
AcDbBlockEnd
  0
BLOCK
  5
F7
330
F5
100
AcDbEntity
  8
0
100
AcDbBlockBegin
  2
4_ASME_B18_3_10_2_0_in_072282_4
 70
     2
 10
0.0
 20
0.0
 30
0.0
  3
4_ASME_B18_3_10_2_0_in_072282_4
  1

  0
ATTDEF
  5
F9
330
F5
100
AcDbEntity
  8
AM_6
100
AcDbText
 10
5.1805
 20
-0.5389999999999995
 30
0.0
 40
0.5
  1
ANSI/ASME B18.3-1998
100
AcDbAttributeDefinition
  3

  2
NN
 70
     8
280
     0
  0
ATTDEF
  5
FA
330
F5
100
AcDbEntity
  8
AM_6
100
AcDbText
 10
5.1805
 20
-1.038999999999999
 30
0.0
 40
0.5
  1
Socket Button Head Cap Screws
100
AcDbAttributeDefinition
  3

  2
NT
 70
     8
280
     0
  0
ATTDEF
  5
FB
330
F5
100
AcDbEntity
  8
AM_6
100
AcDbText
 10
5.1805
 20
-1.538999999999999
 30
0.0
 40
0.5
  1
ASME B18.3-10
100
AcDbAttributeDefinition
  3

  2
NB
 70
     8
280
     0
  0
ATTDEF
  5
FC
330
F5
100
AcDbEntity
  8
AM_6
100
AcDbText
 10
5.1805
 20
-2.039
 30
0.0
 40
0.5
  1
ASME B18.3-$NS.
100
AcDbAttributeDefinition
  3

  2
NBSYN
 70
     8
280
     0
  0
ATTDEF
  5
FD
330
F5
100
AcDbEntity
  8
AM_6
100
AcDbText
 10
5.1805
 20
-2.539
 30
0.0
 40
0.5
  1
ASME B18.3-10
100
AcDbAttributeDefinition
  3

  2
LINA
 70
     8
280
     0
  0
ATTDEF
  5
FE
330
F5
100
AcDbEntity
  8
AM_6
100
AcDbText
 10
5.1805
 20
-3.039
 30
0.0
 40
0.5
  1
10
100
AcDbAttributeDefinition
  3

  2
NS
 70
     8
280
     0
  0
ATTDEF
  5
FF
330
F5
100
AcDbEntity
  8
AM_6
100
AcDbText
 10
5.1805
 20
-3.539
 30
0.0
 40
0.5
  1
0.361
100
AcDbAttributeDefinition
  3

  2
A
 70
     8
280
     0
  0
ATTDEF
  5
100
330
F5
100
AcDbEntity
  8
AM_6
100
AcDbText
 10
5.1805
 20
-4.039
 30
0.0
 40
0.5
  1
0.101
100
AcDbAttributeDefinition
  3

  2
H
 70
     8
280
     0
  0
ATTDEF
  5
101
330
F5
100
AcDbEntity
  8
AM_6
100
AcDbText
 10
5.1805
 20
-4.539
 30
0.0
 40
0.5
  1
0.800
100
AcDbAttributeDefinition
  3

  2
L
 70
     8
280
     0
  0
ATTDEF
  5
102
330
F5
100
AcDbEntity
  8
AM_6
100
AcDbText
 10
5.1805
 20
-5.039
 30
0.0
 40
0.5
  1
0.020
100
AcDbAttributeDefinition
  3

  2
S
 70
     8
280
     0
  0
ATTDEF
  5
103
330
F5
100
AcDbEntity
  8
AM_6
100
AcDbText
 10
5.1805
 20
-5.539
 30
0.0
 40
0.5
  1
0.125000
100
AcDbAttributeDefinition
  3

  2
J
 70
     8
280
     0
  0
ATTDEF
  5
104
330
F5
100
AcDbEntity
  8
AM_6
100
AcDbText
 10
5.1805
 20
-6.039
 30
0.0
 40
0.5
  1
baldor
100
AcDbAttributeDefinition
  3

  2
COMPANY
 70
     8
280
     0
  0
LINE
  5
105
330
F5
100
AcDbEntity
  8
AM_9
100
AcDbLine
 10
0.0625
 20
-1.379
 30
0.0
 11
0.0625
 21
-1.44
 31
0.0
  0
LINE
  5
106
330
F5
100
AcDbEntity
  8
AM_9
100
AcDbLine
 10
-0.0625
 20
-1.379
 30
0.0
 11
-0.0625
 21
-1.44
 31
0.0
  0
LINE
  5
107
330
F5
100
AcDbEntity
  8
AM_9
100
AcDbLine
 10
-0.0625
 20
-1.379
 30
0.0
 11
0.0625
 21
-1.379
 31
0.0
  0
LINE
  5
108
330
F5
100
AcDbEntity
  8
AM_9
100
AcDbLine
 10
0.0
 20
-1.379
 30
0.0
 11
0.0
 21
-1.44
 31
0.0
  0
LINE
  5
109
330
F5
100
AcDbEntity
  8
AM_9
100
AcDbLine
 10
-0.0764
 20
-0.5389999999999995
 30
0.0
 11
-0.095
 21
-0.5575999999999995
 31
0.0
  0
LINE
  5
10A
330
F5
100
AcDbEntity
  8
AM_9
100
AcDbLine
 10
0.095
 20
-0.5575999999999995
 30
0.0
 11
0.0764
 21
-0.5389999999999995
 31
0.0
  0
LINE
  5
10B
330
F5
100
AcDbEntity
  8
AM_9
100
AcDbLine
 10
-0.0764
 20
-0.5389999999999995
 30
0.0
 11
0.0764
 21
-0.5389999999999995
 31
0.0
  0
LINE
  5
10C
330
F5
100
AcDbEntity
  8
AM_9
100
AcDbLine
 10
0.095
 20
-1.281
 30
0.0
 11
0.095
 21
-0.5575999999999995
 31
0.0
  0
LINE
  5
10D
330
F5
100
AcDbEntity
  8
AM_9
100
AcDbLine
 10
-0.095
 20
-0.5575999999999995
 30
0.0
 11
-0.095
 21
-1.281
 31
0.0
  0
LINE
  5
10E
330
F5
100
AcDbEntity
  8
AM_9
100
AcDbLine
 10
-0.095
 20
-0.5575999999999995
 30
0.0
 11
0.095
 21
-0.5575999999999995
 31
0.0
  0
LINE
  5
10F
330
F5
100
AcDbEntity
  8
AM_5
100
AcDbLine
 10
0.0950000291551329
 20
-1.259
 30
0.0
 11
-0.0950000291551335
 21
-1.259
 31
0.0
  0
LINE
  5
110
330
F5
100
AcDbEntity
  8
AM_5
100
AcDbLine
 10
0.0764
 20
-1.259
 30
0.0
 11
0.0891017059221719
 21
-1.281
 31
0.0
  0
LINE
  5
111
330
F5
100
AcDbEntity
  8
AM_5
100
AcDbLine
 10
-0.0764
 20
-1.259
 30
0.0
 11
-0.0891017059221717
 21
-1.280999999999999
 31
0.0
  0
LINE
  5
112
330
F5
100
AcDbEntity
  8
AM_4
100
AcDbLine
 10
0.095
 20
-1.339
 30
0.0
 11
0.095
 21
-1.281
 31
0.0
  0
LINE
  5
113
330
F5
100
AcDbEntity
  8
AM_4
100
AcDbLine
 10
-0.095
 20
-1.281
 30
0.0
 11
-0.095
 21
-1.339
 31
0.0
  0
LINE
  5
114
330
F5
100
AcDbEntity
  8
AM_4
100
AcDbLine
 10
0.1805
 20
-1.358999999999999
 30
0.0
 11
0.1805
 21
-1.339
 31
0.0
  0
LINE
  5
115
330
F5
100
AcDbEntity
  8
AM_4
100
AcDbLine
 10
-0.1805
 20
-1.339
 30
0.0
 11
-0.1805
 21
-1.358999999999999
 31
0.0
  0
LINE
  5
116
330
F5
100
AcDbEntity
  8
AM_4
100
AcDbLine
 10
-0.1805
 20
-1.339
 30
0.0
 11
0.1805
 21
-1.339
 31
0.0
  0
LINE
  5
117
330
F5
100
AcDbEntity
  8
AM_4
100
AcDbLine
 10
-0.0994979343131293
 20
-1.44
 30
0.0
 11
0.0995
 21
-1.44
 31
0.0
  0
ARC
  5
118
330
F5
100
AcDbEntity
  8
AM_4
100
AcDbCircle
 10
0.0995000000000002
 20
-1.359
 30
0.0
 40
0.0809999999999997
100
AcDbArc
 50
270.0
 51
0.0
  0
ARC
  5
119
330
F5
100
AcDbEntity
  8
AM_4
100
AcDbCircle
 10
-0.0995000000000002
 20
-1.359
 30
0.0
 40
0.0809999999999997
100
AcDbArc
 50
180.0
 51
270.0
  0
LINE
  5
11A
330
F5
100
AcDbEntity
  8
AM_4
100
AcDbLine
 10
-0.1805
 20
-1.358999999999999
 30
0.0
 11
0.1805
 21
-1.358999999999999
 31
0.0
  0
LINE
  5
11B
330
F5
100
AcDbEntity
  8
AM_5
100
AcDbLine
 10
0.0891017059221719
 20
-1.281
 30
0.0
 11
0.095
 21
-1.291216145020781
 31
0.0
  0
LINE
  5
11C
330
F5
100
AcDbEntity
  8
AM_5
100
AcDbLine
 10
-0.0891017059221717
 20
-1.280999999999999
 30
0.0
 11
-0.095
 21
-1.291216145020781
 31
0.0
  0
ENDBLK
  5
F8
330
F5
100
AcDbEntity
  8
0
100
AcDbBlockEnd
  0
BLOCK
  5
11F
330
11D
100
AcDbEntity
  8
0
100
AcDbBlockBegin
  2
5_070886LW_0_in_072282_4
 70
     2
 10
0.0
 20
0.0
 30
0.0
  3
5_070886LW_0_in_072282_4
  1

  0
ATTDEF
  5
121
330
11D
100
AcDbEntity
  8
AM_6
100
AcDbText
 10
6.5
 20
-0.8409999999999997
 30
0.0
 40
0.5
  1
Imperial Insert Lockwasher -Inch
100
AcDbAttributeDefinition
  3

  2
NN
 70
     8
280
     0
  0
ATTDEF
  5
122
330
11D
100
AcDbEntity
  8
AM_6
100
AcDbText
 10
6.5
 20
-1.341
 30
0.0
 40
0.5
  1
Imperial Bearings
100
AcDbAttributeDefinition
  3

  2
NT
 70
     8
280
     0
  0
ATTDEF
  5
123
330
11D
100
AcDbEntity
  8
AM_6
100
AcDbText
 10
6.5
 20
-1.841
 30
0.0
 40
0.5
  1
070886LW
100
AcDbAttributeDefinition
  3

  2
NB
 70
     8
280
     0
  0
ATTDEF
  5
124
330
11D
100
AcDbEntity
  8
AM_6
100
AcDbText
 10
6.5
 20
-2.341
 30
0.0
 40
0.5
  1
$PN.LW
100
AcDbAttributeDefinition
  3

  2
NBSYN
 70
     8
280
     0
  0
ATTDEF
  5
125
330
11D
100
AcDbEntity
  8
AM_6
100
AcDbText
 10
6.5
 20
-2.841
 30
0.0
 40
0.5
  1
070886
100
AcDbAttributeDefinition
  3

  2
LINA
 70
     8
280
     0
  0
ATTDEF
  5
126
330
11D
100
AcDbEntity
  8
AM_6
100
AcDbText
 10
6.5
 20
-3.341
 30
0.0
 40
0.5
  1
1-5/8
100
AcDbAttributeDefinition
  3

  2
SS
 70
     8
280
     0
  0
ATTDEF
  5
127
330
11D
100
AcDbEntity
  8
AM_6
100
AcDbText
 10
6.5
 20
-3.841
 30
0.0
 40
0.5
  1
1.625000
100
AcDbAttributeDefinition
  3

  2
SS1
 70
     8
280
     0
  0
ATTDEF
  5
128
330
11D
100
AcDbEntity
  8
AM_6
100
AcDbText
 10
6.5
 20
-4.340999999999999
 30
0.0
 40
0.5
  1
070886
100
AcDbAttributeDefinition
  3

  2
PN
 70
     8
280
     0
  0
ATTDEF
  5
129
330
11D
100
AcDbEntity
  8
AM_6
100
AcDbText
 10
6.5
 20
-4.840999999999999
 30
0.0
 40
0.5
  1
INS-IP-110R
100
AcDbAttributeDefinition
  3

  2
DESCRIPTION
 70
     8
280
     0
  0
ATTDEF
  5
12A
330
11D
100
AcDbEntity
  8
AM_6
100
AcDbText
 10
6.5
 20
-5.340999999999999
 30
0.0
 40
0.5
  1
3.3465
100
AcDbAttributeDefinition
  3

  2
A
 70
     8
280
     0
  0
ATTDEF
  5
12B
330
11D
100
AcDbEntity
  8
AM_6
100
AcDbText
 10
6.5
 20
-5.840999999999999
 30
0.0
 40
0.5
  1
61/64
100
AcDbAttributeDefinition
  3

  2
B
 70
     8
280
     0
  0
ATTDEF
  5
12C
330
11D
100
AcDbEntity
  8
AM_6
100
AcDbText
 10
6.5
 20
-6.340999999999999
 30
0.0
 40
0.5
  1
2-13/16
100
AcDbAttributeDefinition
  3

  2
C
 70
     8
280
     0
  0
ATTDEF
  5
12D
330
11D
100
AcDbEntity
  8
AM_6
100
AcDbText
 10
6.5
 20
-6.840999999999999
 30
0.0
 40
0.5
  1
0.954
100
AcDbAttributeDefinition
  3

  2
D
 70
     8
280
     0
  0
ATTDEF
  5
12E
330
11D
100
AcDbEntity
  8
AM_6
100
AcDbText
 10
6.5
 20
-7.340999999999999
 30
0.0
 40
0.5
  1
3
100
AcDbAttributeDefinition
  3

  2
E
 70
     8
280
     0
  0
ATTDEF
  5
12F
330
11D
100
AcDbEntity
  8
AM_6
100
AcDbText
 10
6.5
 20
-7.840999999999999
 30
0.0
 40
0.5
  1
0.1900
100
AcDbAttributeDefinition
  3

  2
NDM
 70
     8
280
     0
  0
ATTDEF
  5
130
330
11D
100
AcDbEntity
  8
AM_6
100
AcDbText
 10
6.5
 20
-8.341
 30
0.0
 40
0.5
  1
0.1450
100
AcDbAttributeDefinition
  3

  2
KDM
 70
     8
280
     0
  0
ATTDEF
  5
131
330
11D
100
AcDbEntity
  8
AM_6
100
AcDbText
 10
6.5
 20
-8.841
 30
0.0
 40
0.5
  1
2.42
100
AcDbAttributeDefinition
  3

  2
AL
 70
     8
280
     0
  0
ATTDEF
  5
132
330
11D
100
AcDbEntity
  8
AM_6
100
AcDbText
 10
6.5
 20
-9.341
 30
0.0
 40
0.5
  1
0.38
100
AcDbAttributeDefinition
  3

  2
BL
 70
     8
280
     0
  0
ATTDEF
  5
133
330
11D
100
AcDbEntity
  8
AM_6
100
AcDbText
 10
6.5
 20
-9.841
 30
0.0
 40
0.5
  1
0.07
100
AcDbAttributeDefinition
  3

  2
CL
 70
     8
280
     0
  0
ATTDEF
  5
134
330
11D
100
AcDbEntity
  8
AM_6
100
AcDbText
 10
6.5
 20
-10.341
 30
0.0
 40
0.5
  1
0.44
100
AcDbAttributeDefinition
  3

  2
DL
 70
     8
280
     0
  0
ATTDEF
  5
135
330
11D
100
AcDbEntity
  8
AM_6
100
AcDbText
 10
6.5
 20
-10.841
 30
0.0
 40
0.5
  1
baldor
100
AcDbAttributeDefinition
  3

  2
COMPANY
 70
     8
280
     0
  0
LINE
  5
136
330
11D
100
AcDbEntity
  8
AM_9
100
AcDbLine
 10
-1.201388888888889
 20
-1.211
 30
0.0
 11
-1.201388888888889
 21
-1.281
 31
0.0
  0
LINE
  5
137
330
11D
100
AcDbEntity
  8
AM_9
100
AcDbLine
 10
-1.292701386346731
 20
-1.211
 30
0.0
 11
-1.292701386346731
 21
-1.281
 31
0.0
  0
LINE
  5
138
330
11D
100
AcDbEntity
  8
AM_9
100
AcDbLine
 10
1.201388888888889
 20
-1.211
 30
0.0
 11
1.201388888888889
 21
-1.281
 31
0.0
  0
LINE
  5
139
330
11D
100
AcDbEntity
  8
AM_9
100
AcDbLine
 10
1.300225305055978
 20
-1.281
 30
0.0
 11
1.300225305055978
 21
-1.211
 31
0.0
  0
LINE
  5
13A
330
11D
100
AcDbEntity
  8
AM_9
100
AcDbLine
 10
-0.8732259590751008
 20
-1.211
 30
0.0
 11
-0.8732259590751008
 21
-1.281
 31
0.0
  0
LINE
  5
13B
330
11D
100
AcDbEntity
  8
AM_9
100
AcDbLine
 10
0.8732259590751005
 20
-1.211
 30
0.0
 11
0.8732259590751007
 21
-1.281
 31
0.0
  0
LINE
  5
13C
330
11D
100
AcDbEntity
  8
AM_9
100
AcDbLine
 10
-0.3965661654259274
 20
-0.8409999999999999
 30
0.0
 11
-0.3965661654259274
 21
-1.281
 31
0.0
  0
LINE
  5
13D
330
11D
100
AcDbEntity
  8
AM_9
100
AcDbLine
 10
-0.421937662837729
 20
-1.211
 30
0.0
 11
-0.421937662837729
 21
-1.281
 31
0.0
  0
LINE
  5
13E
330
11D
100
AcDbEntity
  8
AM_9
100
AcDbLine
 10
-0.6846391413828525
 20
-1.211
 30
0.0
 11
-0.6846391413828523
 21
-1.281
 31
0.0
  0
LINE
  5
13F
330
11D
100
AcDbEntity
  8
AM_9
100
AcDbLine
 10
0.6846391413828521
 20
-1.211
 30
0.0
 11
0.6846391413828522
 21
-1.281
 31
0.0
  0
LINE
  5
140
330
11D
100
AcDbEntity
  8
AM_9
100
AcDbLine
 10
-0.5502888529574084
 20
-1.211
 30
0.0
 11
-0.5502888529574085
 21
-1.281
 31
0.0
  0
LINE
  5
141
330
11D
100
AcDbEntity
  8
AM_9
100
AcDbLine
 10
-0.2464005516605847
 20
-1.211
 30
0.0
 11
-0.2464005516605847
 21
-1.281
 31
0.0
  0
LINE
  5
142
330
11D
100
AcDbEntity
  8
AM_9
100
AcDbLine
 10
-0.2210290542487826
 20
-0.8409999999999999
 30
0.0
 11
-0.4130382330988212
 21
-0.8409999999999997
 31
0.0
  0
LINE
  5
143
330
11D
100
AcDbEntity
  8
AM_9
100
AcDbLine
 10
-0.2210290542487826
 20
-0.8409999999999999
 30
0.0
 11
-0.2210290542487826
 21
-1.281
 31
0.0
  0
LINE
  5
144
330
11D
100
AcDbEntity
  8
AM_9
100
AcDbLine
 10
-0.2375011219216766
 20
-1.211
 30
0.0
 11
-0.2375011219216766
 21
-0.8409999999999999
 31
0.0
  0
LINE
  5
145
330
11D
100
AcDbEntity
  8
AM_9
100
AcDbLine
 10
-0.4130382330988212
 20
-0.8409999999999997
 30
0.0
 11
-0.4130382330988212
 21
-1.211
 31
0.0
  0
LINE
  5
146
330
11D
100
AcDbEntity
  8
AM_9
100
AcDbLine
 10
0.5502888529574079
 20
-1.211
 30
0.0
 11
0.5502888529574081
 21
-1.281
 31
0.0
  0
LINE
  5
147
330
11D
100
AcDbEntity
  8
AM_9
100
AcDbLine
 10
-0.9166853743882272
 20
-1.211
 30
0.0
 11
-0.9166853743882271
 21
-1.281
 31
0.0
  0
LINE
  5
148
330
11D
100
AcDbEntity
  8
AM_9
100
AcDbLine
 10
-0.7823350859627811
 20
-1.211
 30
0.0
 11
-0.7823350859627811
 21
-1.281
 31
0.0
  0
LINE
  5
149
330
11D
100
AcDbEntity
  8
AM_9
100
AcDbLine
 10
-0.9445628876318473
 20
-1.211
 30
0.0
 11
-0.9445628876318473
 21
-1.281
 31
0.0
  0
LINE
  5
14A
330
11D
100
AcDbEntity
  8
AM_9
100
AcDbLine
 10
0.7823350859627828
 20
-1.211
 30
0.0
 11
0.7823350859627828
 21
-1.281
 31
0.0
  0
LINE
  5
14B
330
11D
100
AcDbEntity
  8
AM_9
100
AcDbLine
 10
0.9166853743882267
 20
-1.211
 30
0.0
 11
0.9166853743882267
 21
-1.281
 31
0.0
  0
LINE
  5
14C
330
11D
100
AcDbEntity
  8
AM_9
100
AcDbLine
 10
0.944562887631847
 20
-1.281
 30
0.0
 11
0.944562887631847
 21
-1.211
 31
0.0
  0
LINE
  5
14D
330
11D
100
AcDbEntity
  8
AM_9
100
AcDbLine
 10
-0.0950000000000002
 20
-1.211
 30
0.0
 11
-0.0950000000000002
 21
-1.281
 31
0.0
  0
LINE
  5
14E
330
11D
100
AcDbEntity
  8
AM_9
100
AcDbLine
 10
0.0949999999999996
 20
-1.211
 30
0.0
 11
0.0949999999999996
 21
-1.281
 31
0.0
  0
LINE
  5
14F
330
11D
100
AcDbEntity
  8
AM_4
100
AcDbLine
 10
-1.5
 20
-1.211
 30
0.0
 11
-1.5
 21
-1.281
 31
0.0
  0
LINE
  5
150
330
11D
100
AcDbEntity
  8
AM_4
100
AcDbLine
 10
1.5
 20
-1.281
 30
0.0
 11
1.5
 21
-1.211
 31
0.0
  0
LINE
  5
151
330
11D
100
AcDbEntity
  8
AM_4
100
AcDbLine
 10
-1.5
 20
-1.281
 30
0.0
 11
1.5
 21
-1.281
 31
0.0
  0
LINE
  5
152
330
11D
100
AcDbEntity
  8
AM_4
100
AcDbLine
 10
-1.5
 20
-1.211
 30
0.0
 11
1.5
 21
-1.211
 31
0.0
  0
ENDBLK
  5
120
330
11D
100
AcDbEntity
  8
0
100
AcDbBlockEnd
  0
BLOCK
  5
155
330
153
100
AcDbEntity
  8
0
100
AcDbBlockBegin
  2
6_070886I_0_in_072282_4
 70
     2
 10
0.0
 20
0.0
 30
0.0
  3
6_070886I_0_in_072282_4
  1

  0
ATTDEF
  5
157
330
153
100
AcDbEntity
  8
AM_6
100
AcDbText
 10
6.673249999999999
 20
1.392500000000001
 30
0.0
 40
0.5
  1
Imperial Insert -Inch
100
AcDbAttributeDefinition
  3

  2
NN
 70
     8
280
     0
  0
ATTDEF
  5
158
330
153
100
AcDbEntity
  8
AM_6
100
AcDbText
 10
6.673249999999999
 20
0.8925000000000005
 30
0.0
 40
0.5
  1
Imperial Bearings
100
AcDbAttributeDefinition
  3

  2
NT
 70
     8
280
     0
  0
ATTDEF
  5
159
330
153
100
AcDbEntity
  8
AM_6
100
AcDbText
 10
6.673249999999999
 20
0.3925000000000005
 30
0.0
 40
0.5
  1
070886I
100
AcDbAttributeDefinition
  3

  2
NB
 70
     8
280
     0
  0
ATTDEF
  5
15A
330
153
100
AcDbEntity
  8
AM_6
100
AcDbText
 10
6.673249999999999
 20
-0.1074999999999995
 30
0.0
 40
0.5
  1
$PN.I
100
AcDbAttributeDefinition
  3

  2
NBSYN
 70
     8
280
     0
  0
ATTDEF
  5
15B
330
153
100
AcDbEntity
  8
AM_6
100
AcDbText
 10
6.673249999999999
 20
-0.6074999999999995
 30
0.0
 40
0.5
  1
070886
100
AcDbAttributeDefinition
  3

  2
LINA
 70
     8
280
     0
  0
ATTDEF
  5
15C
330
153
100
AcDbEntity
  8
AM_6
100
AcDbText
 10
6.673249999999999
 20
-1.107499999999999
 30
0.0
 40
0.5
  1
1-5/8
100
AcDbAttributeDefinition
  3

  2
SS
 70
     8
280
     0
  0
ATTDEF
  5
15D
330
153
100
AcDbEntity
  8
AM_6
100
AcDbText
 10
6.673249999999999
 20
-1.607499999999999
 30
0.0
 40
0.5
  1
1.625000
100
AcDbAttributeDefinition
  3

  2
SS1
 70
     8
280
     0
  0
ATTDEF
  5
15E
330
153
100
AcDbEntity
  8
AM_6
100
AcDbText
 10
6.673249999999999
 20
-2.107499999999999
 30
0.0
 40
0.5
  1
070886
100
AcDbAttributeDefinition
  3

  2
PN
 70
     8
280
     0
  0
ATTDEF
  5
15F
330
153
100
AcDbEntity
  8
AM_6
100
AcDbText
 10
6.673249999999999
 20
-2.607499999999999
 30
0.0
 40
0.5
  1
INS-IP-110R
100
AcDbAttributeDefinition
  3

  2
DESCRIPTION
 70
     8
280
     0
  0
ATTDEF
  5
160
330
153
100
AcDbEntity
  8
AM_6
100
AcDbText
 10
6.673249999999999
 20
-3.107499999999999
 30
0.0
 40
0.5
  1
Contact Seal
100
AcDbAttributeDefinition
  3

  2
ST
 70
     8
280
     0
  0
ATTDEF
  5
161
330
153
100
AcDbEntity
  8
AM_6
100
AcDbText
 10
6.673249999999999
 20
-3.607499999999999
 30
0.0
 40
0.5
  1
3.3465
100
AcDbAttributeDefinition
  3

  2
A
 70
     8
280
     0
  0
ATTDEF
  5
162
330
153
100
AcDbEntity
  8
AM_6
100
AcDbText
 10
6.673249999999999
 20
-4.1075
 30
0.0
 40
0.5
  1
61/64
100
AcDbAttributeDefinition
  3

  2
B
 70
     8
280
     0
  0
ATTDEF
  5
163
330
153
100
AcDbEntity
  8
AM_6
100
AcDbText
 10
6.673249999999999
 20
-4.6075
 30
0.0
 40
0.5
  1
2-13/16
100
AcDbAttributeDefinition
  3

  2
C
 70
     8
280
     0
  0
ATTDEF
  5
164
330
153
100
AcDbEntity
  8
AM_6
100
AcDbText
 10
6.673249999999999
 20
-5.1075
 30
0.0
 40
0.5
  1
0.954
100
AcDbAttributeDefinition
  3

  2
D
 70
     8
280
     0
  0
ATTDEF
  5
165
330
153
100
AcDbEntity
  8
AM_6
100
AcDbText
 10
6.673249999999999
 20
-5.6075
 30
0.0
 40
0.5
  1
3
100
AcDbAttributeDefinition
  3

  2
E
 70
     8
280
     0
  0
ATTDEF
  5
166
330
153
100
AcDbEntity
  8
AM_6
100
AcDbText
 10
6.673249999999999
 20
-6.1075
 30
0.0
 40
0.5
  1
0.1900
100
AcDbAttributeDefinition
  3

  2
NDM
 70
     8
280
     0
  0
ATTDEF
  5
167
330
153
100
AcDbEntity
  8
AM_6
100
AcDbText
 10
6.673249999999999
 20
-6.6075
 30
0.0
 40
0.5
  1
0.101
100
AcDbAttributeDefinition
  3

  2
H
 70
     8
280
     0
  0
ATTDEF
  5
168
330
153
100
AcDbEntity
  8
AM_6
100
AcDbText
 10
6.673249999999999
 20
-7.1075
 30
0.0
 40
0.5
  1
0.1450
100
AcDbAttributeDefinition
  3

  2
KDM
 70
     8
280
     0
  0
ATTDEF
  5
169
330
153
100
AcDbEntity
  8
AM_6
100
AcDbText
 10
6.673249999999999
 20
-7.6075
 30
0.0
 40
0.5
  1
2.42
100
AcDbAttributeDefinition
  3

  2
AL
 70
     8
280
     0
  0
ATTDEF
  5
16A
330
153
100
AcDbEntity
  8
AM_6
100
AcDbText
 10
6.673249999999999
 20
-8.1075
 30
0.0
 40
0.5
  1
0.38
100
AcDbAttributeDefinition
  3

  2
BL
 70
     8
280
     0
  0
ATTDEF
  5
16B
330
153
100
AcDbEntity
  8
AM_6
100
AcDbText
 10
6.673249999999999
 20
-8.6075
 30
0.0
 40
0.5
  1
0.07
100
AcDbAttributeDefinition
  3

  2
CL
 70
     8
280
     0
  0
ATTDEF
  5
16C
330
153
100
AcDbEntity
  8
AM_6
100
AcDbText
 10
6.673249999999999
 20
-9.1075
 30
0.0
 40
0.5
  1
0.44
100
AcDbAttributeDefinition
  3

  2
DL
 70
     8
280
     0
  0
ATTDEF
  5
16D
330
153
100
AcDbEntity
  8
AM_6
100
AcDbText
 10
6.673249999999999
 20
-9.6075
 30
0.0
 40
0.5
  1
0.8000
100
AcDbAttributeDefinition
  3

  2
LL
 70
     8
280
     0
  0
ATTDEF
  5
16E
330
153
100
AcDbEntity
  8
AM_6
100
AcDbText
 10
6.673249999999999
 20
-10.1075
 30
0.0
 40
0.5
  1
0.020
100
AcDbAttributeDefinition
  3

  2
Y
 70
     8
280
     0
  0
ATTDEF
  5
16F
330
153
100
AcDbEntity
  8
AM_6
100
AcDbText
 10
6.673249999999999
 20
-10.6075
 30
0.0
 40
0.5
  1
0.020000
100
AcDbAttributeDefinition
  3

  2
Y1
 70
     8
280
     0
  0
ATTDEF
  5
170
330
153
100
AcDbEntity
  8
AM_6
100
AcDbText
 10
6.673249999999999
 20
-11.1075
 30
0.0
 40
0.5
  1
2-5/64
100
AcDbAttributeDefinition
  3

  2
Z
 70
     8
280
     0
  0
ATTDEF
  5
171
330
153
100
AcDbEntity
  8
AM_6
100
AcDbText
 10
6.673249999999999
 20
-11.6075
 30
0.0
 40
0.5
  1
2.078125
100
AcDbAttributeDefinition
  3

  2
Z1
 70
     8
280
     0
  0
ATTDEF
  5
172
330
153
100
AcDbEntity
  8
AM_6
100
AcDbText
 10
6.673249999999999
 20
-12.1075
 30
0.0
 40
0.5
  1
baldor
100
AcDbAttributeDefinition
  3

  2
COMPANY
 70
     8
280
     0
  0
LINE
  5
173
330
153
100
AcDbEntity
  8
AM_9
100
AcDbLine
 10
-0.4139071713638048
 20
0.8950625000000005
 30
0.0
 11
-0.413038233098821
 21
-1.281
 31
0.0
  0
LINE
  5
174
330
153
100
AcDbEntity
  8
AM_9
100
AcDbLine
 10
-0.2210290542487829
 20
0.8950625000000005
 30
0.0
 11
-0.2210290542487829
 21
-1.44
 31
0.0
  0
LINE
  5
175
330
153
100
AcDbEntity
  8
AM_9
100
AcDbLine
 10
-0.3965661654259273
 20
-1.281
 30
0.0
 11
-0.3965661654259273
 21
0.8950625000000005
 31
0.0
  0
LINE
  5
176
330
153
100
AcDbEntity
  8
AM_9
100
AcDbLine
 10
-0.8125
 20
0.8950625000000002
 30
0.0
 11
-0.8125
 21
-1.44
 31
0.0
  0
LINE
  5
177
330
153
100
AcDbEntity
  8
AM_9
100
AcDbLine
 10
0.8125
 20
-1.44
 30
0.0
 11
0.8125
 21
0.8950625000000002
 31
0.0
  0
LINE
  5
178
330
153
100
AcDbEntity
  8
AM_9
100
AcDbLine
 10
-0.8552631578947368
 20
1.3725
 30
0.0
 11
-0.8552631578947368
 21
0.8950625000000004
 31
0.0
  0
LINE
  5
179
330
153
100
AcDbEntity
  8
AM_9
100
AcDbLine
 10
0.8552631578947368
 20
0.8950625000000004
 30
0.0
 11
0.8552631578947368
 21
1.3725
 31
0.0
  0
LINE
  5
17A
330
153
100
AcDbEntity
  8
AM_9
100
AcDbLine
 10
-0.2375011219216767
 20
-1.281
 30
0.0
 11
-0.2383700601866604
 21
0.8950625000000005
 31
0.0
  0
LINE
  5
17B
330
153
100
AcDbEntity
  8
AM_9
100
AcDbLine
 10
-0.8552631578947368
 20
-1.211
 30
0.0
 11
-0.8552631578947368
 21
-1.281
 31
0.0
  0
LINE
  5
17C
330
153
100
AcDbEntity
  8
AM_9
100
AcDbLine
 10
0.8552631578947368
 20
-1.281
 30
0.0
 11
0.8552631578947368
 21
-1.211
 31
0.0
  0
LINE
  5
17D
330
153
100
AcDbEntity
  8
AM_9
100
AcDbLine
 10
-0.7212489168102787
 20
-0.7709999999999997
 30
0.0
 11
-0.7212489168102787
 21
-1.211
 31
0.0
  0
LINE
  5
17E
330
153
100
AcDbEntity
  8
AM_9
100
AcDbLine
 10
0.7212489168102785
 20
-0.7709999999999997
 30
0.0
 11
0.7212489168102785
 21
-1.211
 31
0.0
  0
LINE
  5
17F
330
153
100
AcDbEntity
  8
AM_9
100
AcDbLine
 10
1.0390625
 20
1.3725
 30
0.0
 11
-1.0390625
 21
1.3725
 31
0.0
  0
LINE
  5
180
330
153
100
AcDbEntity
  8
AM_9
100
AcDbLine
 10
-1.0390625
 20
1.392500000000001
 30
0.0
 11
-1.0390625
 21
1.3725
 31
0.0
  0
LINE
  5
181
330
153
100
AcDbEntity
  8
AM_9
100
AcDbLine
 10
1.0390625
 20
1.3725
 30
0.0
 11
1.0390625
 21
1.392500000000001
 31
0.0
  0
LINE
  5
182
330
153
100
AcDbEntity
  8
AM_9
100
AcDbLine
 10
-1.154513888888889
 20
1.365857371794872
 30
0.0
 11
-1.154513888888889
 21
1.085687500000001
 31
0.0
  0
LINE
  5
183
330
153
100
AcDbEntity
  8
AM_9
100
AcDbLine
 10
1.154513888888889
 20
1.085687500000001
 30
0.0
 11
1.154513888888889
 21
1.365857371794872
 31
0.0
  0
LINE
  5
184
330
153
100
AcDbEntity
  8
AM_9
100
AcDbLine
 10
1.127871260683761
 20
1.3925
 30
0.0
 11
-1.127871260660567
 21
1.3925
 31
0.0
  0
LINE
  5
185
330
153
100
AcDbEntity
  8
AM_9
100
AcDbLine
 10
1.154513888888889
 20
1.365857371794872
 30
0.0
 11
-1.154513888888889
 21
1.365857371794872
 31
0.0
  0
ARC
  5
186
330
153
100
AcDbEntity
  8
AM_9
100
AcDbCircle
 10
-1.127871260683761
 20
1.365857371794872
 30
0.0
 40
0.0266426282051277
100
AcDbArc
 50
90.0
 51
180.0
  0
ARC
  5
187
330
153
100
AcDbEntity
  8
AM_9
100
AcDbCircle
 10
1.127871260683761
 20
1.365857371794872
 30
0.0
 40
0.0266426282051277
100
AcDbArc
 50
0.0
 51
90.0
  0
LINE
  5
188
330
153
100
AcDbEntity
  8
AM_9
100
AcDbLine
 10
-0.9287187364296173
 20
-0.7709999999999995
 30
0.0
 11
-0.7212489168102787
 21
-0.7709999999999997
 31
0.0
  0
LINE
  5
189
330
153
100
AcDbEntity
  8
AM_9
100
AcDbLine
 10
0.7212489168102785
 20
-0.7709999999999997
 30
0.0
 11
0.928718736429617
 21
-0.7709999999999995
 31
0.0
  0
LINE
  5
18A
330
153
100
AcDbEntity
  8
AM_9
100
AcDbLine
 10
0.0
 20
-0.3709999999999994
 30
0.0
 11
-0.0724499999999998
 21
-0.4047839898333288
 31
0.0
  0
LINE
  5
18B
330
153
100
AcDbEntity
  8
AM_9
100
AcDbLine
 10
0.0724499999999998
 20
-0.4047839898333288
 30
0.0
 11
0.0
 21
-0.3709999999999994
 31
0.0
  0
LINE
  5
18C
330
153
100
AcDbEntity
  8
AM_9
100
AcDbLine
 10
0.0724499999999998
 20
-0.4047839898333288
 30
0.0
 11
-0.0724499999999998
 21
-0.4047839898333288
 31
0.0
  0
LINE
  5
18D
330
153
100
AcDbEntity
  8
AM_9
100
AcDbLine
 10
-0.0724499999999998
 20
-0.4047839898333288
 30
0.0
 11
-0.0724499999999998
 21
-1.18845
 31
0.0
  0
LINE
  5
18E
330
153
100
AcDbEntity
  8
AM_9
100
AcDbLine
 10
0.0724499999999998
 20
-1.18845
 30
0.0
 11
0.0724499999999998
 21
-0.4047839898333288
 31
0.0
  0
LINE
  5
18F
330
153
100
AcDbEntity
  8
AM_9
100
AcDbLine
 10
0.0724499999999998
 20
-1.18845
 30
0.0
 11
-0.0724499999999998
 21
-1.18845
 31
0.0
  0
LINE
  5
190
330
153
100
AcDbEntity
  8
AM_9
100
AcDbLine
 10
-0.0724499999999998
 20
-1.18845
 30
0.0
 11
-0.0949999999999998
 21
-1.211
 31
0.0
  0
LINE
  5
191
330
153
100
AcDbEntity
  8
AM_9
100
AcDbLine
 10
0.0949999999999998
 20
-1.211
 30
0.0
 11
0.0724499999999998
 21
-1.18845
 31
0.0
  0
LINE
  5
192
330
153
100
AcDbEntity
  8
AM_9
100
AcDbLine
 10
1.305457578016765
 20
1.0856875
 30
0.0
 11
-1.305455745506996
 21
1.0856875
 31
0.0
  0
ARC
  5
193
330
153
100
AcDbEntity
  8
AM_9
100
AcDbCircle
 10
-1.305457578016766
 20
0.9856875000000007
 30
0.0
 40
0.0999999999999992
100
AcDbArc
 50
90.0
 51
150.0
  0
ARC
  5
194
330
153
100
AcDbEntity
  8
AM_9
100
AcDbCircle
 10
1.305457578016766
 20
0.9856875000000007
 30
0.0
 40
0.0999999999999992
100
AcDbArc
 50
30.0
 51
90.0
  0
LINE
  5
195
330
153
100
AcDbEntity
  8
AM_9
100
AcDbLine
 10
1.392060118395209
 20
1.0356875
 30
0.0
 11
-1.392060118395209
 21
1.0356875
 31
0.0
  0
LINE
  5
196
330
153
100
AcDbEntity
  8
AM_9
100
AcDbLine
 10
-1.392060118395209
 20
1.0356875
 30
0.0
 11
-1.47325
 21
0.8950625000000002
 31
0.0
  0
LINE
  5
197
330
153
100
AcDbEntity
  8
AM_9
100
AcDbLine
 10
1.47325
 20
0.8950625000000002
 30
0.0
 11
1.392060118395209
 21
1.0356875
 31
0.0
  0
LINE
  5
198
330
153
100
AcDbEntity
  8
AM_9
100
AcDbLine
 10
1.522035005549293
 20
-0.5799999999999998
 30
0.0
 11
1.540261464675892
 21
-0.0580624999999995
 31
0.0
  0
LINE
  5
199
330
153
100
AcDbEntity
  8
AM_9
100
AcDbLine
 10
-1.540261464675892
 20
-0.0580624999999995
 30
0.0
 11
-1.522035005549293
 21
-0.5799999999999998
 31
0.0
  0
LINE
  5
19A
330
153
100
AcDbEntity
  8
AM_9
100
AcDbLine
 10
-1.62559375
 20
0.4460143487660683
 30
0.0
 11
-1.62559375
 21
0.3909856512339321
 31
0.0
  0
LINE
  5
19B
330
153
100
AcDbEntity
  8
AM_9
100
AcDbLine
 10
1.62559375
 20
0.3909856512339321
 30
0.0
 11
1.62559375
 21
0.4460143487660683
 31
0.0
  0
LINE
  5
19C
330
153
100
AcDbEntity
  8
AM_9
100
AcDbLine
 10
1.623249999999999
 20
-0.0580624999999995
 30
0.0
 11
-1.62324999999995
 21
-0.0580624999999995
 31
0.0
  0
ARC
  5
19D
330
153
100
AcDbEntity
  8
AM_9
100
AcDbCircle
 10
-1.623249999999999
 20
-0.0080624999999991
 30
0.0
 40
0.0500000000000005
100
AcDbArc
 50
180.0
 51
270.0
  0
ARC
  5
19E
330
153
100
AcDbEntity
  8
AM_9
100
AcDbCircle
 10
1.623249999999999
 20
-0.0080624999999993
 30
0.0
 40
0.0500000000000003
100
AcDbArc
 50
270.0
 51
0.0
  0
LINE
  5
19F
330
153
100
AcDbEntity
  8
AM_9
100
AcDbLine
 10
1.67325
 20
-0.008062499999999
 30
0.0
 11
-1.67325
 21
-0.008062499999999
 31
0.0
  0
LINE
  5
1A0
330
153
100
AcDbEntity
  8
AM_9
100
AcDbLine
 10
-1.67325
 20
0.3634713024678639
 30
0.0
 11
-1.67325
 21
-0.008062499999999
 31
0.0
  0
LINE
  5
1A1
330
153
100
AcDbEntity
  8
AM_9
100
AcDbLine
 10
1.67325
 20
-0.008062499999999
 30
0.0
 11
1.67325
 21
0.3634713024678639
 31
0.0
  0
LINE
  5
1A2
330
153
100
AcDbEntity
  8
AM_9
100
AcDbLine
 10
-1.67325
 20
0.8450625000000002
 30
0.0
 11
-1.67325
 21
0.4735286975321365
 31
0.0
  0
LINE
  5
1A3
330
153
100
AcDbEntity
  8
AM_9
100
AcDbLine
 10
1.67325
 20
0.4735286975321365
 30
0.0
 11
1.67325
 21
0.8450625000000002
 31
0.0
  0
LINE
  5
1A4
330
153
100
AcDbEntity
  8
AM_9
100
AcDbLine
 10
1.62559375
 20
0.3909856512339321
 30
0.0
 11
-1.62559375
 21
0.3909856512339321
 31
0.0
  0
LINE
  5
1A5
330
153
100
AcDbEntity
  8
AM_9
100
AcDbLine
 10
1.67325
 20
0.3634713024678639
 30
0.0
 11
-1.67325
 21
0.3634713024678639
 31
0.0
  0
LINE
  5
1A6
330
153
100
AcDbEntity
  8
AM_9
100
AcDbLine
 10
-1.62559375
 20
0.3909856512339321
 30
0.0
 11
-1.67325
 21
0.3634713024678639
 31
0.0
  0
LINE
  5
1A7
330
153
100
AcDbEntity
  8
AM_9
100
AcDbLine
 10
1.67325
 20
0.3634713024678639
 30
0.0
 11
1.62559375
 21
0.3909856512339321
 31
0.0
  0
LINE
  5
1A8
330
153
100
AcDbEntity
  8
AM_9
100
AcDbLine
 10
1.67325
 20
0.4735286975321365
 30
0.0
 11
-1.67325
 21
0.4735286975321365
 31
0.0
  0
LINE
  5
1A9
330
153
100
AcDbEntity
  8
AM_9
100
AcDbLine
 10
1.62559375
 20
0.4460143487660683
 30
0.0
 11
-1.62559375
 21
0.4460143487660683
 31
0.0
  0
LINE
  5
1AA
330
153
100
AcDbEntity
  8
AM_9
100
AcDbLine
 10
1.62559375
 20
0.4460143487660683
 30
0.0
 11
1.67325
 21
0.4735286975321365
 31
0.0
  0
LINE
  5
1AB
330
153
100
AcDbEntity
  8
AM_9
100
AcDbLine
 10
-1.67325
 20
0.4735286975321365
 30
0.0
 11
-1.62559375
 21
0.4460143487660683
 31
0.0
  0
LINE
  5
1AC
330
153
100
AcDbEntity
  8
AM_9
100
AcDbLine
 10
1.623250000000001
 20
0.8950625000000002
 30
0.0
 11
-1.623249999999952
 21
0.8950625000000002
 31
0.0
  0
LINE
  5
1AD
330
153
100
AcDbEntity
  8
AM_9
100
AcDbLine
 10
1.67325
 20
0.8450625000000002
 30
0.0
 11
-1.67325
 21
0.8450625000000002
 31
0.0
  0
ARC
  5
1AE
330
153
100
AcDbEntity
  8
AM_9
100
AcDbCircle
 10
-1.62325
 20
0.8450625000000006
 30
0.0
 40
0.0499999999999997
100
AcDbArc
 50
90.0
 51
180.0
  0
ARC
  5
1AF
330
153
100
AcDbEntity
  8
AM_9
100
AcDbCircle
 10
1.623250000000001
 20
0.8450625000000008
 30
0.0
 40
0.0499999999999994
100
AcDbArc
 50
0.0
 51
90.0
  0
LINE
  5
1B0
330
153
100
AcDbEntity
  8
AM_5
100
AcDbLine
 10
0.0724499999999998
 20
-0.4510000000000041
 30
0.0
 11
0.0949999999999998
 21
-0.4510000000000041
 31
0.0
  0
LINE
  5
1B1
330
153
100
AcDbEntity
  8
AM_5
100
AcDbLine
 10
0.0949999999999998
 20
-0.4510000000000041
 30
0.0
 11
0.0724499999999998
 21
-0.4379807514297684
 31
0.0
  0
LINE
  5
1B2
330
153
100
AcDbEntity
  8
AM_5
100
AcDbLine
 10
-0.0724499999999999
 20
-0.4510000000000041
 30
0.0
 11
-0.0950000000000001
 21
-0.4510000000000041
 31
0.0
  0
LINE
  5
1B3
330
153
100
AcDbEntity
  8
AM_5
100
AcDbLine
 10
-0.0950000000000001
 20
-0.4510000000000041
 30
0.0
 11
-0.0724499999999998
 21
-0.4379807514297682
 31
0.0
  0
LINE
  5
1B4
330
153
100
AcDbEntity
  8
AM_4
100
AcDbLine
 10
-0.3965661654259274
 20
-1.44
 30
0.0
 11
-0.3965661654259273
 21
-1.281
 31
0.0
  0
LINE
  5
1B5
330
153
100
AcDbEntity
  8
AM_4
100
AcDbLine
 10
-0.2375011219216767
 20
-1.44
 30
0.0
 11
-0.2375011219216767
 21
-1.281
 31
0.0
  0
LINE
  5
1B6
330
153
100
AcDbEntity
  8
AM_4
100
AcDbLine
 10
-0.413038233098821
 20
-1.281
 30
0.0
 11
-0.413038233098821
 21
-1.44
 31
0.0
  0
LINE
  5
1B7
330
153
100
AcDbEntity
  8
AM_4
100
AcDbLine
 10
-0.8552631578947368
 20
-1.281
 30
0.0
 11
-0.8552631578947368
 21
-1.44
 31
0.0
  0
LINE
  5
1B8
330
153
100
AcDbEntity
  8
AM_4
100
AcDbLine
 10
0.8552631578947368
 20
-1.44
 30
0.0
 11
0.8552631578947368
 21
-1.281
 31
0.0
  0
LINE
  5
1B9
330
153
100
AcDbEntity
  8
AM_4
100
AcDbLine
 10
-0.0994979343131293
 20
-1.44
 30
0.0
 11
-0.8552631578947368
 21
-1.44
 31
0.0
  0
LINE
  5
1BA
330
153
100
AcDbEntity
  8
AM_4
100
AcDbLine
 10
0.8552631578947368
 20
-1.44
 30
0.0
 11
0.0995
 21
-1.44
 31
0.0
  0
ARC
  5
1BB
330
153
100
AcDbEntity
  8
AM_4
100
AcDbCircle
 10
1.451715561259647
 20
-1.160999999999999
 30
0.0
 40
0.0500000000000005
100
AcDbArc
 50
270.0
 51
357.9999999999993
  0
ARC
  5
1BC
330
153
100
AcDbEntity
  8
AM_4
100
AcDbCircle
 10
-1.451715561259647
 20
-1.160999999999999
 30
0.0
 40
0.0500000000000006
100
AcDbArc
 50
182.0000000000006
 51
270.0
  0
LWPOLYLINE
  5
1BD
330
153
100
AcDbEntity
  8
AM_4
100
AcDbPolyline
 90
        6
 70
     0
 43
0.0
 10
1.187668414017759
 20
-1.162744974835125
 10
1.185276901611704
 20
-1.179085137763145
 10
1.179198140676666
 20
-1.193393195988428
 10
1.17009360150012
 20
-1.204116053567919
 10
1.158916864064281
 20
-1.210061012141457
 10
1.152038371976444
 20
-1.211
  0
LWPOLYLINE
  5
1BE
330
153
100
AcDbEntity
  8
AM_4
100
AcDbPolyline
 90
        6
 70
     0
 43
0.0
 10
-1.152038371976444
 20
-1.211
 10
-1.157179401881074
 20
-1.210477677997732
 10
-1.168670885864119
 20
-1.205227214874398
 10
-1.178246925837471
 20
-1.194899476214343
 10
-1.184793095789032
 20
-1.180745490382564
 10
-1.187668414017759
 20
-1.162744974835125
  0
LINE
  5
1BF
330
153
100
AcDbEntity
  8
AM_4
100
AcDbLine
 10
-0.9899494936611664
 20
-0.7709999999999997
 30
0.0
 11
-0.9899494936611664
 21
-1.211
 31
0.0
  0
LINE
  5
1C0
330
153
100
AcDbEntity
  8
AM_4
100
AcDbLine
 10
0.9899494936611667
 20
-0.7709999999999997
 30
0.0
 11
0.9899494936611667
 21
-1.211
 31
0.0
  0
LWPOLYLINE
  5
1C1
330
153
100
AcDbEntity
  8
AM_4
100
AcDbPolyline
 90
        6
 70
     0
 43
0.0
 10
0.8833377951255559
 20
-1.211
 10
0.8884788250301864
 20
-1.210477677997732
 10
0.8999703090132312
 20
-1.205227214874398
 10
0.9095463489865827
 20
-1.194899476214343
 10
0.9160925189381443
 20
-1.180745490382564
 10
0.9189678371668708
 20
-1.162744974835125
  0
LWPOLYLINE
  5
1C2
330
153
100
AcDbEntity
  8
AM_4
100
AcDbPolyline
 90
        6
 70
     0
 43
0.0
 10
-0.918967837166871
 20
-1.162744974835125
 10
-0.9165763247608161
 20
-1.179085137763145
 10
-0.910497563825778
 20
-1.193393195988428
 10
-0.9013930246492321
 20
-1.204116053567919
 10
-0.890216287213393
 20
-1.210061012141457
 10
-0.8833377951255559
 20
-1.211
  0
LINE
  5
1C3
330
153
100
AcDbEntity
  8
AM_4
100
AcDbLine
 10
-1.187668414017759
 20
-1.162744974835125
 30
0.0
 11
-1.501685102610602
 21
-1.162744974835125
 31
0.0
  0
LINE
  5
1C4
330
153
100
AcDbEntity
  8
AM_4
100
AcDbLine
 10
-1.187668414017759
 20
-1.162744974835125
 30
0.0
 11
-1.197419313280505
 21
-0.7709999999999997
 31
0.0
  0
LINE
  5
1C5
330
153
100
AcDbEntity
  8
AM_4
100
AcDbLine
 10
-1.197419313280505
 20
-0.7709999999999997
 30
0.0
 11
-0.9287187364296173
 21
-0.7709999999999995
 31
0.0
  0
LINE
  5
1C6
330
153
100
AcDbEntity
  8
AM_4
100
AcDbLine
 10
-0.9287187364296173
 20
-0.7709999999999995
 30
0.0
 11
-0.918967837166871
 21
-1.162744974835125
 31
0.0
  0
LINE
  5
1C7
330
153
100
AcDbEntity
  8
AM_4
100
AcDbLine
 10
0.9189678371668708
 20
-1.162744974835125
 30
0.0
 11
-0.918967837166871
 21
-1.162744974835125
 31
0.0
  0
LINE
  5
1C8
330
153
100
AcDbEntity
  8
AM_4
100
AcDbLine
 10
0.9189678371668708
 20
-1.162744974835125
 30
0.0
 11
0.928718736429617
 21
-0.7709999999999995
 31
0.0
  0
LINE
  5
1C9
330
153
100
AcDbEntity
  8
AM_4
100
AcDbLine
 10
0.928718736429617
 20
-0.7709999999999995
 30
0.0
 11
1.197419313280505
 21
-0.7709999999999997
 31
0.0
  0
LINE
  5
1CA
330
153
100
AcDbEntity
  8
AM_4
100
AcDbLine
 10
1.197419313280505
 20
-0.7709999999999997
 30
0.0
 11
1.187668414017759
 21
-1.162744974835125
 31
0.0
  0
LINE
  5
1CB
330
153
100
AcDbEntity
  8
AM_4
100
AcDbLine
 10
1.501685102610602
 20
-1.162744974835125
 30
0.0
 11
1.522035005549293
 21
-0.5799999999999998
 31
0.0
  0
LINE
  5
1CC
330
153
100
AcDbEntity
  8
AM_4
100
AcDbLine
 10
-1.522035005549293
 20
-0.5799999999999998
 30
0.0
 11
-1.501685102610602
 21
-1.162744974835125
 31
0.0
  0
LINE
  5
1CD
330
153
100
AcDbEntity
  8
AM_4
100
AcDbLine
 10
1.501685102610602
 20
-1.162744974835125
 30
0.0
 11
1.187668414017759
 21
-1.162744974835125
 31
0.0
  0
ENDBLK
  5
156
330
153
100
AcDbEntity
  8
0
100
AcDbBlockEnd
  0
BLOCK
  5
1D0
330
1CE
100
AcDbEntity
  8
0
100
AcDbBlockBegin
  2
7_B072282_0_in_072282_4
 70
     2
 10
0.0
 20
0.0
 30
0.0
  3
7_B072282_0_in_072282_4
  1

  0
ATTDEF
  5
1D2
330
1CE
100
AcDbEntity
  8
AM_6
100
AcDbText
 10
8.065
 20
2.409
 30
0.0
 40
0.5
  1
SFC - 102 - 204 -(Contact Seal)Housing
100
AcDbAttributeDefinition
  3

  2
NN
 70
     8
280
     0
  0
ATTDEF
  5
1D3
330
1CE
100
AcDbEntity
  8
AM_6
100
AcDbText
 10
8.065
 20
1.909
 30
0.0
 40
0.5
  1
Steal Imperial Piloted Flange Bearings
100
AcDbAttributeDefinition
  3

  2
NT
 70
     8
280
     0
  0
ATTDEF
  5
1D4
330
1CE
100
AcDbEntity
  8
AM_6
100
AcDbText
 10
8.065
 20
1.409
 30
0.0
 40
0.5
  1
B072282
100
AcDbAttributeDefinition
  3

  2
NB
 70
     8
280
     0
  0
ATTDEF
  5
1D5
330
1CE
100
AcDbEntity
  8
AM_6
100
AcDbText
 10
8.065
 20
0.9089999999999998
 30
0.0
 40
0.5
  1
$PN.
100
AcDbAttributeDefinition
  3

  2
NBSYN
 70
     8
280
     0
  0
ATTDEF
  5
1D6
330
1CE
100
AcDbEntity
  8
AM_6
100
AcDbText
 10
8.065
 20
0.4089999999999998
 30
0.0
 40
0.5
  1
B072282
100
AcDbAttributeDefinition
  3

  2
LINA
 70
     8
280
     0
  0
ATTDEF
  5
1D7
330
1CE
100
AcDbEntity
  8
AM_6
100
AcDbText
 10
8.065
 20
-0.0910000000000002
 30
0.0
 40
0.5
  1
1-5/8
100
AcDbAttributeDefinition
  3

  2
SS
 70
     8
280
     0
  0
ATTDEF
  5
1D8
330
1CE
100
AcDbEntity
  8
AM_6
100
AcDbText
 10
8.065
 20
-0.5910000000000002
 30
0.0
 40
0.5
  1
B072282
100
AcDbAttributeDefinition
  3

  2
PN
 70
     8
280
     0
  0
ATTDEF
  5
1D9
330
1CE
100
AcDbEntity
  8
AM_6
100
AcDbText
 10
8.065
 20
-1.091
 30
0.0
 40
0.5
  1
Non-Expansion
100
AcDbAttributeDefinition
  3

  2
TYPE
 70
     8
280
     0
  0
ATTDEF
  5
1DA
330
1CE
100
AcDbEntity
  8
AM_6
100
AcDbText
 10
8.065
 20
-1.591
 30
0.0
 40
0.5
  1
Non-Expansion
100
AcDbAttributeDefinition
  3

  2
EF
 70
     8
280
     0
  0
ATTDEF
  5
1DB
330
1CE
100
AcDbEntity
  8
AM_6
100
AcDbText
 10
8.065
 20
-2.091
 30
0.0
 40
0.5
  1
SFC-IP-110R
100
AcDbAttributeDefinition
  3

  2
DESCRIPTION
 70
     8
280
     0
  0
ATTDEF
  5
1DC
330
1CE
100
AcDbEntity
  8
AM_6
100
AcDbText
 10
8.065
 20
-2.591
 30
0.0
 40
0.5
  1
Contact Seal
100
AcDbAttributeDefinition
  3

  2
ST
 70
     8
280
     0
  0
ATTDEF
  5
1DD
330
1CE
100
AcDbEntity
  8
AM_6
100
AcDbText
 10
8.065
 20
-3.091
 30
0.0
 40
0.5
  1
2.810
100
AcDbAttributeDefinition
  3

  2
A
 70
     8
280
     0
  0
ATTDEF
  5
1DE
330
1CE
100
AcDbEntity
  8
AM_6
100
AcDbText
 10
8.065
 20
-3.591
 30
0.0
 40
0.5
  1
6.1300
100
AcDbAttributeDefinition
  3

  2
B
 70
     8
280
     0
  0
ATTDEF
  5
1DF
330
1CE
100
AcDbEntity
  8
AM_6
100
AcDbText
 10
8.065
 20
-4.091
 30
0.0
 40
0.5
  1
2.1900
100
AcDbAttributeDefinition
  3

  2
C
 70
     8
280
     0
  0
ATTDEF
  5
1E0
330
1CE
100
AcDbEntity
  8
AM_6
100
AcDbText
 10
8.065
 20
-4.591
 30
0.0
 40
0.5
  1
3.6300
100
AcDbAttributeDefinition
  3

  2
D
 70
     8
280
     0
  0
ATTDEF
  5
1E1
330
1CE
100
AcDbEntity
  8
AM_6
100
AcDbText
 10
8.065
 20
-5.091
 30
0.0
 40
0.5
  1
5.1300
100
AcDbAttributeDefinition
  3

  2
DD
 70
     8
280
     0
  0
ATTDEF
  5
1E2
330
1CE
100
AcDbEntity
  8
AM_6
100
AcDbText
 10
8.065
 20
-5.591
 30
0.0
 40
0.5
  1
1.3300
100
AcDbAttributeDefinition
  3

  2
E
 70
     8
280
     0
  0
ATTDEF
  5
1E3
330
1CE
100
AcDbEntity
  8
AM_6
100
AcDbText
 10
8.065
 20
-6.091
 30
0.0
 40
0.5
  1
0.4375
100
AcDbAttributeDefinition
  3

  2
F
 70
     8
280
     0
  0
ATTDEF
  5
1E4
330
1CE
100
AcDbEntity
  8
AM_6
100
AcDbText
 10
8.065
 20
-6.591
 30
0.0
 40
0.5
  1
1.44
100
AcDbAttributeDefinition
  3

  2
G
 70
     8
280
     0
  0
ATTDEF
  5
1E5
330
1CE
100
AcDbEntity
  8
AM_6
100
AcDbText
 10
8.065
 20
-7.091
 30
0.0
 40
0.5
  1
0.31
100
AcDbAttributeDefinition
  3

  2
H
 70
     8
280
     0
  0
ATTDEF
  5
1E6
330
1CE
100
AcDbEntity
  8
AM_6
100
AcDbText
 10
8.065
 20
-7.591
 30
0.0
 40
0.5
  1
4.250
100
AcDbAttributeDefinition
  3

  2
K
 70
     8
280
     0
  0
ATTDEF
  5
1E7
330
1CE
100
AcDbEntity
  8
AM_6
100
AcDbText
 10
8.065
 20
-8.091000000000001
 30
0.0
 40
0.5
  1
3.00
100
AcDbAttributeDefinition
  3

  2
L
 70
     8
280
     0
  0
ATTDEF
  5
1E8
330
1CE
100
AcDbEntity
  8
AM_6
100
AcDbText
 10
8.065
 20
-8.591000000000001
 30
0.0
 40
0.5
  1
0.4375
100
AcDbAttributeDefinition
  3

  2
M
 70
     8
280
     0
  0
ATTDEF
  5
1E9
330
1CE
100
AcDbEntity
  8
AM_6
100
AcDbText
 10
8.065
 20
-9.091000000000001
 30
0.0
 40
0.5
  1
3.05
100
AcDbAttributeDefinition
  3

  2
N
 70
     8
280
     0
  0
ATTDEF
  5
1EA
330
1CE
100
AcDbEntity
  8
AM_6
100
AcDbText
 10
8.065
 20
-9.591000000000001
 30
0.0
 40
0.5
  1
1.37
100
AcDbAttributeDefinition
  3

  2
P
 70
     8
280
     0
  0
ATTDEF
  5
1EB
330
1CE
100
AcDbEntity
  8
AM_6
100
AcDbText
 10
8.065
 20
-10.091
 30
0.0
 40
0.5
  1
1.61
100
AcDbAttributeDefinition
  3

  2
Q
 70
     8
280
     0
  0
ATTDEF
  5
1EC
330
1CE
100
AcDbEntity
  8
AM_6
100
AcDbText
 10
8.065
 20
-10.591
 30
0.0
 40
0.5
  1
0.25
100
AcDbAttributeDefinition
  3

  2
X
 70
     8
280
     0
  0
ATTDEF
  5
1ED
330
1CE
100
AcDbEntity
  8
AM_6
100
AcDbText
 10
8.065
 20
-11.091
 30
0.0
 40
0.5
  1
0.020
100
AcDbAttributeDefinition
  3

  2
Y
 70
     8
280
     0
  0
ATTDEF
  5
1EE
330
1CE
100
AcDbEntity
  8
AM_6
100
AcDbText
 10
8.065
 20
-11.591
 30
0.0
 40
0.5
  1
2.08
100
AcDbAttributeDefinition
  3

  2
Z
 70
     8
280
     0
  0
ATTDEF
  5
1EF
330
1CE
100
AcDbEntity
  8
AM_6
100
AcDbText
 10
8.065
 20
-12.091
 30
0.0
 40
0.5
  1
3.3465
100
AcDbAttributeDefinition
  3

  2
BORE
 70
     8
280
     0
  0
ATTDEF
  5
1F0
330
1CE
100
AcDbEntity
  8
AM_6
100
AcDbText
 10
8.065
 20
-12.591
 30
0.0
 40
0.5
  1
0.0580000
100
AcDbAttributeDefinition
  3

  2
O
 70
     8
280
     0
  0
ATTDEF
  5
1F1
330
1CE
100
AcDbEntity
  8
AM_6
100
AcDbText
 10
8.065
 20
-13.091
 30
0.0
 40
0.5
  1
baldor
100
AcDbAttributeDefinition
  3

  2
COMPANY
 70
     8
280
     0
  0
LINE
  5
1F2
330
1CE
100
AcDbEntity
  8
AM_9
100
AcDbLine
 10
2.3849
 20
0.0
 30
0.0
 11
2.3849
 21
-0.2713499999999999
 31
0.0
  0
LINE
  5
1F3
330
1CE
100
AcDbEntity
  8
AM_9
100
AcDbLine
 10
2.745099999999999
 20
-0.2713499999999999
 30
0.0
 11
2.745099999999999
 21
0.0
 31
0.0
  0
LINE
  5
1F4
330
1CE
100
AcDbEntity
  8
AM_9
100
AcDbLine
 10
-2.7451
 20
0.0
 30
0.0
 11
-2.7451
 21
-0.2713499999999999
 31
0.0
  0
LINE
  5
1F5
330
1CE
100
AcDbEntity
  8
AM_9
100
AcDbLine
 10
-2.3849
 20
-0.2713499999999999
 30
0.0
 11
-2.3849
 21
0.0
 31
0.0
  0
LINE
  5
1F6
330
1CE
100
AcDbEntity
  8
AM_9
100
AcDbLine
 10
2.745099999999999
 20
-0.2713499999999999
 30
0.0
 11
2.3849
 21
-0.2713499999999999
 31
0.0
  0
LINE
  5
1F7
330
1CE
100
AcDbEntity
  8
AM_9
100
AcDbLine
 10
2.3849
 20
-0.2713499999999999
 30
0.0
 11
2.34625
 21
-0.31
 31
0.0
  0
LINE
  5
1F8
330
1CE
100
AcDbEntity
  8
AM_9
100
AcDbLine
 10
2.78375
 20
-0.31
 30
0.0
 11
2.745099999999999
 21
-0.2713499999999999
 31
0.0
  0
LINE
  5
1F9
330
1CE
100
AcDbEntity
  8
AM_9
100
AcDbLine
 10
-2.3849
 20
-0.2713499999999999
 30
0.0
 11
-2.7451
 21
-0.2713499999999999
 31
0.0
  0
LINE
  5
1FA
330
1CE
100
AcDbEntity
  8
AM_9
100
AcDbLine
 10
-2.7451
 20
-0.2713499999999999
 30
0.0
 11
-2.78375
 21
-0.31
 31
0.0
  0
LINE
  5
1FB
330
1CE
100
AcDbEntity
  8
AM_9
100
AcDbLine
 10
-2.34625
 20
-0.31
 30
0.0
 11
-2.3849
 21
-0.2713499999999999
 31
0.0
  0
LINE
  5
1FC
330
1CE
100
AcDbEntity
  8
AM_9
100
AcDbLine
 10
1.67325
 20
-0.5799999999999998
 30
0.0
 11
1.67325
 21
1.61
 31
0.0
  0
LINE
  5
1FD
330
1CE
100
AcDbEntity
  8
AM_9
100
AcDbLine
 10
-1.67325
 20
1.61
 30
0.0
 11
-1.67325
 21
-0.5799999999999998
 31
0.0
  0
LINE
  5
1FE
330
1CE
100
AcDbEntity
  8
AM_9
100
AcDbLine
 10
2.032478893743494
 20
-0.3099999999999998
 30
0.0
 11
2.032478893743494
 21
0.0000000000000001
 31
0.0
  0
LINE
  5
1FF
330
1CE
100
AcDbEntity
  8
AM_9
100
AcDbLine
 10
1.594978893743494
 20
0.0000000000000001
 30
0.0
 11
1.594978893743494
 21
-0.3099999999999998
 31
0.0
  0
LINE
  5
200
330
1CE
100
AcDbEntity
  8
AM_9
100
AcDbLine
 10
-1.594978893743494
 20
-0.3099999999999998
 30
0.0
 11
-1.594978893743494
 21
0.0000000000000001
 31
0.0
  0
LINE
  5
201
330
1CE
100
AcDbEntity
  8
AM_9
100
AcDbLine
 10
-2.032478893743494
 20
0.0000000000000001
 30
0.0
 11
-2.032478893743494
 21
-0.3099999999999998
 31
0.0
  0
LINE
  5
202
330
1CE
100
AcDbEntity
  8
AM_9
100
AcDbLine
 10
0.21875
 20
-0.5799999999999991
 30
0.0
 11
-0.2187499999999999
 21
-0.5799999999999991
 31
0.0
  0
LINE
  5
203
330
1CE
100
AcDbEntity
  8
AM_5
100
AcDbLine
 10
2.78375
 20
0.0
 30
0.0
 11
2.78375
 21
-0.31
 31
0.0
  0
LINE
  5
204
330
1CE
100
AcDbEntity
  8
AM_5
100
AcDbLine
 10
2.34625
 20
0.0
 30
0.0
 11
2.34625
 21
-0.31
 31
0.0
  0
LINE
  5
205
330
1CE
100
AcDbEntity
  8
AM_5
100
AcDbLine
 10
-2.34625
 20
0.0
 30
0.0
 11
-2.34625
 21
-0.31
 31
0.0
  0
LINE
  5
206
330
1CE
100
AcDbEntity
  8
AM_5
100
AcDbLine
 10
-2.78375
 20
0.0
 30
0.0
 11
-2.78375
 21
-0.3099999999999997
 31
0.0
  0
LINE
  5
209
330
1CE
100
AcDbEntity
  8
AM_7
100
AcDbLine
 10
-1.813728893743494
 20
0.0155000000000001
 30
0.0
 11
-1.813728893743494
 21
-0.3254999999999998
 31
0.0
  0
LINE
  5
20A
330
1CE
100
AcDbEntity
  8
AM_7
100
AcDbLine
 10
1.813728893743494
 20
0.0154999999999999
 30
0.0
 11
1.813728893743494
 21
-0.3255000000000001
 31
0.0
  0
LINE
  5
20B
330
1CE
100
AcDbEntity
  8
AM_7
100
AcDbLine
 10
2.565
 20
0.0155
 30
0.0
 11
2.565
 21
-0.3255
 31
0.0
  0
LINE
  5
20C
330
1CE
100
AcDbEntity
  8
AM_7
100
AcDbLine
 10
-2.565
 20
0.0155
 30
0.0
 11
-2.565
 21
-0.3255
 31
0.0
  0
LINE
  5
20D
330
1CE
100
AcDbEntity
  8
AM_7
100
AcDbLine
 10
0.0
 20
2.409
 30
0.0
 11
0.0
 21
-2.409
 31
0.0
  0
LINE
  5
20E
330
1CE
100
AcDbEntity
  8
AM_4
100
AcDbLine
 10
2.125
 20
-0.5799999999999998
 30
0.0
 11
2.125
 21
-0.31
 31
0.0
  0
LINE
  5
20F
330
1CE
100
AcDbEntity
  8
AM_4
100
AcDbLine
 10
-2.125
 20
-0.31
 30
0.0
 11
-2.125
 21
-0.5799999999999998
 31
0.0
  0
LINE
  5
210
330
1CE
100
AcDbEntity
  8
AM_4
100
AcDbLine
 10
-1.700588932195962
 20
-0.5799999999999997
 30
0.0
 11
-1.700588932195962
 21
-0.3099999999999999
 31
0.0
  0
LINE
  5
211
330
1CE
100
AcDbEntity
  8
AM_4
100
AcDbLine
 10
1.700588932195962
 20
-0.5800000000000003
 30
0.0
 11
1.700588932195962
 21
-0.3099999999999999
 31
0.0
  0
LINE
  5
212
330
1CE
100
AcDbEntity
  8
AM_4
100
AcDbLine
 10
-2.01875
 20
1.61
 30
0.0
 11
2.01875
 21
1.61
 31
0.0
  0
LINE
  5
213
330
1CE
100
AcDbEntity
  8
AM_4
100
AcDbLine
 10
-2.01875
 20
1.61
 30
0.0
 11
-2.028527815457689
 21
1.33
 31
0.0
  0
LINE
  5
214
330
1CE
100
AcDbEntity
  8
AM_4
100
AcDbLine
 10
2.028527815457689
 20
1.33
 30
0.0
 11
2.01875
 21
1.61
 31
0.0
  0
LINE
  5
215
330
1CE
100
AcDbEntity
  8
AM_4
100
AcDbLine
 10
-1.274214379016578
 20
-0.5800000000000002
 30
0.0
 11
-1.274214379016578
 21
-0.3099999999999998
 31
0.0
  0
LINE
  5
216
330
1CE
100
AcDbEntity
  8
AM_4
100
AcDbLine
 10
1.274214379016577
 20
-0.5799999999999997
 30
0.0
 11
1.274214379016576
 21
-0.3099999999999998
 31
0.0
  0
LINE
  5
217
330
1CE
100
AcDbEntity
  8
AM_4
100
AcDbLine
 10
-2.125
 20
1.33
 30
0.0
 11
2.125
 21
1.33
 31
0.0
  0
LINE
  5
218
330
1CE
100
AcDbEntity
  8
AM_4
100
AcDbLine
 10
2.125
 20
0.0
 30
0.0
 11
2.125
 21
1.33
 31
0.0
  0
LINE
  5
219
330
1CE
100
AcDbEntity
  8
AM_4
100
AcDbLine
 10
-2.125
 20
1.33
 30
0.0
 11
-2.125
 21
0.0
 31
0.0
  0
LINE
  5
21A
330
1CE
100
AcDbEntity
  8
AM_4
100
AcDbLine
 10
0.31
 20
-0.3099999999999998
 30
0.0
 11
0.31
 21
-0.5799999999999991
 31
0.0
  0
LINE
  5
21B
330
1CE
100
AcDbEntity
  8
AM_4
100
AcDbLine
 10
-0.31
 20
-0.3099999999999998
 30
0.0
 11
-0.31
 21
-0.5799999999999991
 31
0.0
  0
LINE
  5
21C
330
1CE
100
AcDbEntity
  8
AM_4
100
AcDbLine
 10
-0.2187499999999999
 20
-0.5799999999999991
 30
0.0
 11
-2.125
 21
-0.5799999999999998
 31
0.0
  0
LINE
  5
21D
330
1CE
100
AcDbEntity
  8
AM_4
100
AcDbLine
 10
2.125
 20
-0.5799999999999998
 30
0.0
 11
0.21875
 21
-0.5799999999999991
 31
0.0
  0
LINE
  5
21E
330
1CE
100
AcDbEntity
  8
AM_4
100
AcDbLine
 10
-3.065
 20
-0.31
 30
0.0
 11
3.065
 21
-0.31
 31
0.0
  0
LINE
  5
21F
330
1CE
100
AcDbEntity
  8
AM_4
100
AcDbLine
 10
-3.065
 20
0.0
 30
0.0
 11
3.065
 21
0.0
 31
0.0
  0
LINE
  5
220
330
1CE
100
AcDbEntity
  8
AM_4
100
AcDbLine
 10
3.065
 20
-0.31
 30
0.0
 11
3.065
 21
0.0
 31
0.0
  0
LINE
  5
221
330
1CE
100
AcDbEntity
  8
AM_4
100
AcDbLine
 10
-3.065
 20
0.0
 30
0.0
 11
-3.065
 21
-0.31
 31
0.0
  0
ENDBLK
  5
1D1
330
1CE
100
AcDbEntity
  8
0
100
AcDbBlockEnd
  0
ENDSEC
  0
SECTION
  2
ENTITIES
  0
INSERT
  5
6F
330
1F
100
AcDbEntity
  8
0
100
AcDbBlockReference
  2
1_072282_4
 10
0.0
 20
0.0
 30
0.0
  0
POINT
  5
223
330
1F
100
AcDbEntity
  8
ConnectionPoints
100
AcDbPoint
 10
0.0
 20
-1.339
 30
-1.201388888888889
  0
POINT
  5
224
330
1F
100
AcDbEntity
  8
ConnectionPoints
100
AcDbPoint
 10
0.0
 20
-1.339
 30
1.201388888888889
  0
POINT
  5
225
330
1F
100
AcDbEntity
  8
ConnectionPoints
100
AcDbPoint
 10
0.0
 20
-1.211
 30
0.0000000000000001
  0
POINT
  5
226
330
1F
100
AcDbEntity
  8
ConnectionPoints
100
AcDbPoint
 10
0.0
 20
-1.44
 30
0.0000000000000001
  0
POINT
  5
227
330
1F
100
AcDbEntity
  8
ConnectionPoints
100
AcDbPoint
 10
0.0
 20
-1.41
 30
0.0000000000000001
  0
POINT
  5
228
330
1F
100
AcDbEntity
  8
ConnectionPoints
100
AcDbPoint
 10
0.0
 20
-1.211
 30
1.201388888888889
  0
POINT
  5
229
330
1F
100
AcDbEntity
  8
ConnectionPoints
100
AcDbPoint
 10
0.0
 20
-1.339
 30
1.201388888888889
  0
POINT
  5
22A
330
1F
100
AcDbEntity
  8
ConnectionPoints
100
AcDbPoint
 10
0.0
 20
-1.211
 30
-1.201388888888889
  0
POINT
  5
22B
330
1F
100
AcDbEntity
  8
ConnectionPoints
100
AcDbPoint
 10
0.0
 20
-1.339
 30
-1.201388888888889
  0
POINT
  5
22C
330
1F
100
AcDbEntity
  8
ConnectionPoints
100
AcDbPoint
 10
0.0
 20
-1.211
 30
0.0000000000000001
  0
POINT
  5
22D
330
1F
100
AcDbEntity
  8
ConnectionPoints
100
AcDbPoint
 10
0.0
 20
-0.4449999999999995
 30
2.3375
  0
POINT
  5
22E
330
1F
100
AcDbEntity
  8
ConnectionPoints
100
AcDbPoint
 10
0.0
 20
-0.4450000000000009
 30
-2.337499999999999
  0
POINT
  5
22F
330
1F
100
AcDbEntity
  8
ConnectionPoints
100
AcDbPoint
 10
0.0
 20
-1.19
 30
0.0000000000000001
  0
POINT
  5
230
330
1F
100
AcDbEntity
  8
ConnectionPoints
100
AcDbPoint
 10
0.0
 20
-1.44
 30
0.0000000000000001
  0
ENDSEC
  0
SECTION
  2
OBJECTS
  0
DICTIONARY
  5
C
330
0
100
AcDbDictionary
281
     1
  3
ACAD_DETAILVIEWSTYLE
350
238
  3
ACAD_GROUP
350
D
  3
ACAD_LAYOUT
350
1A
  3
ACAD_MATERIAL
350
43
  3
ACAD_MLEADERSTYLE
350
6B
  3
ACAD_MLINESTYLE
350
17
  3
ACAD_PLOTSETTINGS
350
19
  3
ACAD_PLOTSTYLENAME
350
E
  3
ACAD_SCALELIST
350
47
  3
ACAD_SECTIONVIEWSTYLE
350
239
  3
ACAD_TABLESTYLE
350
69
  3
ACAD_VISUALSTYLE
350
2A
  3
ACDB_RECOMPOSE_DATA
350
235
  3
AcDbVariableDictionary
350
231
  0
SUN
  5
6D
330
29
100
AcDbSun
 90
        1
290
     0
 63
     7
421
 16777215
 40
1.0
291
     1
 91
  2455826
 92
 54000000
292
     0
 70
     2
 71
   256
280
     1
  0
DICTIONARY
  5
238
102
{ACAD_REACTORS
330
C
102
}
330
C
100
AcDbDictionary
281
     1
  0
DICTIONARY
  5
D
102
{ACAD_REACTORS
330
C
102
}
330
C
100
AcDbDictionary
281
     1
  0
DICTIONARY
  5
1A
102
{ACAD_REACTORS
330
C
102
}
330
C
100
AcDbDictionary
281
     1
  3
Layout1
350
1E
  3
Layout2
350
26
  3
Model
350
22
  0
DICTIONARY
  5
43
102
{ACAD_REACTORS
330
C
102
}
330
C
100
AcDbDictionary
281
     1
  3
ByBlock
350
45
  3
ByLayer
350
44
  3
Global
350
46
  0
DICTIONARY
  5
6B
102
{ACAD_REACTORS
330
C
102
}
330
C
100
AcDbDictionary
281
     1
  3
Standard
350
6C
  0
DICTIONARY
  5
17
102
{ACAD_REACTORS
330
C
102
}
330
C
100
AcDbDictionary
281
     1
  3
Standard
350
18
  0
DICTIONARY
  5
19
102
{ACAD_REACTORS
330
C
102
}
330
C
100
AcDbDictionary
281
     1
  0
ACDBDICTIONARYWDFLT
  5
E
102
{ACAD_REACTORS
330
C
102
}
330
C
100
AcDbDictionary
281
     1
  3
Normal
350
F
100
AcDbDictionaryWithDefault
340
F
  0
DICTIONARY
  5
47
102
{ACAD_REACTORS
330
C
102
}
330
C
100
AcDbDictionary
281
     1
  3
A0
350
48
  3
A1
350
49
  3
A2
350
4A
  3
A3
350
4B
  3
A4
350
4C
  3
A5
350
4D
  3
A6
350
4E
  3
A7
350
4F
  3
A8
350
50
  3
A9
350
51
  3
B0
350
52
  3
B1
350
53
  3
B2
350
54
  3
B3
350
55
  3
B4
350
56
  3
B5
350
57
  3
B6
350
58
  3
B7
350
59
  3
B8
350
5A
  3
B9
350
5B
  3
C0
350
5C
  3
C1
350
5D
  3
C2
350
5E
  3
C3
350
5F
  3
C4
350
60
  3
C5
350
61
  3
C6
350
62
  3
C7
350
63
  3
C8
350
64
  3
C9
350
65
  3
D0
350
66
  3
D1
350
67
  3
D2
350
68
  0
DICTIONARY
  5
239
102
{ACAD_REACTORS
330
C
102
}
330
C
100
AcDbDictionary
281
     1
  0
DICTIONARY
  5
69
102
{ACAD_REACTORS
330
C
102
}
330
C
100
AcDbDictionary
281
     1
  3
Standard
350
6A
  0
DICTIONARY
  5
2A
102
{ACAD_REACTORS
330
C
102
}
330
C
100
AcDbDictionary
281
     1
  3
2dWireframe
350
2F
  3
Basic
350
32
  3
Brighten
350
36
  3
ColorChange
350
3A
  3
Conceptual
350
34
  3
Dim
350
35
  3
EdgeColorOff
350
3D
  3
Facepattern
350
39
  3
Flat
350
2B
  3
FlatWithEdges
350
2C
  3
Gouraud
350
2D
  3
GouraudWithEdges
350
2E
  3
Hidden
350
31
  3
JitterOff
350
3B
  3
Linepattern
350
38
  3
OverhangOff
350
3C
  3
Realistic
350
33
  3
Shaded
350
42
  3
Shaded with edges
350
41
  3
Shades of Gray
350
3E
  3
Sketchy
350
3F
  3
Thicken
350
37
  3
Wireframe
350
30
  3
X-Ray
350
40
  0
XRECORD
  5
235
102
{ACAD_REACTORS
330
C
102
}
330
C
100
AcDbXrecord
280
     1
 90
        1
330
6A
  0
DICTIONARY
  5
231
102
{ACAD_REACTORS
330
C
102
}
330
C
100
AcDbDictionary
281
     1
  3
CANNOSCALE
350
232
  3
CMLEADERSTYLE
350
237
  3
CTABLESTYLE
350
236
  0
LAYOUT
  5
1E
102
{ACAD_REACTORS
330
1A
102
}
330
1A
100
AcDbPlotSettings
  1

  2
none_device
  4

  6

 40
0.0
 41
0.0
 42
0.0
 43
0.0
 44
0.0
 45
0.0
 46
0.0
 47
0.0
 48
0.0
 49
0.0
140
0.0
141
0.0
142
1.0
143
1.0
 70
   688
 72
     0
 73
     0
 74
     5
  7

 75
    16
 76
     0
 77
     2
 78
   300
147
1.0
148
0.0
149
0.0
100
AcDbLayout
  1
Layout1
 70
     1
 71
     1
 10
0.0
 20
0.0
 11
12.0
 21
9.0
 12
0.0
 22
0.0
 32
0.0
 14
1.000000000000000E+20
 24
1.000000000000000E+20
 34
1.000000000000000E+20
 15
-1.000000000000000E+20
 25
-1.000000000000000E+20
 35
-1.000000000000000E+20
146
0.0
 13
0.0
 23
0.0
 33
0.0
 16
1.0
 26
0.0
 36
0.0
 17
0.0
 27
1.0
 37
0.0
 76
     0
330
1B
  0
LAYOUT
  5
26
102
{ACAD_REACTORS
330
1A
102
}
330
1A
100
AcDbPlotSettings
  1

  2
none_device
  4

  6

 40
0.0
 41
0.0
 42
0.0
 43
0.0
 44
0.0
 45
0.0
 46
0.0
 47
0.0
 48
0.0
 49
0.0
140
0.0
141
0.0
142
1.0
143
1.0
 70
   688
 72
     0
 73
     0
 74
     5
  7

 75
    16
 76
     0
 77
     2
 78
   300
147
1.0
148
0.0
149
0.0
100
AcDbLayout
  1
Layout2
 70
     1
 71
     2
 10
0.0
 20
0.0
 11
0.0
 21
0.0
 12
0.0
 22
0.0
 32
0.0
 14
0.0
 24
0.0
 34
0.0
 15
0.0
 25
0.0
 35
0.0
146
0.0
 13
0.0
 23
0.0
 33
0.0
 16
1.0
 26
0.0
 36
0.0
 17
0.0
 27
1.0
 37
0.0
 76
     0
330
23
  0
LAYOUT
  5
22
102
{ACAD_REACTORS
330
1A
102
}
330
1A
100
AcDbPlotSettings
  1

  2
none_device
  4
Letter_(8.50_x_11.00_Inches)
  6

 40
6.35
 41
6.35
 42
6.35000508
 43
6.35000508
 44
215.9
 45
279.4
 46
0.0
 47
0.0
 48
0.0
 49
0.0
140
0.0
141
0.0
142
1.0
143
1.0
 70
  1712
 72
     0
 73
     0
 74
     0
  7

 75
     0
 76
     0
 77
     2
 78
   300
147
1.0
148
0.0
149
0.0
100
AcDbLayout
  1
Model
 70
     1
 71
     0
 10
0.0
 20
0.0
 11
12.0
 21
9.0
 12
0.0
 22
0.0
 32
0.0
 14
1.000000000000000E+20
 24
1.000000000000000E+20
 34
1.000000000000000E+20
 15
-1.000000000000000E+20
 25
-1.000000000000000E+20
 35
-1.000000000000000E+20
146
0.0
 13
0.0
 23
0.0
 33
0.0
 16
1.0
 26
0.0
 36
0.0
 17
0.0
 27
1.0
 37
0.0
 76
     0
330
1F
331
29
  0
MATERIAL
  5
45
102
{ACAD_REACTORS
330
43
102
}
330
43
100
AcDbMaterial
  1
ByBlock
 72
     1
 94
      127
  0
MATERIAL
  5
44
102
{ACAD_REACTORS
330
43
102
}
330
43
100
AcDbMaterial
  1
ByLayer
 72
     1
 94
      127
  0
MATERIAL
  5
46
102
{ACAD_REACTORS
330
43
102
}
330
43
100
AcDbMaterial
  1
Global
 72
     1
 94
      127
  0
MLEADERSTYLE
  5
6C
102
{ACAD_REACTORS
330
6B
102
}
330
6B
100
AcDbMLeaderStyle
179
     2
170
     2
171
     1
172
     0
 90
        2
 40
0.0
 41
0.0
173
     1
 91
-1056964608
340
14
 92
       -2
290
     1
 42
0.09
291
     1
 43
0.36
  3
Standard
341
0
 44
0.18
300

342
11
174
     1
178
     6
175
     1
176
     0
 93
-1056964608
 45
0.18
292
     0
297
     0
 46
0.18
343
0
 94
-1056964608
 47
1.0
 49
1.0
140
1.0
293
     1
141
0.0
294
     1
177
     0
142
1.0
295
     0
296
     0
143
0.125
271
     0
272
     9
273
     9
298
     0
  0
MLINESTYLE
  5
18
102
{ACAD_REACTORS
330
17
102
}
330
17
100
AcDbMlineStyle
  2
Standard
 70
     0
  3

 62
   256
 51
90.0
 52
90.0
 71
     2
 49
0.5
 62
   256
  6
BYLAYER
 49
-0.5
 62
   256
  6
BYLAYER
  0
ACDBPLACEHOLDER
  5
F
102
{ACAD_REACTORS
330
E
102
}
330
E
  0
SCALE
  5
48
102
{ACAD_REACTORS
330
47
102
}
330
47
100
AcDbScale
 70
     0
300
1:1
140
1.0
141
1.0
290
     1
  0
SCALE
  5
49
102
{ACAD_REACTORS
330
47
102
}
330
47
100
AcDbScale
 70
     0
300
1:2
140
1.0
141
2.0
290
     0
  0
SCALE
  5
4A
102
{ACAD_REACTORS
330
47
102
}
330
47
100
AcDbScale
 70
     0
300
1:4
140
1.0
141
4.0
290
     0
  0
SCALE
  5
4B
102
{ACAD_REACTORS
330
47
102
}
330
47
100
AcDbScale
 70
     0
300
1:5
140
1.0
141
5.0
290
     0
  0
SCALE
  5
4C
102
{ACAD_REACTORS
330
47
102
}
330
47
100
AcDbScale
 70
     0
300
1:8
140
1.0
141
8.0
290
     0
  0
SCALE
  5
4D
102
{ACAD_REACTORS
330
47
102
}
330
47
100
AcDbScale
 70
     0
300
1:10
140
1.0
141
10.0
290
     0
  0
SCALE
  5
4E
102
{ACAD_REACTORS
330
47
102
}
330
47
100
AcDbScale
 70
     0
300
1:16
140
1.0
141
16.0
290
     0
  0
SCALE
  5
4F
102
{ACAD_REACTORS
330
47
102
}
330
47
100
AcDbScale
 70
     0
300
1:20
140
1.0
141
20.0
290
     0
  0
SCALE
  5
50
102
{ACAD_REACTORS
330
47
102
}
330
47
100
AcDbScale
 70
     0
300
1:30
140
1.0
141
30.0
290
     0
  0
SCALE
  5
51
102
{ACAD_REACTORS
330
47
102
}
330
47
100
AcDbScale
 70
     0
300
1:40
140
1.0
141
40.0
290
     0
  0
SCALE
  5
52
102
{ACAD_REACTORS
330
47
102
}
330
47
100
AcDbScale
 70
     0
300
1:50
140
1.0
141
50.0
290
     0
  0
SCALE
  5
53
102
{ACAD_REACTORS
330
47
102
}
330
47
100
AcDbScale
 70
     0
300
1:100
140
1.0
141
100.0
290
     0
  0
SCALE
  5
54
102
{ACAD_REACTORS
330
47
102
}
330
47
100
AcDbScale
 70
     0
300
2:1
140
2.0
141
1.0
290
     0
  0
SCALE
  5
55
102
{ACAD_REACTORS
330
47
102
}
330
47
100
AcDbScale
 70
     0
300
4:1
140
4.0
141
1.0
290
     0
  0
SCALE
  5
56
102
{ACAD_REACTORS
330
47
102
}
330
47
100
AcDbScale
 70
     0
300
8:1
140
8.0
141
1.0
290
     0
  0
SCALE
  5
57
102
{ACAD_REACTORS
330
47
102
}
330
47
100
AcDbScale
 70
     0
300
10:1
140
10.0
141
1.0
290
     0
  0
SCALE
  5
58
102
{ACAD_REACTORS
330
47
102
}
330
47
100
AcDbScale
 70
     0
300
100:1
140
100.0
141
1.0
290
     0
  0
SCALE
  5
59
102
{ACAD_REACTORS
330
47
102
}
330
47
100
AcDbScale
 70
     0
300
1/128" = 1'-0"
140
0.0078125
141
12.0
290
     0
  0
SCALE
  5
5A
102
{ACAD_REACTORS
330
47
102
}
330
47
100
AcDbScale
 70
     0
300
1/64" = 1'-0"
140
0.015625
141
12.0
290
     0
  0
SCALE
  5
5B
102
{ACAD_REACTORS
330
47
102
}
330
47
100
AcDbScale
 70
     0
300
1/32" = 1'-0"
140
0.03125
141
12.0
290
     0
  0
SCALE
  5
5C
102
{ACAD_REACTORS
330
47
102
}
330
47
100
AcDbScale
 70
     0
300
1/16" = 1'-0"
140
0.0625
141
12.0
290
     0
  0
SCALE
  5
5D
102
{ACAD_REACTORS
330
47
102
}
330
47
100
AcDbScale
 70
     0
300
3/32" = 1'-0"
140
0.09375
141
12.0
290
     0
  0
SCALE
  5
5E
102
{ACAD_REACTORS
330
47
102
}
330
47
100
AcDbScale
 70
     0
300
1/8" = 1'-0"
140
0.125
141
12.0
290
     0
  0
SCALE
  5
5F
102
{ACAD_REACTORS
330
47
102
}
330
47
100
AcDbScale
 70
     0
300
3/16" = 1'-0"
140
0.1875
141
12.0
290
     0
  0
SCALE
  5
60
102
{ACAD_REACTORS
330
47
102
}
330
47
100
AcDbScale
 70
     0
300
1/4" = 1'-0"
140
0.25
141
12.0
290
     0
  0
SCALE
  5
61
102
{ACAD_REACTORS
330
47
102
}
330
47
100
AcDbScale
 70
     0
300
3/8" = 1'-0"
140
0.375
141
12.0
290
     0
  0
SCALE
  5
62
102
{ACAD_REACTORS
330
47
102
}
330
47
100
AcDbScale
 70
     0
300
1/2" = 1'-0"
140
0.5
141
12.0
290
     0
  0
SCALE
  5
63
102
{ACAD_REACTORS
330
47
102
}
330
47
100
AcDbScale
 70
     0
300
3/4" = 1'-0"
140
0.75
141
12.0
290
     0
  0
SCALE
  5
64
102
{ACAD_REACTORS
330
47
102
}
330
47
100
AcDbScale
 70
     0
300
1" = 1'-0"
140
1.0
141
12.0
290
     0
  0
SCALE
  5
65
102
{ACAD_REACTORS
330
47
102
}
330
47
100
AcDbScale
 70
     0
300
1-1/2" = 1'-0"
140
1.5
141
12.0
290
     0
  0
SCALE
  5
66
102
{ACAD_REACTORS
330
47
102
}
330
47
100
AcDbScale
 70
     0
300
3" = 1'-0"
140
3.0
141
12.0
290
     0
  0
SCALE
  5
67
102
{ACAD_REACTORS
330
47
102
}
330
47
100
AcDbScale
 70
     0
300
6" = 1'-0"
140
6.0
141
12.0
290
     0
  0
SCALE
  5
68
102
{ACAD_REACTORS
330
47
102
}
330
47
100
AcDbScale
 70
     0
300
1'-0" = 1'-0"
140
12.0
141
12.0
290
     0
  0
TABLESTYLE
  5
6A
102
{ACAD_REACTORS
330
69
102
}
102
{ACAD_XDICTIONARY
360
233
102
}
330
69
100
AcDbTableStyle
  3
Standard
 70
     0
 71
     0
 40
0.06
 41
0.06
280
     0
281
     0
  7
Standard
140
0.18
170
     2
 62
     0
 63
   257
283
     0
 90
        4
 91
        0
  1

274
    -2
284
     1
 64
     0
275
    -2
285
     1
 65
     0
276
    -2
286
     1
 66
     0
277
    -2
287
     1
 67
     0
278
    -2
288
     1
 68
     0
279
    -2
289
     1
 69
     0
  7
Standard
140
0.25
170
     5
 62
     0
 63
   257
283
     0
 90
        4
 91
        0
  1

274
    -2
284
     1
 64
     0
275
    -2
285
     1
 65
     0
276
    -2
286
     1
 66
     0
277
    -2
287
     1
 67
     0
278
    -2
288
     1
 68
     0
279
    -2
289
     1
 69
     0
  7
Standard
140
0.18
170
     5
 62
     0
 63
   257
283
     0
 90
        4
 91
        0
  1

274
    -2
284
     1
 64
     0
275
    -2
285
     1
 65
     0
276
    -2
286
     1
 66
     0
277
    -2
287
     1
 67
     0
278
    -2
288
     1
 68
     0
279
    -2
289
     1
 69
     0
  0
VISUALSTYLE
  5
2F
102
{ACAD_REACTORS
330
2A
102
}
330
2A
100
AcDbVisualStyle
  2
2dWireframe
 70
     4
177
     3
291
     0
 70
    58
 90
        0
176
     1
 90
        2
176
     1
 90
        0
176
     1
 90
        0
176
     1
 40
0.6
176
     1
 40
30.0
176
     1
 62
     7
420
 16777215
176
     1
 90
        1
176
     1
 90
        4
176
     1
 62
     7
176
     1
 62
   257
176
     1
 90
        1
176
     1
 90
        1
176
     1
 40
1.0
176
     1
 90
        0
176
     1
 62
   257
176
     1
 40
1.0
176
     1
 90
        1
176
     1
 90
        6
176
     1
 90
        2
176
     1
 62
     7
176
     1
 90
        5
176
     1
 90
        0
176
     1
 90
        0
176
     1
290
     0
176
     1
 90
        1
176
     1
 40
0.0
176
     1
 90
        0
176
     1
290
     1
176
     1
290
     1
176
     1
290
     0
176
     1
290
     0
176
     1
290
     0
176
     1
290
     0
176
     1
290
     0
176
     1
290
     0
176
     1
290
     0
176
     1
 90
       50
176
     1
 40
0.0
176
     1
 40
1.0
176
     1
 90
        0
176
     1
 62
    18
420
        0
176
     1
 90
       50
176
     1
 90
        3
176
     1
 62
     5
420
      255
176
     1
290
     0
176
     1
 90
       50
176
     1
 90
       50
176
     1
 90
       50
176
     1
290
     0
176
     1
 90
       50
176
     1
 62
   256
176
     0
 40
1.0
176
     0
 90
        2
176
     1
  1
strokes_ogs.tif
176
     1
290
     0
176
     1
 40
1.0
176
     1
 40
1.0
176
     1
  0
VISUALSTYLE
  5
32
102
{ACAD_REACTORS
330
2A
102
}
330
2A
100
AcDbVisualStyle
  2
Basic
 70
     7
177
     3
291
     1
 70
    58
 90
        1
176
     1
 90
        0
176
     1
 90
        1
176
     1
 90
        0
176
     1
 40
0.6
176
     1
 40
30.0
176
     1
 62
     7
420
 16777215
176
     1
 90
        0
176
     1
 90
        4
176
     1
 62
     7
176
     1
 62
   257
176
     1
 90
        1
176
     1
 90
        1
176
     1
 40
1.0
176
     1
 90
        8
176
     1
 62
     7
176
     1
 40
1.0
176
     1
 90
        1
176
     1
 90
        6
176
     1
 90
        2
176
     1
 62
     7
176
     1
 90
        5
176
     1
 90
        0
176
     1
 90
        0
176
     1
290
     0
176
     1
 90
        1
176
     1
 40
0.0
176
     1
 90
        0
176
     1
290
     0
176
     1
290
     1
176
     1
290
     1
176
     1
290
     0
176
     1
290
     0
176
     1
290
     0
176
     1
290
     0
176
     1
290
     0
176
     1
290
     0
176
     1
 90
       50
176
     1
 40
0.0
176
     1
 40
1.0
176
     1
 90
        0
176
     1
 62
    18
420
        0
176
     1
 90
       50
176
     1
 90
        3
176
     1
 62
     5
420
      255
176
     1
290
     0
176
     1
 90
       50
176
     1
 90
       50
176
     1
 90
       50
176
     1
290
     0
176
     1
 90
       50
176
     1
 62
   256
176
     0
 40
1.0
176
     0
 90
        2
176
     1
  1
strokes_ogs.tif
176
     1
290
     0
176
     1
 40
1.0
176
     1
 40
1.0
176
     1
  0
VISUALSTYLE
  5
36
102
{ACAD_REACTORS
330
2A
102
}
330
2A
100
AcDbVisualStyle
  2
Brighten
 70
    12
177
     3
291
     1
 70
    58
 90
        2
176
     1
 90
        2
176
     1
 90
        0
176
     1
 90
        0
176
     1
 40
0.6
176
     1
 40
30.0
176
     1
 62
     7
420
 16777215
176
     1
 90
        1
176
     1
 90
        4
176
     1
 62
     7
176
     1
 62
   257
176
     1
 90
        1
176
     1
 90
        1
176
     1
 40
1.0
176
     1
 90
        8
176
     1
 62
     7
176
     1
 40
1.0
176
     1
 90
        1
176
     1
 90
        6
176
     1
 90
        2
176
     1
 62
     7
176
     1
 90
        5
176
     1
 90
        0
176
     1
 90
        0
176
     1
290
     0
176
     1
 90
        1
176
     1
 40
50.0
176
     1
 90
        0
176
     1
290
     0
176
     1
290
     1
176
     1
290
     1
176
     1
290
     0
176
     1
290
     0
176
     1
290
     0
176
     1
290
     0
176
     1
290
     0
176
     1
290
     0
176
     1
 90
       50
176
     1
 40
0.0
176
     1
 40
1.0
176
     1
 90
        0
176
     1
 62
    18
420
        0
176
     1
 90
       50
176
     1
 90
        3
176
     1
 62
     5
420
      255
176
     1
290
     0
176
     1
 90
       50
176
     1
 90
       50
176
     1
 90
       50
176
     1
290
     0
176
     1
 90
       50
176
     1
 62
   256
176
     0
 40
1.0
176
     0
 90
        2
176
     1
  1
strokes_ogs.tif
176
     1
290
     0
176
     1
 40
1.0
176
     1
 40
1.0
176
     1
  0
VISUALSTYLE
  5
3A
102
{ACAD_REACTORS
330
2A
102
}
330
2A
100
AcDbVisualStyle
  2
ColorChange
 70
    16
177
     3
291
     1
 70
    58
 90
        2
176
     1
 90
        2
176
     1
 90
        3
176
     1
 90
        0
176
     1
 40
0.6
176
     1
 40
30.0
176
     1
 62
     8
420
  8421504
176
     1
 90
        1
176
     1
 90
        4
176
     1
 62
     7
176
     1
 62
   257
176
     1
 90
        1
176
     1
 90
        1
176
     1
 40
1.0
176
     1
 90
        8
176
     1
 62
     8
420
  8421504
176
     1
 40
1.0
176
     1
 90
        1
176
     1
 90
        6
176
     1
 90
        2
176
     1
 62
     7
176
     1
 90
        5
176
     1
 90
        0
176
     1
 90
        0
176
     1
290
     0
176
     1
 90
        1
176
     1
 40
0.0
176
     1
 90
        0
176
     1
290
     0
176
     1
290
     1
176
     1
290
     1
176
     1
290
     0
176
     1
290
     0
176
     1
290
     0
176
     1
290
     0
176
     1
290
     0
176
     1
290
     0
176
     1
 90
       50
176
     1
 40
0.0
176
     1
 40
1.0
176
     1
 90
        0
176
     1
 62
    18
420
        0
176
     1
 90
       50
176
     1
 90
        3
176
     1
 62
     5
420
      255
176
     1
290
     0
176
     1
 90
       50
176
     1
 90
       50
176
     1
 90
       50
176
     1
290
     0
176
     1
 90
       50
176
     1
 62
   256
176
     0
 40
1.0
176
     0
 90
        2
176
     1
  1
strokes_ogs.tif
176
     1
290
     0
176
     1
 40
1.0
176
     1
 40
1.0
176
     1
  0
VISUALSTYLE
  5
34
102
{ACAD_REACTORS
330
2A
102
}
330
2A
100
AcDbVisualStyle
  2
Conceptual
 70
     9
177
     3
291
     0
 70
    58
 90
        3
176
     1
 90
        2
176
     1
 90
        0
176
     1
 90
        0
176
     1
 40
0.6
176
     1
 40
30.0
176
     1
 62
     7
420
 16777215
176
     1
 90
        2
176
     1
 90
        2
176
     1
 62
     7
176
     1
 62
   257
176
     1
 90
        1
176
     1
 90
        1
176
     1
 40
179.0
176
     1
 90
        8
176
     1
 62
     7
176
     1
 40
1.0
176
     1
 90
        1
176
     1
 90
        6
176
     1
 90
        2
176
     1
 62
     7
176
     1
 90
        3
176
     1
 90
        0
176
     1
 90
        0
176
     1
290
     0
176
     1
 90
        1
176
     1
 40
0.0
176
     1
 90
        0
176
     1
290
     0
176
     1
290
     1
176
     1
290
     1
176
     1
290
     0
176
     1
290
     0
176
     1
290
     0
176
     1
290
     0
176
     1
290
     0
176
     1
290
     0
176
     1
 90
       50
176
     1
 40
0.0
176
     1
 40
1.0
176
     1
 90
        0
176
     1
 62
    18
420
        0
176
     1
 90
       50
176
     1
 90
        3
176
     1
 62
     5
420
      255
176
     1
290
     0
176
     1
 90
       50
176
     1
 90
       50
176
     1
 90
       50
176
     1
290
     0
176
     1
 90
       50
176
     1
 62
   256
176
     0
 40
1.0
176
     0
 90
        2
176
     1
  1
strokes_ogs.tif
176
     1
290
     0
176
     1
 40
1.0
176
     1
 40
1.0
176
     1
  0
VISUALSTYLE
  5
35
102
{ACAD_REACTORS
330
2A
102
}
330
2A
100
AcDbVisualStyle
  2
Dim
 70
    11
177
     3
291
     1
 70
    58
 90
        2
176
     1
 90
        2
176
     1
 90
        0
176
     1
 90
        0
176
     1
 40
0.6
176
     1
 40
30.0
176
     1
 62
     7
420
 16777215
176
     1
 90
        1
176
     1
 90
        4
176
     1
 62
     7
176
     1
 62
   257
176
     1
 90
        1
176
     1
 90
        1
176
     1
 40
1.0
176
     1
 90
        8
176
     1
 62
     7
176
     1
 40
1.0
176
     1
 90
        1
176
     1
 90
        6
176
     1
 90
        2
176
     1
 62
     7
176
     1
 90
        5
176
     1
 90
        0
176
     1
 90
        0
176
     1
290
     0
176
     1
 90
        1
176
     1
 40
-50.0
176
     1
 90
        0
176
     1
290
     0
176
     1
290
     1
176
     1
290
     1
176
     1
290
     0
176
     1
290
     0
176
     1
290
     0
176
     1
290
     0
176
     1
290
     0
176
     1
290
     0
176
     1
 90
       50
176
     1
 40
0.0
176
     1
 40
1.0
176
     1
 90
        0
176
     1
 62
    18
420
        0
176
     1
 90
       50
176
     1
 90
        3
176
     1
 62
     5
420
      255
176
     1
290
     0
176
     1
 90
       50
176
     1
 90
       50
176
     1
 90
       50
176
     1
290
     0
176
     1
 90
       50
176
     1
 62
   256
176
     0
 40
1.0
176
     0
 90
        2
176
     1
  1
strokes_ogs.tif
176
     1
290
     0
176
     1
 40
1.0
176
     1
 40
1.0
176
     1
  0
VISUALSTYLE
  5
3D
102
{ACAD_REACTORS
330
2A
102
}
330
2A
100
AcDbVisualStyle
  2
EdgeColorOff
 70
    22
177
     3
291
     1
 70
    58
 90
        2
176
     0
 90
        2
176
     0
 90
        0
176
     0
 90
        0
176
     0
 40
0.6
176
     0
 40
30.0
176
     0
 62
     7
420
 16777215
176
     0
 90
        1
176
     0
 90
        4
176
     0
 62
     7
176
     0
 62
   257
176
     0
 90
        1
176
     0
 90
        1
176
     0
 40
1.0
176
     0
 90
        8
176
     2
 62
     7
176
     0
 40
1.0
176
     0
 90
        1
176
     0
 90
        6
176
     0
 90
        2
176
     0
 62
     7
176
     0
 90
        5
176
     0
 90
        0
176
     0
 90
        0
176
     0
290
     0
176
     0
 90
        1
176
     0
 40
0.0
176
     0
 90
        0
176
     0
290
     0
176
     0
290
     1
176
     0
290
     1
176
     0
290
     0
176
     0
290
     0
176
     0
290
     0
176
     0
290
     0
176
     0
290
     0
176
     0
290
     0
176
     0
 90
       50
176
     0
 40
0.0
176
     0
 40
1.0
176
     0
 90
        0
176
     0
 62
    18
420
        0
176
     0
 90
       50
176
     0
 90
        3
176
     0
 62
     5
420
      255
176
     0
290
     0
176
     0
 90
       50
176
     0
 90
       50
176
     0
 90
       50
176
     0
290
     0
176
     0
 90
       50
176
     0
 62
   256
176
     0
 40
1.0
176
     0
 90
        2
176
     0
  1
strokes_ogs.tif
176
     0
290
     0
176
     0
 40
1.0
176
     0
 40
1.0
176
     0
  0
VISUALSTYLE
  5
39
102
{ACAD_REACTORS
330
2A
102
}
330
2A
100
AcDbVisualStyle
  2
Facepattern
 70
    15
177
     3
291
     1
 70
    58
 90
        2
176
     1
 90
        2
176
     1
 90
        0
176
     1
 90
        0
176
     1
 40
0.6
176
     1
 40
30.0
176
     1
 62
     7
420
 16777215
176
     1
 90
        1
176
     1
 90
        4
176
     1
 62
     7
176
     1
 62
   257
176
     1
 90
        1
176
     1
 90
        1
176
     1
 40
1.0
176
     1
 90
        8
176
     1
 62
     7
176
     1
 40
1.0
176
     1
 90
        1
176
     1
 90
        6
176
     1
 90
        2
176
     1
 62
     7
176
     1
 90
        5
176
     1
 90
        0
176
     1
 90
        0
176
     1
290
     0
176
     1
 90
        1
176
     1
 40
0.0
176
     1
 90
        0
176
     1
290
     0
176
     1
290
     1
176
     1
290
     1
176
     1
290
     0
176
     1
290
     0
176
     1
290
     0
176
     1
290
     0
176
     1
290
     0
176
     1
290
     0
176
     1
 90
       50
176
     1
 40
0.0
176
     1
 40
1.0
176
     1
 90
        0
176
     1
 62
    18
420
        0
176
     1
 90
       50
176
     1
 90
        3
176
     1
 62
     5
420
      255
176
     1
290
     0
176
     1
 90
       50
176
     1
 90
       50
176
     1
 90
       50
176
     1
290
     0
176
     1
 90
       50
176
     1
 62
   256
176
     0
 40
1.0
176
     0
 90
        2
176
     1
  1
strokes_ogs.tif
176
     1
290
     0
176
     1
 40
1.0
176
     1
 40
1.0
176
     1
  0
VISUALSTYLE
  5
2B
102
{ACAD_REACTORS
330
2A
102
}
330
2A
100
AcDbVisualStyle
  2
Flat
 70
     0
177
     3
291
     1
 70
    58
 90
        2
176
     1
 90
        1
176
     1
 90
        1
176
     1
 90
        2
176
     1
 40
0.6
176
     1
 40
30.0
176
     1
 62
     7
420
 16777215
176
     1
 90
        0
176
     1
 90
        0
176
     1
 62
     7
176
     1
 62
   257
176
     1
 90
        1
176
     1
 90
        1
176
     1
 40
1.0
176
     1
 90
        8
176
     1
 62
     7
176
     1
 40
1.0
176
     1
 90
        1
176
     1
 90
        6
176
     1
 90
        2
176
     1
 62
     7
176
     1
 90
        5
176
     1
 90
        0
176
     1
 90
        0
176
     1
290
     0
176
     1
 90
       13
176
     1
 40
0.0
176
     1
 90
        0
176
     1
290
     0
176
     1
290
     1
176
     1
290
     1
176
     1
290
     0
176
     1
290
     0
176
     1
290
     0
176
     1
290
     0
176
     1
290
     0
176
     1
290
     0
176
     1
 90
       50
176
     1
 40
0.0
176
     1
 40
1.0
176
     1
 90
        0
176
     1
 62
    18
420
        0
176
     1
 90
       50
176
     1
 90
        3
176
     1
 62
     5
420
      255
176
     1
290
     0
176
     1
 90
       50
176
     1
 90
       50
176
     1
 90
       50
176
     1
290
     0
176
     1
 90
       50
176
     1
 62
   256
176
     0
 40
1.0
176
     0
 90
        2
176
     1
  1
strokes_ogs.tif
176
     1
290
     0
176
     1
 40
1.0
176
     1
 40
1.0
176
     1
  0
VISUALSTYLE
  5
2C
102
{ACAD_REACTORS
330
2A
102
}
330
2A
100
AcDbVisualStyle
  2
FlatWithEdges
 70
     1
177
     3
291
     1
 70
    58
 90
        2
176
     1
 90
        1
176
     1
 90
        1
176
     1
 90
        2
176
     1
 40
0.6
176
     1
 40
30.0
176
     1
 62
     7
420
 16777215
176
     1
 90
        1
176
     1
 90
        0
176
     1
 62
     7
176
     1
 62
   257
176
     1
 90
        1
176
     1
 90
        1
176
     1
 40
1.0
176
     1
 90
        0
176
     1
 62
   257
176
     1
 40
1.0
176
     1
 90
        1
176
     1
 90
        6
176
     1
 90
        2
176
     1
 62
     7
176
     1
 90
        5
176
     1
 90
        0
176
     1
 90
        0
176
     1
290
     0
176
     1
 90
       13
176
     1
 40
0.0
176
     1
 90
        0
176
     1
290
     0
176
     1
290
     1
176
     1
290
     1
176
     1
290
     0
176
     1
290
     0
176
     1
290
     0
176
     1
290
     0
176
     1
290
     0
176
     1
290
     0
176
     1
 90
       50
176
     1
 40
0.0
176
     1
 40
1.0
176
     1
 90
        0
176
     1
 62
    18
420
        0
176
     1
 90
       50
176
     1
 90
        3
176
     1
 62
     5
420
      255
176
     1
290
     0
176
     1
 90
       50
176
     1
 90
       50
176
     1
 90
       50
176
     1
290
     0
176
     1
 90
       50
176
     1
 62
   256
176
     0
 40
1.0
176
     0
 90
        2
176
     1
  1
strokes_ogs.tif
176
     1
290
     0
176
     1
 40
1.0
176
     1
 40
1.0
176
     1
  0
VISUALSTYLE
  5
2D
102
{ACAD_REACTORS
330
2A
102
}
330
2A
100
AcDbVisualStyle
  2
Gouraud
 70
     2
177
     3
291
     1
 70
    58
 90
        2
176
     1
 90
        2
176
     1
 90
        1
176
     1
 90
        2
176
     1
 40
0.6
176
     1
 40
30.0
176
     1
 62
     7
420
 16777215
176
     1
 90
        0
176
     1
 90
        0
176
     1
 62
     7
176
     1
 62
   257
176
     1
 90
        1
176
     1
 90
        1
176
     1
 40
1.0
176
     1
 90
        0
176
     1
 62
     7
176
     1
 40
1.0
176
     1
 90
        1
176
     1
 90
        6
176
     1
 90
        2
176
     1
 62
     7
176
     1
 90
        5
176
     1
 90
        0
176
     1
 90
        0
176
     1
290
     0
176
     1
 90
       13
176
     1
 40
0.0
176
     1
 90
        0
176
     1
290
     0
176
     1
290
     1
176
     1
290
     1
176
     1
290
     0
176
     1
290
     0
176
     1
290
     0
176
     1
290
     0
176
     1
290
     0
176
     1
290
     0
176
     1
 90
       50
176
     1
 40
0.0
176
     1
 40
1.0
176
     1
 90
        0
176
     1
 62
    18
420
        0
176
     1
 90
       50
176
     1
 90
        3
176
     1
 62
     5
420
      255
176
     1
290
     0
176
     1
 90
       50
176
     1
 90
       50
176
     1
 90
       50
176
     1
290
     0
176
     1
 90
       50
176
     1
 62
   256
176
     0
 40
1.0
176
     0
 90
        2
176
     1
  1
strokes_ogs.tif
176
     1
290
     0
176
     1
 40
1.0
176
     1
 40
1.0
176
     1
  0
VISUALSTYLE
  5
2E
102
{ACAD_REACTORS
330
2A
102
}
330
2A
100
AcDbVisualStyle
  2
GouraudWithEdges
 70
     3
177
     3
291
     1
 70
    58
 90
        2
176
     1
 90
        2
176
     1
 90
        1
176
     1
 90
        2
176
     1
 40
0.6
176
     1
 40
30.0
176
     1
 62
     7
420
 16777215
176
     1
 90
        1
176
     1
 90
        0
176
     1
 62
     7
176
     1
 62
   257
176
     1
 90
        1
176
     1
 90
        1
176
     1
 40
1.0
176
     1
 90
        0
176
     1
 62
   257
176
     1
 40
1.0
176
     1
 90
        1
176
     1
 90
        6
176
     1
 90
        2
176
     1
 62
     7
176
     1
 90
        5
176
     1
 90
        0
176
     1
 90
        0
176
     1
290
     0
176
     1
 90
       13
176
     1
 40
0.0
176
     1
 90
        0
176
     1
290
     0
176
     1
290
     1
176
     1
290
     1
176
     1
290
     0
176
     1
290
     0
176
     1
290
     0
176
     1
290
     0
176
     1
290
     0
176
     1
290
     0
176
     1
 90
       50
176
     1
 40
0.0
176
     1
 40
1.0
176
     1
 90
        0
176
     1
 62
    18
420
        0
176
     1
 90
       50
176
     1
 90
        3
176
     1
 62
     5
420
      255
176
     1
290
     0
176
     1
 90
       50
176
     1
 90
       50
176
     1
 90
       50
176
     1
290
     0
176
     1
 90
       50
176
     1
 62
   256
176
     0
 40
1.0
176
     0
 90
        2
176
     1
  1
strokes_ogs.tif
176
     1
290
     0
176
     1
 40
1.0
176
     1
 40
1.0
176
     1
  0
VISUALSTYLE
  5
31
102
{ACAD_REACTORS
330
2A
102
}
330
2A
100
AcDbVisualStyle
  2
Hidden
 70
     6
177
     3
291
     0
 70
    58
 90
        1
176
     1
 90
        2
176
     1
 90
        2
176
     1
 90
        0
176
     1
 40
0.6
176
     1
 40
30.0
176
     1
 62
     7
420
 16777215
176
     1
 90
        2
176
     1
 90
        2
176
     1
 62
     7
176
     1
 62
   257
176
     1
 90
        2
176
     1
 90
        1
176
     1
 40
40.0
176
     1
 90
        0
176
     1
 62
   257
176
     1
 40
1.0
176
     1
 90
        1
176
     1
 90
        6
176
     1
 90
        2
176
     1
 62
     7
176
     1
 90
        3
176
     1
 90
        0
176
     1
 90
        0
176
     1
290
     0
176
     1
 90
        1
176
     1
 40
0.0
176
     1
 90
        0
176
     1
290
     0
176
     1
290
     1
176
     1
290
     1
176
     1
290
     0
176
     1
290
     0
176
     1
290
     0
176
     1
290
     0
176
     1
290
     0
176
     1
290
     0
176
     1
 90
       50
176
     1
 40
0.0
176
     1
 40
1.0
176
     1
 90
        0
176
     1
 62
    18
420
        0
176
     1
 90
       50
176
     1
 90
        3
176
     1
 62
     5
420
      255
176
     1
290
     0
176
     1
 90
       50
176
     1
 90
       50
176
     1
 90
       50
176
     1
290
     0
176
     1
 90
       50
176
     1
 62
   256
176
     0
 40
1.0
176
     0
 90
        2
176
     1
  1
strokes_ogs.tif
176
     1
290
     0
176
     1
 40
1.0
176
     1
 40
1.0
176
     1
  0
VISUALSTYLE
  5
3B
102
{ACAD_REACTORS
330
2A
102
}
330
2A
100
AcDbVisualStyle
  2
JitterOff
 70
    20
177
     3
291
     1
 70
    58
 90
        2
176
     0
 90
        2
176
     0
 90
        0
176
     0
 90
        0
176
     0
 40
0.6
176
     0
 40
30.0
176
     0
 62
     7
420
 16777215
176
     0
 90
        1
176
     0
 90
        4
176
     0
 62
     7
176
     0
 62
   257
176
     0
 90
        1
176
     0
 90
        1
176
     0
 40
1.0
176
     0
 90
       10
176
     2
 62
     7
176
     0
 40
1.0
176
     0
 90
        1
176
     0
 90
        6
176
     0
 90
        2
176
     0
 62
     7
176
     0
 90
        5
176
     0
 90
        0
176
     0
 90
        0
176
     0
290
     0
176
     0
 90
        1
176
     0
 40
0.0
176
     0
 90
        0
176
     0
290
     0
176
     0
290
     1
176
     0
290
     1
176
     0
290
     0
176
     0
290
     0
176
     0
290
     0
176
     0
290
     0
176
     0
290
     0
176
     0
290
     0
176
     0
 90
       50
176
     0
 40
0.0
176
     0
 40
1.0
176
     0
 90
        0
176
     0
 62
    18
420
        0
176
     0
 90
       50
176
     0
 90
        3
176
     0
 62
     5
420
      255
176
     0
290
     0
176
     0
 90
       50
176
     0
 90
       50
176
     0
 90
       50
176
     0
290
     0
176
     0
 90
       50
176
     0
 62
   256
176
     0
 40
1.0
176
     0
 90
        2
176
     0
  1
strokes_ogs.tif
176
     0
290
     0
176
     0
 40
1.0
176
     0
 40
1.0
176
     0
  0
VISUALSTYLE
  5
38
102
{ACAD_REACTORS
330
2A
102
}
330
2A
100
AcDbVisualStyle
  2
Linepattern
 70
    14
177
     3
291
     1
 70
    58
 90
        2
176
     1
 90
        2
176
     1
 90
        0
176
     1
 90
        0
176
     1
 40
0.6
176
     1
 40
30.0
176
     1
 62
     7
420
 16777215
176
     1
 90
        1
176
     1
 90
        4
176
     1
 62
     7
176
     1
 62
   257
176
     1
 90
        7
176
     1
 90
        7
176
     1
 40
1.0
176
     1
 90
        8
176
     1
 62
     7
176
     1
 40
1.0
176
     1
 90
        1
176
     1
 90
        6
176
     1
 90
        2
176
     1
 62
     7
176
     1
 90
        5
176
     1
 90
        0
176
     1
 90
        0
176
     1
290
     0
176
     1
 90
        1
176
     1
 40
0.0
176
     1
 90
        0
176
     1
290
     0
176
     1
290
     1
176
     1
290
     1
176
     1
290
     0
176
     1
290
     0
176
     1
290
     0
176
     1
290
     0
176
     1
290
     0
176
     1
290
     0
176
     1
 90
       50
176
     1
 40
0.0
176
     1
 40
1.0
176
     1
 90
        0
176
     1
 62
    18
420
        0
176
     1
 90
       50
176
     1
 90
        3
176
     1
 62
     5
420
      255
176
     1
290
     0
176
     1
 90
       50
176
     1
 90
       50
176
     1
 90
       50
176
     1
290
     0
176
     1
 90
       50
176
     1
 62
   256
176
     0
 40
1.0
176
     0
 90
        2
176
     1
  1
strokes_ogs.tif
176
     1
290
     0
176
     1
 40
1.0
176
     1
 40
1.0
176
     1
  0
VISUALSTYLE
  5
3C
102
{ACAD_REACTORS
330
2A
102
}
330
2A
100
AcDbVisualStyle
  2
OverhangOff
 70
    21
177
     3
291
     1
 70
    58
 90
        2
176
     0
 90
        2
176
     0
 90
        0
176
     0
 90
        0
176
     0
 40
0.6
176
     0
 40
30.0
176
     0
 62
     7
420
 16777215
176
     0
 90
        1
176
     0
 90
        4
176
     0
 62
     7
176
     0
 62
   257
176
     0
 90
        1
176
     0
 90
        1
176
     0
 40
1.0
176
     0
 90
        9
176
     2
 62
     7
176
     0
 40
1.0
176
     0
 90
        1
176
     0
 90
        6
176
     0
 90
        2
176
     0
 62
     7
176
     0
 90
        5
176
     0
 90
        0
176
     0
 90
        0
176
     0
290
     0
176
     0
 90
        1
176
     0
 40
0.0
176
     0
 90
        0
176
     0
290
     0
176
     0
290
     1
176
     0
290
     1
176
     0
290
     0
176
     0
290
     0
176
     0
290
     0
176
     0
290
     0
176
     0
290
     0
176
     0
290
     0
176
     0
 90
       50
176
     0
 40
0.0
176
     0
 40
1.0
176
     0
 90
        0
176
     0
 62
    18
420
        0
176
     0
 90
       50
176
     0
 90
        3
176
     0
 62
     5
420
      255
176
     0
290
     0
176
     0
 90
       50
176
     0
 90
       50
176
     0
 90
       50
176
     0
290
     0
176
     0
 90
       50
176
     0
 62
   256
176
     0
 40
1.0
176
     0
 90
        2
176
     0
  1
strokes_ogs.tif
176
     0
290
     0
176
     0
 40
1.0
176
     0
 40
1.0
176
     0
  0
VISUALSTYLE
  5
33
102
{ACAD_REACTORS
330
2A
102
}
330
2A
100
AcDbVisualStyle
  2
Realistic
 70
     8
177
     3
291
     0
 70
    58
 90
        2
176
     1
 90
        3
176
     1
 90
        0
176
     1
 90
        2
176
     1
 40
0.6
176
     1
 40
30.0
176
     1
 62
     7
420
 16777215
176
     1
 90
        0
176
     1
 90
        0
176
     1
 62
     7
176
     1
 62
   257
176
     1
 90
        1
176
     1
 90
        1
176
     1
 40
1.0
176
     1
 90
        8
176
     1
 62
   257
176
     1
 40
1.0
176
     1
 90
        1
176
     1
 90
        6
176
     1
 90
        2
176
     1
 62
     7
176
     1
 90
        3
176
     1
 90
        0
176
     1
 90
        0
176
     1
290
     0
176
     1
 90
       13
176
     1
 40
0.0
176
     1
 90
        0
176
     1
290
     0
176
     1
290
     1
176
     1
290
     1
176
     1
290
     0
176
     1
290
     0
176
     1
290
     0
176
     1
290
     0
176
     1
290
     0
176
     1
290
     0
176
     1
 90
       50
176
     1
 40
0.0
176
     1
 40
1.0
176
     1
 90
        0
176
     1
 62
    18
420
        0
176
     1
 90
       50
176
     1
 90
        3
176
     1
 62
     5
420
      255
176
     1
290
     0
176
     1
 90
       50
176
     1
 90
       50
176
     1
 90
       50
176
     1
290
     0
176
     1
 90
       50
176
     1
 62
   256
176
     0
 40
1.0
176
     0
 90
        2
176
     1
  1
strokes_ogs.tif
176
     1
290
     0
176
     1
 40
1.0
176
     1
 40
1.0
176
     1
  0
VISUALSTYLE
  5
42
102
{ACAD_REACTORS
330
2A
102
}
330
2A
100
AcDbVisualStyle
  2
Shaded
 70
    27
177
     3
291
     0
 70
    58
 90
        2
176
     1
 90
        2
176
     1
 90
        1
176
     1
 90
        2
176
     1
 40
0.6
176
     1
 40
30.0
176
     1
 62
     7
420
 16777215
176
     1
 90
        0
176
     1
 90
        4
176
     1
 62
     7
176
     1
 62
   257
176
     1
 90
        1
176
     1
 90
        1
176
     1
 40
1.0
176
     1
 90
        8
176
     1
 62
   257
176
     1
 40
1.0
176
     1
 90
        1
176
     1
 90
        6
176
     1
 90
        2
176
     1
 62
     8
420
  7895160
176
     1
 90
        3
176
     1
 90
        0
176
     1
 90
        0
176
     1
290
     0
176
     1
 90
        5
176
     1
 40
0.0
176
     1
 90
        0
176
     1
290
     0
176
     1
290
     1
176
     1
290
     1
176
     1
290
     0
176
     1
290
     0
176
     1
290
     0
176
     1
290
     0
176
     1
290
     0
176
     1
290
     0
176
     1
 90
       50
176
     1
 40
0.0
176
     1
 40
1.0
176
     1
 90
        0
176
     1
 62
    18
420
        0
176
     1
 90
       50
176
     1
 90
        3
176
     1
 62
     5
420
      255
176
     1
290
     0
176
     1
 90
       50
176
     1
 90
       50
176
     1
 90
       50
176
     1
290
     0
176
     1
 90
       50
176
     1
 62
   256
176
     0
 40
1.0
176
     0
 90
        2
176
     1
  1
strokes_ogs.tif
176
     1
290
     0
176
     1
 40
1.0
176
     1
 40
1.0
176
     1
  0
VISUALSTYLE
  5
41
102
{ACAD_REACTORS
330
2A
102
}
330
2A
100
AcDbVisualStyle
  2
Shaded with edges
 70
    26
177
     3
291
     0
 70
    58
 90
        2
176
     1
 90
        2
176
     1
 90
        1
176
     1
 90
        2
176
     1
 40
0.6
176
     1
 40
30.0
176
     1
 62
     7
420
 16777215
176
     1
 90
        1
176
     1
 90
       10
176
     1
 62
     7
176
     1
 62
   257
176
     1
 90
        2
176
     1
 90
        1
176
     1
 40
1.0
176
     1
 90
        8
176
     1
 62
   257
176
     1
 40
1.0
176
     1
 90
        1
176
     1
 90
        6
176
     1
 90
        2
176
     1
 62
     7
176
     1
 90
        3
176
     1
 90
        0
176
     1
 90
        0
176
     1
290
     0
176
     1
 90
        5
176
     1
 40
0.0
176
     1
 90
        0
176
     1
290
     0
176
     1
290
     1
176
     1
290
     1
176
     1
290
     0
176
     1
290
     0
176
     1
290
     0
176
     1
290
     0
176
     1
290
     0
176
     1
290
     0
176
     1
 90
       50
176
     1
 40
0.0
176
     1
 40
1.0
176
     1
 90
        0
176
     1
 62
    18
420
        0
176
     1
 90
       50
176
     1
 90
        3
176
     1
 62
     5
420
      255
176
     1
290
     0
176
     1
 90
       50
176
     1
 90
       50
176
     1
 90
       50
176
     1
290
     0
176
     1
 90
       50
176
     1
 62
   256
176
     0
 40
1.0
176
     0
 90
        2
176
     1
  1
strokes_ogs.tif
176
     1
290
     0
176
     1
 40
1.0
176
     1
 40
1.0
176
     1
  0
VISUALSTYLE
  5
3E
102
{ACAD_REACTORS
330
2A
102
}
330
2A
100
AcDbVisualStyle
  2
Shades of Gray
 70
    23
177
     3
291
     0
 70
    58
 90
        2
176
     1
 90
        2
176
     1
 90
        3
176
     1
 90
        0
176
     1
 40
0.6
176
     1
 40
30.0
176
     1
 62
     7
420
 16777215
176
     1
 90
        2
176
     1
 90
        2
176
     1
 62
     7
176
     1
 62
     7
176
     1
 90
        1
176
     1
 90
        1
176
     1
 40
40.0
176
     1
 90
        8
176
     1
 62
     7
176
     1
 40
1.0
176
     1
 90
        1
176
     1
 90
        6
176
     1
 90
        2
176
     1
 62
     7
176
     1
 90
        3
176
     1
 90
        0
176
     1
 90
        0
176
     1
290
     0
176
     1
 90
        1
176
     1
 40
0.0
176
     1
 90
        0
176
     1
290
     0
176
     1
290
     1
176
     1
290
     1
176
     1
290
     0
176
     1
290
     0
176
     1
290
     0
176
     1
290
     0
176
     1
290
     0
176
     1
290
     0
176
     1
 90
       50
176
     1
 40
0.0
176
     1
 40
1.0
176
     1
 90
        0
176
     1
 62
    18
420
        0
176
     1
 90
       50
176
     1
 90
        3
176
     1
 62
     5
420
      255
176
     1
290
     0
176
     1
 90
       50
176
     1
 90
       50
176
     1
 90
       50
176
     1
290
     0
176
     1
 90
       50
176
     1
 62
   256
176
     0
 40
1.0
176
     0
 90
        2
176
     1
  1
strokes_ogs.tif
176
     1
290
     0
176
     1
 40
1.0
176
     1
 40
1.0
176
     1
  0
VISUALSTYLE
  5
3F
102
{ACAD_REACTORS
330
2A
102
}
330
2A
100
AcDbVisualStyle
  2
Sketchy
 70
    24
177
     3
291
     0
 70
    58
 90
        1
176
     1
 90
        2
176
     1
 90
        2
176
     1
 90
        0
176
     1
 40
0.6
176
     1
 40
30.0
176
     1
 62
     7
420
 16777215
176
     1
 90
        2
176
     1
 90
        2
176
     1
 62
     7
176
     1
 62
     7
176
     1
 90
        1
176
     1
 90
        1
176
     1
 40
40.0
176
     1
 90
       11
176
     1
 62
     7
176
     1
 40
1.0
176
     1
 90
        1
176
     1
 90
        6
176
     1
 90
        2
176
     1
 62
     7
176
     1
 90
        6
176
     1
 90
        0
176
     1
 90
        0
176
     1
290
     0
176
     1
 90
        1
176
     1
 40
0.0
176
     1
 90
        0
176
     1
290
     0
176
     1
290
     1
176
     1
290
     1
176
     1
290
     0
176
     1
290
     0
176
     1
290
     0
176
     1
290
     0
176
     1
290
     0
176
     1
290
     0
176
     1
 90
       50
176
     1
 40
0.0
176
     1
 40
1.0
176
     1
 90
        0
176
     1
 62
    18
420
        0
176
     1
 90
       50
176
     1
 90
        3
176
     1
 62
     5
420
      255
176
     1
290
     0
176
     1
 90
       50
176
     1
 90
       50
176
     1
 90
       50
176
     1
290
     0
176
     1
 90
       50
176
     1
 62
   256
176
     0
 40
1.0
176
     0
 90
        2
176
     1
  1
strokes_ogs.tif
176
     1
290
     0
176
     1
 40
1.0
176
     1
 40
1.0
176
     1
  0
VISUALSTYLE
  5
37
102
{ACAD_REACTORS
330
2A
102
}
330
2A
100
AcDbVisualStyle
  2
Thicken
 70
    13
177
     3
291
     1
 70
    58
 90
        2
176
     1
 90
        2
176
     1
 90
        0
176
     1
 90
        0
176
     1
 40
0.6
176
     1
 40
30.0
176
     1
 62
     7
420
 16777215
176
     1
 90
        1
176
     1
 90
        4
176
     1
 62
     7
176
     1
 62
   257
176
     1
 90
        1
176
     1
 90
        1
176
     1
 40
1.0
176
     1
 90
       12
176
     1
 62
     7
176
     1
 40
1.0
176
     1
 90
        1
176
     1
 90
        6
176
     1
 90
        2
176
     1
 62
     7
176
     1
 90
        5
176
     1
 90
        0
176
     1
 90
        0
176
     1
290
     0
176
     1
 90
        1
176
     1
 40
0.0
176
     1
 90
        0
176
     1
290
     0
176
     1
290
     1
176
     1
290
     1
176
     1
290
     0
176
     1
290
     0
176
     1
290
     0
176
     1
290
     0
176
     1
290
     0
176
     1
290
     0
176
     1
 90
       50
176
     1
 40
0.0
176
     1
 40
1.0
176
     1
 90
        0
176
     1
 62
    18
420
        0
176
     1
 90
       50
176
     1
 90
        3
176
     1
 62
     5
420
      255
176
     1
290
     0
176
     1
 90
       50
176
     1
 90
       50
176
     1
 90
       50
176
     1
290
     0
176
     1
 90
       50
176
     1
 62
   256
176
     0
 40
1.0
176
     0
 90
        2
176
     1
  1
strokes_ogs.tif
176
     1
290
     0
176
     1
 40
1.0
176
     1
 40
1.0
176
     1
  0
VISUALSTYLE
  5
30
102
{ACAD_REACTORS
330
2A
102
}
330
2A
100
AcDbVisualStyle
  2
Wireframe
 70
     5
177
     3
291
     0
 70
    58
 90
        0
176
     1
 90
        2
176
     1
 90
        0
176
     1
 90
        0
176
     1
 40
0.6
176
     1
 40
30.0
176
     1
 62
     7
420
 16777215
176
     1
 90
        1
176
     1
 90
        4
176
     1
 62
     7
176
     1
 62
   257
176
     1
 90
        1
176
     1
 90
        1
176
     1
 40
1.0
176
     1
 90
        0
176
     1
 62
   257
176
     1
 40
1.0
176
     1
 90
        1
176
     1
 90
        6
176
     1
 90
        2
176
     1
 62
     7
176
     1
 90
        3
176
     1
 90
        0
176
     1
 90
        0
176
     1
290
     0
176
     1
 90
        1
176
     1
 40
0.0
176
     1
 90
        0
176
     1
290
     0
176
     1
290
     1
176
     1
290
     1
176
     1
290
     0
176
     1
290
     0
176
     1
290
     0
176
     1
290
     0
176
     1
290
     0
176
     1
290
     0
176
     1
 90
       50
176
     1
 40
0.0
176
     1
 40
1.0
176
     1
 90
        0
176
     1
 62
    18
420
        0
176
     1
 90
       50
176
     1
 90
        3
176
     1
 62
     5
420
      255
176
     1
290
     0
176
     1
 90
       50
176
     1
 90
       50
176
     1
 90
       50
176
     1
290
     0
176
     1
 90
       50
176
     1
 62
   256
176
     0
 40
1.0
176
     0
 90
        2
176
     1
  1
strokes_ogs.tif
176
     1
290
     0
176
     1
 40
1.0
176
     1
 40
1.0
176
     1
  0
VISUALSTYLE
  5
40
102
{ACAD_REACTORS
330
2A
102
}
330
2A
100
AcDbVisualStyle
  2
X-Ray
 70
    25
177
     3
291
     0
 70
    58
 90
        2
176
     1
 90
        2
176
     1
 90
        1
176
     1
 90
        1
176
     1
 40
0.5
176
     1
 40
30.0
176
     1
 62
     7
420
 16777215
176
     1
 90
        1
176
     1
 90
        0
176
     1
 62
     7
176
     1
 62
   257
176
     1
 90
        1
176
     1
 90
        1
176
     1
 40
1.0
176
     1
 90
        8
176
     1
 62
     7
176
     1
 40
1.0
176
     1
 90
        1
176
     1
 90
        6
176
     1
 90
        2
176
     1
 62
     7
176
     1
 90
        3
176
     1
 90
        0
176
     1
 90
        0
176
     1
290
     0
176
     1
 90
       13
176
     1
 40
0.0
176
     1
 90
        0
176
     1
290
     0
176
     1
290
     1
176
     1
290
     1
176
     1
290
     0
176
     1
290
     0
176
     1
290
     0
176
     1
290
     0
176
     1
290
     0
176
     1
290
     0
176
     1
 90
       50
176
     1
 40
0.0
176
     1
 40
1.0
176
     1
 90
        0
176
     1
 62
    18
420
        0
176
     1
 90
       50
176
     1
 90
        3
176
     1
 62
     5
420
      255
176
     1
290
     0
176
     1
 90
       50
176
     1
 90
       50
176
     1
 90
       50
176
     1
290
     0
176
     1
 90
       50
176
     1
 62
   256
176
     0
 40
1.0
176
     0
 90
        2
176
     1
  1
strokes_ogs.tif
176
     1
290
     0
176
     1
 40
1.0
176
     1
 40
1.0
176
     1
  0
DICTIONARYVAR
  5
232
102
{ACAD_REACTORS
330
231
102
}
330
231
100
DictionaryVariables
280
     0
  1
1:1
  0
DICTIONARYVAR
  5
237
102
{ACAD_REACTORS
330
231
102
}
330
231
100
DictionaryVariables
280
     0
  1
Standard
  0
DICTIONARYVAR
  5
236
102
{ACAD_REACTORS
330
231
102
}
330
231
100
DictionaryVariables
280
     0
  1
Standard
  0
DICTIONARY
  5
233
330
6A
100
AcDbDictionary
280
     1
281
     1
  3
ACAD_ROUNDTRIP_2008_TABLESTYLE_CELLSTYLEMAP
360
234
  0
CELLSTYLEMAP
  5
234
102
{ACAD_REACTORS
330
233
102
}
330
233
100
AcDbCellStyleMap
 90
        3
300
CELLSTYLE
  1
TABLEFORMAT_BEGIN
 90
        5
170
     1
 91
        0
 92
    32768
 62
   257
 93
        1
300
CONTENTFORMAT
  1
CONTENTFORMAT_BEGIN
 90
        0
 91
        0
 92
        4
 93
        0
300

 40
0.0
140
1.0
 94
        5
 62
     0
340
11
144
0.25
309
CONTENTFORMAT_END
171
     1
301
MARGIN
  1
CELLMARGIN_BEGIN
 40
0.06
 40
0.06
 40
0.06
 40
0.06
 40
0.06
 40
0.06
309
CELLMARGIN_END
 94
        6
 95
        1
302
GRIDFORMAT
  1
GRIDFORMAT_BEGIN
 90
        0
 91
        1
 62
     0
 92
       -2
340
14
 93
        0
 40
0.045
309
GRIDFORMAT_END
 95
        2
302
GRIDFORMAT
  1
GRIDFORMAT_BEGIN
 90
        0
 91
        1
 62
     0
 92
       -2
340
14
 93
        0
 40
0.045
309
GRIDFORMAT_END
 95
        4
302
GRIDFORMAT
  1
GRIDFORMAT_BEGIN
 90
        0
 91
        1
 62
     0
 92
       -2
340
14
 93
        0
 40
0.045
309
GRIDFORMAT_END
 95
        8
302
GRIDFORMAT
  1
GRIDFORMAT_BEGIN
 90
        0
 91
        1
 62
     0
 92
       -2
340
14
 93
        0
 40
0.045
309
GRIDFORMAT_END
 95
       16
302
GRIDFORMAT
  1
GRIDFORMAT_BEGIN
 90
        0
 91
        1
 62
     0
 92
       -2
340
14
 93
        0
 40
0.045
309
GRIDFORMAT_END
 95
       32
302
GRIDFORMAT
  1
GRIDFORMAT_BEGIN
 90
        0
 91
        1
 62
     0
 92
       -2
340
14
 93
        0
 40
0.045
309
GRIDFORMAT_END
309
TABLEFORMAT_END
  1
CELLSTYLE_BEGIN
 90
        1
 91
        1
300
_TITLE
309
CELLSTYLE_END
300
CELLSTYLE
  1
TABLEFORMAT_BEGIN
 90
        5
170
     1
 91
        0
 92
        0
 62
   257
 93
        1
300
CONTENTFORMAT
  1
CONTENTFORMAT_BEGIN
 90
        0
 91
        0
 92
        4
 93
        0
300

 40
0.0
140
1.0
 94
        5
 62
     0
340
11
144
0.18
309
CONTENTFORMAT_END
171
     1
301
MARGIN
  1
CELLMARGIN_BEGIN
 40
0.06
 40
0.06
 40
0.06
 40
0.06
 40
0.06
 40
0.06
309
CELLMARGIN_END
 94
        6
 95
        1
302
GRIDFORMAT
  1
GRIDFORMAT_BEGIN
 90
        0
 91
        1
 62
     0
 92
       -2
340
14
 93
        0
 40
0.045
309
GRIDFORMAT_END
 95
        2
302
GRIDFORMAT
  1
GRIDFORMAT_BEGIN
 90
        0
 91
        1
 62
     0
 92
       -2
340
14
 93
        0
 40
0.045
309
GRIDFORMAT_END
 95
        4
302
GRIDFORMAT
  1
GRIDFORMAT_BEGIN
 90
        0
 91
        1
 62
     0
 92
       -2
340
14
 93
        0
 40
0.045
309
GRIDFORMAT_END
 95
        8
302
GRIDFORMAT
  1
GRIDFORMAT_BEGIN
 90
        0
 91
        1
 62
     0
 92
       -2
340
14
 93
        0
 40
0.045
309
GRIDFORMAT_END
 95
       16
302
GRIDFORMAT
  1
GRIDFORMAT_BEGIN
 90
        0
 91
        1
 62
     0
 92
       -2
340
14
 93
        0
 40
0.045
309
GRIDFORMAT_END
 95
       32
302
GRIDFORMAT
  1
GRIDFORMAT_BEGIN
 90
        0
 91
        1
 62
     0
 92
       -2
340
14
 93
        0
 40
0.045
309
GRIDFORMAT_END
309
TABLEFORMAT_END
  1
CELLSTYLE_BEGIN
 90
        2
 91
        1
300
_HEADER
309
CELLSTYLE_END
300
CELLSTYLE
  1
TABLEFORMAT_BEGIN
 90
        5
170
     1
 91
        0
 92
        0
 62
   257
 93
        1
300
CONTENTFORMAT
  1
CONTENTFORMAT_BEGIN
 90
        0
 91
        0
 92
        4
 93
        0
300

 40
0.0
140
1.0
 94
        2
 62
     0
340
11
144
0.18
309
CONTENTFORMAT_END
171
     1
301
MARGIN
  1
CELLMARGIN_BEGIN
 40
0.06
 40
0.06
 40
0.06
 40
0.06
 40
0.06
 40
0.06
309
CELLMARGIN_END
 94
        6
 95
        1
302
GRIDFORMAT
  1
GRIDFORMAT_BEGIN
 90
        0
 91
        1
 62
     0
 92
       -2
340
14
 93
        0
 40
0.045
309
GRIDFORMAT_END
 95
        2
302
GRIDFORMAT
  1
GRIDFORMAT_BEGIN
 90
        0
 91
        1
 62
     0
 92
       -2
340
14
 93
        0
 40
0.045
309
GRIDFORMAT_END
 95
        4
302
GRIDFORMAT
  1
GRIDFORMAT_BEGIN
 90
        0
 91
        1
 62
     0
 92
       -2
340
14
 93
        0
 40
0.045
309
GRIDFORMAT_END
 95
        8
302
GRIDFORMAT
  1
GRIDFORMAT_BEGIN
 90
        0
 91
        1
 62
     0
 92
       -2
340
14
 93
        0
 40
0.045
309
GRIDFORMAT_END
 95
       16
302
GRIDFORMAT
  1
GRIDFORMAT_BEGIN
 90
        0
 91
        1
 62
     0
 92
       -2
340
14
 93
        0
 40
0.045
309
GRIDFORMAT_END
 95
       32
302
GRIDFORMAT
  1
GRIDFORMAT_BEGIN
 90
        0
 91
        1
 62
     0
 92
       -2
340
14
 93
        0
 40
0.045
309
GRIDFORMAT_END
309
TABLEFORMAT_END
  1
CELLSTYLE_BEGIN
 90
        3
 91
        2
300
_DATA
309
CELLSTYLE_END
  0
ENDSEC
  0
EOF