0
SECTION
  2
HEADER
  9
$ACADVER
  1
AC1027
  9
$ACADMAINTVER
 70
     8
  9
$DWGCODEPAGE
  3
ANSI_1252
  9
$REQUIREDVERSIONS
160
                 0
  9
$COMMENTS
  1
File was created by Cadenas
  9
$CUSTOMPROPERTYTAG
  1
NN
  9
$CUSTOMPROPERTY
  1
Steel IMPERIAL-HD Piloted Flange 1-1/8 thru 2-1/4 Inch Bore
  9
$CUSTOMPROPERTYTAG
  1
NT
  9
$CUSTOMPROPERTY
  1
Steal Imperial Piloted Flange Bearingsi- Inch - 102-204
  9
$CUSTOMPROPERTYTAG
  1
NB
  9
$CUSTOMPROPERTY
  1
072281
  9
$CUSTOMPROPERTYTAG
  1
NBSYN
  9
$CUSTOMPROPERTY
  1
$PN.
  9
$CUSTOMPROPERTYTAG
  1
LINA
  9
$CUSTOMPROPERTY
  1
072281
  9
$CUSTOMPROPERTYTAG
  1
SS
  9
$CUSTOMPROPERTY
  1
1-1/2
  9
$CUSTOMPROPERTYTAG
  1
PN
  9
$CUSTOMPROPERTY
  1
072281
  9
$CUSTOMPROPERTYTAG
  1
TYPE
  9
$CUSTOMPROPERTY
  1
Non-Expansion
  9
$CUSTOMPROPERTYTAG
  1
EF
  9
$CUSTOMPROPERTY
  1
Non-Expansion
  9
$CUSTOMPROPERTYTAG
  1
DESCRIPTION
  9
$CUSTOMPROPERTY
  1
SFC-IP-108R
  9
$CUSTOMPROPERTYTAG
  1
ST
  9
$CUSTOMPROPERTY
  1
Contact Seal
  9
$CUSTOMPROPERTYTAG
  1
A
  9
$CUSTOMPROPERTY
  1
2.63
  9
$CUSTOMPROPERTYTAG
  1
B
  9
$CUSTOMPROPERTY
  1
5.25
  9
$CUSTOMPROPERTYTAG
  1
C
  9
$CUSTOMPROPERTY
  1
1.94
  9
$CUSTOMPROPERTYTAG
  1
D
  9
$CUSTOMPROPERTY
  1
3.09
  9
$CUSTOMPROPERTYTAG
  1
DD
  9
$CUSTOMPROPERTY
  1
4.3800
  9
$CUSTOMPROPERTYTAG
  1
E
  9
$CUSTOMPROPERTY
  1
0.00
  9
$CUSTOMPROPERTYTAG
  1
F
  9
$CUSTOMPROPERTY
  1
0.4375
  9
$CUSTOMPROPERTYTAG
  1
G
  9
$CUSTOMPROPERTY
  1
1.61
  9
$CUSTOMPROPERTYTAG
  1
H
  9
$CUSTOMPROPERTY
  1
0.50
  9
$CUSTOMPROPERTYTAG
  1
K
  9
$CUSTOMPROPERTY
  1
3.625
  9
$CUSTOMPROPERTYTAG
  1
L
  9
$CUSTOMPROPERTY
  1
2.72
  9
$CUSTOMPROPERTYTAG
  1
M
  9
$CUSTOMPROPERTY
  1
0.4375
  9
$CUSTOMPROPERTYTAG
  1
N
  9
$CUSTOMPROPERTY
  1
2.78
  9
$CUSTOMPROPERTYTAG
  1
P
  9
$CUSTOMPROPERTY
  1
1.02
  9
$CUSTOMPROPERTYTAG
  1
Q
  9
$CUSTOMPROPERTY
  1
1.17
  9
$CUSTOMPROPERTYTAG
  1
X
  9
$CUSTOMPROPERTY
  1
0.19
  9
$CUSTOMPROPERTYTAG
  1
Y
  9
$CUSTOMPROPERTY
  1
0.020
  9
$CUSTOMPROPERTYTAG
  1
Z
  9
$CUSTOMPROPERTY
  1
1.80
  9
$CUSTOMPROPERTYTAG
  1
COMPANY
  9
$CUSTOMPROPERTY
  1
baldor
  9
$INSBASE
 10
0.0
 20
0.0
 30
0.0
  9
$EXTMIN
 10
1.000000000000000E+20
 20
1.000000000000000E+20
 30
1.000000000000000E+20
  9
$EXTMAX
 10
-1.000000000000000E+20
 20
-1.000000000000000E+20
 30
-1.000000000000000E+20
  9
$LIMMIN
 10
0.0
 20
0.0
  9
$LIMMAX
 10
12.0
 20
9.0
  9
$ORTHOMODE
 70
     0
  9
$REGENMODE
 70
     1
  9
$FILLMODE
 70
     1
  9
$QTEXTMODE
 70
     0
  9
$MIRRTEXT
 70
     1
  9
$LTSCALE
 40
1.0
  9
$ATTMODE
 70
     1
  9
$TEXTSIZE
 40
0.2
  9
$TRACEWID
 40
0.05
  9
$TEXTSTYLE
  7
Standard
  9
$CLAYER
  8
0
  9
$CELTYPE
  6
ByLayer
  9
$CECOLOR
 62
   256
  9
$CELTSCALE
 40
1.0
  9
$DISPSILH
 70
     0
  9
$DIMSCALE
 40
1.0
  9
$DIMASZ
 40
0.18
  9
$DIMEXO
 40
0.0625
  9
$DIMDLI
 40
0.38
  9
$DIMRND
 40
0.0
  9
$DIMDLE
 40
0.0
  9
$DIMEXE
 40
0.18
  9
$DIMTP
 40
0.0
  9
$DIMTM
 40
0.0
  9
$DIMTXT
 40
0.18
  9
$DIMCEN
 40
0.09
  9
$DIMTSZ
 40
0.0
  9
$DIMTOL
 70
     0
  9
$DIMLIM
 70
     0
  9
$DIMTIH
 70
     1
  9
$DIMTOH
 70
     1
  9
$DIMSE1
 70
     0
  9
$DIMSE2
 70
     0
  9
$DIMTAD
 70
     0
  9
$DIMZIN
 70
     0
  9
$DIMBLK
  1

  9
$DIMASO
 70
     1
  9
$DIMSHO
 70
     1
  9
$DIMPOST
  1

  9
$DIMAPOST
  1

  9
$DIMALT
 70
     0
  9
$DIMALTD
 70
     2
  9
$DIMALTF
 40
25.4
  9
$DIMLFAC
 40
1.0
  9
$DIMTOFL
 70
     0
  9
$DIMTVP
 40
0.0
  9
$DIMTIX
 70
     0
  9
$DIMSOXD
 70
     0
  9
$DIMSAH
 70
     0
  9
$DIMBLK1
  1

  9
$DIMBLK2
  1

  9
$DIMSTYLE
  2
Standard
  9
$DIMCLRD
 70
     0
  9
$DIMCLRE
 70
     0
  9
$DIMCLRT
 70
     0
  9
$DIMTFAC
 40
1.0
  9
$DIMGAP
 40
0.09
  9
$DIMJUST
 70
     0
  9
$DIMSD1
 70
     0
  9
$DIMSD2
 70
     0
  9
$DIMTOLJ
 70
     1
  9
$DIMTZIN
 70
     0
  9
$DIMALTZ
 70
     0
  9
$DIMALTTZ
 70
     0
  9
$DIMUPT
 70
     0
  9
$DIMDEC
 70
     4
  9
$DIMTDEC
 70
     4
  9
$DIMALTU
 70
     2
  9
$DIMALTTD
 70
     2
  9
$DIMTXSTY
  7
Standard
  9
$DIMAUNIT
 70
     0
  9
$DIMADEC
 70
     0
  9
$DIMALTRND
 40
0.0
  9
$DIMAZIN
 70
     0
  9
$DIMDSEP
 70
    46
  9
$DIMATFIT
 70
     3
  9
$DIMFRAC
 70
     0
  9
$DIMLDRBLK
  1

  9
$DIMLUNIT
 70
     2
  9
$DIMLWD
 70
    -2
  9
$DIMLWE
 70
    -2
  9
$DIMTMOVE
 70
     0
  9
$DIMFXL
 40
1.0
  9
$DIMFXLON
 70
     0
  9
$DIMJOGANG
 40
0.7853981633974483
  9
$DIMTFILL
 70
     0
  9
$DIMTFILLCLR
 70
     0
  9
$DIMARCSYM
 70
     0
  9
$DIMLTYPE
  6

  9
$DIMLTEX1
  6

  9
$DIMLTEX2
  6

  9
$DIMTXTDIRECTION
 70
     0
  9
$LUNITS
 70
     2
  9
$LUPREC
 70
     4
  9
$SKETCHINC
 40
0.1
  9
$FILLETRAD
 40
0.5
  9
$AUNITS
 70
     0
  9
$AUPREC
 70
     0
  9
$MENU
  1
.
  9
$ELEVATION
 40
0.0
  9
$PELEVATION
 40
0.0
  9
$THICKNESS
 40
0.0
  9
$LIMCHECK
 70
     0
  9
$CHAMFERA
 40
0.0
  9
$CHAMFERB
 40
0.0
  9
$CHAMFERC
 40
0.0
  9
$CHAMFERD
 40
0.0
  9
$SKPOLY
 70
     0
  9
$TDCREATE
 40
2458168.897817604
  9
$TDUCREATE
 40
2458168.856150938
  9
$TDUPDATE
 40
2458168.897817778
  9
$TDUUPDATE
 40
2458168.856151111
  9
$TDINDWG
 40
0.0000000116
  9
$TDUSRTIMER
 40
0.0000000116
  9
$USRTIMER
 70
     1
  9
$ANGBASE
 50
0.0
  9
$ANGDIR
 70
     0
  9
$PDMODE
 70
     0
  9
$PDSIZE
 40
0.0
  9
$PLINEWID
 40
0.0
  9
$SPLFRAME
 70
     0
  9
$SPLINETYPE
 70
     6
  9
$SPLINESEGS
 70
     8
  9
$HANDSEED
  5
287
  9
$SURFTAB1
 70
     6
  9
$SURFTAB2
 70
     6
  9
$SURFTYPE
 70
     6
  9
$SURFU
 70
     6
  9
$SURFV
 70
     6
  9
$UCSBASE
  2

  9
$UCSNAME
  2

  9
$UCSORG
 10
0.0
 20
0.0
 30
0.0
  9
$UCSXDIR
 10
1.0
 20
0.0
 30
0.0
  9
$UCSYDIR
 10
0.0
 20
1.0
 30
0.0
  9
$UCSORTHOREF
  2

  9
$UCSORTHOVIEW
 70
     0
  9
$UCSORGTOP
 10
0.0
 20
0.0
 30
0.0
  9
$UCSORGBOTTOM
 10
0.0
 20
0.0
 30
0.0
  9
$UCSORGLEFT
 10
0.0
 20
0.0
 30
0.0
  9
$UCSORGRIGHT
 10
0.0
 20
0.0
 30
0.0
  9
$UCSORGFRONT
 10
0.0
 20
0.0
 30
0.0
  9
$UCSORGBACK
 10
0.0
 20
0.0
 30
0.0
  9
$PUCSBASE
  2

  9
$PUCSNAME
  2

  9
$PUCSORG
 10
0.0
 20
0.0
 30
0.0
  9
$PUCSXDIR
 10
1.0
 20
0.0
 30
0.0
  9
$PUCSYDIR
 10
0.0
 20
1.0
 30
0.0
  9
$PUCSORTHOREF
  2

  9
$PUCSORTHOVIEW
 70
     0
  9
$PUCSORGTOP
 10
0.0
 20
0.0
 30
0.0
  9
$PUCSORGBOTTOM
 10
0.0
 20
0.0
 30
0.0
  9
$PUCSORGLEFT
 10
0.0
 20
0.0
 30
0.0
  9
$PUCSORGRIGHT
 10
0.0
 20
0.0
 30
0.0
  9
$PUCSORGFRONT
 10
0.0
 20
0.0
 30
0.0
  9
$PUCSORGBACK
 10
0.0
 20
0.0
 30
0.0
  9
$USERI1
 70
     0
  9
$USERI2
 70
     0
  9
$USERI3
 70
     0
  9
$USERI4
 70
     0
  9
$USERI5
 70
     0
  9
$USERR1
 40
0.0
  9
$USERR2
 40
0.0
  9
$USERR3
 40
0.0
  9
$USERR4
 40
0.0
  9
$USERR5
 40
0.0
  9
$WORLDVIEW
 70
     1
  9
$SHADEDGE
 70
     3
  9
$SHADEDIF
 70
    70
  9
$TILEMODE
 70
     1
  9
$MAXACTVP
 70
    64
  9
$PINSBASE
 10
0.0
 20
0.0
 30
0.0
  9
$PLIMCHECK
 70
     0
  9
$PEXTMIN
 10
1.000000000000000E+20
 20
1.000000000000000E+20
 30
1.000000000000000E+20
  9
$PEXTMAX
 10
-1.000000000000000E+20
 20
-1.000000000000000E+20
 30
-1.000000000000000E+20
  9
$PLIMMIN
 10
0.0
 20
0.0
  9
$PLIMMAX
 10
12.0
 20
9.0
  9
$UNITMODE
 70
     0
  9
$VISRETAIN
 70
     1
  9
$PLINEGEN
 70
     0
  9
$PSLTSCALE
 70
     1
  9
$TREEDEPTH
 70
  3020
  9
$CMLSTYLE
  2
Standard
  9
$CMLJUST
 70
     0
  9
$CMLSCALE
 40
1.0
  9
$PROXYGRAPHICS
 70
     1
  9
$MEASUREMENT
 70
     0
  9
$CELWEIGHT
370
    -1
  9
$ENDCAPS
280
     0
  9
$JOINSTYLE
280
     0
  9
$LWDISPLAY
290
     0
  9
$INSUNITS
 70
     1
  9
$HYPERLINKBASE
  1

  9
$STYLESHEET
  1

  9
$XEDIT
290
     1
  9
$CEPSNTYPE
380
     0
  9
$PSTYLEMODE
290
     1
  9
$FINGERPRINTGUID
  2
{911C882B-4F52-4D20-85B4-97656F3DE6B7}
  9
$VERSIONGUID
  2
{FAEB1C32-E019-11D5-929B-00C0DF256EC4}
  9
$EXTNAMES
290
     1
  9
$PSVPSCALE
 40
0.0
  9
$OLESTARTUP
290
     0
  9
$SORTENTS
280
   127
  9
$INDEXCTL
280
     0
  9
$HIDETEXT
280
     1
  9
$XCLIPFRAME
280
     2
  9
$HALOGAP
280
     0
  9
$OBSCOLOR
 70
   257
  9
$OBSLTYPE
280
     0
  9
$INTERSECTIONDISPLAY
280
     0
  9
$INTERSECTIONCOLOR
 70
   257
  9
$DIMASSOC
280
     2
  9
$PROJECTNAME
  1

  9
$CAMERADISPLAY
290
     0
  9
$LENSLENGTH
 40
50.0
  9
$CAMERAHEIGHT
 40
0.0
  9
$STEPSPERSEC
 40
2.0
  9
$STEPSIZE
 40
6.0
  9
$3DDWFPREC
 40
2.0
  9
$PSOLWIDTH
 40
0.25
  9
$PSOLHEIGHT
 40
4.0
  9
$LOFTANG1
 40
1.570796326794897
  9
$LOFTANG2
 40
1.570796326794897
  9
$LOFTMAG1
 40
0.0
  9
$LOFTMAG2
 40
0.0
  9
$LOFTPARAM
 70
     7
  9
$LOFTNORMALS
280
     1
  9
$LATITUDE
 40
37.795
  9
$LONGITUDE
 40
-122.394
  9
$NORTHDIRECTION
 40
0.0
  9
$TIMEZONE
 70
 -8000
  9
$LIGHTGLYPHDISPLAY
280
     1
  9
$TILEMODELIGHTSYNCH
280
     1
  9
$CMATERIAL
347
44
  9
$SOLIDHIST
280
     0
  9
$SHOWHIST
280
     1
  9
$DWFFRAME
280
     2
  9
$DGNFRAME
280
     2
  9
$REALWORLDSCALE
290
     1
  9
$INTERFERECOLOR
 62
   256
  9
$CSHADOW
280
     0
  9
$SHADOWPLANELOCATION
 40
0.0
  0
ENDSEC
  0
SECTION
  2
CLASSES
  0
CLASS
  1
ACDBDICTIONARYWDFLT
  2
AcDbDictionaryWithDefault
  3
ObjectDBX Classes
 90
        0
 91
        4
280
     0
281
     0
  0
CLASS
  1
VISUALSTYLE
  2
AcDbVisualStyle
  3
ObjectDBX Classes
 90
     4095
 91
        4
280
     0
281
     0
  0
CLASS
  1
MATERIAL
  2
AcDbMaterial
  3
ObjectDBX Classes
 90
     1153
 91
        4
280
     0
281
     0
  0
CLASS
  1
SCALE
  2
AcDbScale
  3
ObjectDBX Classes
 90
     1153
 91
        4
280
     0
281
     0
  0
CLASS
  1
TABLESTYLE
  2
AcDbTableStyle
  3
ObjectDBX Classes
 90
     4095
 91
        4
280
     0
281
     0
  0
CLASS
  1
MLEADERSTYLE
  2
AcDbMLeaderStyle
  3
ACDB_MLEADERSTYLE_CLASS
 90
     4095
 91
        4
280
     0
281
     0
  0
CLASS
  1
SUN
  2
AcDbSun
  3
SCENEOE
 90
     1153
 91
        4
280
     0
281
     0
  0
CLASS
  1
DICTIONARYVAR
  2
AcDbDictionaryVar
  3
ObjectDBX Classes
 90
        0
 91
        4
280
     0
281
     0
  0
CLASS
  1
CELLSTYLEMAP
  2
AcDbCellStyleMap
  3
ObjectDBX Classes
 90
     1152
 91
        4
280
     0
281
     0
  0
ENDSEC
  0
SECTION
  2
TABLES
  0
TABLE
  2
VPORT
  5
8
330
0
100
AcDbSymbolTable
 70
     1
  0
VPORT
  5
29
330
8
100
AcDbSymbolTableRecord
100
AcDbViewportTableRecord
  2
*Active
 70
     0
 10
0.0
 20
0.0
 11
1.0
 21
1.0
 12
0.0
 22
0.0
 13
0.0
 23
0.0
 14
0.5
 24
0.5
 15
0.5
 25
0.5
 16
0.0
 26
0.0
 36
1.0
 17
0.0
 27
0.0
 37
0.0
 40
5.355
 41
0.812952380952381
 42
50.0
 43
0.0
 44
0.0
 50
0.0
 51
0.0
 71
     0
 72
   100
 73
     1
 74
     3
 75
     0
 76
     0
 77
     0
 78
     0
281
     0
 65
     1
110
0.0
120
0.0
130
0.0
111
1.0
121
0.0
131
0.0
112
0.0
122
1.0
132
0.0
 79
     0
146
0.0
348
2F
 60
     3
 61
     5
292
     1
282
     1
141
0.0
142
0.0
 63
   250
361
6D
  0
ENDTAB
  0
TABLE
  2
LTYPE
  5
5
330
0
100
AcDbSymbolTable
 70
     3
  0
LTYPE
  5
14
330
5
100
AcDbSymbolTableRecord
100
AcDbLinetypeTableRecord
  2
ByBlock
 70
     0
  3

 72
    65
 73
     0
 40
0.0
  0
LTYPE
  5
15
330
5
100
AcDbSymbolTableRecord
100
AcDbLinetypeTableRecord
  2
ByLayer
 70
     0
  3

 72
    65
 73
     0
 40
0.0
  0
LTYPE
  5
16
330
5
100
AcDbSymbolTableRecord
100
AcDbLinetypeTableRecord
  2
Continuous
 70
     0
  3
Solid line
 72
    65
 73
     0
 40
0.0
  0
LTYPE
  5
9D
330
5
100
AcDbSymbolTableRecord
100
AcDbLinetypeTableRecord
  2
Dashed
 70
     0
  3

 72
    65
 73
     2
 40
2.0
 49
1.0
 74
     0
 49
-1.0
 74
     0
  0
LTYPE
  5
AE
330
5
100
AcDbSymbolTableRecord
100
AcDbLinetypeTableRecord
  2
Center
 70
     0
  3

 72
    65
 73
     4
 40
1.5
 49
0.45
 74
     0
 49
-0.5
 74
     0
 49
0.05
 74
     0
 49
-0.5
 74
     0
  0
ENDTAB
  0
TABLE
  2
LAYER
  5
2
330
0
100
AcDbSymbolTable
 70
     7
  0
LAYER
  5
10
330
2
100
AcDbSymbolTableRecord
100
AcDbLayerTableRecord
  2
0
 70
     0
 62
     7
  6
Continuous
370
    -3
390
F
347
46
348
0
  0
LAYER
  5
72
330
2
100
AcDbSymbolTableRecord
100
AcDbLayerTableRecord
  2
AM_6
 70
     0
 62
    -2
  6
Continuous
370
    35
390
F
347
46
348
0
  0
LAYER
  5
9E
330
2
100
AcDbSymbolTableRecord
100
AcDbLayerTableRecord
  2
AM_9
 70
     0
 62
     6
  6
Dashed
370
    25
390
F
347
46
348
0
  0
LAYER
  5
A8
330
2
100
AcDbSymbolTableRecord
100
AcDbLayerTableRecord
  2
AM_5
 70
     0
 62
     3
  6
Continuous
370
    25
390
F
347
46
348
0
  0
LAYER
  5
AF
330
2
100
AcDbSymbolTableRecord
100
AcDbLayerTableRecord
  2
AM_7
 70
     0
 62
     7
  6
Center
370
    25
390
F
347
46
348
0
  0
LAYER
  5
B1
330
2
100
AcDbSymbolTableRecord
100
AcDbLayerTableRecord
  2
AM_4
 70
     0
 62
     7
  6
Continuous
370
    50
390
F
347
46
348
0
  0
LAYER
  5
26E
330
2
100
AcDbSymbolTableRecord
100
AcDbLayerTableRecord
  2
ConnectionPoints
 70
     0
 62
     7
  6
Continuous
370
    50
390
F
347
46
348
0
  0
ENDTAB
  0
TABLE
  2
STYLE
  5
3
330
0
100
AcDbSymbolTable
 70
     1
  0
STYLE
  5
11
330
3
100
AcDbSymbolTableRecord
100
AcDbTextStyleTableRecord
  2
Standard
 70
     0
 40
0.0
 41
1.0
 50
0.0
 71
     0
 42
0.2
  3
txt
  4

  0
ENDTAB
  0
TABLE
  2
VIEW
  5
6
330
0
100
AcDbSymbolTable
 70
     0
  0
ENDTAB
  0
TABLE
  2
UCS
  5
7
330
0
100
AcDbSymbolTable
 70
     0
  0
ENDTAB
  0
TABLE
  2
APPID
  5
9
330
0
100
AcDbSymbolTable
 70
     1
  0
APPID
  5
12
330
9
100
AcDbSymbolTableRecord
100
AcDbRegAppTableRecord
  2
ACAD
 70
     0
  0
ENDTAB
  0
TABLE
  2
DIMSTYLE
  5
A
330
0
100
AcDbSymbolTable
 70
     1
100
AcDbDimStyleTable
  0
DIMSTYLE
105
27
330
A
100
AcDbSymbolTableRecord
100
AcDbDimStyleTableRecord
  2
Standard
 70
     0
178
     0
340
11
  0
ENDTAB
  0
TABLE
  2
BLOCK_RECORD
  5
1
330
0
100
AcDbSymbolTable
 70
     9
  0
BLOCK_RECORD
  5
1F
330
1
100
AcDbSymbolTableRecord
100
AcDbBlockTableRecord
  2
*Model_Space
340
22
 70
     0
280
     1
281
     0
  0
BLOCK_RECORD
  5
1B
330
1
100
AcDbSymbolTableRecord
100
AcDbBlockTableRecord
  2
*Paper_Space
340
1E
 70
     0
280
     1
281
     0
  0
BLOCK_RECORD
  5
23
330
1
100
AcDbSymbolTableRecord
100
AcDbBlockTableRecord
  2
*Paper_Space0
340
26
 70
     0
280
     1
281
     0
  0
BLOCK_RECORD
  5
6E
330
1
100
AcDbSymbolTableRecord
100
AcDbBlockTableRecord
  2
1_072281_2
340
0
102
{BLKREFS
331
6F
102
}
 70
     0
280
     1
281
     0
  0
BLOCK_RECORD
  5
91
330
1
100
AcDbSymbolTableRecord
100
AcDbBlockTableRecord
  2
2_405015E_Inch_1_0_in_072281_2
340
0
102
{BLKREFS
331
92
102
}
 70
     0
280
     1
281
     0
  0
BLOCK_RECORD
  5
D9
330
1
100
AcDbSymbolTableRecord
100
AcDbBlockTableRecord
  2
3_405015E_Inch_2_0_in_072281_2
340
0
102
{BLKREFS
331
DA
102
}
 70
     0
280
     1
281
     0
  0
BLOCK_RECORD
  5
11B
330
1
100
AcDbSymbolTableRecord
100
AcDbBlockTableRecord
  2
4_ASME_B18_3_10_1_0_in_072281_2
340
0
102
{BLKREFS
331
11C
102
}
 70
     0
280
     1
281
     0
  0
BLOCK_RECORD
  5
144
330
1
100
AcDbSymbolTableRecord
100
AcDbBlockTableRecord
  2
5_ASME_B18_3_10_2_0_in_072281_2
340
0
102
{BLKREFS
331
145
102
}
 70
     0
280
     1
281
     0
  0
BLOCK_RECORD
  5
16D
330
1
100
AcDbSymbolTableRecord
100
AcDbBlockTableRecord
  2
6_070885LW_0_in_072281_2
340
0
102
{BLKREFS
331
16E
102
}
 70
     0
280
     1
281
     0
  0
BLOCK_RECORD
  5
1A3
330
1
100
AcDbSymbolTableRecord
100
AcDbBlockTableRecord
  2
7_070885I_0_in_072281_2
340
0
102
{BLKREFS
331
1A4
102
}
 70
     0
280
     1
281
     0
  0
BLOCK_RECORD
  5
22A
330
1
100
AcDbSymbolTableRecord
100
AcDbBlockTableRecord
  2
8_B072281_0_in_072281_2
340
0
102
{BLKREFS
331
22B
102
}
 70
     0
280
     1
281
     0
  0
ENDTAB
  0
ENDSEC
  0
SECTION
  2
BLOCKS
  0
BLOCK
  5
20
330
1F
100
AcDbEntity
  8
0
100
AcDbBlockBegin
  2
*Model_Space
 70
     0
 10
0.0
 20
0.0
 30
0.0
  3
*Model_Space
  1

  0
ENDBLK
  5
21
330
1F
100
AcDbEntity
  8
0
100
AcDbBlockEnd
  0
BLOCK
  5
1C
330
1B
100
AcDbEntity
 67
     1
  8
0
100
AcDbBlockBegin
  2
*Paper_Space
 70
     0
 10
0.0
 20
0.0
 30
0.0
  3
*Paper_Space
  1

  0
ENDBLK
  5
1D
330
1B
100
AcDbEntity
 67
     1
  8
0
100
AcDbBlockEnd
  0
BLOCK
  5
24
330
23
100
AcDbEntity
  8
0
100
AcDbBlockBegin
  2
*Paper_Space0
 70
     0
 10
0.0
 20
0.0
 30
0.0
  3
*Paper_Space0
  1

  0
ENDBLK
  5
25
330
23
100
AcDbEntity
  8
0
100
AcDbBlockEnd
  0
BLOCK
  5
70
330
6E
100
AcDbEntity
  8
0
100
AcDbBlockBegin
  2
1_072281_2
 70
     2
 10
0.0
 20
0.0
 30
0.0
  3
1_072281_2
  1

  0
ATTDEF
  5
73
330
6E
100
AcDbEntity
  8
AM_6
100
AcDbText
 10
7.134
 20
2.625
 30
0.0
 40
0.5
  1
Steel IMPERIAL-HD Piloted Flange 1-1/8 thru 2-1/4 Inch Bore
100
AcDbAttributeDefinition
  3

  2
NN
 70
     8
280
     0
  0
ATTDEF
  5
74
330
6E
100
AcDbEntity
  8
AM_6
100
AcDbText
 10
7.134
 20
2.125
 30
0.0
 40
0.5
  1
Steal Imperial Piloted Flange Bearingsi- Inch - 102-204
100
AcDbAttributeDefinition
  3

  2
NT
 70
     8
280
     0
  0
ATTDEF
  5
75
330
6E
100
AcDbEntity
  8
AM_6
100
AcDbText
 10
7.134
 20
1.625
 30
0.0
 40
0.5
  1
072281
100
AcDbAttributeDefinition
  3

  2
NB
 70
     8
280
     0
  0
ATTDEF
  5
76
330
6E
100
AcDbEntity
  8
AM_6
100
AcDbText
 10
7.134
 20
1.125
 30
0.0
 40
0.5
  1
$PN.
100
AcDbAttributeDefinition
  3

  2
NBSYN
 70
     8
280
     0
  0
ATTDEF
  5
77
330
6E
100
AcDbEntity
  8
AM_6
100
AcDbText
 10
7.134
 20
0.625
 30
0.0
 40
0.5
  1
072281
100
AcDbAttributeDefinition
  3

  2
LINA
 70
     8
280
     0
  0
ATTDEF
  5
78
330
6E
100
AcDbEntity
  8
AM_6
100
AcDbText
 10
7.134
 20
0.125
 30
0.0
 40
0.5
  1
1-1/2
100
AcDbAttributeDefinition
  3

  2
SS
 70
     8
280
     0
  0
ATTDEF
  5
79
330
6E
100
AcDbEntity
  8
AM_6
100
AcDbText
 10
7.134
 20
-0.375
 30
0.0
 40
0.5
  1
072281
100
AcDbAttributeDefinition
  3

  2
PN
 70
     8
280
     0
  0
ATTDEF
  5
7A
330
6E
100
AcDbEntity
  8
AM_6
100
AcDbText
 10
7.134
 20
-0.875
 30
0.0
 40
0.5
  1
Non-Expansion
100
AcDbAttributeDefinition
  3

  2
TYPE
 70
     8
280
     0
  0
ATTDEF
  5
7B
330
6E
100
AcDbEntity
  8
AM_6
100
AcDbText
 10
7.134
 20
-1.375
 30
0.0
 40
0.5
  1
Non-Expansion
100
AcDbAttributeDefinition
  3

  2
EF
 70
     8
280
     0
  0
ATTDEF
  5
7C
330
6E
100
AcDbEntity
  8
AM_6
100
AcDbText
 10
7.134
 20
-1.875
 30
0.0
 40
0.5
  1
SFC-IP-108R
100
AcDbAttributeDefinition
  3

  2
DESCRIPTION
 70
     8
280
     0
  0
ATTDEF
  5
7D
330
6E
100
AcDbEntity
  8
AM_6
100
AcDbText
 10
7.134
 20
-2.375
 30
0.0
 40
0.5
  1
Contact Seal
100
AcDbAttributeDefinition
  3

  2
ST
 70
     8
280
     0
  0
ATTDEF
  5
7E
330
6E
100
AcDbEntity
  8
AM_6
100
AcDbText
 10
7.134
 20
-2.875
 30
0.0
 40
0.5
  1
2.63
100
AcDbAttributeDefinition
  3

  2
A
 70
     8
280
     0
  0
ATTDEF
  5
7F
330
6E
100
AcDbEntity
  8
AM_6
100
AcDbText
 10
7.134
 20
-3.375
 30
0.0
 40
0.5
  1
5.25
100
AcDbAttributeDefinition
  3

  2
B
 70
     8
280
     0
  0
ATTDEF
  5
80
330
6E
100
AcDbEntity
  8
AM_6
100
AcDbText
 10
7.134
 20
-3.875
 30
0.0
 40
0.5
  1
1.94
100
AcDbAttributeDefinition
  3

  2
C
 70
     8
280
     0
  0
ATTDEF
  5
81
330
6E
100
AcDbEntity
  8
AM_6
100
AcDbText
 10
7.134
 20
-4.375
 30
0.0
 40
0.5
  1
3.09
100
AcDbAttributeDefinition
  3

  2
D
 70
     8
280
     0
  0
ATTDEF
  5
82
330
6E
100
AcDbEntity
  8
AM_6
100
AcDbText
 10
7.134
 20
-4.875
 30
0.0
 40
0.5
  1
4.3800
100
AcDbAttributeDefinition
  3

  2
DD
 70
     8
280
     0
  0
ATTDEF
  5
83
330
6E
100
AcDbEntity
  8
AM_6
100
AcDbText
 10
7.134
 20
-5.375
 30
0.0
 40
0.5
  1
0.00
100
AcDbAttributeDefinition
  3

  2
E
 70
     8
280
     0
  0
ATTDEF
  5
84
330
6E
100
AcDbEntity
  8
AM_6
100
AcDbText
 10
7.134
 20
-5.875
 30
0.0
 40
0.5
  1
0.4375
100
AcDbAttributeDefinition
  3

  2
F
 70
     8
280
     0
  0
ATTDEF
  5
85
330
6E
100
AcDbEntity
  8
AM_6
100
AcDbText
 10
7.134
 20
-6.375
 30
0.0
 40
0.5
  1
1.61
100
AcDbAttributeDefinition
  3

  2
G
 70
     8
280
     0
  0
ATTDEF
  5
86
330
6E
100
AcDbEntity
  8
AM_6
100
AcDbText
 10
7.134
 20
-6.875
 30
0.0
 40
0.5
  1
0.50
100
AcDbAttributeDefinition
  3

  2
H
 70
     8
280
     0
  0
ATTDEF
  5
87
330
6E
100
AcDbEntity
  8
AM_6
100
AcDbText
 10
7.134
 20
-7.375
 30
0.0
 40
0.5
  1
3.625
100
AcDbAttributeDefinition
  3

  2
K
 70
     8
280
     0
  0
ATTDEF
  5
88
330
6E
100
AcDbEntity
  8
AM_6
100
AcDbText
 10
7.134
 20
-7.875
 30
0.0
 40
0.5
  1
2.72
100
AcDbAttributeDefinition
  3

  2
L
 70
     8
280
     0
  0
ATTDEF
  5
89
330
6E
100
AcDbEntity
  8
AM_6
100
AcDbText
 10
7.134
 20
-8.375
 30
0.0
 40
0.5
  1
0.4375
100
AcDbAttributeDefinition
  3

  2
M
 70
     8
280
     0
  0
ATTDEF
  5
8A
330
6E
100
AcDbEntity
  8
AM_6
100
AcDbText
 10
7.134
 20
-8.875
 30
0.0
 40
0.5
  1
2.78
100
AcDbAttributeDefinition
  3

  2
N
 70
     8
280
     0
  0
ATTDEF
  5
8B
330
6E
100
AcDbEntity
  8
AM_6
100
AcDbText
 10
7.134
 20
-9.375
 30
0.0
 40
0.5
  1
1.02
100
AcDbAttributeDefinition
  3

  2
P
 70
     8
280
     0
  0
ATTDEF
  5
8C
330
6E
100
AcDbEntity
  8
AM_6
100
AcDbText
 10
7.134
 20
-9.875
 30
0.0
 40
0.5
  1
1.17
100
AcDbAttributeDefinition
  3

  2
Q
 70
     8
280
     0
  0
ATTDEF
  5
8D
330
6E
100
AcDbEntity
  8
AM_6
100
AcDbText
 10
7.134
 20
-10.375
 30
0.0
 40
0.5
  1
0.19
100
AcDbAttributeDefinition
  3

  2
X
 70
     8
280
     0
  0
ATTDEF
  5
8E
330
6E
100
AcDbEntity
  8
AM_6
100
AcDbText
 10
7.134
 20
-10.875
 30
0.0
 40
0.5
  1
0.020
100
AcDbAttributeDefinition
  3

  2
Y
 70
     8
280
     0
  0
ATTDEF
  5
8F
330
6E
100
AcDbEntity
  8
AM_6
100
AcDbText
 10
7.134
 20
-11.375
 30
0.0
 40
0.5
  1
1.80
100
AcDbAttributeDefinition
  3

  2
Z
 70
     8
280
     0
  0
ATTDEF
  5
90
330
6E
100
AcDbEntity
  8
AM_6
100
AcDbText
 10
7.134
 20
-11.875
 30
0.0
 40
0.5
  1
baldor
100
AcDbAttributeDefinition
  3

  2
COMPANY
 70
     8
280
     0
  0
INSERT
  5
92
330
6E
100
AcDbEntity
  8
0
100
AcDbBlockReference
  2
2_405015E_Inch_1_0_in_072281_2
 10
0.0
 20
0.0
 30
0.0
  0
INSERT
  5
DA
330
6E
100
AcDbEntity
  8
0
100
AcDbBlockReference
  2
3_405015E_Inch_2_0_in_072281_2
 10
0.0
 20
0.0
 30
0.0
  0
INSERT
  5
11C
330
6E
100
AcDbEntity
  8
0
100
AcDbBlockReference
  2
4_ASME_B18_3_10_1_0_in_072281_2
 10
0.0
 20
0.0
 30
0.0
  0
INSERT
  5
145
330
6E
100
AcDbEntity
  8
0
100
AcDbBlockReference
  2
5_ASME_B18_3_10_2_0_in_072281_2
 10
0.0
 20
0.0
 30
0.0
  0
INSERT
  5
16E
330
6E
100
AcDbEntity
  8
0
100
AcDbBlockReference
  2
6_070885LW_0_in_072281_2
 10
0.0
 20
0.0
 30
0.0
  0
INSERT
  5
1A4
330
6E
100
AcDbEntity
  8
0
100
AcDbBlockReference
  2
7_070885I_0_in_072281_2
 10
0.0
 20
0.0
 30
0.0
  0
INSERT
  5
22B
330
6E
100
AcDbEntity
  8
0
100
AcDbBlockReference
  2
8_B072281_0_in_072281_2
 10
0.0
 20
0.0
 30
0.0
  0
ENDBLK
  5
71
330
6E
100
AcDbEntity
  8
0
100
AcDbBlockEnd
  0
BLOCK
  5
93
330
91
100
AcDbEntity
  8
0
100
AcDbBlockBegin
  2
2_405015E_Inch_1_0_in_072281_2
 70
     2
 10
0.0
 20
0.0
 30
0.0
  3
2_405015E_Inch_1_0_in_072281_2
  1

  0
ATTDEF
  5
95
330
91
100
AcDbEntity
  8
AM_6
100
AcDbText
 10
4.674237844902196
 20
-1.698096968617874
 30
0.0
 40
0.5
  1
405015E -Inch
100
AcDbAttributeDefinition
  3

  2
NN
 70
     8
280
     0
  0
ATTDEF
  5
96
330
91
100
AcDbEntity
  8
AM_6
100
AcDbText
 10
4.674237844902196
 20
-2.198096968617874
 30
0.0
 40
0.5
  1
Grease Fitting
100
AcDbAttributeDefinition
  3

  2
NT
 70
     8
280
     0
  0
ATTDEF
  5
97
330
91
100
AcDbEntity
  8
AM_6
100
AcDbText
 10
4.674237844902196
 20
-2.698096968617874
 30
0.0
 40
0.5
  1
405015E-Inch
100
AcDbAttributeDefinition
  3

  2
NB
 70
     8
280
     0
  0
ATTDEF
  5
98
330
91
100
AcDbEntity
  8
AM_6
100
AcDbText
 10
4.674237844902196
 20
-3.198096968617874
 30
0.0
 40
0.5
  1
$MN.-Inch
100
AcDbAttributeDefinition
  3

  2
NBSYN
 70
     8
280
     0
  0
ATTDEF
  5
99
330
91
100
AcDbEntity
  8
AM_6
100
AcDbText
 10
4.674237844902196
 20
-3.698096968617874
 30
0.0
 40
0.5
  1
405015E
100
AcDbAttributeDefinition
  3

  2
LINA
 70
     8
280
     0
  0
ATTDEF
  5
9A
330
91
100
AcDbEntity
  8
AM_6
100
AcDbText
 10
4.674237844902196
 20
-4.198096968617874
 30
0.0
 40
0.5
  1
405015E
100
AcDbAttributeDefinition
  3

  2
MN
 70
     8
280
     0
  0
ATTDEF
  5
9B
330
91
100
AcDbEntity
  8
AM_6
100
AcDbText
 10
4.674237844902196
 20
-4.698096968617874
 30
0.0
 40
0.5
  1
1/8 x 27PTF
100
AcDbAttributeDefinition
  3

  2
T
 70
     8
280
     0
  0
ATTDEF
  5
9C
330
91
100
AcDbEntity
  8
AM_6
100
AcDbText
 10
4.674237844902196
 20
-5.198096968617874
 30
0.0
 40
0.5
  1
baldor
100
AcDbAttributeDefinition
  3

  2
COMPANY
 70
     8
280
     0
  0
LINE
  5
9F
330
91
100
AcDbEntity
  8
AM_9
100
AcDbLine
 10
-0.491389074733872
 20
-2.201740881631379
 30
0.0
 11
-0.5
 21
-2.180080309474518
 31
0.0
  0
LINE
  5
A0
330
91
100
AcDbEntity
  8
AM_9
100
AcDbLine
 10
-0.5191848757154621
 20
-1.705610455505099
 30
0.0
 11
-0.5705608806470264
 21
-1.698096968617874
 31
0.0
  0
LINE
  5
A1
330
91
100
AcDbEntity
  8
AM_9
100
AcDbLine
 10
-0.3332756419850289
 20
-2.016674372377036
 30
0.0
 11
-0.3257621550978043
 21
-1.965298367445471
 31
0.0
  0
LINE
  5
A2
330
91
100
AcDbEntity
  8
AM_9
100
AcDbLine
 10
-0.3257621550978043
 20
-1.965298367445471
 30
0.0
 11
-0.5191848757154621
 21
-1.705610455505099
 31
0.0
  0
LINE
  5
A3
330
91
100
AcDbEntity
  8
AM_9
100
AcDbLine
 10
-0.5705608806470264
 20
-1.698096968617874
 30
0.0
 11
-0.7579042175886875
 21
-1.82873970786704
 31
0.0
  0
LINE
  5
A4
330
91
100
AcDbEntity
  8
AM_9
100
AcDbLine
 10
-0.5120957824113106
 20
-2.158760292132961
 30
0.0
 11
-0.3332756419850289
 21
-2.016674372377036
 31
0.0
  0
LINE
  5
A5
330
91
100
AcDbEntity
  8
AM_9
100
AcDbLine
 10
-0.3332756419850289
 20
-2.016674372377036
 30
0.0
 11
-0.5705608806470264
 21
-1.698096968617874
 31
0.0
  0
LINE
  5
A6
330
91
100
AcDbEntity
  8
AM_9
100
AcDbLine
 10
-0.4999999999999997
 20
-2.208154536312357
 30
0.0
 11
-0.491389074733872
 21
-2.201740881631379
 31
0.0
  0
LINE
  5
A7
330
91
100
AcDbEntity
  8
AM_9
100
AcDbLine
 10
-0.4996361035409393
 20
-2.18281295693063
 30
0.0
 11
-0.491389074733872
 21
-2.201740881631379
 31
0.0
  0
LINE
  5
A9
330
91
100
AcDbEntity
  8
AM_5
100
AcDbLine
 10
-0.4823241661467467
 20
-2.089698545667548
 30
0.0
 11
-0.3257621550978039
 21
-1.965298367445471
 31
0.0
  0
LINE
  5
AA
330
91
100
AcDbEntity
  8
AM_5
100
AcDbLine
 10
-0.5120957824113109
 20
-2.158760292132961
 30
0.0
 11
-0.4823241661467469
 21
-2.089698545667548
 31
0.0
  0
LINE
  5
AB
330
91
100
AcDbEntity
  8
AM_5
100
AcDbLine
 10
-0.7044550555152286
 20
-1.791467259015423
 30
0.0
 11
-0.4610782932191577
 21
-2.118223097283294
 31
0.0
  0
LINE
  5
AC
330
91
100
AcDbEntity
  8
AM_5
100
AcDbLine
 10
-0.6832091825876392
 20
-1.819991810631168
 30
0.0
 11
-0.5191848757154621
 21
-1.705610455505099
 31
0.0
  0
LINE
  5
AD
330
91
100
AcDbEntity
  8
AM_5
100
AcDbLine
 10
-0.7579042175886872
 20
-1.82873970786704
 30
0.0
 11
-0.6832091825876392
 21
-1.819991810631168
 31
0.0
  0
LINE
  5
B0
330
91
100
AcDbEntity
  8
AM_7
100
AcDbLine
 10
-0.9614086008660364
 20
-2.236868130300222
 30
0.0
 11
-0.3968099399085664
 21
-1.816339472483622
 31
0.0
  0
LINE
  5
B2
330
91
100
AcDbEntity
  8
AM_4
100
AcDbLine
 10
-0.8621281741008862
 20
-2.031996470812314
 30
0.0
 11
-0.8861877761303237
 21
-2.049916726116998
 31
0.0
  0
LINE
  5
B3
330
91
100
AcDbEntity
  8
AM_4
100
AcDbLine
 10
-0.7607459889975308
 20
-2.218333940323062
 30
0.0
 11
-0.7366863869680932
 21
-2.200413685018377
 31
0.0
  0
LINE
  5
B4
330
91
100
AcDbEntity
  8
AM_4
100
AcDbLine
 10
-0.5
 20
-2.180080309474518
 30
0.0
 11
-0.5043314717366731
 21
-2.169184598131316
 31
0.0
  0
LINE
  5
B5
330
91
100
AcDbEntity
  8
AM_4
100
AcDbLine
 10
-0.584530145168132
 20
-2.228918782480265
 30
0.0
 11
-0.5570435588278112
 21
-2.250642152542727
 31
0.0
  0
LINE
  5
B6
330
91
100
AcDbEntity
  8
AM_4
100
AcDbLine
 10
-0.584530145168132
 20
-2.228918782480265
 30
0.0
 11
-0.8458672016947839
 21
-1.878049586217633
 31
0.0
  0
LINE
  5
B7
330
91
100
AcDbEntity
  8
AM_4
100
AcDbLine
 10
-0.7656685282633251
 20
-1.818315401868684
 30
0.0
 11
-0.7931551146036457
 21
-1.796592031806222
 31
0.0
  0
LINE
  5
B8
330
91
100
AcDbEntity
  8
AM_4
100
AcDbLine
 10
-0.8588095986975849
 20
-1.84549330271757
 30
0.0
 11
-0.8458672016947839
 21
-1.878049586217633
 31
0.0
  0
LINE
  5
B9
330
91
100
AcDbEntity
  8
AM_4
100
AcDbLine
 10
-0.7366863869680932
 20
-2.200413685018377
 30
0.0
 11
-0.7025694998063567
 21
-2.192234804675646
 31
0.0
  0
LINE
  5
BA
330
91
100
AcDbEntity
  8
AM_4
100
AcDbLine
 10
-0.844521923892701
 20
-2.001650531596759
 30
0.0
 11
-0.8621281741008862
 21
-2.031996470812314
 31
0.0
  0
LINE
  5
BB
330
91
100
AcDbEntity
  8
AM_4
100
AcDbLine
 10
-0.7366863869680932
 20
-2.200413685018377
 30
0.0
 11
-0.8621281741008862
 21
-2.031996470812314
 31
0.0
  0
LINE
  5
BC
330
91
100
AcDbEntity
  8
AM_4
100
AcDbLine
 10
-0.8744112181415663
 20
-2.300099506566229
 30
0.0
 11
-0.7909449377517214
 21
-2.278234052961869
 31
0.0
  0
LINE
  5
BD
330
91
100
AcDbEntity
  8
AM_4
100
AcDbLine
 10
-0.9522272354938837
 20
-2.06169763469693
 30
0.0
 11
-0.9970788325943729
 21
-2.135406876050888
 31
0.0
  0
LINE
  5
BE
330
91
100
AcDbEntity
  8
AM_4
100
AcDbLine
 10
-0.8744112181415663
 20
-2.300099506566229
 30
0.0
 11
-0.9970788325943729
 21
-2.135406876050888
 31
0.0
  0
LINE
  5
BF
330
91
100
AcDbEntity
  8
AM_4
100
AcDbLine
 10
-0.8861877761303237
 20
-2.049916726116998
 30
0.0
 11
-0.9522272354938837
 21
-2.06169763469693
 31
0.0
  0
LINE
  5
C0
330
91
100
AcDbEntity
  8
AM_4
100
AcDbLine
 10
-0.7909449377517214
 20
-2.278234052961869
 30
0.0
 11
-0.7607459889975308
 21
-2.218333940323062
 31
0.0
  0
LINE
  5
C1
330
91
100
AcDbEntity
  8
AM_4
100
AcDbLine
 10
-0.7909449377517214
 20
-2.278234052961869
 30
0.0
 11
-0.9522272354938837
 21
-2.06169763469693
 31
0.0
  0
LINE
  5
C2
330
91
100
AcDbEntity
  8
AM_4
100
AcDbLine
 10
-0.7607459889975308
 20
-2.218333940323062
 30
0.0
 11
-0.8861877761303237
 21
-2.049916726116998
 31
0.0
  0
LINE
  5
C3
330
91
100
AcDbEntity
  8
AM_4
100
AcDbLine
 10
-0.7025694998063566
 20
-2.192234804675646
 30
0.0
 11
-0.6268278162049958
 21
-2.20279643278527
 31
0.0
  0
LINE
  5
C4
330
91
100
AcDbEntity
  8
AM_4
100
AcDbLine
 10
-0.8329514351105765
 20
-1.926056388884261
 30
0.0
 11
-0.8445219238927011
 21
-2.001650531596759
 31
0.0
  0
LINE
  5
C5
330
91
100
AcDbEntity
  8
AM_4
100
AcDbLine
 10
-0.7025694998063566
 20
-2.192234804675646
 30
0.0
 11
-0.844521923892701
 21
-2.001650531596759
 31
0.0
  0
LINE
  5
C6
330
91
100
AcDbEntity
  8
AM_4
100
AcDbLine
 10
-0.6268278162049958
 20
-2.20279643278527
 30
0.0
 11
-0.5875168543855793
 21
-2.224908848808692
 31
0.0
  0
LINE
  5
C7
330
91
100
AcDbEntity
  8
AM_4
100
AcDbLine
 10
-0.8428804924773363
 20
-1.882059519889206
 30
0.0
 11
-0.8329514351105765
 21
-1.926056388884261
 31
0.0
  0
LINE
  5
C8
330
91
100
AcDbEntity
  8
AM_4
100
AcDbLine
 10
-0.6268278162049958
 20
-2.20279643278527
 30
0.0
 11
-0.8329514351105765
 21
-1.926056388884261
 31
0.0
  0
LWPOLYLINE
  5
C9
330
91
100
AcDbEntity
  8
AM_4
100
AcDbPolyline
 90
        4
 70
     0
 43
0.0
 10
-0.6349999999999991
 20
-1.99375
 10
-0.6072256295428459
 20
-2.03341277875213
 10
-0.5815743514165843
 20
-2.074656895240373
 10
-0.5668305847013154
 20
-2.100453669175089
  0
LINE
  5
CA
330
91
100
AcDbEntity
  8
AM_4
100
AcDbLine
 10
-0.8588095986975849
 20
-1.84549330271757
 30
0.0
 11
-0.7931551146036457
 21
-1.796592031806222
 31
0.0
  0
LWPOLYLINE
  5
CB
330
91
100
AcDbEntity
  8
AM_4
100
AcDbPolyline
 90
        4
 70
     0
 43
0.0
 10
-0.828360938382623
 20
-1.901553365664515
 10
-0.8373039891551093
 20
-1.888529630306569
 10
-0.8453018562347228
 20
-1.874801896060138
 10
-0.8588095986975849
 20
-1.84549330271757
  0
LINE
  5
CC
330
91
100
AcDbEntity
  8
AM_4
100
AcDbLine
 10
-0.7833680887301415
 20
-1.946780515173859
 30
0.0
 11
-0.7177136046362023
 21
-1.897879244262511
 31
0.0
  0
LWPOLYLINE
  5
CD
330
91
100
AcDbEntity
  8
AM_4
100
AcDbPolyline
 90
        4
 70
     0
 43
0.0
 10
-0.7931551146036457
 20
-1.796592031806222
 10
-0.76904386075808
 20
-1.81782582134078
 10
-0.7581409349135478
 20
-1.829450720605451
 10
-0.7481622649511643
 20
-1.841819181315566
  0
LINE
  5
CE
330
91
100
AcDbEntity
  8
AM_4
100
AcDbLine
 10
-0.6324850687952547
 20
-2.149354940086438
 30
0.0
 11
-0.5668305847013154
 21
-2.100453669175089
 31
0.0
  0
LWPOLYLINE
  5
CF
330
91
100
AcDbEntity
  8
AM_4
100
AcDbPolyline
 90
        4
 70
     0
 43
0.0
 10
-0.5570435588278112
 20
-2.250642152542727
 10
-0.581154812673377
 20
-2.229408363008169
 10
-0.5920577385179091
 20
-2.217783463743498
 10
-0.6020364084802927
 20
-2.205415003033383
  0
LINE
  5
D0
330
91
100
AcDbEntity
  8
AM_4
100
AcDbLine
 10
-0.5570435588278112
 20
-2.250642152542727
 30
0.0
 11
-0.4999999999999997
 21
-2.208154536312357
 31
0.0
  0
LWPOLYLINE
  5
D1
330
91
100
AcDbEntity
  8
AM_4
100
AcDbPolyline
 90
        4
 70
     0
 43
0.0
 10
-0.5218377350488339
 20
-2.145680818684434
 10
-0.5128946842763477
 20
-2.15870455404238
 10
-0.5048968171967343
 20
-2.172432288288811
 10
-0.4996361035409393
 20
-2.18281295693063
  0
LWPOLYLINE
  5
D2
330
91
100
AcDbEntity
  8
AM_4
100
AcDbPolyline
 90
        4
 70
     0
 43
0.0
 10
-0.5668305847013154
 20
-2.100453669175089
 10
-0.5427193308557496
 20
-2.121687458709648
 10
-0.5318164050112174
 20
-2.133312357974318
 10
-0.5218377350488339
 20
-2.145680818684434
  0
LWPOLYLINE
  5
D3
330
91
100
AcDbEntity
  8
AM_4
100
AcDbPolyline
 90
        4
 70
     0
 43
0.0
 10
-0.7481622649511643
 20
-1.841819181315566
 10
-0.7392192141786781
 20
-1.854842916673513
 10
-0.7312213470990646
 20
-1.868570650919943
 10
-0.7177136046362023
 20
-1.897879244262511
  0
LWPOLYLINE
  5
D4
330
91
100
AcDbEntity
  8
AM_4
100
AcDbPolyline
 90
        4
 70
     0
 43
0.0
 10
-0.7177136046362023
 20
-1.897879244262511
 10
-0.6748267746345636
 20
-1.944320983265871
 10
-0.6544644695023394
 20
-1.96864597509272
 10
-0.6349999999999991
 20
-1.99375
  0
LWPOLYLINE
  5
D5
330
91
100
AcDbEntity
  8
AM_4
100
AcDbPolyline
 90
        4
 70
     0
 43
0.0
 10
-0.7151986734314578
 20
-2.053484184348949
 10
-0.7335719129498746
 20
-2.027799547433967
 10
-0.7509999687754183
 20
-2.001410911630499
 10
-0.7833680887301415
 20
-1.946780515173859
  0
LWPOLYLINE
  5
D6
330
91
100
AcDbEntity
  8
AM_4
100
AcDbPolyline
 90
        4
 70
     0
 43
0.0
 10
-0.7833680887301415
 20
-1.946780515173859
 10
-0.8074793425757072
 20
-1.925546725639301
 10
-0.8183822684202395
 20
-1.913921826374631
 10
-0.828360938382623
 20
-1.901553365664515
  0
LWPOLYLINE
  5
D7
330
91
100
AcDbEntity
  8
AM_4
100
AcDbPolyline
 90
        4
 70
     0
 43
0.0
 10
-0.6020364084802927
 20
-2.205415003033383
 10
-0.6109794592527789
 20
-2.192391267675437
 10
-0.6189773263323923
 20
-2.178663533429006
 10
-0.6324850687952547
 20
-2.149354940086438
  0
LWPOLYLINE
  5
D8
330
91
100
AcDbEntity
  8
AM_4
100
AcDbPolyline
 90
        4
 70
     0
 43
0.0
 10
-0.6324850687952547
 20
-2.149354940086438
 10
-0.6529793806253412
 20
-2.127841330788964
 10
-0.6850587467526893
 20
-2.091562871409677
 10
-0.7151986734314578
 20
-2.053484184348949
  0
ENDBLK
  5
94
330
91
100
AcDbEntity
  8
0
100
AcDbBlockEnd
  0
BLOCK
  5
DB
330
D9
100
AcDbEntity
  8
0
100
AcDbBlockBegin
  2
3_405015E_Inch_2_0_in_072281_2
 70
     2
 10
0.0
 20
0.0
 30
0.0
  3
3_405015E_Inch_2_0_in_072281_2
  1

  0
ATTDEF
  5
DD
330
D9
100
AcDbEntity
  8
AM_6
100
AcDbText
 10
4.674237844902195
 20
2.300099506566229
 30
0.0
 40
0.5
  1
405015E -Inch
100
AcDbAttributeDefinition
  3

  2
NN
 70
     8
280
     0
  0
ATTDEF
  5
DE
330
D9
100
AcDbEntity
  8
AM_6
100
AcDbText
 10
4.674237844902195
 20
1.800099506566229
 30
0.0
 40
0.5
  1
Grease Fitting
100
AcDbAttributeDefinition
  3

  2
NT
 70
     8
280
     0
  0
ATTDEF
  5
DF
330
D9
100
AcDbEntity
  8
AM_6
100
AcDbText
 10
4.674237844902195
 20
1.300099506566229
 30
0.0
 40
0.5
  1
405015E-Inch
100
AcDbAttributeDefinition
  3

  2
NB
 70
     8
280
     0
  0
ATTDEF
  5
E0
330
D9
100
AcDbEntity
  8
AM_6
100
AcDbText
 10
4.674237844902195
 20
0.8000995065662289
 30
0.0
 40
0.5
  1
$MN.-Inch
100
AcDbAttributeDefinition
  3

  2
NBSYN
 70
     8
280
     0
  0
ATTDEF
  5
E1
330
D9
100
AcDbEntity
  8
AM_6
100
AcDbText
 10
4.674237844902195
 20
0.3000995065662289
 30
0.0
 40
0.5
  1
405015E
100
AcDbAttributeDefinition
  3

  2
LINA
 70
     8
280
     0
  0
ATTDEF
  5
E2
330
D9
100
AcDbEntity
  8
AM_6
100
AcDbText
 10
4.674237844902195
 20
-0.1999004934337711
 30
0.0
 40
0.5
  1
405015E
100
AcDbAttributeDefinition
  3

  2
MN
 70
     8
280
     0
  0
ATTDEF
  5
E3
330
D9
100
AcDbEntity
  8
AM_6
100
AcDbText
 10
4.674237844902195
 20
-0.6999004934337711
 30
0.0
 40
0.5
  1
1/8 x 27PTF
100
AcDbAttributeDefinition
  3

  2
T
 70
     8
280
     0
  0
ATTDEF
  5
E4
330
D9
100
AcDbEntity
  8
AM_6
100
AcDbText
 10
4.674237844902195
 20
-1.199900493433771
 30
0.0
 40
0.5
  1
baldor
100
AcDbAttributeDefinition
  3

  2
COMPANY
 70
     8
280
     0
  0
LINE
  5
E5
330
D9
100
AcDbEntity
  8
AM_9
100
AcDbLine
 10
-0.4999999999999999
 20
2.18008030947452
 30
0.0
 11
-0.4913890747338729
 21
2.201740881631379
 31
0.0
  0
LINE
  5
E6
330
D9
100
AcDbEntity
  8
AM_9
100
AcDbLine
 10
-0.5191848757154619
 20
1.705610455505099
 30
0.0
 11
-0.3257621550978046
 21
1.965298367445472
 31
0.0
  0
LINE
  5
E7
330
D9
100
AcDbEntity
  8
AM_9
100
AcDbLine
 10
-0.3257621550978046
 20
1.965298367445472
 30
0.0
 11
-0.3332756419850293
 21
2.016674372377036
 31
0.0
  0
LINE
  5
E8
330
D9
100
AcDbEntity
  8
AM_9
100
AcDbLine
 10
-0.570560880647026
 20
1.698096968617875
 30
0.0
 11
-0.5191848757154619
 21
1.705610455505099
 31
0.0
  0
LINE
  5
E9
330
D9
100
AcDbEntity
  8
AM_9
100
AcDbLine
 10
-0.570560880647026
 20
1.698096968617875
 30
0.0
 11
-0.3332756419850293
 21
2.016674372377036
 31
0.0
  0
LINE
  5
EA
330
D9
100
AcDbEntity
  8
AM_9
100
AcDbLine
 10
-0.3332756419850293
 20
2.016674372377036
 30
0.0
 11
-0.5120957824113115
 21
2.158760292132961
 31
0.0
  0
LINE
  5
EB
330
D9
100
AcDbEntity
  8
AM_9
100
AcDbLine
 10
-0.7579042175886876
 20
1.82873970786704
 30
0.0
 11
-0.570560880647026
 21
1.698096968617875
 31
0.0
  0
LINE
  5
EC
330
D9
100
AcDbEntity
  8
AM_9
100
AcDbLine
 10
-0.5
 20
2.208154536312357
 30
0.0
 11
-0.4913890747338729
 21
2.201740881631379
 31
0.0
  0
LINE
  5
ED
330
D9
100
AcDbEntity
  8
AM_9
100
AcDbLine
 10
-0.4913890747338729
 20
2.201740881631379
 30
0.0
 11
-0.4996409150398168
 21
2.182802904804173
 31
0.0
  0
LINE
  5
EE
330
D9
100
AcDbEntity
  8
AM_5
100
AcDbLine
 10
-0.6832091825876392
 20
1.819991810631168
 30
0.0
 11
-0.5191848757154621
 21
1.705610455505099
 31
0.0
  0
LINE
  5
EF
330
D9
100
AcDbEntity
  8
AM_5
100
AcDbLine
 10
-0.7579042175886872
 20
1.828739707867039
 30
0.0
 11
-0.6832091825876392
 21
1.819991810631168
 31
0.0
  0
LINE
  5
F0
330
D9
100
AcDbEntity
  8
AM_5
100
AcDbLine
 10
-0.4823241661467482
 20
2.08969854566755
 30
0.0
 11
-0.3257621550978048
 21
1.965298367445472
 31
0.0
  0
LINE
  5
F1
330
D9
100
AcDbEntity
  8
AM_5
100
AcDbLine
 10
-0.5120957824113113
 20
2.158760292132961
 30
0.0
 11
-0.4823241661467481
 21
2.08969854566755
 31
0.0
  0
LINE
  5
F2
330
D9
100
AcDbEntity
  8
AM_5
100
AcDbLine
 10
-0.7044550555152286
 20
1.791467259015423
 30
0.0
 11
-0.4610782932191586
 21
2.118223097283294
 31
0.0
  0
LINE
  5
F3
330
D9
100
AcDbEntity
  8
AM_7
100
AcDbLine
 10
-0.9614086008660373
 20
2.236868130300222
 30
0.0
 11
-0.3968099399085664
 21
1.816339472483622
 31
0.0
  0
LINE
  5
F4
330
D9
100
AcDbEntity
  8
AM_4
100
AcDbLine
 10
-0.7366863869680941
 20
2.200413685018377
 30
0.0
 11
-0.7607459889975318
 21
2.218333940323062
 31
0.0
  0
LINE
  5
F5
330
D9
100
AcDbEntity
  8
AM_4
100
AcDbLine
 10
-0.8861877761303243
 20
2.049916726116998
 30
0.0
 11
-0.8621281741008866
 21
2.031996470812313
 31
0.0
  0
LINE
  5
F6
330
D9
100
AcDbEntity
  8
AM_4
100
AcDbLine
 10
-0.8458672016947839
 20
1.878049586217633
 30
0.0
 11
-0.5845301451681328
 21
2.228918782480266
 31
0.0
  0
LINE
  5
F7
330
D9
100
AcDbEntity
  8
AM_4
100
AcDbLine
 10
-0.5570435588278123
 20
2.250642152542727
 30
0.0
 11
-0.5845301451681328
 21
2.228918782480266
 31
0.0
  0
LINE
  5
F8
330
D9
100
AcDbEntity
  8
AM_4
100
AcDbLine
 10
-0.8458672016947839
 20
1.878049586217633
 30
0.0
 11
-0.8588095986975851
 21
1.84549330271757
 31
0.0
  0
LINE
  5
F9
330
D9
100
AcDbEntity
  8
AM_4
100
AcDbLine
 10
-0.5043314717366739
 20
2.169184598131316
 30
0.0
 11
-0.4999999999999999
 21
2.18008030947452
 31
0.0
  0
LINE
  5
FA
330
D9
100
AcDbEntity
  8
AM_4
100
AcDbLine
 10
-0.7931551146036457
 20
1.796592031806222
 30
0.0
 11
-0.7656685282633251
 21
1.818315401868684
 31
0.0
  0
LINE
  5
FB
330
D9
100
AcDbEntity
  8
AM_4
100
AcDbLine
 10
-0.8621281741008866
 20
2.031996470812313
 30
0.0
 11
-0.7366863869680941
 21
2.200413685018377
 31
0.0
  0
LINE
  5
FC
330
D9
100
AcDbEntity
  8
AM_4
100
AcDbLine
 10
-0.8621281741008866
 20
2.031996470812313
 30
0.0
 11
-0.8445219238927015
 21
2.001650531596758
 31
0.0
  0
LINE
  5
FD
330
D9
100
AcDbEntity
  8
AM_4
100
AcDbLine
 10
-0.7025694998063576
 20
2.192234804675646
 30
0.0
 11
-0.7366863869680941
 21
2.200413685018377
 31
0.0
  0
LINE
  5
FE
330
D9
100
AcDbEntity
  8
AM_4
100
AcDbLine
 10
-0.8861877761303243
 20
2.049916726116998
 30
0.0
 11
-0.7607459889975318
 21
2.218333940323062
 31
0.0
  0
LINE
  5
FF
330
D9
100
AcDbEntity
  8
AM_4
100
AcDbLine
 10
-0.7607459889975318
 20
2.218333940323062
 30
0.0
 11
-0.7909449377517225
 21
2.278234052961869
 31
0.0
  0
LINE
  5
100
330
D9
100
AcDbEntity
  8
AM_4
100
AcDbLine
 10
-0.9522272354938842
 20
2.06169763469693
 30
0.0
 11
-0.8861877761303243
 21
2.049916726116998
 31
0.0
  0
LINE
  5
101
330
D9
100
AcDbEntity
  8
AM_4
100
AcDbLine
 10
-0.9970788325943736
 20
2.135406876050888
 30
0.0
 11
-0.8744112181415674
 21
2.300099506566229
 31
0.0
  0
LINE
  5
102
330
D9
100
AcDbEntity
  8
AM_4
100
AcDbLine
 10
-0.9522272354938842
 20
2.06169763469693
 30
0.0
 11
-0.7909449377517225
 21
2.278234052961869
 31
0.0
  0
LINE
  5
103
330
D9
100
AcDbEntity
  8
AM_4
100
AcDbLine
 10
-0.9970788325943736
 20
2.135406876050888
 30
0.0
 11
-0.9522272354938842
 21
2.06169763469693
 31
0.0
  0
LINE
  5
104
330
D9
100
AcDbEntity
  8
AM_4
100
AcDbLine
 10
-0.7909449377517225
 20
2.278234052961869
 30
0.0
 11
-0.8744112181415674
 21
2.300099506566229
 31
0.0
  0
LINE
  5
105
330
D9
100
AcDbEntity
  8
AM_4
100
AcDbLine
 10
-0.8445219238927015
 20
2.001650531596758
 30
0.0
 11
-0.7025694998063576
 21
2.192234804675646
 31
0.0
  0
LINE
  5
106
330
D9
100
AcDbEntity
  8
AM_4
100
AcDbLine
 10
-0.8445219238927015
 20
2.001650531596758
 30
0.0
 11
-0.8329514351105768
 21
1.926056388884261
 31
0.0
  0
LINE
  5
107
330
D9
100
AcDbEntity
  8
AM_4
100
AcDbLine
 10
-0.6268278162049967
 20
2.202796432785271
 30
0.0
 11
-0.7025694998063576
 21
2.192234804675646
 31
0.0
  0
LINE
  5
108
330
D9
100
AcDbEntity
  8
AM_4
100
AcDbLine
 10
-0.8329514351105768
 20
1.926056388884261
 30
0.0
 11
-0.6268278162049967
 21
2.202796432785271
 31
0.0
  0
LINE
  5
109
330
D9
100
AcDbEntity
  8
AM_4
100
AcDbLine
 10
-0.8329514351105768
 20
1.926056388884261
 30
0.0
 11
-0.8428804924773365
 21
1.882059519889206
 31
0.0
  0
LINE
  5
10A
330
D9
100
AcDbEntity
  8
AM_4
100
AcDbLine
 10
-0.5875168543855803
 20
2.224908848808693
 30
0.0
 11
-0.6268278162049967
 21
2.202796432785271
 31
0.0
  0
LINE
  5
10B
330
D9
100
AcDbEntity
  8
AM_4
100
AcDbLine
 10
-0.5570435588278123
 20
2.250642152542727
 30
0.0
 11
-0.5
 21
2.208154536312357
 31
0.0
  0
LWPOLYLINE
  5
10C
330
D9
100
AcDbEntity
  8
AM_4
100
AcDbPolyline
 90
        4
 70
     0
 43
0.0
 10
-0.6020364084802936
 20
2.205415003033383
 10
-0.592119081760919
 20
2.217713070789509
 10
-0.5812565713486716
 20
2.229307139657151
 10
-0.5570435588278123
 20
2.250642152542727
  0
LWPOLYLINE
  5
10D
330
D9
100
AcDbEntity
  8
AM_4
100
AcDbPolyline
 90
        4
 70
     0
 43
0.0
 10
-0.4996409150398168
 20
2.182802904804173
 10
-0.5048289732004527
 20
2.172558772228335
 10
-0.5128448059313044
 20
2.158783486368647
 10
-0.5218377350488347
 20
2.145680818684434
  0
LINE
  5
10E
330
D9
100
AcDbEntity
  8
AM_4
100
AcDbLine
 10
-0.6324850687952555
 20
2.149354940086438
 30
0.0
 11
-0.5668305847013161
 21
2.10045366917509
 31
0.0
  0
LWPOLYLINE
  5
10F
330
D9
100
AcDbEntity
  8
AM_4
100
AcDbPolyline
 90
        4
 70
     0
 43
0.0
 10
-0.783368088730142
 20
1.946780515173859
 10
-0.7511526141074893
 20
2.001170574045705
 10
-0.7336774020889454
 20
2.027645952467572
 10
-0.7151986734314584
 20
2.053484184348949
  0
LWPOLYLINE
  5
110
330
D9
100
AcDbEntity
  8
AM_4
100
AcDbPolyline
 90
        4
 70
     0
 43
0.0
 10
-0.6349999999999996
 20
1.99375
 10
-0.6543475154653045
 20
1.968791030686838
 10
-0.6746402146234823
 20
1.94453606026216
 10
-0.7177136046362026
 20
1.897879244262511
  0
LWPOLYLINE
  5
111
330
D9
100
AcDbEntity
  8
AM_4
100
AcDbPolyline
 90
        4
 70
     0
 43
0.0
 10
-0.7151986734314584
 20
2.053484184348949
 10
-0.6851505731938461
 20
2.091453426437013
 10
-0.6529793806253419
 20
2.127841330788965
 10
-0.6324850687952555
 20
2.149354940086438
  0
LWPOLYLINE
  5
112
330
D9
100
AcDbEntity
  8
AM_4
100
AcDbPolyline
 90
        4
 70
     0
 43
0.0
 10
-0.6324850687952555
 20
2.149354940086438
 10
-0.6190451703286757
 20
2.178537049489483
 10
-0.6110293375978237
 20
2.19231233534917
 10
-0.6020364084802936
 20
2.205415003033383
  0
LINE
  5
113
330
D9
100
AcDbEntity
  8
AM_4
100
AcDbLine
 10
-0.783368088730142
 20
1.946780515173859
 30
0.0
 11
-0.7177136046362026
 21
1.897879244262511
 31
0.0
  0
LWPOLYLINE
  5
114
330
D9
100
AcDbEntity
  8
AM_4
100
AcDbPolyline
 90
        4
 70
     0
 43
0.0
 10
-0.8283609383826233
 20
1.901553365664515
 10
-0.8184436116632487
 20
1.913851433420641
 10
-0.8075811012510012
 20
1.925445502288283
 10
-0.783368088730142
 20
1.946780515173859
  0
LWPOLYLINE
  5
115
330
D9
100
AcDbEntity
  8
AM_4
100
AcDbPolyline
 90
        4
 70
     0
 43
0.0
 10
-0.8588095986975851
 20
1.84549330271757
 10
-0.8453697002310052
 20
1.874675412120614
 10
-0.8373538675001535
 20
1.888450697980302
 10
-0.8283609383826233
 20
1.901553365664515
  0
LINE
  5
116
330
D9
100
AcDbEntity
  8
AM_4
100
AcDbLine
 10
-0.8588095986975851
 20
1.84549330271757
 30
0.0
 11
-0.7931551146036457
 21
1.796592031806222
 31
0.0
  0
LWPOLYLINE
  5
117
330
D9
100
AcDbEntity
  8
AM_4
100
AcDbPolyline
 90
        4
 70
     0
 43
0.0
 10
-0.7481622649511643
 20
1.841819181315566
 10
-0.758079591670539
 20
1.82952111355944
 10
-0.7689421020827862
 20
1.817927044691799
 10
-0.7931551146036457
 20
1.796592031806222
  0
LWPOLYLINE
  5
118
330
D9
100
AcDbEntity
  8
AM_4
100
AcDbPolyline
 90
        4
 70
     0
 43
0.0
 10
-0.7177136046362026
 20
1.897879244262511
 10
-0.7311535031027824
 20
1.868697134859467
 10
-0.7391693358336341
 20
1.854921848999779
 10
-0.7481622649511643
 20
1.841819181315566
  0
LWPOLYLINE
  5
119
330
D9
100
AcDbEntity
  8
AM_4
100
AcDbPolyline
 90
        4
 70
     0
 43
0.0
 10
-0.5218377350488347
 20
2.145680818684434
 10
-0.5317550617682093
 20
2.133382750928308
 10
-0.5426175721804567
 20
2.121788682060667
 10
-0.5668305847013161
 20
2.10045366917509
  0
LWPOLYLINE
  5
11A
330
D9
100
AcDbEntity
  8
AM_4
100
AcDbPolyline
 90
        4
 70
     0
 43
0.0
 10
-0.5668305847013161
 20
2.10045366917509
 10
-0.5815743514165849
 20
2.074656895240373
 10
-0.6071470639939405
 20
2.033532100803161
 10
-0.6349999999999996
 20
1.99375
  0
ENDBLK
  5
DC
330
D9
100
AcDbEntity
  8
0
100
AcDbBlockEnd
  0
BLOCK
  5
11D
330
11B
100
AcDbEntity
  8
0
100
AcDbBlockBegin
  2
4_ASME_B18_3_10_1_0_in_072281_2
 70
     2
 10
0.0
 20
0.0
 30
0.0
  3
4_ASME_B18_3_10_1_0_in_072281_2
  1

  0
ATTDEF
  5
11F
330
11B
100
AcDbEntity
  8
AM_6
100
AcDbText
 10
4.290999966666667
 20
-0.9158541666666666
 30
0.0
 40
0.5
  1
ANSI/ASME B18.3-1998
100
AcDbAttributeDefinition
  3

  2
NN
 70
     8
280
     0
  0
ATTDEF
  5
120
330
11B
100
AcDbEntity
  8
AM_6
100
AcDbText
 10
4.290999966666667
 20
-1.415854166666667
 30
0.0
 40
0.5
  1
Socket Button Head Cap Screws
100
AcDbAttributeDefinition
  3

  2
NT
 70
     8
280
     0
  0
ATTDEF
  5
121
330
11B
100
AcDbEntity
  8
AM_6
100
AcDbText
 10
4.290999966666667
 20
-1.915854166666667
 30
0.0
 40
0.5
  1
ASME B18.3-10
100
AcDbAttributeDefinition
  3

  2
NB
 70
     8
280
     0
  0
ATTDEF
  5
122
330
11B
100
AcDbEntity
  8
AM_6
100
AcDbText
 10
4.290999966666667
 20
-2.415854166666667
 30
0.0
 40
0.5
  1
ASME B18.3-$NS.
100
AcDbAttributeDefinition
  3

  2
NBSYN
 70
     8
280
     0
  0
ATTDEF
  5
123
330
11B
100
AcDbEntity
  8
AM_6
100
AcDbText
 10
4.290999966666667
 20
-2.915854166666667
 30
0.0
 40
0.5
  1
ASME B18.3-10
100
AcDbAttributeDefinition
  3

  2
LINA
 70
     8
280
     0
  0
ATTDEF
  5
124
330
11B
100
AcDbEntity
  8
AM_6
100
AcDbText
 10
4.290999966666667
 20
-3.415854166666667
 30
0.0
 40
0.5
  1
10
100
AcDbAttributeDefinition
  3

  2
NS
 70
     8
280
     0
  0
ATTDEF
  5
125
330
11B
100
AcDbEntity
  8
AM_6
100
AcDbText
 10
4.290999966666667
 20
-3.915854166666667
 30
0.0
 40
0.5
  1
0.361
100
AcDbAttributeDefinition
  3

  2
A
 70
     8
280
     0
  0
ATTDEF
  5
126
330
11B
100
AcDbEntity
  8
AM_6
100
AcDbText
 10
4.290999966666667
 20
-4.415854166666667
 30
0.0
 40
0.5
  1
0.101
100
AcDbAttributeDefinition
  3

  2
H
 70
     8
280
     0
  0
ATTDEF
  5
127
330
11B
100
AcDbEntity
  8
AM_6
100
AcDbText
 10
4.290999966666667
 20
-4.915854166666667
 30
0.0
 40
0.5
  1
0.800
100
AcDbAttributeDefinition
  3

  2
L
 70
     8
280
     0
  0
ATTDEF
  5
128
330
11B
100
AcDbEntity
  8
AM_6
100
AcDbText
 10
4.290999966666667
 20
-5.415854166666667
 30
0.0
 40
0.5
  1
0.020
100
AcDbAttributeDefinition
  3

  2
S
 70
     8
280
     0
  0
ATTDEF
  5
129
330
11B
100
AcDbEntity
  8
AM_6
100
AcDbText
 10
4.290999966666667
 20
-5.915854166666667
 30
0.0
 40
0.5
  1
0.125000
100
AcDbAttributeDefinition
  3

  2
J
 70
     8
280
     0
  0
ATTDEF
  5
12A
330
11B
100
AcDbEntity
  8
AM_6
100
AcDbText
 10
4.290999966666667
 20
-6.415854166666667
 30
0.0
 40
0.5
  1
baldor
100
AcDbAttributeDefinition
  3

  2
COMPANY
 70
     8
280
     0
  0
LINE
  5
12B
330
11B
100
AcDbEntity
  8
AM_9
100
AcDbLine
 10
-1.549000033333333
 20
-1.024185383017963
 30
0.0
 11
-1.610000033333333
 21
-1.024185383017963
 31
0.0
  0
LINE
  5
12C
330
11B
100
AcDbEntity
  8
AM_9
100
AcDbLine
 10
-1.549000033333333
 20
-1.16852295031537
 30
0.0
 11
-1.610000033333333
 21
-1.16852295031537
 31
0.0
  0
LINE
  5
12D
330
11B
100
AcDbEntity
  8
AM_9
100
AcDbLine
 10
-1.549000033333333
 20
-1.024185383017963
 30
0.0
 11
-1.549000033333333
 21
-1.16852295031537
 31
0.0
  0
LINE
  5
12E
330
11B
100
AcDbEntity
  8
AM_9
100
AcDbLine
 10
-1.549000033333333
 20
-1.060269774842315
 30
0.0
 11
-1.610000033333333
 21
-1.060269774842315
 31
0.0
  0
LINE
  5
12F
330
11B
100
AcDbEntity
  8
AM_9
100
AcDbLine
 10
-1.549000033333333
 20
-1.132438558491018
 30
0.0
 11
-1.610000033333333
 21
-1.132438558491018
 31
0.0
  0
LINE
  5
130
330
11B
100
AcDbEntity
  8
AM_9
100
AcDbLine
 10
-0.709000033333333
 20
-1.019954166666666
 30
0.0
 11
-0.709000033333333
 21
-1.172754166666667
 31
0.0
  0
LINE
  5
131
330
11B
100
AcDbEntity
  8
AM_9
100
AcDbLine
 10
-0.709000033333333
 20
-1.019954166666666
 30
0.0
 11
-0.727600033333333
 21
-1.001354166666667
 31
0.0
  0
LINE
  5
132
330
11B
100
AcDbEntity
  8
AM_9
100
AcDbLine
 10
-0.727600033333333
 20
-1.191354166666666
 30
0.0
 11
-0.709000033333333
 21
-1.172754166666667
 31
0.0
  0
LINE
  5
133
330
11B
100
AcDbEntity
  8
AM_9
100
AcDbLine
 10
-0.727600033333333
 20
-1.001354166666667
 30
0.0
 11
-0.727600033333333
 21
-1.191354166666666
 31
0.0
  0
LINE
  5
134
330
11B
100
AcDbEntity
  8
AM_9
100
AcDbLine
 10
-1.448333333333333
 20
-1.191354166666666
 30
0.0
 11
-0.727600033333333
 21
-1.191354166666666
 31
0.0
  0
LINE
  5
135
330
11B
100
AcDbEntity
  8
AM_9
100
AcDbLine
 10
-0.727600033333333
 20
-1.001354166666667
 30
0.0
 11
-1.448333333333333
 21
-1.001354166666667
 31
0.0
  0
LINE
  5
136
330
11B
100
AcDbEntity
  8
AM_5
100
AcDbLine
 10
-1.429000033333333
 20
-1.191354166666667
 30
0.0
 11
-1.429000033333333
 21
-1.001354166666667
 31
0.0
  0
LINE
  5
137
330
11B
100
AcDbEntity
  8
AM_5
100
AcDbLine
 10
-1.429000033333333
 20
-1.172754166666667
 30
0.0
 11
-1.448333333333333
 21
-1.183916252625991
 31
0.0
  0
LINE
  5
138
330
11B
100
AcDbEntity
  8
AM_5
100
AcDbLine
 10
-1.429000033333333
 20
-1.019954166666666
 30
0.0
 11
-1.448333333333333
 21
-1.008792080707342
 31
0.0
  0
LINE
  5
139
330
11B
100
AcDbEntity
  8
AM_4
100
AcDbLine
 10
-1.509000033333333
 20
-1.191354166666666
 30
0.0
 11
-1.448333333333333
 21
-1.191354166666666
 31
0.0
  0
LINE
  5
13A
330
11B
100
AcDbEntity
  8
AM_4
100
AcDbLine
 10
-1.448333333333333
 20
-1.001354166666667
 30
0.0
 11
-1.509000033333333
 21
-1.001354166666667
 31
0.0
  0
LINE
  5
13B
330
11B
100
AcDbEntity
  8
AM_4
100
AcDbLine
 10
-1.610000033333333
 20
-0.9968541666666666
 30
0.0
 11
-1.610000033333333
 21
-1.195854166666667
 31
0.0
  0
ARC
  5
13C
330
11B
100
AcDbEntity
  8
AM_4
100
AcDbCircle
 10
-1.529000033333333
 20
-1.195854166666667
 30
0.0
 40
0.0809999999999997
100
AcDbArc
 50
180.0
 51
270.0
  0
ARC
  5
13D
330
11B
100
AcDbEntity
  8
AM_4
100
AcDbCircle
 10
-1.529000033333334
 20
-0.9968541666666662
 30
0.0
 40
0.0809999999999995
100
AcDbArc
 50
90.0
 51
180.0
  0
LINE
  5
13E
330
11B
100
AcDbEntity
  8
AM_4
100
AcDbLine
 10
-1.509000033333333
 20
-0.9158541666666666
 30
0.0
 11
-1.509000033333333
 21
-1.276854166666666
 31
0.0
  0
LINE
  5
13F
330
11B
100
AcDbEntity
  8
AM_4
100
AcDbLine
 10
-1.529000033333333
 20
-0.9158541666666666
 30
0.0
 11
-1.529000033333333
 21
-1.276854166666666
 31
0.0
  0
LINE
  5
140
330
11B
100
AcDbEntity
  8
AM_4
100
AcDbLine
 10
-1.529000033333333
 20
-1.276854166666666
 30
0.0
 11
-1.509000033333333
 21
-1.276854166666666
 31
0.0
  0
LINE
  5
141
330
11B
100
AcDbEntity
  8
AM_4
100
AcDbLine
 10
-1.509000033333333
 20
-0.9158541666666666
 30
0.0
 11
-1.529000033333333
 21
-0.9158541666666666
 31
0.0
  0
LINE
  5
142
330
11B
100
AcDbEntity
  8
AM_5
100
AcDbLine
 10
-1.448333333333333
 20
-1.183916252625991
 30
0.0
 11
-1.461216178354114
 21
-1.191354166666666
 31
0.0
  0
LINE
  5
143
330
11B
100
AcDbEntity
  8
AM_5
100
AcDbLine
 10
-1.448333333333333
 20
-1.008792080707342
 30
0.0
 11
-1.461216178354114
 21
-1.001354166666667
 31
0.0
  0
ENDBLK
  5
11E
330
11B
100
AcDbEntity
  8
0
100
AcDbBlockEnd
  0
BLOCK
  5
146
330
144
100
AcDbEntity
  8
0
100
AcDbBlockBegin
  2
5_ASME_B18_3_10_2_0_in_072281_2
 70
     2
 10
0.0
 20
0.0
 30
0.0
  3
5_ASME_B18_3_10_2_0_in_072281_2
  1

  0
ATTDEF
  5
148
330
144
100
AcDbEntity
  8
AM_6
100
AcDbText
 10
4.290999966666667
 20
1.276854166666666
 30
0.0
 40
0.5
  1
ANSI/ASME B18.3-1998
100
AcDbAttributeDefinition
  3

  2
NN
 70
     8
280
     0
  0
ATTDEF
  5
149
330
144
100
AcDbEntity
  8
AM_6
100
AcDbText
 10
4.290999966666667
 20
0.7768541666666664
 30
0.0
 40
0.5
  1
Socket Button Head Cap Screws
100
AcDbAttributeDefinition
  3

  2
NT
 70
     8
280
     0
  0
ATTDEF
  5
14A
330
144
100
AcDbEntity
  8
AM_6
100
AcDbText
 10
4.290999966666667
 20
0.2768541666666664
 30
0.0
 40
0.5
  1
ASME B18.3-10
100
AcDbAttributeDefinition
  3

  2
NB
 70
     8
280
     0
  0
ATTDEF
  5
14B
330
144
100
AcDbEntity
  8
AM_6
100
AcDbText
 10
4.290999966666667
 20
-0.2231458333333336
 30
0.0
 40
0.5
  1
ASME B18.3-$NS.
100
AcDbAttributeDefinition
  3

  2
NBSYN
 70
     8
280
     0
  0
ATTDEF
  5
14C
330
144
100
AcDbEntity
  8
AM_6
100
AcDbText
 10
4.290999966666667
 20
-0.7231458333333336
 30
0.0
 40
0.5
  1
ASME B18.3-10
100
AcDbAttributeDefinition
  3

  2
LINA
 70
     8
280
     0
  0
ATTDEF
  5
14D
330
144
100
AcDbEntity
  8
AM_6
100
AcDbText
 10
4.290999966666667
 20
-1.223145833333334
 30
0.0
 40
0.5
  1
10
100
AcDbAttributeDefinition
  3

  2
NS
 70
     8
280
     0
  0
ATTDEF
  5
14E
330
144
100
AcDbEntity
  8
AM_6
100
AcDbText
 10
4.290999966666667
 20
-1.723145833333334
 30
0.0
 40
0.5
  1
0.361
100
AcDbAttributeDefinition
  3

  2
A
 70
     8
280
     0
  0
ATTDEF
  5
14F
330
144
100
AcDbEntity
  8
AM_6
100
AcDbText
 10
4.290999966666667
 20
-2.223145833333334
 30
0.0
 40
0.5
  1
0.101
100
AcDbAttributeDefinition
  3

  2
H
 70
     8
280
     0
  0
ATTDEF
  5
150
330
144
100
AcDbEntity
  8
AM_6
100
AcDbText
 10
4.290999966666667
 20
-2.723145833333334
 30
0.0
 40
0.5
  1
0.800
100
AcDbAttributeDefinition
  3

  2
L
 70
     8
280
     0
  0
ATTDEF
  5
151
330
144
100
AcDbEntity
  8
AM_6
100
AcDbText
 10
4.290999966666667
 20
-3.223145833333334
 30
0.0
 40
0.5
  1
0.020
100
AcDbAttributeDefinition
  3

  2
S
 70
     8
280
     0
  0
ATTDEF
  5
152
330
144
100
AcDbEntity
  8
AM_6
100
AcDbText
 10
4.290999966666667
 20
-3.723145833333334
 30
0.0
 40
0.5
  1
0.125000
100
AcDbAttributeDefinition
  3

  2
J
 70
     8
280
     0
  0
ATTDEF
  5
153
330
144
100
AcDbEntity
  8
AM_6
100
AcDbText
 10
4.290999966666667
 20
-4.223145833333334
 30
0.0
 40
0.5
  1
baldor
100
AcDbAttributeDefinition
  3

  2
COMPANY
 70
     8
280
     0
  0
LINE
  5
154
330
144
100
AcDbEntity
  8
AM_9
100
AcDbLine
 10
-1.549000033333333
 20
1.16852295031537
 30
0.0
 11
-1.610000033333333
 21
1.16852295031537
 31
0.0
  0
LINE
  5
155
330
144
100
AcDbEntity
  8
AM_9
100
AcDbLine
 10
-1.549000033333333
 20
1.024185383017963
 30
0.0
 11
-1.610000033333333
 21
1.024185383017963
 31
0.0
  0
LINE
  5
156
330
144
100
AcDbEntity
  8
AM_9
100
AcDbLine
 10
-1.549000033333333
 20
1.16852295031537
 30
0.0
 11
-1.549000033333333
 21
1.024185383017963
 31
0.0
  0
LINE
  5
157
330
144
100
AcDbEntity
  8
AM_9
100
AcDbLine
 10
-1.549000033333333
 20
1.132438558491018
 30
0.0
 11
-1.610000033333333
 21
1.132438558491018
 31
0.0
  0
LINE
  5
158
330
144
100
AcDbEntity
  8
AM_9
100
AcDbLine
 10
-1.549000033333333
 20
1.060269774842315
 30
0.0
 11
-1.610000033333333
 21
1.060269774842315
 31
0.0
  0
LINE
  5
159
330
144
100
AcDbEntity
  8
AM_9
100
AcDbLine
 10
-0.709000033333333
 20
1.172754166666667
 30
0.0
 11
-0.709000033333333
 21
1.019954166666666
 31
0.0
  0
LINE
  5
15A
330
144
100
AcDbEntity
  8
AM_9
100
AcDbLine
 10
-0.709000033333333
 20
1.172754166666667
 30
0.0
 11
-0.727600033333333
 21
1.191354166666666
 31
0.0
  0
LINE
  5
15B
330
144
100
AcDbEntity
  8
AM_9
100
AcDbLine
 10
-0.727600033333333
 20
1.001354166666667
 30
0.0
 11
-0.709000033333333
 21
1.019954166666666
 31
0.0
  0
LINE
  5
15C
330
144
100
AcDbEntity
  8
AM_9
100
AcDbLine
 10
-0.727600033333333
 20
1.191354166666666
 30
0.0
 11
-0.727600033333333
 21
1.001354166666667
 31
0.0
  0
LINE
  5
15D
330
144
100
AcDbEntity
  8
AM_9
100
AcDbLine
 10
-1.448333333333333
 20
1.001354166666667
 30
0.0
 11
-0.727600033333333
 21
1.001354166666667
 31
0.0
  0
LINE
  5
15E
330
144
100
AcDbEntity
  8
AM_9
100
AcDbLine
 10
-0.727600033333333
 20
1.191354166666666
 30
0.0
 11
-1.448333333333333
 21
1.191354166666666
 31
0.0
  0
LINE
  5
15F
330
144
100
AcDbEntity
  8
AM_5
100
AcDbLine
 10
-1.429000033333333
 20
1.019954166666666
 30
0.0
 11
-1.448333333333333
 21
1.008792080707343
 31
0.0
  0
LINE
  5
160
330
144
100
AcDbEntity
  8
AM_5
100
AcDbLine
 10
-1.429000033333333
 20
1.191354166666667
 30
0.0
 11
-1.429000033333333
 21
1.001354166666667
 31
0.0
  0
LINE
  5
161
330
144
100
AcDbEntity
  8
AM_5
100
AcDbLine
 10
-1.429000033333333
 20
1.172754166666667
 30
0.0
 11
-1.448333333333333
 21
1.183916252625991
 31
0.0
  0
LINE
  5
162
330
144
100
AcDbEntity
  8
AM_4
100
AcDbLine
 10
-1.509000033333333
 20
1.001354166666667
 30
0.0
 11
-1.448333333333333
 21
1.001354166666667
 31
0.0
  0
LINE
  5
163
330
144
100
AcDbEntity
  8
AM_4
100
AcDbLine
 10
-1.448333333333333
 20
1.191354166666666
 30
0.0
 11
-1.509000033333333
 21
1.191354166666666
 31
0.0
  0
LINE
  5
164
330
144
100
AcDbEntity
  8
AM_4
100
AcDbLine
 10
-1.610000033333333
 20
1.195854166666667
 30
0.0
 11
-1.610000033333333
 21
0.9968541666666666
 31
0.0
  0
ARC
  5
165
330
144
100
AcDbEntity
  8
AM_4
100
AcDbCircle
 10
-1.529000033333333
 20
0.9968541666666664
 30
0.0
 40
0.0809999999999997
100
AcDbArc
 50
180.0
 51
270.0
  0
ARC
  5
166
330
144
100
AcDbEntity
  8
AM_4
100
AcDbCircle
 10
-1.529000033333334
 20
1.195854166666667
 30
0.0
 40
0.0809999999999993
100
AcDbArc
 50
90.0
 51
180.0
  0
LINE
  5
167
330
144
100
AcDbEntity
  8
AM_4
100
AcDbLine
 10
-1.509000033333333
 20
1.276854166666666
 30
0.0
 11
-1.509000033333333
 21
0.9158541666666666
 31
0.0
  0
LINE
  5
168
330
144
100
AcDbEntity
  8
AM_4
100
AcDbLine
 10
-1.529000033333333
 20
1.276854166666666
 30
0.0
 11
-1.529000033333333
 21
0.9158541666666666
 31
0.0
  0
LINE
  5
169
330
144
100
AcDbEntity
  8
AM_4
100
AcDbLine
 10
-1.529000033333333
 20
0.9158541666666666
 30
0.0
 11
-1.509000033333333
 21
0.9158541666666666
 31
0.0
  0
LINE
  5
16A
330
144
100
AcDbEntity
  8
AM_4
100
AcDbLine
 10
-1.509000033333333
 20
1.276854166666666
 30
0.0
 11
-1.529000033333333
 21
1.276854166666666
 31
0.0
  0
LINE
  5
16B
330
144
100
AcDbEntity
  8
AM_5
100
AcDbLine
 10
-1.448333333333333
 20
1.008792080707343
 30
0.0
 11
-1.461216178354114
 21
1.001354166666667
 31
0.0
  0
LINE
  5
16C
330
144
100
AcDbEntity
  8
AM_5
100
AcDbLine
 10
-1.448333333333333
 20
1.183916252625991
 30
0.0
 11
-1.461216178354114
 21
1.191354166666666
 31
0.0
  0
ENDBLK
  5
147
330
144
100
AcDbEntity
  8
0
100
AcDbBlockEnd
  0
BLOCK
  5
16F
330
16D
100
AcDbEntity
  8
0
100
AcDbBlockBegin
  2
6_070885LW_0_in_072281_2
 70
     2
 10
0.0
 20
0.0
 30
0.0
  3
6_070885LW_0_in_072281_2
  1

  0
ATTDEF
  5
171
330
16D
100
AcDbEntity
  8
AM_6
100
AcDbText
 10
3.991666666666667
 20
1.359375
 30
0.0
 40
0.5
  1
Imperial Insert Lockwasher -Inch
100
AcDbAttributeDefinition
  3

  2
NN
 70
     8
280
     0
  0
ATTDEF
  5
172
330
16D
100
AcDbEntity
  8
AM_6
100
AcDbText
 10
3.991666666666667
 20
0.859375
 30
0.0
 40
0.5
  1
Imperial Bearings
100
AcDbAttributeDefinition
  3

  2
NT
 70
     8
280
     0
  0
ATTDEF
  5
173
330
16D
100
AcDbEntity
  8
AM_6
100
AcDbText
 10
3.991666666666667
 20
0.359375
 30
0.0
 40
0.5
  1
070885LW
100
AcDbAttributeDefinition
  3

  2
NB
 70
     8
280
     0
  0
ATTDEF
  5
174
330
16D
100
AcDbEntity
  8
AM_6
100
AcDbText
 10
3.991666666666667
 20
-0.140625
 30
0.0
 40
0.5
  1
$PN.LW
100
AcDbAttributeDefinition
  3

  2
NBSYN
 70
     8
280
     0
  0
ATTDEF
  5
175
330
16D
100
AcDbEntity
  8
AM_6
100
AcDbText
 10
3.991666666666667
 20
-0.640625
 30
0.0
 40
0.5
  1
070885
100
AcDbAttributeDefinition
  3

  2
LINA
 70
     8
280
     0
  0
ATTDEF
  5
176
330
16D
100
AcDbEntity
  8
AM_6
100
AcDbText
 10
3.991666666666667
 20
-1.140625
 30
0.0
 40
0.5
  1
1-1/2
100
AcDbAttributeDefinition
  3

  2
SS
 70
     8
280
     0
  0
ATTDEF
  5
177
330
16D
100
AcDbEntity
  8
AM_6
100
AcDbText
 10
3.991666666666667
 20
-1.640625
 30
0.0
 40
0.5
  1
1.500000
100
AcDbAttributeDefinition
  3

  2
SS1
 70
     8
280
     0
  0
ATTDEF
  5
178
330
16D
100
AcDbEntity
  8
AM_6
100
AcDbText
 10
3.991666666666667
 20
-2.140625
 30
0.0
 40
0.5
  1
070885
100
AcDbAttributeDefinition
  3

  2
PN
 70
     8
280
     0
  0
ATTDEF
  5
179
330
16D
100
AcDbEntity
  8
AM_6
100
AcDbText
 10
3.991666666666667
 20
-2.640625
 30
0.0
 40
0.5
  1
INS-IP-108R
100
AcDbAttributeDefinition
  3

  2
DESCRIPTION
 70
     8
280
     0
  0
ATTDEF
  5
17A
330
16D
100
AcDbEntity
  8
AM_6
100
AcDbText
 10
3.991666666666667
 20
-3.140625
 30
0.0
 40
0.5
  1
3.1496
100
AcDbAttributeDefinition
  3

  2
A
 70
     8
280
     0
  0
ATTDEF
  5
17B
330
16D
100
AcDbEntity
  8
AM_6
100
AcDbText
 10
3.991666666666667
 20
-3.640625
 30
0.0
 40
0.5
  1
61/64
100
AcDbAttributeDefinition
  3

  2
B
 70
     8
280
     0
  0
ATTDEF
  5
17C
330
16D
100
AcDbEntity
  8
AM_6
100
AcDbText
 10
3.991666666666667
 20
-4.140625
 30
0.0
 40
0.5
  1
2-5/8
100
AcDbAttributeDefinition
  3

  2
C
 70
     8
280
     0
  0
ATTDEF
  5
17D
330
16D
100
AcDbEntity
  8
AM_6
100
AcDbText
 10
3.991666666666667
 20
-4.640625
 30
0.0
 40
0.5
  1
0.970
100
AcDbAttributeDefinition
  3

  2
D
 70
     8
280
     0
  0
ATTDEF
  5
17E
330
16D
100
AcDbEntity
  8
AM_6
100
AcDbText
 10
3.991666666666667
 20
-5.140625
 30
0.0
 40
0.5
  1
2-23/32
100
AcDbAttributeDefinition
  3

  2
E
 70
     8
280
     0
  0
ATTDEF
  5
17F
330
16D
100
AcDbEntity
  8
AM_6
100
AcDbText
 10
3.991666666666667
 20
-5.640625
 30
0.0
 40
0.5
  1
0.1900
100
AcDbAttributeDefinition
  3

  2
NDM
 70
     8
280
     0
  0
ATTDEF
  5
180
330
16D
100
AcDbEntity
  8
AM_6
100
AcDbText
 10
3.991666666666667
 20
-6.140625
 30
0.0
 40
0.5
  1
0.1450
100
AcDbAttributeDefinition
  3

  2
KDM
 70
     8
280
     0
  0
ATTDEF
  5
181
330
16D
100
AcDbEntity
  8
AM_6
100
AcDbText
 10
3.991666666666667
 20
-6.640625
 30
0.0
 40
0.5
  1
2.22
100
AcDbAttributeDefinition
  3

  2
AL
 70
     8
280
     0
  0
ATTDEF
  5
182
330
16D
100
AcDbEntity
  8
AM_6
100
AcDbText
 10
3.991666666666667
 20
-7.140625
 30
0.0
 40
0.5
  1
0.38
100
AcDbAttributeDefinition
  3

  2
BL
 70
     8
280
     0
  0
ATTDEF
  5
183
330
16D
100
AcDbEntity
  8
AM_6
100
AcDbText
 10
3.991666666666667
 20
-7.640625
 30
0.0
 40
0.5
  1
0.07
100
AcDbAttributeDefinition
  3

  2
CL
 70
     8
280
     0
  0
ATTDEF
  5
184
330
16D
100
AcDbEntity
  8
AM_6
100
AcDbText
 10
3.991666666666667
 20
-8.140625
 30
0.0
 40
0.5
  1
0.44
100
AcDbAttributeDefinition
  3

  2
DL
 70
     8
280
     0
  0
ATTDEF
  5
185
330
16D
100
AcDbEntity
  8
AM_6
100
AcDbText
 10
3.991666666666667
 20
-8.640625
 30
0.0
 40
0.5
  1
baldor
100
AcDbAttributeDefinition
  3

  2
COMPANY
 70
     8
280
     0
  0
LINE
  5
186
330
16D
100
AcDbEntity
  8
AM_9
100
AcDbLine
 10
-1.378333333333333
 20
0.7075770434422116
 30
0.0
 11
-1.448333333333333
 21
0.7075770434422116
 31
0.0
  0
LINE
  5
187
330
16D
100
AcDbEntity
  8
AM_9
100
AcDbLine
 10
-1.008333333333333
 20
0.6877236546957103
 30
0.0
 11
-1.378333333333333
 21
0.6877236546957103
 31
0.0
  0
LINE
  5
188
330
16D
100
AcDbEntity
  8
AM_9
100
AcDbLine
 10
-1.008333333333333
 20
0.6509735709764805
 30
0.0
 11
-1.448333333333333
 21
0.6509735709764805
 31
0.0
  0
LINE
  5
189
330
16D
100
AcDbEntity
  8
AM_9
100
AcDbLine
 10
-1.378333333333333
 20
0.7604335068450773
 30
0.0
 11
-1.008333333333333
 21
0.7604335068450773
 31
0.0
  0
LINE
  5
18A
330
16D
100
AcDbEntity
  8
AM_9
100
AcDbLine
 10
-1.008333333333333
 20
0.7236834231258475
 30
0.0
 11
-1.448333333333333
 21
0.7236834231258475
 31
0.0
  0
LINE
  5
18B
330
16D
100
AcDbEntity
  8
AM_9
100
AcDbLine
 10
-1.008333333333333
 20
0.6509735709764805
 30
0.0
 11
-1.008333333333333
 21
0.7604335068450773
 31
0.0
  0
LINE
  5
18C
330
16D
100
AcDbEntity
  8
AM_9
100
AcDbLine
 10
-1.378333333333333
 20
0.7802868955915786
 30
0.0
 11
-1.448333333333333
 21
0.7802868955915786
 31
0.0
  0
LINE
  5
18D
330
16D
100
AcDbEntity
  8
AM_9
100
AcDbLine
 10
-1.378333333333333
 20
1.096354166666666
 30
0.0
 11
-1.448333333333333
 21
1.096354166666667
 31
0.0
  0
LINE
  5
18E
330
16D
100
AcDbEntity
  8
AM_9
100
AcDbLine
 10
-1.378333333333333
 20
1.187319953131503
 30
0.0
 11
-1.448333333333333
 21
1.187319953131503
 31
0.0
  0
LINE
  5
18F
330
16D
100
AcDbEntity
  8
AM_9
100
AcDbLine
 10
-1.378333333333333
 20
-1.096354166666667
 30
0.0
 11
-1.448333333333333
 21
-1.096354166666667
 31
0.0
  0
LINE
  5
190
330
16D
100
AcDbEntity
  8
AM_9
100
AcDbLine
 10
-1.448333333333333
 20
-1.191443622710965
 30
0.0
 11
-1.378333333333333
 21
-1.191443622710965
 31
0.0
  0
LINE
  5
191
330
16D
100
AcDbEntity
  8
AM_9
100
AcDbLine
 10
-1.378333333333333
 20
0.8052261613532464
 30
0.0
 11
-1.448333333333333
 21
0.8052261613532463
 31
0.0
  0
LINE
  5
192
330
16D
100
AcDbEntity
  8
AM_9
100
AcDbLine
 10
-1.378333333333333
 20
-0.8052261613532463
 30
0.0
 11
-1.448333333333333
 21
-0.8052261613532463
 31
0.0
  0
LINE
  5
193
330
16D
100
AcDbEntity
  8
AM_9
100
AcDbLine
 10
-1.378333333333333
 20
-0.6365560232944153
 30
0.0
 11
-1.448333333333333
 21
-0.6365560232944153
 31
0.0
  0
LINE
  5
194
330
16D
100
AcDbEntity
  8
AM_9
100
AcDbLine
 10
-1.378333333333333
 20
0.6365560232944159
 30
0.0
 11
-1.448333333333333
 21
0.6365560232944159
 31
0.0
  0
LINE
  5
195
330
16D
100
AcDbEntity
  8
AM_9
100
AcDbLine
 10
-1.378333333333333
 20
0.5022057348689717
 30
0.0
 11
-1.448333333333333
 21
0.5022057348689717
 31
0.0
  0
LINE
  5
196
330
16D
100
AcDbEntity
  8
AM_9
100
AcDbLine
 10
-1.378333333333333
 20
-0.5022057348689714
 30
0.0
 11
-1.448333333333333
 21
-0.5022057348689714
 31
0.0
  0
LINE
  5
197
330
16D
100
AcDbEntity
  8
AM_9
100
AcDbLine
 10
-1.378333333333333
 20
0.8424146100448484
 30
0.0
 11
-1.448333333333333
 21
0.8424146100448484
 31
0.0
  0
LINE
  5
198
330
16D
100
AcDbEntity
  8
AM_9
100
AcDbLine
 10
-1.378333333333333
 20
0.7080643216194045
 30
0.0
 11
-1.448333333333333
 21
0.7080643216194045
 31
0.0
  0
LINE
  5
199
330
16D
100
AcDbEntity
  8
AM_9
100
AcDbLine
 10
-1.378333333333333
 20
0.8703027331320836
 30
0.0
 11
-1.448333333333333
 21
0.8703027331320836
 31
0.0
  0
LINE
  5
19A
330
16D
100
AcDbEntity
  8
AM_9
100
AcDbLine
 10
-1.378333333333333
 20
-0.7080643216194038
 30
0.0
 11
-1.448333333333333
 21
-0.7080643216194038
 31
0.0
  0
LINE
  5
19B
330
16D
100
AcDbEntity
  8
AM_9
100
AcDbLine
 10
-1.378333333333333
 20
-0.8424146100448394
 30
0.0
 11
-1.448333333333333
 21
-0.8424146100448394
 31
0.0
  0
LINE
  5
19C
330
16D
100
AcDbEntity
  8
AM_9
100
AcDbLine
 10
-1.448333333333333
 20
-0.8703027331320833
 30
0.0
 11
-1.378333333333333
 21
-0.8703027331320833
 31
0.0
  0
LINE
  5
19D
330
16D
100
AcDbEntity
  8
AM_9
100
AcDbLine
 10
-1.378333333333333
 20
0.0950000000000005
 30
0.0
 11
-1.448333333333333
 21
0.0950000000000003
 31
0.0
  0
LINE
  5
19E
330
16D
100
AcDbEntity
  8
AM_9
100
AcDbLine
 10
-1.378333333333333
 20
-0.0949999999999996
 30
0.0
 11
-1.448333333333333
 21
-0.0949999999999996
 31
0.0
  0
LINE
  5
19F
330
16D
100
AcDbEntity
  8
AM_4
100
AcDbLine
 10
-1.378333333333333
 20
1.359375
 30
0.0
 11
-1.448333333333333
 21
1.359375
 31
0.0
  0
LINE
  5
1A0
330
16D
100
AcDbEntity
  8
AM_4
100
AcDbLine
 10
-1.448333333333333
 20
-1.359375
 30
0.0
 11
-1.378333333333333
 21
-1.359375
 31
0.0
  0
LINE
  5
1A1
330
16D
100
AcDbEntity
  8
AM_4
100
AcDbLine
 10
-1.448333333333333
 20
1.359375
 30
0.0
 11
-1.448333333333333
 21
-1.359375
 31
0.0
  0
LINE
  5
1A2
330
16D
100
AcDbEntity
  8
AM_4
100
AcDbLine
 10
-1.378333333333333
 20
1.359375
 30
0.0
 11
-1.378333333333333
 21
-1.359375
 31
0.0
  0
ENDBLK
  5
170
330
16D
100
AcDbEntity
  8
0
100
AcDbBlockEnd
  0
BLOCK
  5
1A5
330
1A3
100
AcDbEntity
  8
0
100
AcDbBlockBegin
  2
7_070885I_0_in_072281_2
 70
     2
 10
0.0
 20
0.0
 30
0.0
  3
7_070885I_0_in_072281_2
  1

  0
ATTDEF
  5
1A7
330
1A3
100
AcDbEntity
  8
AM_6
100
AcDbText
 10
6.035
 20
1.5748
 30
0.0
 40
0.5
  1
Imperial Insert -Inch
100
AcDbAttributeDefinition
  3

  2
NN
 70
     8
280
     0
  0
ATTDEF
  5
1A8
330
1A3
100
AcDbEntity
  8
AM_6
100
AcDbText
 10
6.035
 20
1.0748
 30
0.0
 40
0.5
  1
Imperial Bearings
100
AcDbAttributeDefinition
  3

  2
NT
 70
     8
280
     0
  0
ATTDEF
  5
1A9
330
1A3
100
AcDbEntity
  8
AM_6
100
AcDbText
 10
6.035
 20
0.5747999999999998
 30
0.0
 40
0.5
  1
070885I
100
AcDbAttributeDefinition
  3

  2
NB
 70
     8
280
     0
  0
ATTDEF
  5
1AA
330
1A3
100
AcDbEntity
  8
AM_6
100
AcDbText
 10
6.035
 20
0.0747999999999998
 30
0.0
 40
0.5
  1
$PN.I
100
AcDbAttributeDefinition
  3

  2
NBSYN
 70
     8
280
     0
  0
ATTDEF
  5
1AB
330
1A3
100
AcDbEntity
  8
AM_6
100
AcDbText
 10
6.035
 20
-0.4252000000000002
 30
0.0
 40
0.5
  1
070885
100
AcDbAttributeDefinition
  3

  2
LINA
 70
     8
280
     0
  0
ATTDEF
  5
1AC
330
1A3
100
AcDbEntity
  8
AM_6
100
AcDbText
 10
6.035
 20
-0.9252000000000002
 30
0.0
 40
0.5
  1
1-1/2
100
AcDbAttributeDefinition
  3

  2
SS
 70
     8
280
     0
  0
ATTDEF
  5
1AD
330
1A3
100
AcDbEntity
  8
AM_6
100
AcDbText
 10
6.035
 20
-1.4252
 30
0.0
 40
0.5
  1
1.500000
100
AcDbAttributeDefinition
  3

  2
SS1
 70
     8
280
     0
  0
ATTDEF
  5
1AE
330
1A3
100
AcDbEntity
  8
AM_6
100
AcDbText
 10
6.035
 20
-1.9252
 30
0.0
 40
0.5
  1
070885
100
AcDbAttributeDefinition
  3

  2
PN
 70
     8
280
     0
  0
ATTDEF
  5
1AF
330
1A3
100
AcDbEntity
  8
AM_6
100
AcDbText
 10
6.035
 20
-2.4252
 30
0.0
 40
0.5
  1
INS-IP-108R
100
AcDbAttributeDefinition
  3

  2
DESCRIPTION
 70
     8
280
     0
  0
ATTDEF
  5
1B0
330
1A3
100
AcDbEntity
  8
AM_6
100
AcDbText
 10
6.035
 20
-2.9252
 30
0.0
 40
0.5
  1
Contact Seal
100
AcDbAttributeDefinition
  3

  2
ST
 70
     8
280
     0
  0
ATTDEF
  5
1B1
330
1A3
100
AcDbEntity
  8
AM_6
100
AcDbText
 10
6.035
 20
-3.4252
 30
0.0
 40
0.5
  1
3.1496
100
AcDbAttributeDefinition
  3

  2
A
 70
     8
280
     0
  0
ATTDEF
  5
1B2
330
1A3
100
AcDbEntity
  8
AM_6
100
AcDbText
 10
6.035
 20
-3.9252
 30
0.0
 40
0.5
  1
61/64
100
AcDbAttributeDefinition
  3

  2
B
 70
     8
280
     0
  0
ATTDEF
  5
1B3
330
1A3
100
AcDbEntity
  8
AM_6
100
AcDbText
 10
6.035
 20
-4.4252
 30
0.0
 40
0.5
  1
2-5/8
100
AcDbAttributeDefinition
  3

  2
C
 70
     8
280
     0
  0
ATTDEF
  5
1B4
330
1A3
100
AcDbEntity
  8
AM_6
100
AcDbText
 10
6.035
 20
-4.9252
 30
0.0
 40
0.5
  1
0.970
100
AcDbAttributeDefinition
  3

  2
D
 70
     8
280
     0
  0
ATTDEF
  5
1B5
330
1A3
100
AcDbEntity
  8
AM_6
100
AcDbText
 10
6.035
 20
-5.4252
 30
0.0
 40
0.5
  1
2-23/32
100
AcDbAttributeDefinition
  3

  2
E
 70
     8
280
     0
  0
ATTDEF
  5
1B6
330
1A3
100
AcDbEntity
  8
AM_6
100
AcDbText
 10
6.035
 20
-5.9252
 30
0.0
 40
0.5
  1
0.1900
100
AcDbAttributeDefinition
  3

  2
NDM
 70
     8
280
     0
  0
ATTDEF
  5
1B7
330
1A3
100
AcDbEntity
  8
AM_6
100
AcDbText
 10
6.035
 20
-6.4252
 30
0.0
 40
0.5
  1
0.101
100
AcDbAttributeDefinition
  3

  2
H
 70
     8
280
     0
  0
ATTDEF
  5
1B8
330
1A3
100
AcDbEntity
  8
AM_6
100
AcDbText
 10
6.035
 20
-6.9252
 30
0.0
 40
0.5
  1
0.1450
100
AcDbAttributeDefinition
  3

  2
KDM
 70
     8
280
     0
  0
ATTDEF
  5
1B9
330
1A3
100
AcDbEntity
  8
AM_6
100
AcDbText
 10
6.035
 20
-7.4252
 30
0.0
 40
0.5
  1
2.22
100
AcDbAttributeDefinition
  3

  2
AL
 70
     8
280
     0
  0
ATTDEF
  5
1BA
330
1A3
100
AcDbEntity
  8
AM_6
100
AcDbText
 10
6.035
 20
-7.9252
 30
0.0
 40
0.5
  1
0.38
100
AcDbAttributeDefinition
  3

  2
BL
 70
     8
280
     0
  0
ATTDEF
  5
1BB
330
1A3
100
AcDbEntity
  8
AM_6
100
AcDbText
 10
6.035
 20
-8.4252
 30
0.0
 40
0.5
  1
0.07
100
AcDbAttributeDefinition
  3

  2
CL
 70
     8
280
     0
  0
ATTDEF
  5
1BC
330
1A3
100
AcDbEntity
  8
AM_6
100
AcDbText
 10
6.035
 20
-8.9252
 30
0.0
 40
0.5
  1
0.44
100
AcDbAttributeDefinition
  3

  2
DL
 70
     8
280
     0
  0
ATTDEF
  5
1BD
330
1A3
100
AcDbEntity
  8
AM_6
100
AcDbText
 10
6.035
 20
-9.4252
 30
0.0
 40
0.5
  1
0.8000
100
AcDbAttributeDefinition
  3

  2
LL
 70
     8
280
     0
  0
ATTDEF
  5
1BE
330
1A3
100
AcDbEntity
  8
AM_6
100
AcDbText
 10
6.035
 20
-9.9252
 30
0.0
 40
0.5
  1
0.020
100
AcDbAttributeDefinition
  3

  2
Y
 70
     8
280
     0
  0
ATTDEF
  5
1BF
330
1A3
100
AcDbEntity
  8
AM_6
100
AcDbText
 10
6.035
 20
-10.4252
 30
0.0
 40
0.5
  1
0.020000
100
AcDbAttributeDefinition
  3

  2
Y1
 70
     8
280
     0
  0
ATTDEF
  5
1C0
330
1A3
100
AcDbEntity
  8
AM_6
100
AcDbText
 10
6.035
 20
-10.9252
 30
0.0
 40
0.5
  1
1-51/64
100
AcDbAttributeDefinition
  3

  2
Z
 70
     8
280
     0
  0
ATTDEF
  5
1C1
330
1A3
100
AcDbEntity
  8
AM_6
100
AcDbText
 10
6.035
 20
-11.4252
 30
0.0
 40
0.5
  1
1.796875
100
AcDbAttributeDefinition
  3

  2
Z1
 70
     8
280
     0
  0
ATTDEF
  5
1C2
330
1A3
100
AcDbEntity
  8
AM_6
100
AcDbText
 10
6.035
 20
-11.9252
 30
0.0
 40
0.5
  1
baldor
100
AcDbAttributeDefinition
  3

  2
COMPANY
 70
     8
280
     0
  0
LINE
  5
1C3
330
1A3
100
AcDbEntity
  8
AM_9
100
AcDbLine
 10
0.5215625000000005
 20
0.7623720376271025
 30
0.0
 11
-1.378333333333333
 21
0.7623720376271025
 31
0.0
  0
LINE
  5
1C4
330
1A3
100
AcDbEntity
  8
AM_9
100
AcDbLine
 10
0.5215625000000005
 20
0.6896621854777354
 30
0.0
 11
-1.378333333333333
 21
0.6896621854777354
 31
0.0
  0
LINE
  5
1C5
330
1A3
100
AcDbEntity
  8
AM_9
100
AcDbLine
 10
-0.538333333333338
 20
-1.096354166666667
 30
0.0
 11
-0.5721173231666429
 21
-1.023904166666667
 31
0.0
  0
LINE
  5
1C6
330
1A3
100
AcDbEntity
  8
AM_9
100
AcDbLine
 10
-0.5721173231666429
 20
-1.168804166666666
 30
0.0
 11
-0.538333333333338
 21
-1.096354166666667
 31
0.0
  0
LINE
  5
1C7
330
1A3
100
AcDbEntity
  8
AM_9
100
AcDbLine
 10
-0.5383333333333332
 20
1.096354166666667
 30
0.0
 11
-0.5721173231666625
 21
1.168804166666666
 31
0.0
  0
LINE
  5
1C8
330
1A3
100
AcDbEntity
  8
AM_9
100
AcDbLine
 10
-0.5721173231666625
 20
1.023904166666667
 30
0.0
 11
-0.5383333333333332
 21
1.096354166666667
 31
0.0
  0
LINE
  5
1C9
330
1A3
100
AcDbEntity
  8
AM_9
100
AcDbLine
 10
-0.5721173231666625
 20
1.023904166666667
 30
0.0
 11
-0.5721173231666625
 21
1.168804166666666
 31
0.0
  0
LINE
  5
1CA
330
1A3
100
AcDbEntity
  8
AM_9
100
AcDbLine
 10
-0.5721173231666625
 20
1.168804166666666
 30
0.0
 11
-1.355783333333333
 21
1.168804166666666
 31
0.0
  0
LINE
  5
1CB
330
1A3
100
AcDbEntity
  8
AM_9
100
AcDbLine
 10
-1.355783333333333
 20
1.023904166666667
 30
0.0
 11
-0.5721173231666625
 21
1.023904166666667
 31
0.0
  0
LINE
  5
1CC
330
1A3
100
AcDbEntity
  8
AM_9
100
AcDbLine
 10
-1.35578333333334
 20
-1.168804166666666
 30
0.0
 11
-0.5721173231666429
 21
-1.168804166666666
 31
0.0
  0
LINE
  5
1CD
330
1A3
100
AcDbEntity
  8
AM_9
100
AcDbLine
 10
-0.5721173231666429
 20
-1.023904166666667
 30
0.0
 11
-1.35578333333334
 21
-1.023904166666667
 31
0.0
  0
LINE
  5
1CE
330
1A3
100
AcDbEntity
  8
AM_9
100
AcDbLine
 10
-0.5721173231666429
 20
-1.023904166666667
 30
0.0
 11
-0.5721173231666429
 21
-1.168804166666666
 31
0.0
  0
LINE
  5
1CF
330
1A3
100
AcDbEntity
  8
AM_9
100
AcDbLine
 10
-1.355783333333333
 20
1.023904166666667
 30
0.0
 11
-1.355783333333333
 21
1.168804166666666
 31
0.0
  0
LINE
  5
1D0
330
1A3
100
AcDbEntity
  8
AM_9
100
AcDbLine
 10
-1.355783333333333
 20
1.168804166666666
 30
0.0
 11
-1.378333333333333
 21
1.191354166666666
 31
0.0
  0
LINE
  5
1D1
330
1A3
100
AcDbEntity
  8
AM_9
100
AcDbLine
 10
-1.378333333333333
 20
1.001354166666667
 30
0.0
 11
-1.355783333333333
 21
1.023904166666667
 31
0.0
  0
LINE
  5
1D2
330
1A3
100
AcDbEntity
  8
AM_9
100
AcDbLine
 10
-1.35578333333334
 20
-1.023904166666667
 30
0.0
 11
-1.378333333333331
 21
-1.001354166666667
 31
0.0
  0
LINE
  5
1D3
330
1A3
100
AcDbEntity
  8
AM_9
100
AcDbLine
 10
-1.378333333333331
 20
-1.191354166666666
 30
0.0
 11
-1.35578333333334
 21
-1.168804166666666
 31
0.0
  0
LINE
  5
1D4
330
1A3
100
AcDbEntity
  8
AM_9
100
AcDbLine
 10
-1.35578333333334
 20
-1.023904166666667
 30
0.0
 11
-1.35578333333334
 21
-1.168804166666666
 31
0.0
  0
LINE
  5
1D5
330
1A3
100
AcDbEntity
  8
AM_9
100
AcDbLine
 10
0.5215625000000005
 20
0.7236834231258478
 30
0.0
 11
-1.61
 21
0.7236834231258474
 31
0.0
  0
LINE
  5
1D6
330
1A3
100
AcDbEntity
  8
AM_9
100
AcDbLine
 10
-1.378333333333333
 20
0.6509735709764809
 30
0.0
 11
0.5215625000000005
 21
0.6509735709764809
 31
0.0
  0
LINE
  5
1D7
330
1A3
100
AcDbEntity
  8
AM_9
100
AcDbLine
 10
-1.61
 20
0.6509735709764806
 30
0.0
 11
-0.9383333333333332
 21
0.6505382386916234
 31
0.0
  0
LINE
  5
1D8
330
1A3
100
AcDbEntity
  8
AM_9
100
AcDbLine
 10
0.5215624999999999
 20
0.7500000000000002
 30
0.0
 11
-1.61
 21
0.7500000000000002
 31
0.0
  0
LINE
  5
1D9
330
1A3
100
AcDbEntity
  8
AM_9
100
AcDbLine
 10
-1.61
 20
-0.7500000000000002
 30
0.0
 11
0.5215624999999999
 21
-0.7500000000000002
 31
0.0
  0
LINE
  5
1DA
330
1A3
100
AcDbEntity
  8
AM_9
100
AcDbLine
 10
1.015
 20
0.7894736842105261
 30
0.0
 11
0.5215625000000003
 21
0.7894736842105261
 31
0.0
  0
LINE
  5
1DB
330
1A3
100
AcDbEntity
  8
AM_9
100
AcDbLine
 10
0.5215625000000003
 20
-0.7894736842105261
 30
0.0
 11
1.015
 21
-0.7894736842105261
 31
0.0
  0
LINE
  5
1DC
330
1A3
100
AcDbEntity
  8
AM_9
100
AcDbLine
 10
-1.61
 20
0.7604335068450774
 30
0.0
 11
-1.378333333333333
 21
0.7604335068450776
 31
0.0
  0
LINE
  5
1DD
330
1A3
100
AcDbEntity
  8
AM_9
100
AcDbLine
 10
-1.378333333333333
 20
0.6877236546957105
 30
0.0
 11
-1.61
 21
0.6877236546957105
 31
0.0
  0
LINE
  5
1DE
330
1A3
100
AcDbEntity
  8
AM_9
100
AcDbLine
 10
-1.378333333333333
 20
0.7894736842105263
 30
0.0
 11
-1.448333333333333
 21
0.7894736842105263
 31
0.0
  0
LINE
  5
1DF
330
1A3
100
AcDbEntity
  8
AM_9
100
AcDbLine
 10
-1.448333333333333
 20
-0.7894736842105263
 30
0.0
 11
-1.378333333333333
 21
-0.7894736842105263
 31
0.0
  0
LINE
  5
1E0
330
1A3
100
AcDbEntity
  8
AM_9
100
AcDbLine
 10
1.015
 20
-0.8984375
 30
0.0
 11
1.015
 21
0.8984375
 31
0.0
  0
LINE
  5
1E1
330
1A3
100
AcDbEntity
  8
AM_9
100
AcDbLine
 10
1.035000000000001
 20
0.8984375
 30
0.0
 11
1.015
 21
0.8984375
 31
0.0
  0
LINE
  5
1E2
330
1A3
100
AcDbEntity
  8
AM_9
100
AcDbLine
 10
1.015
 20
-0.8984375
 30
0.0
 11
1.035000000000001
 21
-0.8984375
 31
0.0
  0
LINE
  5
1E3
330
1A3
100
AcDbEntity
  8
AM_9
100
AcDbLine
 10
-0.9383333333333332
 20
-0.6505382386916239
 30
0.0
 11
-1.378333333333333
 21
-0.6505382386916239
 31
0.0
  0
LINE
  5
1E4
330
1A3
100
AcDbEntity
  8
AM_9
100
AcDbLine
 10
1.035
 20
-0.9752270299145298
 30
0.0
 11
1.035
 21
0.9752270299145298
 31
0.0
  0
ARC
  5
1E5
330
1A3
100
AcDbEntity
  8
AM_9
100
AcDbCircle
 10
1.011963141025641
 20
0.9752270299145303
 30
0.0
 40
0.0230368589743586
100
AcDbArc
 50
0.0
 51
90.0
  0
ARC
  5
1E6
330
1A3
100
AcDbEntity
  8
AM_9
100
AcDbCircle
 10
1.011963141025641
 20
-0.9752270299145303
 30
0.0
 40
0.0230368589743586
100
AcDbArc
 50
270.0
 51
0.0
  0
LINE
  5
1E7
330
1A3
100
AcDbEntity
  8
AM_9
100
AcDbLine
 10
1.011963141025641
 20
-0.9982638888888888
 30
0.0
 11
1.011963141025641
 21
0.9982638888888888
 31
0.0
  0
LINE
  5
1E8
330
1A3
100
AcDbEntity
  8
AM_9
100
AcDbLine
 10
1.011963141025641
 20
0.9982638888888888
 30
0.0
 11
0.7121874999999999
 21
0.9982638888888888
 31
0.0
  0
LINE
  5
1E9
330
1A3
100
AcDbEntity
  8
AM_9
100
AcDbLine
 10
0.7121874999999999
 20
-0.9982638888888888
 30
0.0
 11
1.011963141025641
 21
-0.9982638888888888
 31
0.0
  0
LINE
  5
1EA
330
1A3
100
AcDbEntity
  8
AM_9
100
AcDbLine
 10
-0.9383333333333332
 20
-0.6505382386916239
 30
0.0
 11
-0.9383333333333332
 21
-0.8284088841127804
 31
0.0
  0
LINE
  5
1EB
330
1A3
100
AcDbEntity
  8
AM_9
100
AcDbLine
 10
-0.9383333333333332
 20
0.8284088841127797
 30
0.0
 11
-0.9383333333333332
 21
0.6505382386916234
 31
0.0
  0
LINE
  5
1EC
330
1A3
100
AcDbEntity
  8
AM_9
100
AcDbLine
 10
0.7121875000000004
 20
-1.207007578016764
 30
0.0
 11
0.7121875000000004
 21
1.207007578016764
 31
0.0
  0
ARC
  5
1ED
330
1A3
100
AcDbEntity
  8
AM_9
100
AcDbCircle
 10
0.6121874999999978
 20
1.207007578016763
 30
0.0
 40
0.1000000000000026
100
AcDbArc
 50
0.0
 51
59.99999999999939
  0
ARC
  5
1EE
330
1A3
100
AcDbEntity
  8
AM_9
100
AcDbCircle
 10
0.6121874999999993
 20
-1.207007578016764
 30
0.0
 40
0.1000000000000012
100
AcDbArc
 50
300.0000000000002
 51
0.0
  0
LINE
  5
1EF
330
1A3
100
AcDbEntity
  8
AM_9
100
AcDbLine
 10
0.6621875000000002
 20
-1.293610118395209
 30
0.0
 11
0.6621875000000002
 21
1.293610118395209
 31
0.0
  0
LINE
  5
1F0
330
1A3
100
AcDbEntity
  8
AM_9
100
AcDbLine
 10
0.6621875000000002
 20
1.293610118395209
 30
0.0
 11
0.5215624999999999
 21
1.3748
 31
0.0
  0
LINE
  5
1F1
330
1A3
100
AcDbEntity
  8
AM_9
100
AcDbLine
 10
0.5215624999999999
 20
-1.3748
 30
0.0
 11
0.6621875000000002
 21
-1.293610118395209
 31
0.0
  0
LINE
  5
1F2
330
1A3
100
AcDbEntity
  8
AM_9
100
AcDbLine
 10
-0.77
 20
-1.380618468107479
 30
0.0
 11
-0.4315624999999998
 21
-1.392436966032342
 31
0.0
  0
LINE
  5
1F3
330
1A3
100
AcDbEntity
  8
AM_9
100
AcDbLine
 10
-0.4315624999999998
 20
1.392436966032342
 30
0.0
 11
-0.77
 21
1.380618468107479
 31
0.0
  0
LINE
  5
1F4
330
1A3
100
AcDbEntity
  8
AM_9
100
AcDbLine
 10
0.0725143487660681
 20
1.52714375
 30
0.0
 11
0.0174856512339322
 21
1.52714375
 31
0.0
  0
LINE
  5
1F5
330
1A3
100
AcDbEntity
  8
AM_9
100
AcDbLine
 10
0.0174856512339322
 20
-1.52714375
 30
0.0
 11
0.0725143487660681
 21
-1.52714375
 31
0.0
  0
LINE
  5
1F6
330
1A3
100
AcDbEntity
  8
AM_9
100
AcDbLine
 10
-0.4315624999999998
 20
-1.5248
 30
0.0
 11
-0.4315624999999998
 21
1.5248
 31
0.0
  0
ARC
  5
1F7
330
1A3
100
AcDbEntity
  8
AM_9
100
AcDbCircle
 10
-0.3815625000000001
 20
1.5248
 30
0.0
 40
0.0499999999999996
100
AcDbArc
 50
90.0
 51
180.0
  0
ARC
  5
1F8
330
1A3
100
AcDbEntity
  8
AM_9
100
AcDbCircle
 10
-0.3815624999999998
 20
-1.524799999999999
 30
0.0
 40
0.05
100
AcDbArc
 50
180.0
 51
270.0
  0
LINE
  5
1F9
330
1A3
100
AcDbEntity
  8
AM_9
100
AcDbLine
 10
0.0174856512339322
 20
-1.52714375
 30
0.0
 11
0.0174856512339322
 21
1.52714375
 31
0.0
  0
LINE
  5
1FA
330
1A3
100
AcDbEntity
  8
AM_9
100
AcDbLine
 10
0.0174856512339322
 20
1.52714375
 30
0.0
 11
-0.0100286975321357
 21
1.5748
 31
0.0
  0
LINE
  5
1FB
330
1A3
100
AcDbEntity
  8
AM_9
100
AcDbLine
 10
-0.0100286975321357
 20
-1.5748
 30
0.0
 11
0.0174856512339322
 21
-1.52714375
 31
0.0
  0
LINE
  5
1FC
330
1A3
100
AcDbEntity
  8
AM_9
100
AcDbLine
 10
0.0725143487660681
 20
-1.52714375
 30
0.0
 11
0.0725143487660681
 21
1.52714375
 31
0.0
  0
LINE
  5
1FD
330
1A3
100
AcDbEntity
  8
AM_9
100
AcDbLine
 10
0.0725143487660681
 20
-1.52714375
 30
0.0
 11
0.1000286975321363
 21
-1.5748
 31
0.0
  0
LINE
  5
1FE
330
1A3
100
AcDbEntity
  8
AM_9
100
AcDbLine
 10
0.1000286975321363
 20
1.5748
 30
0.0
 11
0.0725143487660681
 21
1.52714375
 31
0.0
  0
LINE
  5
1FF
330
1A3
100
AcDbEntity
  8
AM_9
100
AcDbLine
 10
0.1000286975321363
 20
-1.5748
 30
0.0
 11
0.1000286975321363
 21
1.5748
 31
0.0
  0
LINE
  5
200
330
1A3
100
AcDbEntity
  8
AM_9
100
AcDbLine
 10
0.4715625000000002
 20
1.5748
 30
0.0
 11
0.1000286975321363
 21
1.5748
 31
0.0
  0
LINE
  5
201
330
1A3
100
AcDbEntity
  8
AM_9
100
AcDbLine
 10
0.1000286975321363
 20
-1.5748
 30
0.0
 11
0.4715625000000002
 21
-1.5748
 31
0.0
  0
LINE
  5
202
330
1A3
100
AcDbEntity
  8
AM_9
100
AcDbLine
 10
0.5215624999999999
 20
-1.5248
 30
0.0
 11
0.5215624999999999
 21
1.5248
 31
0.0
  0
LINE
  5
203
330
1A3
100
AcDbEntity
  8
AM_9
100
AcDbLine
 10
0.4715625000000002
 20
-1.5748
 30
0.0
 11
0.4715625000000002
 21
1.5748
 31
0.0
  0
ARC
  5
204
330
1A3
100
AcDbEntity
  8
AM_9
100
AcDbCircle
 10
0.4715625000000004
 20
1.5248
 30
0.0
 40
0.0499999999999995
100
AcDbArc
 50
0.0
 51
90.0
  0
ARC
  5
205
330
1A3
100
AcDbEntity
  8
AM_9
100
AcDbCircle
 10
0.4715625000000003
 20
-1.5248
 30
0.0
 40
0.0499999999999998
100
AcDbArc
 50
270.0
 51
0.0
  0
LINE
  5
206
330
1A3
100
AcDbEntity
  8
AM_9
100
AcDbLine
 10
-0.0100286975321357
 20
-1.5748
 30
0.0
 11
-0.0100286975321357
 21
1.5748
 31
0.0
  0
LINE
  5
207
330
1A3
100
AcDbEntity
  8
AM_9
100
AcDbLine
 10
-0.3815625000000002
 20
-1.5748
 30
0.0
 11
-0.3815625000000002
 21
1.5748
 31
0.0
  0
LINE
  5
208
330
1A3
100
AcDbEntity
  8
AM_9
100
AcDbLine
 10
-0.0100286975321357
 20
1.5748
 30
0.0
 11
-0.3815625000000002
 21
1.5748
 31
0.0
  0
LINE
  5
209
330
1A3
100
AcDbEntity
  8
AM_9
100
AcDbLine
 10
-0.3815625000000002
 20
-1.5748
 30
0.0
 11
-0.0100286975321357
 21
-1.5748
 31
0.0
  0
LINE
  5
20A
330
1A3
100
AcDbEntity
  8
AM_5
100
AcDbLine
 10
-0.6183333333333331
 20
1.168804166666666
 30
0.0
 11
-0.6183333333333331
 21
1.191354166666666
 31
0.0
  0
LINE
  5
20B
330
1A3
100
AcDbEntity
  8
AM_5
100
AcDbLine
 10
-0.6183333333333331
 20
1.191354166666666
 30
0.0
 11
-0.6053140847631071
 21
1.168804166666666
 31
0.0
  0
LINE
  5
20C
330
1A3
100
AcDbEntity
  8
AM_5
100
AcDbLine
 10
-0.6183333333333331
 20
1.023904166666667
 30
0.0
 11
-0.6183333333333331
 21
1.001354166666667
 31
0.0
  0
LINE
  5
20D
330
1A3
100
AcDbEntity
  8
AM_5
100
AcDbLine
 10
-0.6183333333333331
 20
1.001354166666667
 30
0.0
 11
-0.6053140847631073
 21
1.023904166666667
 31
0.0
  0
LINE
  5
20E
330
1A3
100
AcDbEntity
  8
AM_5
100
AcDbLine
 10
-0.6183333333333344
 20
-1.168804166666666
 30
0.0
 11
-0.6183333333333344
 21
-1.191354166666666
 31
0.0
  0
LINE
  5
20F
330
1A3
100
AcDbEntity
  8
AM_5
100
AcDbLine
 10
-0.6183333333333344
 20
-1.191354166666666
 30
0.0
 11
-0.6053140847631271
 21
-1.168804166666666
 31
0.0
  0
LINE
  5
210
330
1A3
100
AcDbEntity
  8
AM_5
100
AcDbLine
 10
-0.6183333333333344
 20
-1.023904166666667
 30
0.0
 11
-0.6183333333333344
 21
-1.001354166666667
 31
0.0
  0
LINE
  5
211
330
1A3
100
AcDbEntity
  8
AM_5
100
AcDbLine
 10
-0.6183333333333344
 20
-1.001354166666667
 30
0.0
 11
-0.605314084763127
 21
-1.023904166666667
 31
0.0
  0
LINE
  5
212
330
1A3
100
AcDbEntity
  8
AM_7
100
AcDbLine
 10
-0.4963333333333331
 20
1.096354166666667
 30
0.0
 11
-1.655050033333333
 21
1.096354166666667
 31
0.0
  0
LINE
  5
213
330
1A3
100
AcDbEntity
  8
AM_7
100
AcDbLine
 10
-0.4963333333333385
 20
-1.096354166666667
 30
0.0
 11
-1.655050033333333
 21
-1.096354166666667
 31
0.0
  0
LINE
  5
214
330
1A3
100
AcDbEntity
  8
AM_4
100
AcDbLine
 10
-1.448333333333333
 20
0.7894736842105263
 30
0.0
 11
-1.61
 21
0.7894736842105263
 31
0.0
  0
LINE
  5
215
330
1A3
100
AcDbEntity
  8
AM_4
100
AcDbLine
 10
-1.61
 20
-0.7894736842105263
 30
0.0
 11
-1.448333333333333
 21
-0.7894736842105263
 31
0.0
  0
LINE
  5
216
330
1A3
100
AcDbEntity
  8
AM_4
100
AcDbLine
 10
-1.61
 20
-0.7894736842105263
 30
0.0
 11
-1.61
 21
0.7894736842105263
 31
0.0
  0
ARC
  5
217
330
1A3
100
AcDbEntity
  8
AM_4
100
AcDbCircle
 10
-1.328333333333333
 20
-1.311090561259646
 30
0.0
 40
0.0499999999999998
100
AcDbArc
 50
180.0
 51
268.0000000000005
  0
ARC
  5
218
330
1A3
100
AcDbEntity
  8
AM_4
100
AcDbCircle
 10
-1.328333333333333
 20
1.311090561259646
 30
0.0
 40
0.0499999999999999
100
AcDbArc
 50
91.99999999999949
 51
180.0
  0
LWPOLYLINE
  5
219
330
1A3
100
AcDbEntity
  8
AM_4
100
AcDbPolyline
 90
        6
 70
     0
 43
0.0
 10
-1.378333333333333
 20
1.051644804876985
 10
-1.377821153345449
 20
1.056745917779431
 10
-1.372575969166353
 20
1.068288439312639
 10
-1.362230922695886
 20
1.077904345034989
 10
-1.348059162505153
 20
1.084467122687451
 10
-1.330078308168458
 20
1.087341527345923
  0
LWPOLYLINE
  5
21A
330
1A3
100
AcDbEntity
  8
AM_4
100
AcDbPolyline
 90
        6
 70
     0
 43
0.0
 10
-1.330078308168458
 20
-1.087341527345923
 10
-1.346397767759576
 20
-1.084951493284856
 10
-1.360687212123401
 20
-1.078879906620323
 10
-1.371410152478868
 20
-1.06978237286775
 10
-1.377378046236281
 20
-1.058595723464173
 10
-1.378333333333333
 20
-1.051644804876985
  0
LINE
  5
21B
330
1A3
100
AcDbEntity
  8
AM_4
100
AcDbLine
 10
-0.9383333333333332
 20
-0.9192388155425117
 30
0.0
 11
-1.378333333333333
 21
-0.9192388155425117
 31
0.0
  0
LINE
  5
21C
330
1A3
100
AcDbEntity
  8
AM_4
100
AcDbLine
 10
-0.9383333333333332
 20
0.9192388155425117
 30
0.0
 11
-1.378333333333333
 21
0.9192388155425117
 31
0.0
  0
LWPOLYLINE
  5
21D
330
1A3
100
AcDbEntity
  8
AM_4
100
AcDbPolyline
 90
        6
 70
     0
 43
0.0
 10
-1.330078308168458
 20
0.8186409504950346
 10
-1.346397767759576
 20
0.8162509164339673
 10
-1.360687212123401
 20
0.810179329769434
 10
-1.371410152478868
 20
0.8010817960168621
 10
-1.377378046236281
 20
0.7898951466132845
 10
-1.378333333333333
 20
0.7829442280260964
  0
LWPOLYLINE
  5
21E
330
1A3
100
AcDbEntity
  8
AM_4
100
AcDbPolyline
 90
        6
 70
     0
 43
0.0
 10
-1.378333333333333
 20
-0.7829442280260974
 10
-1.377821153345449
 20
-0.7880453409285433
 10
-1.372575969166353
 20
-0.7995878624617514
 10
-1.362230922695886
 20
-0.8092037681841014
 10
-1.348059162505153
 20
-0.8157665458365635
 10
-1.330078308168458
 20
-0.8186409504950352
  0
LINE
  5
21F
330
1A3
100
AcDbEntity
  8
AM_4
100
AcDbLine
 10
-1.330078308168458
 20
-0.8186409504950352
 30
0.0
 11
-1.330078308168458
 21
0.8186409504950346
 31
0.0
  0
LINE
  5
220
330
1A3
100
AcDbEntity
  8
AM_4
100
AcDbLine
 10
-1.330078308168458
 20
-0.8186409504950352
 30
0.0
 11
-0.9383333333333332
 21
-0.8284088841127804
 31
0.0
  0
LINE
  5
221
330
1A3
100
AcDbEntity
  8
AM_4
100
AcDbLine
 10
-0.9383333333333332
 20
-0.8284088841127804
 30
0.0
 11
-0.9383333333333332
 21
-1.097109460963668
 31
0.0
  0
LINE
  5
222
330
1A3
100
AcDbEntity
  8
AM_4
100
AcDbLine
 10
-0.9383333333333332
 20
-1.097109460963668
 30
0.0
 11
-1.330078308168458
 21
-1.087341527345923
 31
0.0
  0
LINE
  5
223
330
1A3
100
AcDbEntity
  8
AM_4
100
AcDbLine
 10
-1.330078308168458
 20
1.087341527345923
 30
0.0
 11
-1.330078308168458
 21
1.361060102610601
 31
0.0
  0
LINE
  5
224
330
1A3
100
AcDbEntity
  8
AM_4
100
AcDbLine
 10
-1.330078308168458
 20
1.087341527345923
 30
0.0
 11
-0.9383333333333332
 21
1.097109460963668
 31
0.0
  0
LINE
  5
225
330
1A3
100
AcDbEntity
  8
AM_4
100
AcDbLine
 10
-0.9383333333333332
 20
1.097109460963668
 30
0.0
 11
-0.9383333333333332
 21
0.8284088841127797
 31
0.0
  0
LINE
  5
226
330
1A3
100
AcDbEntity
  8
AM_4
100
AcDbLine
 10
-0.9383333333333332
 20
0.8284088841127797
 30
0.0
 11
-1.330078308168458
 21
0.8186409504950346
 31
0.0
  0
LINE
  5
227
330
1A3
100
AcDbEntity
  8
AM_4
100
AcDbLine
 10
-1.330078308168458
 20
-1.361060102610601
 30
0.0
 11
-0.77
 21
-1.380618468107479
 31
0.0
  0
LINE
  5
228
330
1A3
100
AcDbEntity
  8
AM_4
100
AcDbLine
 10
-0.77
 20
1.380618468107479
 30
0.0
 11
-1.330078308168458
 21
1.361060102610601
 31
0.0
  0
LINE
  5
229
330
1A3
100
AcDbEntity
  8
AM_4
100
AcDbLine
 10
-1.330078308168458
 20
-1.361060102610601
 30
0.0
 11
-1.330078308168458
 21
-1.087341527345923
 31
0.0
  0
ENDBLK
  5
1A6
330
1A3
100
AcDbEntity
  8
0
100
AcDbBlockEnd
  0
BLOCK
  5
22C
330
22A
100
AcDbEntity
  8
0
100
AcDbBlockBegin
  2
8_B072281_0_in_072281_2
 70
     2
 10
0.0
 20
0.0
 30
0.0
  3
8_B072281_0_in_072281_2
  1

  0
ATTDEF
  5
22E
330
22A
100
AcDbEntity
  8
AM_6
100
AcDbText
 10
7.134
 20
2.625
 30
0.0
 40
0.5
  1
SFC - 102 - 204 -(Contact Seal)Housing
100
AcDbAttributeDefinition
  3

  2
NN
 70
     8
280
     0
  0
ATTDEF
  5
22F
330
22A
100
AcDbEntity
  8
AM_6
100
AcDbText
 10
7.134
 20
2.125
 30
0.0
 40
0.5
  1
Steal Imperial Piloted Flange Bearings
100
AcDbAttributeDefinition
  3

  2
NT
 70
     8
280
     0
  0
ATTDEF
  5
230
330
22A
100
AcDbEntity
  8
AM_6
100
AcDbText
 10
7.134
 20
1.625
 30
0.0
 40
0.5
  1
B072281
100
AcDbAttributeDefinition
  3

  2
NB
 70
     8
280
     0
  0
ATTDEF
  5
231
330
22A
100
AcDbEntity
  8
AM_6
100
AcDbText
 10
7.134
 20
1.125
 30
0.0
 40
0.5
  1
$PN.
100
AcDbAttributeDefinition
  3

  2
NBSYN
 70
     8
280
     0
  0
ATTDEF
  5
232
330
22A
100
AcDbEntity
  8
AM_6
100
AcDbText
 10
7.134
 20
0.625
 30
0.0
 40
0.5
  1
B072281
100
AcDbAttributeDefinition
  3

  2
LINA
 70
     8
280
     0
  0
ATTDEF
  5
233
330
22A
100
AcDbEntity
  8
AM_6
100
AcDbText
 10
7.134
 20
0.125
 30
0.0
 40
0.5
  1
1-1/2
100
AcDbAttributeDefinition
  3

  2
SS
 70
     8
280
     0
  0
ATTDEF
  5
234
330
22A
100
AcDbEntity
  8
AM_6
100
AcDbText
 10
7.134
 20
-0.375
 30
0.0
 40
0.5
  1
B072281
100
AcDbAttributeDefinition
  3

  2
PN
 70
     8
280
     0
  0
ATTDEF
  5
235
330
22A
100
AcDbEntity
  8
AM_6
100
AcDbText
 10
7.134
 20
-0.875
 30
0.0
 40
0.5
  1
Non-Expansion
100
AcDbAttributeDefinition
  3

  2
TYPE
 70
     8
280
     0
  0
ATTDEF
  5
236
330
22A
100
AcDbEntity
  8
AM_6
100
AcDbText
 10
7.134
 20
-1.375
 30
0.0
 40
0.5
  1
Non-Expansion
100
AcDbAttributeDefinition
  3

  2
EF
 70
     8
280
     0
  0
ATTDEF
  5
237
330
22A
100
AcDbEntity
  8
AM_6
100
AcDbText
 10
7.134
 20
-1.875
 30
0.0
 40
0.5
  1
SFC-IP-108R
100
AcDbAttributeDefinition
  3

  2
DESCRIPTION
 70
     8
280
     0
  0
ATTDEF
  5
238
330
22A
100
AcDbEntity
  8
AM_6
100
AcDbText
 10
7.134
 20
-2.375
 30
0.0
 40
0.5
  1
Contact Seal
100
AcDbAttributeDefinition
  3

  2
ST
 70
     8
280
     0
  0
ATTDEF
  5
239
330
22A
100
AcDbEntity
  8
AM_6
100
AcDbText
 10
7.134
 20
-2.875
 30
0.0
 40
0.5
  1
2.630
100
AcDbAttributeDefinition
  3

  2
A
 70
     8
280
     0
  0
ATTDEF
  5
23A
330
22A
100
AcDbEntity
  8
AM_6
100
AcDbText
 10
7.134
 20
-3.375
 30
0.0
 40
0.5
  1
5.2500
100
AcDbAttributeDefinition
  3

  2
B
 70
     8
280
     0
  0
ATTDEF
  5
23B
330
22A
100
AcDbEntity
  8
AM_6
100
AcDbText
 10
7.134
 20
-3.875
 30
0.0
 40
0.5
  1
1.9400
100
AcDbAttributeDefinition
  3

  2
C
 70
     8
280
     0
  0
ATTDEF
  5
23C
330
22A
100
AcDbEntity
  8
AM_6
100
AcDbText
 10
7.134
 20
-4.375
 30
0.0
 40
0.5
  1
3.0900
100
AcDbAttributeDefinition
  3

  2
D
 70
     8
280
     0
  0
ATTDEF
  5
23D
330
22A
100
AcDbEntity
  8
AM_6
100
AcDbText
 10
7.134
 20
-4.875
 30
0.0
 40
0.5
  1
4.3800
100
AcDbAttributeDefinition
  3

  2
DD
 70
     8
280
     0
  0
ATTDEF
  5
23E
330
22A
100
AcDbEntity
  8
AM_6
100
AcDbText
 10
7.134
 20
-5.375
 30
0.0
 40
0.5
  1
0.0000
100
AcDbAttributeDefinition
  3

  2
E
 70
     8
280
     0
  0
ATTDEF
  5
23F
330
22A
100
AcDbEntity
  8
AM_6
100
AcDbText
 10
7.134
 20
-5.875
 30
0.0
 40
0.5
  1
0.4375
100
AcDbAttributeDefinition
  3

  2
F
 70
     8
280
     0
  0
ATTDEF
  5
240
330
22A
100
AcDbEntity
  8
AM_6
100
AcDbText
 10
7.134
 20
-6.375
 30
0.0
 40
0.5
  1
1.61
100
AcDbAttributeDefinition
  3

  2
G
 70
     8
280
     0
  0
ATTDEF
  5
241
330
22A
100
AcDbEntity
  8
AM_6
100
AcDbText
 10
7.134
 20
-6.875
 30
0.0
 40
0.5
  1
0.50
100
AcDbAttributeDefinition
  3

  2
H
 70
     8
280
     0
  0
ATTDEF
  5
242
330
22A
100
AcDbEntity
  8
AM_6
100
AcDbText
 10
7.134
 20
-7.375
 30
0.0
 40
0.5
  1
3.625
100
AcDbAttributeDefinition
  3

  2
K
 70
     8
280
     0
  0
ATTDEF
  5
243
330
22A
100
AcDbEntity
  8
AM_6
100
AcDbText
 10
7.134
 20
-7.875
 30
0.0
 40
0.5
  1
2.72
100
AcDbAttributeDefinition
  3

  2
L
 70
     8
280
     0
  0
ATTDEF
  5
244
330
22A
100
AcDbEntity
  8
AM_6
100
AcDbText
 10
7.134
 20
-8.375
 30
0.0
 40
0.5
  1
0.4375
100
AcDbAttributeDefinition
  3

  2
M
 70
     8
280
     0
  0
ATTDEF
  5
245
330
22A
100
AcDbEntity
  8
AM_6
100
AcDbText
 10
7.134
 20
-8.875
 30
0.0
 40
0.5
  1
2.78
100
AcDbAttributeDefinition
  3

  2
N
 70
     8
280
     0
  0
ATTDEF
  5
246
330
22A
100
AcDbEntity
  8
AM_6
100
AcDbText
 10
7.134
 20
-9.375
 30
0.0
 40
0.5
  1
1.02
100
AcDbAttributeDefinition
  3

  2
P
 70
     8
280
     0
  0
ATTDEF
  5
247
330
22A
100
AcDbEntity
  8
AM_6
100
AcDbText
 10
7.134
 20
-9.875
 30
0.0
 40
0.5
  1
1.17
100
AcDbAttributeDefinition
  3

  2
Q
 70
     8
280
     0
  0
ATTDEF
  5
248
330
22A
100
AcDbEntity
  8
AM_6
100
AcDbText
 10
7.134
 20
-10.375
 30
0.0
 40
0.5
  1
0.19
100
AcDbAttributeDefinition
  3

  2
X
 70
     8
280
     0
  0
ATTDEF
  5
249
330
22A
100
AcDbEntity
  8
AM_6
100
AcDbText
 10
7.134
 20
-10.875
 30
0.0
 40
0.5
  1
0.020
100
AcDbAttributeDefinition
  3

  2
Y
 70
     8
280
     0
  0
ATTDEF
  5
24A
330
22A
100
AcDbEntity
  8
AM_6
100
AcDbText
 10
7.134
 20
-11.375
 30
0.0
 40
0.5
  1
1.80
100
AcDbAttributeDefinition
  3

  2
Z
 70
     8
280
     0
  0
ATTDEF
  5
24B
330
22A
100
AcDbEntity
  8
AM_6
100
AcDbText
 10
7.134
 20
-11.875
 30
0.0
 40
0.5
  1
3.1496
100
AcDbAttributeDefinition
  3

  2
BORE
 70
     8
280
     0
  0
ATTDEF
  5
24C
330
22A
100
AcDbEntity
  8
AM_6
100
AcDbText
 10
7.134
 20
-12.375
 30
0.0
 40
0.5
  1
0.0606667
100
AcDbAttributeDefinition
  3

  2
O
 70
     8
280
     0
  0
ATTDEF
  5
24D
330
22A
100
AcDbEntity
  8
AM_6
100
AcDbText
 10
7.134
 20
-12.875
 30
0.0
 40
0.5
  1
baldor
100
AcDbAttributeDefinition
  3

  2
COMPANY
 70
     8
280
     0
  0
LINE
  5
24E
330
22A
100
AcDbEntity
  8
AM_9
100
AcDbLine
 10
-0.77
 20
-1.5748
 30
0.0
 11
1.17
 21
-1.5748
 31
0.0
  0
LINE
  5
24F
330
22A
100
AcDbEntity
  8
AM_9
100
AcDbLine
 10
1.17
 20
1.5748
 30
0.0
 11
-0.77
 21
1.5748
 31
0.0
  0
LINE
  5
250
330
22A
100
AcDbEntity
  8
AM_9
100
AcDbLine
 10
-0.4999999999999999
 20
-1.767313850798539
 30
0.0
 11
0.0000000000000001
 21
-1.767313850798539
 31
0.0
  0
LINE
  5
251
330
22A
100
AcDbEntity
  8
AM_9
100
AcDbLine
 10
0.0000000000000001
 20
-1.329813850798539
 30
0.0
 11
-0.4999999999999999
 21
-1.329813850798539
 31
0.0
  0
LINE
  5
252
330
22A
100
AcDbEntity
  8
AM_9
100
AcDbLine
 10
-0.4999999999999999
 20
1.329813850798539
 30
0.0
 11
0.0000000000000001
 21
1.329813850798539
 31
0.0
  0
LINE
  5
253
330
22A
100
AcDbEntity
  8
AM_9
100
AcDbLine
 10
0.0000000000000001
 20
1.767313850798539
 30
0.0
 11
-0.4999999999999999
 21
1.767313850798539
 31
0.0
  0
LINE
  5
254
330
22A
100
AcDbEntity
  8
AM_9
100
AcDbLine
 10
0.0000000000000001
 20
0.1801000000000001
 30
0.0
 11
-0.4613499999999997
 21
0.1801000000000001
 31
0.0
  0
LINE
  5
255
330
22A
100
AcDbEntity
  8
AM_9
100
AcDbLine
 10
-0.4613499999999997
 20
-0.1801000000000001
 30
0.0
 11
0.0000000000000001
 21
-0.1801000000000001
 31
0.0
  0
LINE
  5
256
330
22A
100
AcDbEntity
  8
AM_9
100
AcDbLine
 10
-0.4613499999999997
 20
-0.1801000000000001
 30
0.0
 11
-0.4613499999999997
 21
0.1801000000000001
 31
0.0
  0
LINE
  5
257
330
22A
100
AcDbEntity
  8
AM_9
100
AcDbLine
 10
-0.4613499999999997
 20
0.1801000000000001
 30
0.0
 11
-0.4999999999999998
 21
0.2187499999999999
 31
0.0
  0
LINE
  5
258
330
22A
100
AcDbEntity
  8
AM_9
100
AcDbLine
 10
-0.4999999999999998
 20
-0.2187499999999999
 30
0.0
 11
-0.4613499999999997
 21
-0.1801000000000001
 31
0.0
  0
LINE
  5
259
330
22A
100
AcDbEntity
  8
AM_5
100
AcDbLine
 10
-0.0000000000000001
 20
-0.2187499999999999
 30
0.0
 11
-0.5000000000000001
 21
-0.2187499999999999
 31
0.0
  0
LINE
  5
25A
330
22A
100
AcDbEntity
  8
AM_5
100
AcDbLine
 10
-0.0000000000000001
 20
0.2187499999999999
 30
0.0
 11
-0.5000000000000001
 21
0.2187499999999999
 31
0.0
  0
LINE
  5
25B
330
22A
100
AcDbEntity
  8
AM_7
100
AcDbLine
 10
0.0249999999999999
 20
-1.548563850798539
 30
0.0
 11
-0.5250000000000001
 21
-1.548563850798539
 31
0.0
  0
LINE
  5
25C
330
22A
100
AcDbEntity
  8
AM_7
100
AcDbLine
 10
0.0249999999999999
 20
1.548563850798539
 30
0.0
 11
-0.5250000000000001
 21
1.548563850798539
 31
0.0
  0
LINE
  5
25D
330
22A
100
AcDbEntity
  8
AM_7
100
AcDbLine
 10
2.134
 20
0.0
 30
0.0
 11
-2.134
 21
0.0
 31
0.0
  0
LINE
  5
25E
330
22A
100
AcDbEntity
  8
AM_4
100
AcDbLine
 10
-0.7699999999999996
 20
-1.8125
 30
0.0
 11
-0.5
 21
-2.174999999999999
 31
0.0
  0
LINE
  5
25F
330
22A
100
AcDbEntity
  8
AM_4
100
AcDbLine
 10
-0.5
 20
2.174999999999999
 30
0.0
 11
-0.7699999999999996
 21
1.8125
 31
0.0
  0
LINE
  5
260
330
22A
100
AcDbEntity
  8
AM_4
100
AcDbLine
 10
-0.7700000000000001
 20
-1.742169983095794
 30
0.0
 11
-0.5
 21
-1.742169983095794
 31
0.0
  0
LINE
  5
261
330
22A
100
AcDbEntity
  8
AM_4
100
AcDbLine
 10
-0.5
 20
1.742169983095794
 30
0.0
 11
-0.7700000000000001
 21
1.742169983095794
 31
0.0
  0
LINE
  5
262
330
22A
100
AcDbEntity
  8
AM_4
100
AcDbLine
 10
-0.77
 20
-1.512675547840557
 30
0.0
 11
-0.4999999999999999
 21
-1.512675547840557
 31
0.0
  0
LINE
  5
263
330
22A
100
AcDbEntity
  8
AM_4
100
AcDbLine
 10
-0.7699999999999996
 20
1.8125
 30
0.0
 11
-0.7699999999999996
 21
-1.8125
 31
0.0
  0
LINE
  5
264
330
22A
100
AcDbEntity
  8
AM_4
100
AcDbLine
 10
-0.77
 20
1.512675547840556
 30
0.0
 11
-0.4999999999999999
 21
1.512675547840555
 31
0.0
  0
LINE
  5
265
330
22A
100
AcDbEntity
  8
AM_4
100
AcDbLine
 10
1.17
 20
1.721875
 30
0.0
 11
0.0
 21
1.762732300305345
 31
0.0
  0
LINE
  5
266
330
22A
100
AcDbEntity
  8
AM_4
100
AcDbLine
 10
0.0
 20
-1.762732300305345
 30
0.0
 11
1.17
 21
-1.721875
 31
0.0
  0
LINE
  5
267
330
22A
100
AcDbEntity
  8
AM_4
100
AcDbLine
 10
1.17
 20
1.721875
 30
0.0
 11
1.17
 21
-1.721875
 31
0.0
  0
LINE
  5
268
330
22A
100
AcDbEntity
  8
AM_4
100
AcDbLine
 10
-0.7699999999999998
 20
0.9984833183209774
 30
0.0
 11
-0.4999999999999999
 21
0.9984833183209774
 31
0.0
  0
LINE
  5
269
330
22A
100
AcDbEntity
  8
AM_4
100
AcDbLine
 10
-0.7699999999999998
 20
-0.9984833183209789
 30
0.0
 11
-0.4999999999999999
 21
-0.9984833183209788
 31
0.0
  0
LINE
  5
26A
330
22A
100
AcDbEntity
  8
AM_4
100
AcDbLine
 10
-0.5
 20
-2.625
 30
0.0
 11
0.0
 21
-2.625
 31
0.0
  0
LINE
  5
26B
330
22A
100
AcDbEntity
  8
AM_4
100
AcDbLine
 10
0.0
 20
2.625
 30
0.0
 11
-0.5
 21
2.625
 31
0.0
  0
LINE
  5
26C
330
22A
100
AcDbEntity
  8
AM_4
100
AcDbLine
 10
0.0
 20
2.625
 30
0.0
 11
0.0
 21
-2.625
 31
0.0
  0
LINE
  5
26D
330
22A
100
AcDbEntity
  8
AM_4
100
AcDbLine
 10
-0.5
 20
2.625
 30
0.0
 11
-0.5
 21
-2.625
 31
0.0
  0
ENDBLK
  5
22D
330
22A
100
AcDbEntity
  8
0
100
AcDbBlockEnd
  0
ENDSEC
  0
SECTION
  2
ENTITIES
  0
INSERT
  5
6F
330
1F
100
AcDbEntity
  8
0
100
AcDbBlockReference
  2
1_072281_2
 10
0.0
 20
0.0
 30
0.0
  0
POINT
  5
26F
330
1F
100
AcDbEntity
  8
ConnectionPoints
100
AcDbPoint
 10
-0.6349999999999996
 20
1.99375
 30
0.0
  0
POINT
  5
270
330
1F
100
AcDbEntity
  8
ConnectionPoints
100
AcDbPoint
 10
-1.509000033333333
 20
-1.096354166666667
 30
0.0000000000000001
  0
POINT
  5
271
330
1F
100
AcDbEntity
  8
ConnectionPoints
100
AcDbPoint
 10
-1.509000033333333
 20
1.096354166666667
 30
0.0000000000000001
  0
POINT
  5
272
330
1F
100
AcDbEntity
  8
ConnectionPoints
100
AcDbPoint
 10
-1.378333333333333
 20
0.0
 30
0.0000000000000001
  0
POINT
  5
273
330
1F
100
AcDbEntity
  8
ConnectionPoints
100
AcDbPoint
 10
-1.61
 20
0.0
 30
0.0000000000000001
  0
POINT
  5
274
330
1F
100
AcDbEntity
  8
ConnectionPoints
100
AcDbPoint
 10
-1.577333333333333
 20
0.0
 30
0.0000000000000001
  0
POINT
  5
275
330
1F
100
AcDbEntity
  8
ConnectionPoints
100
AcDbPoint
 10
-1.378333333333333
 20
1.096354166666667
 30
0.0000000000000001
  0
POINT
  5
276
330
1F
100
AcDbEntity
  8
ConnectionPoints
100
AcDbPoint
 10
-1.509
 20
1.096354166666667
 30
0.0000000000000001
  0
POINT
  5
277
330
1F
100
AcDbEntity
  8
ConnectionPoints
100
AcDbPoint
 10
-1.378333333333333
 20
-1.096354166666667
 30
0.0000000000000001
  0
POINT
  5
278
330
1F
100
AcDbEntity
  8
ConnectionPoints
100
AcDbPoint
 10
-1.509
 20
-1.096354166666667
 30
0.0000000000000001
  0
POINT
  5
279
330
1F
100
AcDbEntity
  8
ConnectionPoints
100
AcDbPoint
 10
-1.378333333333333
 20
0.0
 30
0.0000000000000001
  0
POINT
  5
27A
330
1F
100
AcDbEntity
  8
ConnectionPoints
100
AcDbPoint
 10
-0.6349999999999996
 20
1.99375
 30
0.0
  0
POINT
  5
27B
330
1F
100
AcDbEntity
  8
ConnectionPoints
100
AcDbPoint
 10
-0.6349999999999991
 20
-1.99375
 30
0.0
  0
POINT
  5
27C
330
1F
100
AcDbEntity
  8
ConnectionPoints
100
AcDbPoint
 10
-1.42
 20
0.0
 30
0.0000000000000001
  0
POINT
  5
27D
330
1F
100
AcDbEntity
  8
ConnectionPoints
100
AcDbPoint
 10
-1.61
 20
0.0
 30
0.0000000000000001
  0
ENDSEC
  0
SECTION
  2
OBJECTS
  0
DICTIONARY
  5
C
330
0
100
AcDbDictionary
281
     1
  3
ACAD_DETAILVIEWSTYLE
350
285
  3
ACAD_GROUP
350
D
  3
ACAD_LAYOUT
350
1A
  3
ACAD_MATERIAL
350
43
  3
ACAD_MLEADERSTYLE
350
6B
  3
ACAD_MLINESTYLE
350
17
  3
ACAD_PLOTSETTINGS
350
19
  3
ACAD_PLOTSTYLENAME
350
E
  3
ACAD_SCALELIST
350
47
  3
ACAD_SECTIONVIEWSTYLE
350
286
  3
ACAD_TABLESTYLE
350
69
  3
ACAD_VISUALSTYLE
350
2A
  3
ACDB_RECOMPOSE_DATA
350
282
  3
AcDbVariableDictionary
350
27E
  0
SUN
  5
6D
330
29
100
AcDbSun
 90
        1
290
     0
 63
     7
421
 16777215
 40
1.0
291
     1
 91
  2455826
 92
 54000000
292
     0
 70
     2
 71
   256
280
     1
  0
DICTIONARY
  5
285
102
{ACAD_REACTORS
330
C
102
}
330
C
100
AcDbDictionary
281
     1
  0
DICTIONARY
  5
D
102
{ACAD_REACTORS
330
C
102
}
330
C
100
AcDbDictionary
281
     1
  0
DICTIONARY
  5
1A
102
{ACAD_REACTORS
330
C
102
}
330
C
100
AcDbDictionary
281
     1
  3
Layout1
350
1E
  3
Layout2
350
26
  3
Model
350
22
  0
DICTIONARY
  5
43
102
{ACAD_REACTORS
330
C
102
}
330
C
100
AcDbDictionary
281
     1
  3
ByBlock
350
45
  3
ByLayer
350
44
  3
Global
350
46
  0
DICTIONARY
  5
6B
102
{ACAD_REACTORS
330
C
102
}
330
C
100
AcDbDictionary
281
     1
  3
Standard
350
6C
  0
DICTIONARY
  5
17
102
{ACAD_REACTORS
330
C
102
}
330
C
100
AcDbDictionary
281
     1
  3
Standard
350
18
  0
DICTIONARY
  5
19
102
{ACAD_REACTORS
330
C
102
}
330
C
100
AcDbDictionary
281
     1
  0
ACDBDICTIONARYWDFLT
  5
E
102
{ACAD_REACTORS
330
C
102
}
330
C
100
AcDbDictionary
281
     1
  3
Normal
350
F
100
AcDbDictionaryWithDefault
340
F
  0
DICTIONARY
  5
47
102
{ACAD_REACTORS
330
C
102
}
330
C
100
AcDbDictionary
281
     1
  3
A0
350
48
  3
A1
350
49
  3
A2
350
4A
  3
A3
350
4B
  3
A4
350
4C
  3
A5
350
4D
  3
A6
350
4E
  3
A7
350
4F
  3
A8
350
50
  3
A9
350
51
  3
B0
350
52
  3
B1
350
53
  3
B2
350
54
  3
B3
350
55
  3
B4
350
56
  3
B5
350
57
  3
B6
350
58
  3
B7
350
59
  3
B8
350
5A
  3
B9
350
5B
  3
C0
350
5C
  3
C1
350
5D
  3
C2
350
5E
  3
C3
350
5F
  3
C4
350
60
  3
C5
350
61
  3
C6
350
62
  3
C7
350
63
  3
C8
350
64
  3
C9
350
65
  3
D0
350
66
  3
D1
350
67
  3
D2
350
68
  0
DICTIONARY
  5
286
102
{ACAD_REACTORS
330
C
102
}
330
C
100
AcDbDictionary
281
     1
  0
DICTIONARY
  5
69
102
{ACAD_REACTORS
330
C
102
}
330
C
100
AcDbDictionary
281
     1
  3
Standard
350
6A
  0
DICTIONARY
  5
2A
102
{ACAD_REACTORS
330
C
102
}
330
C
100
AcDbDictionary
281
     1
  3
2dWireframe
350
2F
  3
Basic
350
32
  3
Brighten
350
36
  3
ColorChange
350
3A
  3
Conceptual
350
34
  3
Dim
350
35
  3
EdgeColorOff
350
3D
  3
Facepattern
350
39
  3
Flat
350
2B
  3
FlatWithEdges
350
2C
  3
Gouraud
350
2D
  3
GouraudWithEdges
350
2E
  3
Hidden
350
31
  3
JitterOff
350
3B
  3
Linepattern
350
38
  3
OverhangOff
350
3C
  3
Realistic
350
33
  3
Shaded
350
42
  3
Shaded with edges
350
41
  3
Shades of Gray
350
3E
  3
Sketchy
350
3F
  3
Thicken
350
37
  3
Wireframe
350
30
  3
X-Ray
350
40
  0
XRECORD
  5
282
102
{ACAD_REACTORS
330
C
102
}
330
C
100
AcDbXrecord
280
     1
 90
        1
330
6A
  0
DICTIONARY
  5
27E
102
{ACAD_REACTORS
330
C
102
}
330
C
100
AcDbDictionary
281
     1
  3
CANNOSCALE
350
27F
  3
CMLEADERSTYLE
350
284
  3
CTABLESTYLE
350
283
  0
LAYOUT
  5
1E
102
{ACAD_REACTORS
330
1A
102
}
330
1A
100
AcDbPlotSettings
  1

  2
none_device
  4

  6

 40
0.0
 41
0.0
 42
0.0
 43
0.0
 44
0.0
 45
0.0
 46
0.0
 47
0.0
 48
0.0
 49
0.0
140
0.0
141
0.0
142
1.0
143
1.0
 70
   688
 72
     0
 73
     0
 74
     5
  7

 75
    16
 76
     0
 77
     2
 78
   300
147
1.0
148
0.0
149
0.0
100
AcDbLayout
  1
Layout1
 70
     1
 71
     1
 10
0.0
 20
0.0
 11
12.0
 21
9.0
 12
0.0
 22
0.0
 32
0.0
 14
1.000000000000000E+20
 24
1.000000000000000E+20
 34
1.000000000000000E+20
 15
-1.000000000000000E+20
 25
-1.000000000000000E+20
 35
-1.000000000000000E+20
146
0.0
 13
0.0
 23
0.0
 33
0.0
 16
1.0
 26
0.0
 36
0.0
 17
0.0
 27
1.0
 37
0.0
 76
     0
330
1B
  0
LAYOUT
  5
26
102
{ACAD_REACTORS
330
1A
102
}
330
1A
100
AcDbPlotSettings
  1

  2
none_device
  4

  6

 40
0.0
 41
0.0
 42
0.0
 43
0.0
 44
0.0
 45
0.0
 46
0.0
 47
0.0
 48
0.0
 49
0.0
140
0.0
141
0.0
142
1.0
143
1.0
 70
   688
 72
     0
 73
     0
 74
     5
  7

 75
    16
 76
     0
 77
     2
 78
   300
147
1.0
148
0.0
149
0.0
100
AcDbLayout
  1
Layout2
 70
     1
 71
     2
 10
0.0
 20
0.0
 11
0.0
 21
0.0
 12
0.0
 22
0.0
 32
0.0
 14
0.0
 24
0.0
 34
0.0
 15
0.0
 25
0.0
 35
0.0
146
0.0
 13
0.0
 23
0.0
 33
0.0
 16
1.0
 26
0.0
 36
0.0
 17
0.0
 27
1.0
 37
0.0
 76
     0
330
23
  0
LAYOUT
  5
22
102
{ACAD_REACTORS
330
1A
102
}
330
1A
100
AcDbPlotSettings
  1

  2
none_device
  4
Letter_(8.50_x_11.00_Inches)
  6

 40
6.35
 41
6.35
 42
6.35000508
 43
6.35000508
 44
215.9
 45
279.4
 46
0.0
 47
0.0
 48
0.0
 49
0.0
140
0.0
141
0.0
142
1.0
143
1.0
 70
  1712
 72
     0
 73
     0
 74
     0
  7

 75
     0
 76
     0
 77
     2
 78
   300
147
1.0
148
0.0
149
0.0
100
AcDbLayout
  1
Model
 70
     1
 71
     0
 10
0.0
 20
0.0
 11
12.0
 21
9.0
 12
0.0
 22
0.0
 32
0.0
 14
1.000000000000000E+20
 24
1.000000000000000E+20
 34
1.000000000000000E+20
 15
-1.000000000000000E+20
 25
-1.000000000000000E+20
 35
-1.000000000000000E+20
146
0.0
 13
0.0
 23
0.0
 33
0.0
 16
1.0
 26
0.0
 36
0.0
 17
0.0
 27
1.0
 37
0.0
 76
     0
330
1F
331
29
  0
MATERIAL
  5
45
102
{ACAD_REACTORS
330
43
102
}
330
43
100
AcDbMaterial
  1
ByBlock
 72
     1
 94
      127
  0
MATERIAL
  5
44
102
{ACAD_REACTORS
330
43
102
}
330
43
100
AcDbMaterial
  1
ByLayer
 72
     1
 94
      127
  0
MATERIAL
  5
46
102
{ACAD_REACTORS
330
43
102
}
330
43
100
AcDbMaterial
  1
Global
 72
     1
 94
      127
  0
MLEADERSTYLE
  5
6C
102
{ACAD_REACTORS
330
6B
102
}
330
6B
100
AcDbMLeaderStyle
179
     2
170
     2
171
     1
172
     0
 90
        2
 40
0.0
 41
0.0
173
     1
 91
-1056964608
340
14
 92
       -2
290
     1
 42
0.09
291
     1
 43
0.36
  3
Standard
341
0
 44
0.18
300

342
11
174
     1
178
     6
175
     1
176
     0
 93
-1056964608
 45
0.18
292
     0
297
     0
 46
0.18
343
0
 94
-1056964608
 47
1.0
 49
1.0
140
1.0
293
     1
141
0.0
294
     1
177
     0
142
1.0
295
     0
296
     0
143
0.125
271
     0
272
     9
273
     9
298
     0
  0
MLINESTYLE
  5
18
102
{ACAD_REACTORS
330
17
102
}
330
17
100
AcDbMlineStyle
  2
Standard
 70
     0
  3

 62
   256
 51
90.0
 52
90.0
 71
     2
 49
0.5
 62
   256
  6
BYLAYER
 49
-0.5
 62
   256
  6
BYLAYER
  0
ACDBPLACEHOLDER
  5
F
102
{ACAD_REACTORS
330
E
102
}
330
E
  0
SCALE
  5
48
102
{ACAD_REACTORS
330
47
102
}
330
47
100
AcDbScale
 70
     0
300
1:1
140
1.0
141
1.0
290
     1
  0
SCALE
  5
49
102
{ACAD_REACTORS
330
47
102
}
330
47
100
AcDbScale
 70
     0
300
1:2
140
1.0
141
2.0
290
     0
  0
SCALE
  5
4A
102
{ACAD_REACTORS
330
47
102
}
330
47
100
AcDbScale
 70
     0
300
1:4
140
1.0
141
4.0
290
     0
  0
SCALE
  5
4B
102
{ACAD_REACTORS
330
47
102
}
330
47
100
AcDbScale
 70
     0
300
1:5
140
1.0
141
5.0
290
     0
  0
SCALE
  5
4C
102
{ACAD_REACTORS
330
47
102
}
330
47
100
AcDbScale
 70
     0
300
1:8
140
1.0
141
8.0
290
     0
  0
SCALE
  5
4D
102
{ACAD_REACTORS
330
47
102
}
330
47
100
AcDbScale
 70
     0
300
1:10
140
1.0
141
10.0
290
     0
  0
SCALE
  5
4E
102
{ACAD_REACTORS
330
47
102
}
330
47
100
AcDbScale
 70
     0
300
1:16
140
1.0
141
16.0
290
     0
  0
SCALE
  5
4F
102
{ACAD_REACTORS
330
47
102
}
330
47
100
AcDbScale
 70
     0
300
1:20
140
1.0
141
20.0
290
     0
  0
SCALE
  5
50
102
{ACAD_REACTORS
330
47
102
}
330
47
100
AcDbScale
 70
     0
300
1:30
140
1.0
141
30.0
290
     0
  0
SCALE
  5
51
102
{ACAD_REACTORS
330
47
102
}
330
47
100
AcDbScale
 70
     0
300
1:40
140
1.0
141
40.0
290
     0
  0
SCALE
  5
52
102
{ACAD_REACTORS
330
47
102
}
330
47
100
AcDbScale
 70
     0
300
1:50
140
1.0
141
50.0
290
     0
  0
SCALE
  5
53
102
{ACAD_REACTORS
330
47
102
}
330
47
100
AcDbScale
 70
     0
300
1:100
140
1.0
141
100.0
290
     0
  0
SCALE
  5
54
102
{ACAD_REACTORS
330
47
102
}
330
47
100
AcDbScale
 70
     0
300
2:1
140
2.0
141
1.0
290
     0
  0
SCALE
  5
55
102
{ACAD_REACTORS
330
47
102
}
330
47
100
AcDbScale
 70
     0
300
4:1
140
4.0
141
1.0
290
     0
  0
SCALE
  5
56
102
{ACAD_REACTORS
330
47
102
}
330
47
100
AcDbScale
 70
     0
300
8:1
140
8.0
141
1.0
290
     0
  0
SCALE
  5
57
102
{ACAD_REACTORS
330
47
102
}
330
47
100
AcDbScale
 70
     0
300
10:1
140
10.0
141
1.0
290
     0
  0
SCALE
  5
58
102
{ACAD_REACTORS
330
47
102
}
330
47
100
AcDbScale
 70
     0
300
100:1
140
100.0
141
1.0
290
     0
  0
SCALE
  5
59
102
{ACAD_REACTORS
330
47
102
}
330
47
100
AcDbScale
 70
     0
300
1/128" = 1'-0"
140
0.0078125
141
12.0
290
     0
  0
SCALE
  5
5A
102
{ACAD_REACTORS
330
47
102
}
330
47
100
AcDbScale
 70
     0
300
1/64" = 1'-0"
140
0.015625
141
12.0
290
     0
  0
SCALE
  5
5B
102
{ACAD_REACTORS
330
47
102
}
330
47
100
AcDbScale
 70
     0
300
1/32" = 1'-0"
140
0.03125
141
12.0
290
     0
  0
SCALE
  5
5C
102
{ACAD_REACTORS
330
47
102
}
330
47
100
AcDbScale
 70
     0
300
1/16" = 1'-0"
140
0.0625
141
12.0
290
     0
  0
SCALE
  5
5D
102
{ACAD_REACTORS
330
47
102
}
330
47
100
AcDbScale
 70
     0
300
3/32" = 1'-0"
140
0.09375
141
12.0
290
     0
  0
SCALE
  5
5E
102
{ACAD_REACTORS
330
47
102
}
330
47
100
AcDbScale
 70
     0
300
1/8" = 1'-0"
140
0.125
141
12.0
290
     0
  0
SCALE
  5
5F
102
{ACAD_REACTORS
330
47
102
}
330
47
100
AcDbScale
 70
     0
300
3/16" = 1'-0"
140
0.1875
141
12.0
290
     0
  0
SCALE
  5
60
102
{ACAD_REACTORS
330
47
102
}
330
47
100
AcDbScale
 70
     0
300
1/4" = 1'-0"
140
0.25
141
12.0
290
     0
  0
SCALE
  5
61
102
{ACAD_REACTORS
330
47
102
}
330
47
100
AcDbScale
 70
     0
300
3/8" = 1'-0"
140
0.375
141
12.0
290
     0
  0
SCALE
  5
62
102
{ACAD_REACTORS
330
47
102
}
330
47
100
AcDbScale
 70
     0
300
1/2" = 1'-0"
140
0.5
141
12.0
290
     0
  0
SCALE
  5
63
102
{ACAD_REACTORS
330
47
102
}
330
47
100
AcDbScale
 70
     0
300
3/4" = 1'-0"
140
0.75
141
12.0
290
     0
  0
SCALE
  5
64
102
{ACAD_REACTORS
330
47
102
}
330
47
100
AcDbScale
 70
     0
300
1" = 1'-0"
140
1.0
141
12.0
290
     0
  0
SCALE
  5
65
102
{ACAD_REACTORS
330
47
102
}
330
47
100
AcDbScale
 70
     0
300
1-1/2" = 1'-0"
140
1.5
141
12.0
290
     0
  0
SCALE
  5
66
102
{ACAD_REACTORS
330
47
102
}
330
47
100
AcDbScale
 70
     0
300
3" = 1'-0"
140
3.0
141
12.0
290
     0
  0
SCALE
  5
67
102
{ACAD_REACTORS
330
47
102
}
330
47
100
AcDbScale
 70
     0
300
6" = 1'-0"
140
6.0
141
12.0
290
     0
  0
SCALE
  5
68
102
{ACAD_REACTORS
330
47
102
}
330
47
100
AcDbScale
 70
     0
300
1'-0" = 1'-0"
140
12.0
141
12.0
290
     0
  0
TABLESTYLE
  5
6A
102
{ACAD_REACTORS
330
69
102
}
102
{ACAD_XDICTIONARY
360
280
102
}
330
69
100
AcDbTableStyle
  3
Standard
 70
     0
 71
     0
 40
0.06
 41
0.06
280
     0
281
     0
  7
Standard
140
0.18
170
     2
 62
     0
 63
   257
283
     0
 90
        4
 91
        0
  1

274
    -2
284
     1
 64
     0
275
    -2
285
     1
 65
     0
276
    -2
286
     1
 66
     0
277
    -2
287
     1
 67
     0
278
    -2
288
     1
 68
     0
279
    -2
289
     1
 69
     0
  7
Standard
140
0.25
170
     5
 62
     0
 63
   257
283
     0
 90
        4
 91
        0
  1

274
    -2
284
     1
 64
     0
275
    -2
285
     1
 65
     0
276
    -2
286
     1
 66
     0
277
    -2
287
     1
 67
     0
278
    -2
288
     1
 68
     0
279
    -2
289
     1
 69
     0
  7
Standard
140
0.18
170
     5
 62
     0
 63
   257
283
     0
 90
        4
 91
        0
  1

274
    -2
284
     1
 64
     0
275
    -2
285
     1
 65
     0
276
    -2
286
     1
 66
     0
277
    -2
287
     1
 67
     0
278
    -2
288
     1
 68
     0
279
    -2
289
     1
 69
     0
  0
VISUALSTYLE
  5
2F
102
{ACAD_REACTORS
330
2A
102
}
330
2A
100
AcDbVisualStyle
  2
2dWireframe
 70
     4
177
     3
291
     0
 70
    58
 90
        0
176
     1
 90
        2
176
     1
 90
        0
176
     1
 90
        0
176
     1
 40
0.6
176
     1
 40
30.0
176
     1
 62
     7
420
 16777215
176
     1
 90
        1
176
     1
 90
        4
176
     1
 62
     7
176
     1
 62
   257
176
     1
 90
        1
176
     1
 90
        1
176
     1
 40
1.0
176
     1
 90
        0
176
     1
 62
   257
176
     1
 40
1.0
176
     1
 90
        1
176
     1
 90
        6
176
     1
 90
        2
176
     1
 62
     7
176
     1
 90
        5
176
     1
 90
        0
176
     1
 90
        0
176
     1
290
     0
176
     1
 90
        1
176
     1
 40
0.0
176
     1
 90
        0
176
     1
290
     1
176
     1
290
     1
176
     1
290
     0
176
     1
290
     0
176
     1
290
     0
176
     1
290
     0
176
     1
290
     0
176
     1
290
     0
176
     1
290
     0
176
     1
 90
       50
176
     1
 40
0.0
176
     1
 40
1.0
176
     1
 90
        0
176
     1
 62
    18
420
        0
176
     1
 90
       50
176
     1
 90
        3
176
     1
 62
     5
420
      255
176
     1
290
     0
176
     1
 90
       50
176
     1
 90
       50
176
     1
 90
       50
176
     1
290
     0
176
     1
 90
       50
176
     1
 62
   256
176
     0
 40
1.0
176
     0
 90
        2
176
     1
  1
strokes_ogs.tif
176
     1
290
     0
176
     1
 40
1.0
176
     1
 40
1.0
176
     1
  0
VISUALSTYLE
  5
32
102
{ACAD_REACTORS
330
2A
102
}
330
2A
100
AcDbVisualStyle
  2
Basic
 70
     7
177
     3
291
     1
 70
    58
 90
        1
176
     1
 90
        0
176
     1
 90
        1
176
     1
 90
        0
176
     1
 40
0.6
176
     1
 40
30.0
176
     1
 62
     7
420
 16777215
176
     1
 90
        0
176
     1
 90
        4
176
     1
 62
     7
176
     1
 62
   257
176
     1
 90
        1
176
     1
 90
        1
176
     1
 40
1.0
176
     1
 90
        8
176
     1
 62
     7
176
     1
 40
1.0
176
     1
 90
        1
176
     1
 90
        6
176
     1
 90
        2
176
     1
 62
     7
176
     1
 90
        5
176
     1
 90
        0
176
     1
 90
        0
176
     1
290
     0
176
     1
 90
        1
176
     1
 40
0.0
176
     1
 90
        0
176
     1
290
     0
176
     1
290
     1
176
     1
290
     1
176
     1
290
     0
176
     1
290
     0
176
     1
290
     0
176
     1
290
     0
176
     1
290
     0
176
     1
290
     0
176
     1
 90
       50
176
     1
 40
0.0
176
     1
 40
1.0
176
     1
 90
        0
176
     1
 62
    18
420
        0
176
     1
 90
       50
176
     1
 90
        3
176
     1
 62
     5
420
      255
176
     1
290
     0
176
     1
 90
       50
176
     1
 90
       50
176
     1
 90
       50
176
     1
290
     0
176
     1
 90
       50
176
     1
 62
   256
176
     0
 40
1.0
176
     0
 90
        2
176
     1
  1
strokes_ogs.tif
176
     1
290
     0
176
     1
 40
1.0
176
     1
 40
1.0
176
     1
  0
VISUALSTYLE
  5
36
102
{ACAD_REACTORS
330
2A
102
}
330
2A
100
AcDbVisualStyle
  2
Brighten
 70
    12
177
     3
291
     1
 70
    58
 90
        2
176
     1
 90
        2
176
     1
 90
        0
176
     1
 90
        0
176
     1
 40
0.6
176
     1
 40
30.0
176
     1
 62
     7
420
 16777215
176
     1
 90
        1
176
     1
 90
        4
176
     1
 62
     7
176
     1
 62
   257
176
     1
 90
        1
176
     1
 90
        1
176
     1
 40
1.0
176
     1
 90
        8
176
     1
 62
     7
176
     1
 40
1.0
176
     1
 90
        1
176
     1
 90
        6
176
     1
 90
        2
176
     1
 62
     7
176
     1
 90
        5
176
     1
 90
        0
176
     1
 90
        0
176
     1
290
     0
176
     1
 90
        1
176
     1
 40
50.0
176
     1
 90
        0
176
     1
290
     0
176
     1
290
     1
176
     1
290
     1
176
     1
290
     0
176
     1
290
     0
176
     1
290
     0
176
     1
290
     0
176
     1
290
     0
176
     1
290
     0
176
     1
 90
       50
176
     1
 40
0.0
176
     1
 40
1.0
176
     1
 90
        0
176
     1
 62
    18
420
        0
176
     1
 90
       50
176
     1
 90
        3
176
     1
 62
     5
420
      255
176
     1
290
     0
176
     1
 90
       50
176
     1
 90
       50
176
     1
 90
       50
176
     1
290
     0
176
     1
 90
       50
176
     1
 62
   256
176
     0
 40
1.0
176
     0
 90
        2
176
     1
  1
strokes_ogs.tif
176
     1
290
     0
176
     1
 40
1.0
176
     1
 40
1.0
176
     1
  0
VISUALSTYLE
  5
3A
102
{ACAD_REACTORS
330
2A
102
}
330
2A
100
AcDbVisualStyle
  2
ColorChange
 70
    16
177
     3
291
     1
 70
    58
 90
        2
176
     1
 90
        2
176
     1
 90
        3
176
     1
 90
        0
176
     1
 40
0.6
176
     1
 40
30.0
176
     1
 62
     8
420
  8421504
176
     1
 90
        1
176
     1
 90
        4
176
     1
 62
     7
176
     1
 62
   257
176
     1
 90
        1
176
     1
 90
        1
176
     1
 40
1.0
176
     1
 90
        8
176
     1
 62
     8
420
  8421504
176
     1
 40
1.0
176
     1
 90
        1
176
     1
 90
        6
176
     1
 90
        2
176
     1
 62
     7
176
     1
 90
        5
176
     1
 90
        0
176
     1
 90
        0
176
     1
290
     0
176
     1
 90
        1
176
     1
 40
0.0
176
     1
 90
        0
176
     1
290
     0
176
     1
290
     1
176
     1
290
     1
176
     1
290
     0
176
     1
290
     0
176
     1
290
     0
176
     1
290
     0
176
     1
290
     0
176
     1
290
     0
176
     1
 90
       50
176
     1
 40
0.0
176
     1
 40
1.0
176
     1
 90
        0
176
     1
 62
    18
420
        0
176
     1
 90
       50
176
     1
 90
        3
176
     1
 62
     5
420
      255
176
     1
290
     0
176
     1
 90
       50
176
     1
 90
       50
176
     1
 90
       50
176
     1
290
     0
176
     1
 90
       50
176
     1
 62
   256
176
     0
 40
1.0
176
     0
 90
        2
176
     1
  1
strokes_ogs.tif
176
     1
290
     0
176
     1
 40
1.0
176
     1
 40
1.0
176
     1
  0
VISUALSTYLE
  5
34
102
{ACAD_REACTORS
330
2A
102
}
330
2A
100
AcDbVisualStyle
  2
Conceptual
 70
     9
177
     3
291
     0
 70
    58
 90
        3
176
     1
 90
        2
176
     1
 90
        0
176
     1
 90
        0
176
     1
 40
0.6
176
     1
 40
30.0
176
     1
 62
     7
420
 16777215
176
     1
 90
        2
176
     1
 90
        2
176
     1
 62
     7
176
     1
 62
   257
176
     1
 90
        1
176
     1
 90
        1
176
     1
 40
179.0
176
     1
 90
        8
176
     1
 62
     7
176
     1
 40
1.0
176
     1
 90
        1
176
     1
 90
        6
176
     1
 90
        2
176
     1
 62
     7
176
     1
 90
        3
176
     1
 90
        0
176
     1
 90
        0
176
     1
290
     0
176
     1
 90
        1
176
     1
 40
0.0
176
     1
 90
        0
176
     1
290
     0
176
     1
290
     1
176
     1
290
     1
176
     1
290
     0
176
     1
290
     0
176
     1
290
     0
176
     1
290
     0
176
     1
290
     0
176
     1
290
     0
176
     1
 90
       50
176
     1
 40
0.0
176
     1
 40
1.0
176
     1
 90
        0
176
     1
 62
    18
420
        0
176
     1
 90
       50
176
     1
 90
        3
176
     1
 62
     5
420
      255
176
     1
290
     0
176
     1
 90
       50
176
     1
 90
       50
176
     1
 90
       50
176
     1
290
     0
176
     1
 90
       50
176
     1
 62
   256
176
     0
 40
1.0
176
     0
 90
        2
176
     1
  1
strokes_ogs.tif
176
     1
290
     0
176
     1
 40
1.0
176
     1
 40
1.0
176
     1
  0
VISUALSTYLE
  5
35
102
{ACAD_REACTORS
330
2A
102
}
330
2A
100
AcDbVisualStyle
  2
Dim
 70
    11
177
     3
291
     1
 70
    58
 90
        2
176
     1
 90
        2
176
     1
 90
        0
176
     1
 90
        0
176
     1
 40
0.6
176
     1
 40
30.0
176
     1
 62
     7
420
 16777215
176
     1
 90
        1
176
     1
 90
        4
176
     1
 62
     7
176
     1
 62
   257
176
     1
 90
        1
176
     1
 90
        1
176
     1
 40
1.0
176
     1
 90
        8
176
     1
 62
     7
176
     1
 40
1.0
176
     1
 90
        1
176
     1
 90
        6
176
     1
 90
        2
176
     1
 62
     7
176
     1
 90
        5
176
     1
 90
        0
176
     1
 90
        0
176
     1
290
     0
176
     1
 90
        1
176
     1
 40
-50.0
176
     1
 90
        0
176
     1
290
     0
176
     1
290
     1
176
     1
290
     1
176
     1
290
     0
176
     1
290
     0
176
     1
290
     0
176
     1
290
     0
176
     1
290
     0
176
     1
290
     0
176
     1
 90
       50
176
     1
 40
0.0
176
     1
 40
1.0
176
     1
 90
        0
176
     1
 62
    18
420
        0
176
     1
 90
       50
176
     1
 90
        3
176
     1
 62
     5
420
      255
176
     1
290
     0
176
     1
 90
       50
176
     1
 90
       50
176
     1
 90
       50
176
     1
290
     0
176
     1
 90
       50
176
     1
 62
   256
176
     0
 40
1.0
176
     0
 90
        2
176
     1
  1
strokes_ogs.tif
176
     1
290
     0
176
     1
 40
1.0
176
     1
 40
1.0
176
     1
  0
VISUALSTYLE
  5
3D
102
{ACAD_REACTORS
330
2A
102
}
330
2A
100
AcDbVisualStyle
  2
EdgeColorOff
 70
    22
177
     3
291
     1
 70
    58
 90
        2
176
     0
 90
        2
176
     0
 90
        0
176
     0
 90
        0
176
     0
 40
0.6
176
     0
 40
30.0
176
     0
 62
     7
420
 16777215
176
     0
 90
        1
176
     0
 90
        4
176
     0
 62
     7
176
     0
 62
   257
176
     0
 90
        1
176
     0
 90
        1
176
     0
 40
1.0
176
     0
 90
        8
176
     2
 62
     7
176
     0
 40
1.0
176
     0
 90
        1
176
     0
 90
        6
176
     0
 90
        2
176
     0
 62
     7
176
     0
 90
        5
176
     0
 90
        0
176
     0
 90
        0
176
     0
290
     0
176
     0
 90
        1
176
     0
 40
0.0
176
     0
 90
        0
176
     0
290
     0
176
     0
290
     1
176
     0
290
     1
176
     0
290
     0
176
     0
290
     0
176
     0
290
     0
176
     0
290
     0
176
     0
290
     0
176
     0
290
     0
176
     0
 90
       50
176
     0
 40
0.0
176
     0
 40
1.0
176
     0
 90
        0
176
     0
 62
    18
420
        0
176
     0
 90
       50
176
     0
 90
        3
176
     0
 62
     5
420
      255
176
     0
290
     0
176
     0
 90
       50
176
     0
 90
       50
176
     0
 90
       50
176
     0
290
     0
176
     0
 90
       50
176
     0
 62
   256
176
     0
 40
1.0
176
     0
 90
        2
176
     0
  1
strokes_ogs.tif
176
     0
290
     0
176
     0
 40
1.0
176
     0
 40
1.0
176
     0
  0
VISUALSTYLE
  5
39
102
{ACAD_REACTORS
330
2A
102
}
330
2A
100
AcDbVisualStyle
  2
Facepattern
 70
    15
177
     3
291
     1
 70
    58
 90
        2
176
     1
 90
        2
176
     1
 90
        0
176
     1
 90
        0
176
     1
 40
0.6
176
     1
 40
30.0
176
     1
 62
     7
420
 16777215
176
     1
 90
        1
176
     1
 90
        4
176
     1
 62
     7
176
     1
 62
   257
176
     1
 90
        1
176
     1
 90
        1
176
     1
 40
1.0
176
     1
 90
        8
176
     1
 62
     7
176
     1
 40
1.0
176
     1
 90
        1
176
     1
 90
        6
176
     1
 90
        2
176
     1
 62
     7
176
     1
 90
        5
176
     1
 90
        0
176
     1
 90
        0
176
     1
290
     0
176
     1
 90
        1
176
     1
 40
0.0
176
     1
 90
        0
176
     1
290
     0
176
     1
290
     1
176
     1
290
     1
176
     1
290
     0
176
     1
290
     0
176
     1
290
     0
176
     1
290
     0
176
     1
290
     0
176
     1
290
     0
176
     1
 90
       50
176
     1
 40
0.0
176
     1
 40
1.0
176
     1
 90
        0
176
     1
 62
    18
420
        0
176
     1
 90
       50
176
     1
 90
        3
176
     1
 62
     5
420
      255
176
     1
290
     0
176
     1
 90
       50
176
     1
 90
       50
176
     1
 90
       50
176
     1
290
     0
176
     1
 90
       50
176
     1
 62
   256
176
     0
 40
1.0
176
     0
 90
        2
176
     1
  1
strokes_ogs.tif
176
     1
290
     0
176
     1
 40
1.0
176
     1
 40
1.0
176
     1
  0
VISUALSTYLE
  5
2B
102
{ACAD_REACTORS
330
2A
102
}
330
2A
100
AcDbVisualStyle
  2
Flat
 70
     0
177
     3
291
     1
 70
    58
 90
        2
176
     1
 90
        1
176
     1
 90
        1
176
     1
 90
        2
176
     1
 40
0.6
176
     1
 40
30.0
176
     1
 62
     7
420
 16777215
176
     1
 90
        0
176
     1
 90
        0
176
     1
 62
     7
176
     1
 62
   257
176
     1
 90
        1
176
     1
 90
        1
176
     1
 40
1.0
176
     1
 90
        8
176
     1
 62
     7
176
     1
 40
1.0
176
     1
 90
        1
176
     1
 90
        6
176
     1
 90
        2
176
     1
 62
     7
176
     1
 90
        5
176
     1
 90
        0
176
     1
 90
        0
176
     1
290
     0
176
     1
 90
       13
176
     1
 40
0.0
176
     1
 90
        0
176
     1
290
     0
176
     1
290
     1
176
     1
290
     1
176
     1
290
     0
176
     1
290
     0
176
     1
290
     0
176
     1
290
     0
176
     1
290
     0
176
     1
290
     0
176
     1
 90
       50
176
     1
 40
0.0
176
     1
 40
1.0
176
     1
 90
        0
176
     1
 62
    18
420
        0
176
     1
 90
       50
176
     1
 90
        3
176
     1
 62
     5
420
      255
176
     1
290
     0
176
     1
 90
       50
176
     1
 90
       50
176
     1
 90
       50
176
     1
290
     0
176
     1
 90
       50
176
     1
 62
   256
176
     0
 40
1.0
176
     0
 90
        2
176
     1
  1
strokes_ogs.tif
176
     1
290
     0
176
     1
 40
1.0
176
     1
 40
1.0
176
     1
  0
VISUALSTYLE
  5
2C
102
{ACAD_REACTORS
330
2A
102
}
330
2A
100
AcDbVisualStyle
  2
FlatWithEdges
 70
     1
177
     3
291
     1
 70
    58
 90
        2
176
     1
 90
        1
176
     1
 90
        1
176
     1
 90
        2
176
     1
 40
0.6
176
     1
 40
30.0
176
     1
 62
     7
420
 16777215
176
     1
 90
        1
176
     1
 90
        0
176
     1
 62
     7
176
     1
 62
   257
176
     1
 90
        1
176
     1
 90
        1
176
     1
 40
1.0
176
     1
 90
        0
176
     1
 62
   257
176
     1
 40
1.0
176
     1
 90
        1
176
     1
 90
        6
176
     1
 90
        2
176
     1
 62
     7
176
     1
 90
        5
176
     1
 90
        0
176
     1
 90
        0
176
     1
290
     0
176
     1
 90
       13
176
     1
 40
0.0
176
     1
 90
        0
176
     1
290
     0
176
     1
290
     1
176
     1
290
     1
176
     1
290
     0
176
     1
290
     0
176
     1
290
     0
176
     1
290
     0
176
     1
290
     0
176
     1
290
     0
176
     1
 90
       50
176
     1
 40
0.0
176
     1
 40
1.0
176
     1
 90
        0
176
     1
 62
    18
420
        0
176
     1
 90
       50
176
     1
 90
        3
176
     1
 62
     5
420
      255
176
     1
290
     0
176
     1
 90
       50
176
     1
 90
       50
176
     1
 90
       50
176
     1
290
     0
176
     1
 90
       50
176
     1
 62
   256
176
     0
 40
1.0
176
     0
 90
        2
176
     1
  1
strokes_ogs.tif
176
     1
290
     0
176
     1
 40
1.0
176
     1
 40
1.0
176
     1
  0
VISUALSTYLE
  5
2D
102
{ACAD_REACTORS
330
2A
102
}
330
2A
100
AcDbVisualStyle
  2
Gouraud
 70
     2
177
     3
291
     1
 70
    58
 90
        2
176
     1
 90
        2
176
     1
 90
        1
176
     1
 90
        2
176
     1
 40
0.6
176
     1
 40
30.0
176
     1
 62
     7
420
 16777215
176
     1
 90
        0
176
     1
 90
        0
176
     1
 62
     7
176
     1
 62
   257
176
     1
 90
        1
176
     1
 90
        1
176
     1
 40
1.0
176
     1
 90
        0
176
     1
 62
     7
176
     1
 40
1.0
176
     1
 90
        1
176
     1
 90
        6
176
     1
 90
        2
176
     1
 62
     7
176
     1
 90
        5
176
     1
 90
        0
176
     1
 90
        0
176
     1
290
     0
176
     1
 90
       13
176
     1
 40
0.0
176
     1
 90
        0
176
     1
290
     0
176
     1
290
     1
176
     1
290
     1
176
     1
290
     0
176
     1
290
     0
176
     1
290
     0
176
     1
290
     0
176
     1
290
     0
176
     1
290
     0
176
     1
 90
       50
176
     1
 40
0.0
176
     1
 40
1.0
176
     1
 90
        0
176
     1
 62
    18
420
        0
176
     1
 90
       50
176
     1
 90
        3
176
     1
 62
     5
420
      255
176
     1
290
     0
176
     1
 90
       50
176
     1
 90
       50
176
     1
 90
       50
176
     1
290
     0
176
     1
 90
       50
176
     1
 62
   256
176
     0
 40
1.0
176
     0
 90
        2
176
     1
  1
strokes_ogs.tif
176
     1
290
     0
176
     1
 40
1.0
176
     1
 40
1.0
176
     1
  0
VISUALSTYLE
  5
2E
102
{ACAD_REACTORS
330
2A
102
}
330
2A
100
AcDbVisualStyle
  2
GouraudWithEdges
 70
     3
177
     3
291
     1
 70
    58
 90
        2
176
     1
 90
        2
176
     1
 90
        1
176
     1
 90
        2
176
     1
 40
0.6
176
     1
 40
30.0
176
     1
 62
     7
420
 16777215
176
     1
 90
        1
176
     1
 90
        0
176
     1
 62
     7
176
     1
 62
   257
176
     1
 90
        1
176
     1
 90
        1
176
     1
 40
1.0
176
     1
 90
        0
176
     1
 62
   257
176
     1
 40
1.0
176
     1
 90
        1
176
     1
 90
        6
176
     1
 90
        2
176
     1
 62
     7
176
     1
 90
        5
176
     1
 90
        0
176
     1
 90
        0
176
     1
290
     0
176
     1
 90
       13
176
     1
 40
0.0
176
     1
 90
        0
176
     1
290
     0
176
     1
290
     1
176
     1
290
     1
176
     1
290
     0
176
     1
290
     0
176
     1
290
     0
176
     1
290
     0
176
     1
290
     0
176
     1
290
     0
176
     1
 90
       50
176
     1
 40
0.0
176
     1
 40
1.0
176
     1
 90
        0
176
     1
 62
    18
420
        0
176
     1
 90
       50
176
     1
 90
        3
176
     1
 62
     5
420
      255
176
     1
290
     0
176
     1
 90
       50
176
     1
 90
       50
176
     1
 90
       50
176
     1
290
     0
176
     1
 90
       50
176
     1
 62
   256
176
     0
 40
1.0
176
     0
 90
        2
176
     1
  1
strokes_ogs.tif
176
     1
290
     0
176
     1
 40
1.0
176
     1
 40
1.0
176
     1
  0
VISUALSTYLE
  5
31
102
{ACAD_REACTORS
330
2A
102
}
330
2A
100
AcDbVisualStyle
  2
Hidden
 70
     6
177
     3
291
     0
 70
    58
 90
        1
176
     1
 90
        2
176
     1
 90
        2
176
     1
 90
        0
176
     1
 40
0.6
176
     1
 40
30.0
176
     1
 62
     7
420
 16777215
176
     1
 90
        2
176
     1
 90
        2
176
     1
 62
     7
176
     1
 62
   257
176
     1
 90
        2
176
     1
 90
        1
176
     1
 40
40.0
176
     1
 90
        0
176
     1
 62
   257
176
     1
 40
1.0
176
     1
 90
        1
176
     1
 90
        6
176
     1
 90
        2
176
     1
 62
     7
176
     1
 90
        3
176
     1
 90
        0
176
     1
 90
        0
176
     1
290
     0
176
     1
 90
        1
176
     1
 40
0.0
176
     1
 90
        0
176
     1
290
     0
176
     1
290
     1
176
     1
290
     1
176
     1
290
     0
176
     1
290
     0
176
     1
290
     0
176
     1
290
     0
176
     1
290
     0
176
     1
290
     0
176
     1
 90
       50
176
     1
 40
0.0
176
     1
 40
1.0
176
     1
 90
        0
176
     1
 62
    18
420
        0
176
     1
 90
       50
176
     1
 90
        3
176
     1
 62
     5
420
      255
176
     1
290
     0
176
     1
 90
       50
176
     1
 90
       50
176
     1
 90
       50
176
     1
290
     0
176
     1
 90
       50
176
     1
 62
   256
176
     0
 40
1.0
176
     0
 90
        2
176
     1
  1
strokes_ogs.tif
176
     1
290
     0
176
     1
 40
1.0
176
     1
 40
1.0
176
     1
  0
VISUALSTYLE
  5
3B
102
{ACAD_REACTORS
330
2A
102
}
330
2A
100
AcDbVisualStyle
  2
JitterOff
 70
    20
177
     3
291
     1
 70
    58
 90
        2
176
     0
 90
        2
176
     0
 90
        0
176
     0
 90
        0
176
     0
 40
0.6
176
     0
 40
30.0
176
     0
 62
     7
420
 16777215
176
     0
 90
        1
176
     0
 90
        4
176
     0
 62
     7
176
     0
 62
   257
176
     0
 90
        1
176
     0
 90
        1
176
     0
 40
1.0
176
     0
 90
       10
176
     2
 62
     7
176
     0
 40
1.0
176
     0
 90
        1
176
     0
 90
        6
176
     0
 90
        2
176
     0
 62
     7
176
     0
 90
        5
176
     0
 90
        0
176
     0
 90
        0
176
     0
290
     0
176
     0
 90
        1
176
     0
 40
0.0
176
     0
 90
        0
176
     0
290
     0
176
     0
290
     1
176
     0
290
     1
176
     0
290
     0
176
     0
290
     0
176
     0
290
     0
176
     0
290
     0
176
     0
290
     0
176
     0
290
     0
176
     0
 90
       50
176
     0
 40
0.0
176
     0
 40
1.0
176
     0
 90
        0
176
     0
 62
    18
420
        0
176
     0
 90
       50
176
     0
 90
        3
176
     0
 62
     5
420
      255
176
     0
290
     0
176
     0
 90
       50
176
     0
 90
       50
176
     0
 90
       50
176
     0
290
     0
176
     0
 90
       50
176
     0
 62
   256
176
     0
 40
1.0
176
     0
 90
        2
176
     0
  1
strokes_ogs.tif
176
     0
290
     0
176
     0
 40
1.0
176
     0
 40
1.0
176
     0
  0
VISUALSTYLE
  5
38
102
{ACAD_REACTORS
330
2A
102
}
330
2A
100
AcDbVisualStyle
  2
Linepattern
 70
    14
177
     3
291
     1
 70
    58
 90
        2
176
     1
 90
        2
176
     1
 90
        0
176
     1
 90
        0
176
     1
 40
0.6
176
     1
 40
30.0
176
     1
 62
     7
420
 16777215
176
     1
 90
        1
176
     1
 90
        4
176
     1
 62
     7
176
     1
 62
   257
176
     1
 90
        7
176
     1
 90
        7
176
     1
 40
1.0
176
     1
 90
        8
176
     1
 62
     7
176
     1
 40
1.0
176
     1
 90
        1
176
     1
 90
        6
176
     1
 90
        2
176
     1
 62
     7
176
     1
 90
        5
176
     1
 90
        0
176
     1
 90
        0
176
     1
290
     0
176
     1
 90
        1
176
     1
 40
0.0
176
     1
 90
        0
176
     1
290
     0
176
     1
290
     1
176
     1
290
     1
176
     1
290
     0
176
     1
290
     0
176
     1
290
     0
176
     1
290
     0
176
     1
290
     0
176
     1
290
     0
176
     1
 90
       50
176
     1
 40
0.0
176
     1
 40
1.0
176
     1
 90
        0
176
     1
 62
    18
420
        0
176
     1
 90
       50
176
     1
 90
        3
176
     1
 62
     5
420
      255
176
     1
290
     0
176
     1
 90
       50
176
     1
 90
       50
176
     1
 90
       50
176
     1
290
     0
176
     1
 90
       50
176
     1
 62
   256
176
     0
 40
1.0
176
     0
 90
        2
176
     1
  1
strokes_ogs.tif
176
     1
290
     0
176
     1
 40
1.0
176
     1
 40
1.0
176
     1
  0
VISUALSTYLE
  5
3C
102
{ACAD_REACTORS
330
2A
102
}
330
2A
100
AcDbVisualStyle
  2
OverhangOff
 70
    21
177
     3
291
     1
 70
    58
 90
        2
176
     0
 90
        2
176
     0
 90
        0
176
     0
 90
        0
176
     0
 40
0.6
176
     0
 40
30.0
176
     0
 62
     7
420
 16777215
176
     0
 90
        1
176
     0
 90
        4
176
     0
 62
     7
176
     0
 62
   257
176
     0
 90
        1
176
     0
 90
        1
176
     0
 40
1.0
176
     0
 90
        9
176
     2
 62
     7
176
     0
 40
1.0
176
     0
 90
        1
176
     0
 90
        6
176
     0
 90
        2
176
     0
 62
     7
176
     0
 90
        5
176
     0
 90
        0
176
     0
 90
        0
176
     0
290
     0
176
     0
 90
        1
176
     0
 40
0.0
176
     0
 90
        0
176
     0
290
     0
176
     0
290
     1
176
     0
290
     1
176
     0
290
     0
176
     0
290
     0
176
     0
290
     0
176
     0
290
     0
176
     0
290
     0
176
     0
290
     0
176
     0
 90
       50
176
     0
 40
0.0
176
     0
 40
1.0
176
     0
 90
        0
176
     0
 62
    18
420
        0
176
     0
 90
       50
176
     0
 90
        3
176
     0
 62
     5
420
      255
176
     0
290
     0
176
     0
 90
       50
176
     0
 90
       50
176
     0
 90
       50
176
     0
290
     0
176
     0
 90
       50
176
     0
 62
   256
176
     0
 40
1.0
176
     0
 90
        2
176
     0
  1
strokes_ogs.tif
176
     0
290
     0
176
     0
 40
1.0
176
     0
 40
1.0
176
     0
  0
VISUALSTYLE
  5
33
102
{ACAD_REACTORS
330
2A
102
}
330
2A
100
AcDbVisualStyle
  2
Realistic
 70
     8
177
     3
291
     0
 70
    58
 90
        2
176
     1
 90
        3
176
     1
 90
        0
176
     1
 90
        2
176
     1
 40
0.6
176
     1
 40
30.0
176
     1
 62
     7
420
 16777215
176
     1
 90
        0
176
     1
 90
        0
176
     1
 62
     7
176
     1
 62
   257
176
     1
 90
        1
176
     1
 90
        1
176
     1
 40
1.0
176
     1
 90
        8
176
     1
 62
   257
176
     1
 40
1.0
176
     1
 90
        1
176
     1
 90
        6
176
     1
 90
        2
176
     1
 62
     7
176
     1
 90
        3
176
     1
 90
        0
176
     1
 90
        0
176
     1
290
     0
176
     1
 90
       13
176
     1
 40
0.0
176
     1
 90
        0
176
     1
290
     0
176
     1
290
     1
176
     1
290
     1
176
     1
290
     0
176
     1
290
     0
176
     1
290
     0
176
     1
290
     0
176
     1
290
     0
176
     1
290
     0
176
     1
 90
       50
176
     1
 40
0.0
176
     1
 40
1.0
176
     1
 90
        0
176
     1
 62
    18
420
        0
176
     1
 90
       50
176
     1
 90
        3
176
     1
 62
     5
420
      255
176
     1
290
     0
176
     1
 90
       50
176
     1
 90
       50
176
     1
 90
       50
176
     1
290
     0
176
     1
 90
       50
176
     1
 62
   256
176
     0
 40
1.0
176
     0
 90
        2
176
     1
  1
strokes_ogs.tif
176
     1
290
     0
176
     1
 40
1.0
176
     1
 40
1.0
176
     1
  0
VISUALSTYLE
  5
42
102
{ACAD_REACTORS
330
2A
102
}
330
2A
100
AcDbVisualStyle
  2
Shaded
 70
    27
177
     3
291
     0
 70
    58
 90
        2
176
     1
 90
        2
176
     1
 90
        1
176
     1
 90
        2
176
     1
 40
0.6
176
     1
 40
30.0
176
     1
 62
     7
420
 16777215
176
     1
 90
        0
176
     1
 90
        4
176
     1
 62
     7
176
     1
 62
   257
176
     1
 90
        1
176
     1
 90
        1
176
     1
 40
1.0
176
     1
 90
        8
176
     1
 62
   257
176
     1
 40
1.0
176
     1
 90
        1
176
     1
 90
        6
176
     1
 90
        2
176
     1
 62
     8
420
  7895160
176
     1
 90
        3
176
     1
 90
        0
176
     1
 90
        0
176
     1
290
     0
176
     1
 90
        5
176
     1
 40
0.0
176
     1
 90
        0
176
     1
290
     0
176
     1
290
     1
176
     1
290
     1
176
     1
290
     0
176
     1
290
     0
176
     1
290
     0
176
     1
290
     0
176
     1
290
     0
176
     1
290
     0
176
     1
 90
       50
176
     1
 40
0.0
176
     1
 40
1.0
176
     1
 90
        0
176
     1
 62
    18
420
        0
176
     1
 90
       50
176
     1
 90
        3
176
     1
 62
     5
420
      255
176
     1
290
     0
176
     1
 90
       50
176
     1
 90
       50
176
     1
 90
       50
176
     1
290
     0
176
     1
 90
       50
176
     1
 62
   256
176
     0
 40
1.0
176
     0
 90
        2
176
     1
  1
strokes_ogs.tif
176
     1
290
     0
176
     1
 40
1.0
176
     1
 40
1.0
176
     1
  0
VISUALSTYLE
  5
41
102
{ACAD_REACTORS
330
2A
102
}
330
2A
100
AcDbVisualStyle
  2
Shaded with edges
 70
    26
177
     3
291
     0
 70
    58
 90
        2
176
     1
 90
        2
176
     1
 90
        1
176
     1
 90
        2
176
     1
 40
0.6
176
     1
 40
30.0
176
     1
 62
     7
420
 16777215
176
     1
 90
        1
176
     1
 90
       10
176
     1
 62
     7
176
     1
 62
   257
176
     1
 90
        2
176
     1
 90
        1
176
     1
 40
1.0
176
     1
 90
        8
176
     1
 62
   257
176
     1
 40
1.0
176
     1
 90
        1
176
     1
 90
        6
176
     1
 90
        2
176
     1
 62
     7
176
     1
 90
        3
176
     1
 90
        0
176
     1
 90
        0
176
     1
290
     0
176
     1
 90
        5
176
     1
 40
0.0
176
     1
 90
        0
176
     1
290
     0
176
     1
290
     1
176
     1
290
     1
176
     1
290
     0
176
     1
290
     0
176
     1
290
     0
176
     1
290
     0
176
     1
290
     0
176
     1
290
     0
176
     1
 90
       50
176
     1
 40
0.0
176
     1
 40
1.0
176
     1
 90
        0
176
     1
 62
    18
420
        0
176
     1
 90
       50
176
     1
 90
        3
176
     1
 62
     5
420
      255
176
     1
290
     0
176
     1
 90
       50
176
     1
 90
       50
176
     1
 90
       50
176
     1
290
     0
176
     1
 90
       50
176
     1
 62
   256
176
     0
 40
1.0
176
     0
 90
        2
176
     1
  1
strokes_ogs.tif
176
     1
290
     0
176
     1
 40
1.0
176
     1
 40
1.0
176
     1
  0
VISUALSTYLE
  5
3E
102
{ACAD_REACTORS
330
2A
102
}
330
2A
100
AcDbVisualStyle
  2
Shades of Gray
 70
    23
177
     3
291
     0
 70
    58
 90
        2
176
     1
 90
        2
176
     1
 90
        3
176
     1
 90
        0
176
     1
 40
0.6
176
     1
 40
30.0
176
     1
 62
     7
420
 16777215
176
     1
 90
        2
176
     1
 90
        2
176
     1
 62
     7
176
     1
 62
     7
176
     1
 90
        1
176
     1
 90
        1
176
     1
 40
40.0
176
     1
 90
        8
176
     1
 62
     7
176
     1
 40
1.0
176
     1
 90
        1
176
     1
 90
        6
176
     1
 90
        2
176
     1
 62
     7
176
     1
 90
        3
176
     1
 90
        0
176
     1
 90
        0
176
     1
290
     0
176
     1
 90
        1
176
     1
 40
0.0
176
     1
 90
        0
176
     1
290
     0
176
     1
290
     1
176
     1
290
     1
176
     1
290
     0
176
     1
290
     0
176
     1
290
     0
176
     1
290
     0
176
     1
290
     0
176
     1
290
     0
176
     1
 90
       50
176
     1
 40
0.0
176
     1
 40
1.0
176
     1
 90
        0
176
     1
 62
    18
420
        0
176
     1
 90
       50
176
     1
 90
        3
176
     1
 62
     5
420
      255
176
     1
290
     0
176
     1
 90
       50
176
     1
 90
       50
176
     1
 90
       50
176
     1
290
     0
176
     1
 90
       50
176
     1
 62
   256
176
     0
 40
1.0
176
     0
 90
        2
176
     1
  1
strokes_ogs.tif
176
     1
290
     0
176
     1
 40
1.0
176
     1
 40
1.0
176
     1
  0
VISUALSTYLE
  5
3F
102
{ACAD_REACTORS
330
2A
102
}
330
2A
100
AcDbVisualStyle
  2
Sketchy
 70
    24
177
     3
291
     0
 70
    58
 90
        1
176
     1
 90
        2
176
     1
 90
        2
176
     1
 90
        0
176
     1
 40
0.6
176
     1
 40
30.0
176
     1
 62
     7
420
 16777215
176
     1
 90
        2
176
     1
 90
        2
176
     1
 62
     7
176
     1
 62
     7
176
     1
 90
        1
176
     1
 90
        1
176
     1
 40
40.0
176
     1
 90
       11
176
     1
 62
     7
176
     1
 40
1.0
176
     1
 90
        1
176
     1
 90
        6
176
     1
 90
        2
176
     1
 62
     7
176
     1
 90
        6
176
     1
 90
        0
176
     1
 90
        0
176
     1
290
     0
176
     1
 90
        1
176
     1
 40
0.0
176
     1
 90
        0
176
     1
290
     0
176
     1
290
     1
176
     1
290
     1
176
     1
290
     0
176
     1
290
     0
176
     1
290
     0
176
     1
290
     0
176
     1
290
     0
176
     1
290
     0
176
     1
 90
       50
176
     1
 40
0.0
176
     1
 40
1.0
176
     1
 90
        0
176
     1
 62
    18
420
        0
176
     1
 90
       50
176
     1
 90
        3
176
     1
 62
     5
420
      255
176
     1
290
     0
176
     1
 90
       50
176
     1
 90
       50
176
     1
 90
       50
176
     1
290
     0
176
     1
 90
       50
176
     1
 62
   256
176
     0
 40
1.0
176
     0
 90
        2
176
     1
  1
strokes_ogs.tif
176
     1
290
     0
176
     1
 40
1.0
176
     1
 40
1.0
176
     1
  0
VISUALSTYLE
  5
37
102
{ACAD_REACTORS
330
2A
102
}
330
2A
100
AcDbVisualStyle
  2
Thicken
 70
    13
177
     3
291
     1
 70
    58
 90
        2
176
     1
 90
        2
176
     1
 90
        0
176
     1
 90
        0
176
     1
 40
0.6
176
     1
 40
30.0
176
     1
 62
     7
420
 16777215
176
     1
 90
        1
176
     1
 90
        4
176
     1
 62
     7
176
     1
 62
   257
176
     1
 90
        1
176
     1
 90
        1
176
     1
 40
1.0
176
     1
 90
       12
176
     1
 62
     7
176
     1
 40
1.0
176
     1
 90
        1
176
     1
 90
        6
176
     1
 90
        2
176
     1
 62
     7
176
     1
 90
        5
176
     1
 90
        0
176
     1
 90
        0
176
     1
290
     0
176
     1
 90
        1
176
     1
 40
0.0
176
     1
 90
        0
176
     1
290
     0
176
     1
290
     1
176
     1
290
     1
176
     1
290
     0
176
     1
290
     0
176
     1
290
     0
176
     1
290
     0
176
     1
290
     0
176
     1
290
     0
176
     1
 90
       50
176
     1
 40
0.0
176
     1
 40
1.0
176
     1
 90
        0
176
     1
 62
    18
420
        0
176
     1
 90
       50
176
     1
 90
        3
176
     1
 62
     5
420
      255
176
     1
290
     0
176
     1
 90
       50
176
     1
 90
       50
176
     1
 90
       50
176
     1
290
     0
176
     1
 90
       50
176
     1
 62
   256
176
     0
 40
1.0
176
     0
 90
        2
176
     1
  1
strokes_ogs.tif
176
     1
290
     0
176
     1
 40
1.0
176
     1
 40
1.0
176
     1
  0
VISUALSTYLE
  5
30
102
{ACAD_REACTORS
330
2A
102
}
330
2A
100
AcDbVisualStyle
  2
Wireframe
 70
     5
177
     3
291
     0
 70
    58
 90
        0
176
     1
 90
        2
176
     1
 90
        0
176
     1
 90
        0
176
     1
 40
0.6
176
     1
 40
30.0
176
     1
 62
     7
420
 16777215
176
     1
 90
        1
176
     1
 90
        4
176
     1
 62
     7
176
     1
 62
   257
176
     1
 90
        1
176
     1
 90
        1
176
     1
 40
1.0
176
     1
 90
        0
176
     1
 62
   257
176
     1
 40
1.0
176
     1
 90
        1
176
     1
 90
        6
176
     1
 90
        2
176
     1
 62
     7
176
     1
 90
        3
176
     1
 90
        0
176
     1
 90
        0
176
     1
290
     0
176
     1
 90
        1
176
     1
 40
0.0
176
     1
 90
        0
176
     1
290
     0
176
     1
290
     1
176
     1
290
     1
176
     1
290
     0
176
     1
290
     0
176
     1
290
     0
176
     1
290
     0
176
     1
290
     0
176
     1
290
     0
176
     1
 90
       50
176
     1
 40
0.0
176
     1
 40
1.0
176
     1
 90
        0
176
     1
 62
    18
420
        0
176
     1
 90
       50
176
     1
 90
        3
176
     1
 62
     5
420
      255
176
     1
290
     0
176
     1
 90
       50
176
     1
 90
       50
176
     1
 90
       50
176
     1
290
     0
176
     1
 90
       50
176
     1
 62
   256
176
     0
 40
1.0
176
     0
 90
        2
176
     1
  1
strokes_ogs.tif
176
     1
290
     0
176
     1
 40
1.0
176
     1
 40
1.0
176
     1
  0
VISUALSTYLE
  5
40
102
{ACAD_REACTORS
330
2A
102
}
330
2A
100
AcDbVisualStyle
  2
X-Ray
 70
    25
177
     3
291
     0
 70
    58
 90
        2
176
     1
 90
        2
176
     1
 90
        1
176
     1
 90
        1
176
     1
 40
0.5
176
     1
 40
30.0
176
     1
 62
     7
420
 16777215
176
     1
 90
        1
176
     1
 90
        0
176
     1
 62
     7
176
     1
 62
   257
176
     1
 90
        1
176
     1
 90
        1
176
     1
 40
1.0
176
     1
 90
        8
176
     1
 62
     7
176
     1
 40
1.0
176
     1
 90
        1
176
     1
 90
        6
176
     1
 90
        2
176
     1
 62
     7
176
     1
 90
        3
176
     1
 90
        0
176
     1
 90
        0
176
     1
290
     0
176
     1
 90
       13
176
     1
 40
0.0
176
     1
 90
        0
176
     1
290
     0
176
     1
290
     1
176
     1
290
     1
176
     1
290
     0
176
     1
290
     0
176
     1
290
     0
176
     1
290
     0
176
     1
290
     0
176
     1
290
     0
176
     1
 90
       50
176
     1
 40
0.0
176
     1
 40
1.0
176
     1
 90
        0
176
     1
 62
    18
420
        0
176
     1
 90
       50
176
     1
 90
        3
176
     1
 62
     5
420
      255
176
     1
290
     0
176
     1
 90
       50
176
     1
 90
       50
176
     1
 90
       50
176
     1
290
     0
176
     1
 90
       50
176
     1
 62
   256
176
     0
 40
1.0
176
     0
 90
        2
176
     1
  1
strokes_ogs.tif
176
     1
290
     0
176
     1
 40
1.0
176
     1
 40
1.0
176
     1
  0
DICTIONARYVAR
  5
27F
102
{ACAD_REACTORS
330
27E
102
}
330
27E
100
DictionaryVariables
280
     0
  1
1:1
  0
DICTIONARYVAR
  5
284
102
{ACAD_REACTORS
330
27E
102
}
330
27E
100
DictionaryVariables
280
     0
  1
Standard
  0
DICTIONARYVAR
  5
283
102
{ACAD_REACTORS
330
27E
102
}
330
27E
100
DictionaryVariables
280
     0
  1
Standard
  0
DICTIONARY
  5
280
330
6A
100
AcDbDictionary
280
     1
281
     1
  3
ACAD_ROUNDTRIP_2008_TABLESTYLE_CELLSTYLEMAP
360
281
  0
CELLSTYLEMAP
  5
281
102
{ACAD_REACTORS
330
280
102
}
330
280
100
AcDbCellStyleMap
 90
        3
300
CELLSTYLE
  1
TABLEFORMAT_BEGIN
 90
        5
170
     1
 91
        0
 92
    32768
 62
   257
 93
        1
300
CONTENTFORMAT
  1
CONTENTFORMAT_BEGIN
 90
        0
 91
        0
 92
        4
 93
        0
300

 40
0.0
140
1.0
 94
        5
 62
     0
340
11
144
0.25
309
CONTENTFORMAT_END
171
     1
301
MARGIN
  1
CELLMARGIN_BEGIN
 40
0.06
 40
0.06
 40
0.06
 40
0.06
 40
0.06
 40
0.06
309
CELLMARGIN_END
 94
        6
 95
        1
302
GRIDFORMAT
  1
GRIDFORMAT_BEGIN
 90
        0
 91
        1
 62
     0
 92
       -2
340
14
 93
        0
 40
0.045
309
GRIDFORMAT_END
 95
        2
302
GRIDFORMAT
  1
GRIDFORMAT_BEGIN
 90
        0
 91
        1
 62
     0
 92
       -2
340
14
 93
        0
 40
0.045
309
GRIDFORMAT_END
 95
        4
302
GRIDFORMAT
  1
GRIDFORMAT_BEGIN
 90
        0
 91
        1
 62
     0
 92
       -2
340
14
 93
        0
 40
0.045
309
GRIDFORMAT_END
 95
        8
302
GRIDFORMAT
  1
GRIDFORMAT_BEGIN
 90
        0
 91
        1
 62
     0
 92
       -2
340
14
 93
        0
 40
0.045
309
GRIDFORMAT_END
 95
       16
302
GRIDFORMAT
  1
GRIDFORMAT_BEGIN
 90
        0
 91
        1
 62
     0
 92
       -2
340
14
 93
        0
 40
0.045
309
GRIDFORMAT_END
 95
       32
302
GRIDFORMAT
  1
GRIDFORMAT_BEGIN
 90
        0
 91
        1
 62
     0
 92
       -2
340
14
 93
        0
 40
0.045
309
GRIDFORMAT_END
309
TABLEFORMAT_END
  1
CELLSTYLE_BEGIN
 90
        1
 91
        1
300
_TITLE
309
CELLSTYLE_END
300
CELLSTYLE
  1
TABLEFORMAT_BEGIN
 90
        5
170
     1
 91
        0
 92
        0
 62
   257
 93
        1
300
CONTENTFORMAT
  1
CONTENTFORMAT_BEGIN
 90
        0
 91
        0
 92
        4
 93
        0
300

 40
0.0
140
1.0
 94
        5
 62
     0
340
11
144
0.18
309
CONTENTFORMAT_END
171
     1
301
MARGIN
  1
CELLMARGIN_BEGIN
 40
0.06
 40
0.06
 40
0.06
 40
0.06
 40
0.06
 40
0.06
309
CELLMARGIN_END
 94
        6
 95
        1
302
GRIDFORMAT
  1
GRIDFORMAT_BEGIN
 90
        0
 91
        1
 62
     0
 92
       -2
340
14
 93
        0
 40
0.045
309
GRIDFORMAT_END
 95
        2
302
GRIDFORMAT
  1
GRIDFORMAT_BEGIN
 90
        0
 91
        1
 62
     0
 92
       -2
340
14
 93
        0
 40
0.045
309
GRIDFORMAT_END
 95
        4
302
GRIDFORMAT
  1
GRIDFORMAT_BEGIN
 90
        0
 91
        1
 62
     0
 92
       -2
340
14
 93
        0
 40
0.045
309
GRIDFORMAT_END
 95
        8
302
GRIDFORMAT
  1
GRIDFORMAT_BEGIN
 90
        0
 91
        1
 62
     0
 92
       -2
340
14
 93
        0
 40
0.045
309
GRIDFORMAT_END
 95
       16
302
GRIDFORMAT
  1
GRIDFORMAT_BEGIN
 90
        0
 91
        1
 62
     0
 92
       -2
340
14
 93
        0
 40
0.045
309
GRIDFORMAT_END
 95
       32
302
GRIDFORMAT
  1
GRIDFORMAT_BEGIN
 90
        0
 91
        1
 62
     0
 92
       -2
340
14
 93
        0
 40
0.045
309
GRIDFORMAT_END
309
TABLEFORMAT_END
  1
CELLSTYLE_BEGIN
 90
        2
 91
        1
300
_HEADER
309
CELLSTYLE_END
300
CELLSTYLE
  1
TABLEFORMAT_BEGIN
 90
        5
170
     1
 91
        0
 92
        0
 62
   257
 93
        1
300
CONTENTFORMAT
  1
CONTENTFORMAT_BEGIN
 90
        0
 91
        0
 92
        4
 93
        0
300

 40
0.0
140
1.0
 94
        2
 62
     0
340
11
144
0.18
309
CONTENTFORMAT_END
171
     1
301
MARGIN
  1
CELLMARGIN_BEGIN
 40
0.06
 40
0.06
 40
0.06
 40
0.06
 40
0.06
 40
0.06
309
CELLMARGIN_END
 94
        6
 95
        1
302
GRIDFORMAT
  1
GRIDFORMAT_BEGIN
 90
        0
 91
        1
 62
     0
 92
       -2
340
14
 93
        0
 40
0.045
309
GRIDFORMAT_END
 95
        2
302
GRIDFORMAT
  1
GRIDFORMAT_BEGIN
 90
        0
 91
        1
 62
     0
 92
       -2
340
14
 93
        0
 40
0.045
309
GRIDFORMAT_END
 95
        4
302
GRIDFORMAT
  1
GRIDFORMAT_BEGIN
 90
        0
 91
        1
 62
     0
 92
       -2
340
14
 93
        0
 40
0.045
309
GRIDFORMAT_END
 95
        8
302
GRIDFORMAT
  1
GRIDFORMAT_BEGIN
 90
        0
 91
        1
 62
     0
 92
       -2
340
14
 93
        0
 40
0.045
309
GRIDFORMAT_END
 95
       16
302
GRIDFORMAT
  1
GRIDFORMAT_BEGIN
 90
        0
 91
        1
 62
     0
 92
       -2
340
14
 93
        0
 40
0.045
309
GRIDFORMAT_END
 95
       32
302
GRIDFORMAT
  1
GRIDFORMAT_BEGIN
 90
        0
 91
        1
 62
     0
 92
       -2
340
14
 93
        0
 40
0.045
309
GRIDFORMAT_END
309
TABLEFORMAT_END
  1
CELLSTYLE_BEGIN
 90
        3
 91
        2
300
_DATA
309
CELLSTYLE_END
  0
ENDSEC
  0
EOF