0
SECTION
  2
HEADER
  9
$ACADVER
  1
AC1027
  9
$ACADMAINTVER
 70
     8
  9
$DWGCODEPAGE
  3
ANSI_1252
  9
$REQUIREDVERSIONS
160
                 0
  9
$COMMENTS
  1
File was created by Cadenas
  9
$CUSTOMPROPERTYTAG
  1
NN
  9
$CUSTOMPROPERTY
  1
Steel Imperial-HD Flange 4 Bolt with Type E Dimensions Non-Expansion 207-408
  9
$CUSTOMPROPERTYTAG
  1
NT
  9
$CUSTOMPROPERTY
  1
Steel Imperial/E 4 Bolt Flange Bearing-Inch-207-408
  9
$CUSTOMPROPERTYTAG
  1
NB
  9
$CUSTOMPROPERTY
  1
072267
  9
$CUSTOMPROPERTYTAG
  1
NBSYN
  9
$CUSTOMPROPERTY
  1
$PN.
  9
$CUSTOMPROPERTYTAG
  1
LINA
  9
$CUSTOMPROPERTY
  1
072267
  9
$CUSTOMPROPERTYTAG
  1
SS
  9
$CUSTOMPROPERTY
  1
3
  9
$CUSTOMPROPERTYTAG
  1
DESCRIPTION
  9
$CUSTOMPROPERTY
  1
SEF4B-IP-300RE
  9
$CUSTOMPROPERTYTAG
  1
TYPE
  9
$CUSTOMPROPERTY
  1
Expansion
  9
$CUSTOMPROPERTYTAG
  1
PN
  9
$CUSTOMPROPERTY
  1
072267
  9
$CUSTOMPROPERTYTAG
  1
EF
  9
$CUSTOMPROPERTY
  1
Expansion
  9
$CUSTOMPROPERTYTAG
  1
ST
  9
$CUSTOMPROPERTY
  1
Contact Seal
  9
$CUSTOMPROPERTYTAG
  1
A
  9
$CUSTOMPROPERTY
  1
3.50
  9
$CUSTOMPROPERTYTAG
  1
B
  9
$CUSTOMPROPERTY
  1
7.43
  9
$CUSTOMPROPERTYTAG
  1
C
  9
$CUSTOMPROPERTY
  1
3.77
  9
$CUSTOMPROPERTYTAG
  1
D
  9
$CUSTOMPROPERTY
  1
6.00
  9
$CUSTOMPROPERTYTAG
  1
DD
  9
$CUSTOMPROPERTY
  1
8.49
  9
$CUSTOMPROPERTYTAG
  1
F
  9
$CUSTOMPROPERTY
  1
3/4
  9
$CUSTOMPROPERTYTAG
  1
G
  9
$CUSTOMPROPERTY
  1
0.94
  9
$CUSTOMPROPERTYTAG
  1
H
  9
$CUSTOMPROPERTY
  1
1.06
  9
$CUSTOMPROPERTYTAG
  1
J
  9
$CUSTOMPROPERTY
  1
6.66
  9
$CUSTOMPROPERTYTAG
  1
L
  9
$CUSTOMPROPERTY
  1
4.20
  9
$CUSTOMPROPERTYTAG
  1
N
  9
$CUSTOMPROPERTY
  1
3.75
  9
$CUSTOMPROPERTYTAG
  1
P
  9
$CUSTOMPROPERTY
  1
0.27
  9
$CUSTOMPROPERTYTAG
  1
X
  9
$CUSTOMPROPERTY
  1
0.25
  9
$CUSTOMPROPERTYTAG
  1
Y
  9
$CUSTOMPROPERTY
  1
0.025
  9
$CUSTOMPROPERTYTAG
  1
Z
  9
$CUSTOMPROPERTY
  1
3.47
  9
$CUSTOMPROPERTYTAG
  1
COMPANY
  9
$CUSTOMPROPERTY
  1
baldor
  9
$INSBASE
 10
0.0
 20
0.0
 30
0.0
  9
$EXTMIN
 10
1.000000000000000E+20
 20
1.000000000000000E+20
 30
1.000000000000000E+20
  9
$EXTMAX
 10
-1.000000000000000E+20
 20
-1.000000000000000E+20
 30
-1.000000000000000E+20
  9
$LIMMIN
 10
0.0
 20
0.0
  9
$LIMMAX
 10
12.0
 20
9.0
  9
$ORTHOMODE
 70
     0
  9
$REGENMODE
 70
     1
  9
$FILLMODE
 70
     1
  9
$QTEXTMODE
 70
     0
  9
$MIRRTEXT
 70
     1
  9
$LTSCALE
 40
1.0
  9
$ATTMODE
 70
     1
  9
$TEXTSIZE
 40
0.2
  9
$TRACEWID
 40
0.05
  9
$TEXTSTYLE
  7
Standard
  9
$CLAYER
  8
0
  9
$CELTYPE
  6
ByLayer
  9
$CECOLOR
 62
   256
  9
$CELTSCALE
 40
1.0
  9
$DISPSILH
 70
     0
  9
$DIMSCALE
 40
1.0
  9
$DIMASZ
 40
0.18
  9
$DIMEXO
 40
0.0625
  9
$DIMDLI
 40
0.38
  9
$DIMRND
 40
0.0
  9
$DIMDLE
 40
0.0
  9
$DIMEXE
 40
0.18
  9
$DIMTP
 40
0.0
  9
$DIMTM
 40
0.0
  9
$DIMTXT
 40
0.18
  9
$DIMCEN
 40
0.09
  9
$DIMTSZ
 40
0.0
  9
$DIMTOL
 70
     0
  9
$DIMLIM
 70
     0
  9
$DIMTIH
 70
     1
  9
$DIMTOH
 70
     1
  9
$DIMSE1
 70
     0
  9
$DIMSE2
 70
     0
  9
$DIMTAD
 70
     0
  9
$DIMZIN
 70
     0
  9
$DIMBLK
  1

  9
$DIMASO
 70
     1
  9
$DIMSHO
 70
     1
  9
$DIMPOST
  1

  9
$DIMAPOST
  1

  9
$DIMALT
 70
     0
  9
$DIMALTD
 70
     2
  9
$DIMALTF
 40
25.4
  9
$DIMLFAC
 40
1.0
  9
$DIMTOFL
 70
     0
  9
$DIMTVP
 40
0.0
  9
$DIMTIX
 70
     0
  9
$DIMSOXD
 70
     0
  9
$DIMSAH
 70
     0
  9
$DIMBLK1
  1

  9
$DIMBLK2
  1

  9
$DIMSTYLE
  2
Standard
  9
$DIMCLRD
 70
     0
  9
$DIMCLRE
 70
     0
  9
$DIMCLRT
 70
     0
  9
$DIMTFAC
 40
1.0
  9
$DIMGAP
 40
0.09
  9
$DIMJUST
 70
     0
  9
$DIMSD1
 70
     0
  9
$DIMSD2
 70
     0
  9
$DIMTOLJ
 70
     1
  9
$DIMTZIN
 70
     0
  9
$DIMALTZ
 70
     0
  9
$DIMALTTZ
 70
     0
  9
$DIMUPT
 70
     0
  9
$DIMDEC
 70
     4
  9
$DIMTDEC
 70
     4
  9
$DIMALTU
 70
     2
  9
$DIMALTTD
 70
     2
  9
$DIMTXSTY
  7
Standard
  9
$DIMAUNIT
 70
     0
  9
$DIMADEC
 70
     0
  9
$DIMALTRND
 40
0.0
  9
$DIMAZIN
 70
     0
  9
$DIMDSEP
 70
    46
  9
$DIMATFIT
 70
     3
  9
$DIMFRAC
 70
     0
  9
$DIMLDRBLK
  1

  9
$DIMLUNIT
 70
     2
  9
$DIMLWD
 70
    -2
  9
$DIMLWE
 70
    -2
  9
$DIMTMOVE
 70
     0
  9
$DIMFXL
 40
1.0
  9
$DIMFXLON
 70
     0
  9
$DIMJOGANG
 40
0.7853981633974483
  9
$DIMTFILL
 70
     0
  9
$DIMTFILLCLR
 70
     0
  9
$DIMARCSYM
 70
     0
  9
$DIMLTYPE
  6

  9
$DIMLTEX1
  6

  9
$DIMLTEX2
  6

  9
$DIMTXTDIRECTION
 70
     0
  9
$LUNITS
 70
     2
  9
$LUPREC
 70
     4
  9
$SKETCHINC
 40
0.1
  9
$FILLETRAD
 40
0.5
  9
$AUNITS
 70
     0
  9
$AUPREC
 70
     0
  9
$MENU
  1
.
  9
$ELEVATION
 40
0.0
  9
$PELEVATION
 40
0.0
  9
$THICKNESS
 40
0.0
  9
$LIMCHECK
 70
     0
  9
$CHAMFERA
 40
0.0
  9
$CHAMFERB
 40
0.0
  9
$CHAMFERC
 40
0.0
  9
$CHAMFERD
 40
0.0
  9
$SKPOLY
 70
     0
  9
$TDCREATE
 40
2458168.897960498
  9
$TDUCREATE
 40
2458168.856293831
  9
$TDUPDATE
 40
2458168.897960671
  9
$TDUUPDATE
 40
2458168.856294005
  9
$TDINDWG
 40
0.0000000116
  9
$TDUSRTIMER
 40
0.0000000116
  9
$USRTIMER
 70
     1
  9
$ANGBASE
 50
0.0
  9
$ANGDIR
 70
     0
  9
$PDMODE
 70
     0
  9
$PDSIZE
 40
0.0
  9
$PLINEWID
 40
0.0
  9
$SPLFRAME
 70
     0
  9
$SPLINETYPE
 70
     6
  9
$SPLINESEGS
 70
     8
  9
$HANDSEED
  5
29F
  9
$SURFTAB1
 70
     6
  9
$SURFTAB2
 70
     6
  9
$SURFTYPE
 70
     6
  9
$SURFU
 70
     6
  9
$SURFV
 70
     6
  9
$UCSBASE
  2

  9
$UCSNAME
  2

  9
$UCSORG
 10
0.0
 20
0.0
 30
0.0
  9
$UCSXDIR
 10
1.0
 20
0.0
 30
0.0
  9
$UCSYDIR
 10
0.0
 20
1.0
 30
0.0
  9
$UCSORTHOREF
  2

  9
$UCSORTHOVIEW
 70
     0
  9
$UCSORGTOP
 10
0.0
 20
0.0
 30
0.0
  9
$UCSORGBOTTOM
 10
0.0
 20
0.0
 30
0.0
  9
$UCSORGLEFT
 10
0.0
 20
0.0
 30
0.0
  9
$UCSORGRIGHT
 10
0.0
 20
0.0
 30
0.0
  9
$UCSORGFRONT
 10
0.0
 20
0.0
 30
0.0
  9
$UCSORGBACK
 10
0.0
 20
0.0
 30
0.0
  9
$PUCSBASE
  2

  9
$PUCSNAME
  2

  9
$PUCSORG
 10
0.0
 20
0.0
 30
0.0
  9
$PUCSXDIR
 10
1.0
 20
0.0
 30
0.0
  9
$PUCSYDIR
 10
0.0
 20
1.0
 30
0.0
  9
$PUCSORTHOREF
  2

  9
$PUCSORTHOVIEW
 70
     0
  9
$PUCSORGTOP
 10
0.0
 20
0.0
 30
0.0
  9
$PUCSORGBOTTOM
 10
0.0
 20
0.0
 30
0.0
  9
$PUCSORGLEFT
 10
0.0
 20
0.0
 30
0.0
  9
$PUCSORGRIGHT
 10
0.0
 20
0.0
 30
0.0
  9
$PUCSORGFRONT
 10
0.0
 20
0.0
 30
0.0
  9
$PUCSORGBACK
 10
0.0
 20
0.0
 30
0.0
  9
$USERI1
 70
     0
  9
$USERI2
 70
     0
  9
$USERI3
 70
     0
  9
$USERI4
 70
     0
  9
$USERI5
 70
     0
  9
$USERR1
 40
0.0
  9
$USERR2
 40
0.0
  9
$USERR3
 40
0.0
  9
$USERR4
 40
0.0
  9
$USERR5
 40
0.0
  9
$WORLDVIEW
 70
     1
  9
$SHADEDGE
 70
     3
  9
$SHADEDIF
 70
    70
  9
$TILEMODE
 70
     1
  9
$MAXACTVP
 70
    64
  9
$PINSBASE
 10
0.0
 20
0.0
 30
0.0
  9
$PLIMCHECK
 70
     0
  9
$PEXTMIN
 10
1.000000000000000E+20
 20
1.000000000000000E+20
 30
1.000000000000000E+20
  9
$PEXTMAX
 10
-1.000000000000000E+20
 20
-1.000000000000000E+20
 30
-1.000000000000000E+20
  9
$PLIMMIN
 10
0.0
 20
0.0
  9
$PLIMMAX
 10
12.0
 20
9.0
  9
$UNITMODE
 70
     0
  9
$VISRETAIN
 70
     1
  9
$PLINEGEN
 70
     0
  9
$PSLTSCALE
 70
     1
  9
$TREEDEPTH
 70
  3020
  9
$CMLSTYLE
  2
Standard
  9
$CMLJUST
 70
     0
  9
$CMLSCALE
 40
1.0
  9
$PROXYGRAPHICS
 70
     1
  9
$MEASUREMENT
 70
     0
  9
$CELWEIGHT
370
    -1
  9
$ENDCAPS
280
     0
  9
$JOINSTYLE
280
     0
  9
$LWDISPLAY
290
     0
  9
$INSUNITS
 70
     1
  9
$HYPERLINKBASE
  1

  9
$STYLESHEET
  1

  9
$XEDIT
290
     1
  9
$CEPSNTYPE
380
     0
  9
$PSTYLEMODE
290
     1
  9
$FINGERPRINTGUID
  2
{28FDB50B-C0AF-41C0-BF6C-6DB54079AED7}
  9
$VERSIONGUID
  2
{FAEB1C32-E019-11D5-929B-00C0DF256EC4}
  9
$EXTNAMES
290
     1
  9
$PSVPSCALE
 40
0.0
  9
$OLESTARTUP
290
     0
  9
$SORTENTS
280
   127
  9
$INDEXCTL
280
     0
  9
$HIDETEXT
280
     1
  9
$XCLIPFRAME
280
     2
  9
$HALOGAP
280
     0
  9
$OBSCOLOR
 70
   257
  9
$OBSLTYPE
280
     0
  9
$INTERSECTIONDISPLAY
280
     0
  9
$INTERSECTIONCOLOR
 70
   257
  9
$DIMASSOC
280
     2
  9
$PROJECTNAME
  1

  9
$CAMERADISPLAY
290
     0
  9
$LENSLENGTH
 40
50.0
  9
$CAMERAHEIGHT
 40
0.0
  9
$STEPSPERSEC
 40
2.0
  9
$STEPSIZE
 40
6.0
  9
$3DDWFPREC
 40
2.0
  9
$PSOLWIDTH
 40
0.25
  9
$PSOLHEIGHT
 40
4.0
  9
$LOFTANG1
 40
1.570796326794897
  9
$LOFTANG2
 40
1.570796326794897
  9
$LOFTMAG1
 40
0.0
  9
$LOFTMAG2
 40
0.0
  9
$LOFTPARAM
 70
     7
  9
$LOFTNORMALS
280
     1
  9
$LATITUDE
 40
37.795
  9
$LONGITUDE
 40
-122.394
  9
$NORTHDIRECTION
 40
0.0
  9
$TIMEZONE
 70
 -8000
  9
$LIGHTGLYPHDISPLAY
280
     1
  9
$TILEMODELIGHTSYNCH
280
     1
  9
$CMATERIAL
347
44
  9
$SOLIDHIST
280
     0
  9
$SHOWHIST
280
     1
  9
$DWFFRAME
280
     2
  9
$DGNFRAME
280
     2
  9
$REALWORLDSCALE
290
     1
  9
$INTERFERECOLOR
 62
   256
  9
$CSHADOW
280
     0
  9
$SHADOWPLANELOCATION
 40
0.0
  0
ENDSEC
  0
SECTION
  2
CLASSES
  0
CLASS
  1
ACDBDICTIONARYWDFLT
  2
AcDbDictionaryWithDefault
  3
ObjectDBX Classes
 90
        0
 91
        4
280
     0
281
     0
  0
CLASS
  1
VISUALSTYLE
  2
AcDbVisualStyle
  3
ObjectDBX Classes
 90
     4095
 91
        4
280
     0
281
     0
  0
CLASS
  1
MATERIAL
  2
AcDbMaterial
  3
ObjectDBX Classes
 90
     1153
 91
        4
280
     0
281
     0
  0
CLASS
  1
SCALE
  2
AcDbScale
  3
ObjectDBX Classes
 90
     1153
 91
        4
280
     0
281
     0
  0
CLASS
  1
TABLESTYLE
  2
AcDbTableStyle
  3
ObjectDBX Classes
 90
     4095
 91
        4
280
     0
281
     0
  0
CLASS
  1
MLEADERSTYLE
  2
AcDbMLeaderStyle
  3
ACDB_MLEADERSTYLE_CLASS
 90
     4095
 91
        4
280
     0
281
     0
  0
CLASS
  1
SUN
  2
AcDbSun
  3
SCENEOE
 90
     1153
 91
        4
280
     0
281
     0
  0
CLASS
  1
DICTIONARYVAR
  2
AcDbDictionaryVar
  3
ObjectDBX Classes
 90
        0
 91
        4
280
     0
281
     0
  0
CLASS
  1
CELLSTYLEMAP
  2
AcDbCellStyleMap
  3
ObjectDBX Classes
 90
     1152
 91
        4
280
     0
281
     0
  0
ENDSEC
  0
SECTION
  2
TABLES
  0
TABLE
  2
VPORT
  5
8
330
0
100
AcDbSymbolTable
 70
     1
  0
VPORT
  5
29
330
8
100
AcDbSymbolTableRecord
100
AcDbViewportTableRecord
  2
*Active
 70
     0
 10
0.0
 20
0.0
 11
1.0
 21
1.0
 12
-1.794374999999999
 22
0.0
 13
0.0
 23
0.0
 14
0.5
 24
0.5
 15
0.5
 25
0.5
 16
0.0
 26
0.0
 36
1.0
 17
0.0
 27
0.0
 37
0.0
 40
7.71528
 41
0.5223757271285037
 42
50.0
 43
0.0
 44
0.0
 50
0.0
 51
0.0
 71
     0
 72
   100
 73
     1
 74
     3
 75
     0
 76
     0
 77
     0
 78
     0
281
     0
 65
     1
110
0.0
120
0.0
130
0.0
111
1.0
121
0.0
131
0.0
112
0.0
122
1.0
132
0.0
 79
     0
146
0.0
348
2F
 60
     3
 61
     5
292
     1
282
     1
141
0.0
142
0.0
 63
   250
361
6D
  0
ENDTAB
  0
TABLE
  2
LTYPE
  5
5
330
0
100
AcDbSymbolTable
 70
     3
  0
LTYPE
  5
14
330
5
100
AcDbSymbolTableRecord
100
AcDbLinetypeTableRecord
  2
ByBlock
 70
     0
  3

 72
    65
 73
     0
 40
0.0
  0
LTYPE
  5
15
330
5
100
AcDbSymbolTableRecord
100
AcDbLinetypeTableRecord
  2
ByLayer
 70
     0
  3

 72
    65
 73
     0
 40
0.0
  0
LTYPE
  5
16
330
5
100
AcDbSymbolTableRecord
100
AcDbLinetypeTableRecord
  2
Continuous
 70
     0
  3
Solid line
 72
    65
 73
     0
 40
0.0
  0
LTYPE
  5
9A
330
5
100
AcDbSymbolTableRecord
100
AcDbLinetypeTableRecord
  2
Dashed
 70
     0
  3

 72
    65
 73
     2
 40
2.0
 49
1.0
 74
     0
 49
-1.0
 74
     0
  0
LTYPE
  5
A8
330
5
100
AcDbSymbolTableRecord
100
AcDbLinetypeTableRecord
  2
Center
 70
     0
  3

 72
    65
 73
     4
 40
1.5
 49
0.45
 74
     0
 49
-0.5
 74
     0
 49
0.05
 74
     0
 49
-0.5
 74
     0
  0
ENDTAB
  0
TABLE
  2
LAYER
  5
2
330
0
100
AcDbSymbolTable
 70
     7
  0
LAYER
  5
10
330
2
100
AcDbSymbolTableRecord
100
AcDbLayerTableRecord
  2
0
 70
     0
 62
     7
  6
Continuous
370
    -3
390
F
347
46
348
0
  0
LAYER
  5
72
330
2
100
AcDbSymbolTableRecord
100
AcDbLayerTableRecord
  2
AM_6
 70
     0
 62
    -2
  6
Continuous
370
    35
390
F
347
46
348
0
  0
LAYER
  5
9B
330
2
100
AcDbSymbolTableRecord
100
AcDbLayerTableRecord
  2
AM_9
 70
     0
 62
     6
  6
Dashed
370
    25
390
F
347
46
348
0
  0
LAYER
  5
A2
330
2
100
AcDbSymbolTableRecord
100
AcDbLayerTableRecord
  2
AM_5
 70
     0
 62
     3
  6
Continuous
370
    25
390
F
347
46
348
0
  0
LAYER
  5
A9
330
2
100
AcDbSymbolTableRecord
100
AcDbLayerTableRecord
  2
AM_7
 70
     0
 62
     7
  6
Center
370
    25
390
F
347
46
348
0
  0
LAYER
  5
AB
330
2
100
AcDbSymbolTableRecord
100
AcDbLayerTableRecord
  2
AM_4
 70
     0
 62
     7
  6
Continuous
370
    50
390
F
347
46
348
0
  0
LAYER
  5
288
330
2
100
AcDbSymbolTableRecord
100
AcDbLayerTableRecord
  2
ConnectionPoints
 70
     0
 62
     7
  6
Continuous
370
    50
390
F
347
46
348
0
  0
ENDTAB
  0
TABLE
  2
STYLE
  5
3
330
0
100
AcDbSymbolTable
 70
     1
  0
STYLE
  5
11
330
3
100
AcDbSymbolTableRecord
100
AcDbTextStyleTableRecord
  2
Standard
 70
     0
 40
0.0
 41
1.0
 50
0.0
 71
     0
 42
0.2
  3
txt
  4

  0
ENDTAB
  0
TABLE
  2
VIEW
  5
6
330
0
100
AcDbSymbolTable
 70
     0
  0
ENDTAB
  0
TABLE
  2
UCS
  5
7
330
0
100
AcDbSymbolTable
 70
     0
  0
ENDTAB
  0
TABLE
  2
APPID
  5
9
330
0
100
AcDbSymbolTable
 70
     1
  0
APPID
  5
12
330
9
100
AcDbSymbolTableRecord
100
AcDbRegAppTableRecord
  2
ACAD
 70
     0
  0
ENDTAB
  0
TABLE
  2
DIMSTYLE
  5
A
330
0
100
AcDbSymbolTable
 70
     1
100
AcDbDimStyleTable
  0
DIMSTYLE
105
27
330
A
100
AcDbSymbolTableRecord
100
AcDbDimStyleTableRecord
  2
Standard
 70
     0
178
     0
340
11
  0
ENDTAB
  0
TABLE
  2
BLOCK_RECORD
  5
1
330
0
100
AcDbSymbolTable
 70
     9
  0
BLOCK_RECORD
  5
1F
330
1
100
AcDbSymbolTableRecord
100
AcDbBlockTableRecord
  2
*Model_Space
340
22
 70
     0
280
     1
281
     0
  0
BLOCK_RECORD
  5
1B
330
1
100
AcDbSymbolTableRecord
100
AcDbBlockTableRecord
  2
*Paper_Space
340
1E
 70
     0
280
     1
281
     0
  0
BLOCK_RECORD
  5
23
330
1
100
AcDbSymbolTableRecord
100
AcDbBlockTableRecord
  2
*Paper_Space0
340
26
 70
     0
280
     1
281
     0
  0
BLOCK_RECORD
  5
6E
330
1
100
AcDbSymbolTableRecord
100
AcDbBlockTableRecord
  2
1_072267_2
340
0
102
{BLKREFS
331
6F
102
}
 70
     0
280
     1
281
     0
  0
BLOCK_RECORD
  5
8E
330
1
100
AcDbSymbolTableRecord
100
AcDbBlockTableRecord
  2
2_405015E_Inch_1_0_in_072267_2
340
0
102
{BLKREFS
331
8F
102
}
 70
     0
280
     1
281
     0
  0
BLOCK_RECORD
  5
D3
330
1
100
AcDbSymbolTableRecord
100
AcDbBlockTableRecord
  2
3_ASME_B18_3_10_1_0_in_072267_2
340
0
102
{BLKREFS
331
D4
102
}
 70
     0
280
     1
281
     0
  0
BLOCK_RECORD
  5
FC
330
1
100
AcDbSymbolTableRecord
100
AcDbBlockTableRecord
  2
4_ASME_B18_3_10_2_0_in_072267_2
340
0
102
{BLKREFS
331
FD
102
}
 70
     0
280
     1
281
     0
  0
BLOCK_RECORD
  5
125
330
1
100
AcDbSymbolTableRecord
100
AcDbBlockTableRecord
  2
5_070900LWE_0_in_072267_2
340
0
102
{BLKREFS
331
126
102
}
 70
     0
280
     1
281
     0
  0
BLOCK_RECORD
  5
15F
330
1
100
AcDbSymbolTableRecord
100
AcDbBlockTableRecord
  2
6_070900E_0_in_072267_2
340
0
102
{BLKREFS
331
160
102
}
 70
     0
280
     1
281
     0
  0
BLOCK_RECORD
  5
1F2
330
1
100
AcDbSymbolTableRecord
100
AcDbBlockTableRecord
  2
7_405015E_Inch_2_0_in_072267_2
340
0
102
{BLKREFS
331
1F3
102
}
 70
     0
280
     1
281
     0
  0
BLOCK_RECORD
  5
231
330
1
100
AcDbSymbolTableRecord
100
AcDbBlockTableRecord
  2
8_072267DUMMY_0_in_072267_2
340
0
102
{BLKREFS
331
232
102
}
 70
     0
280
     1
281
     0
  0
ENDTAB
  0
ENDSEC
  0
SECTION
  2
BLOCKS
  0
BLOCK
  5
20
330
1F
100
AcDbEntity
  8
0
100
AcDbBlockBegin
  2
*Model_Space
 70
     0
 10
0.0
 20
0.0
 30
0.0
  3
*Model_Space
  1

  0
ENDBLK
  5
21
330
1F
100
AcDbEntity
  8
0
100
AcDbBlockEnd
  0
BLOCK
  5
1C
330
1B
100
AcDbEntity
 67
     1
  8
0
100
AcDbBlockBegin
  2
*Paper_Space
 70
     0
 10
0.0
 20
0.0
 30
0.0
  3
*Paper_Space
  1

  0
ENDBLK
  5
1D
330
1B
100
AcDbEntity
 67
     1
  8
0
100
AcDbBlockEnd
  0
BLOCK
  5
24
330
23
100
AcDbEntity
  8
0
100
AcDbBlockBegin
  2
*Paper_Space0
 70
     0
 10
0.0
 20
0.0
 30
0.0
  3
*Paper_Space0
  1

  0
ENDBLK
  5
25
330
23
100
AcDbEntity
  8
0
100
AcDbBlockEnd
  0
BLOCK
  5
70
330
6E
100
AcDbEntity
  8
0
100
AcDbBlockBegin
  2
1_072267_2
 70
     2
 10
0.0
 20
0.0
 30
0.0
  3
1_072267_2
  1

  0
ATTDEF
  5
73
330
6E
100
AcDbEntity
  8
AM_6
100
AcDbText
 10
5.181250000000001
 20
3.782
 30
0.0
 40
0.5
  1
Steel Imperial-HD Flange 4 Bolt with Type E Dimensions Non-Expansion 207-408
100
AcDbAttributeDefinition
  3

  2
NN
 70
     8
280
     0
  0
ATTDEF
  5
74
330
6E
100
AcDbEntity
  8
AM_6
100
AcDbText
 10
5.181250000000001
 20
3.282
 30
0.0
 40
0.5
  1
Steel Imperial/E 4 Bolt Flange Bearing-Inch-207-408
100
AcDbAttributeDefinition
  3

  2
NT
 70
     8
280
     0
  0
ATTDEF
  5
75
330
6E
100
AcDbEntity
  8
AM_6
100
AcDbText
 10
5.181250000000001
 20
2.782
 30
0.0
 40
0.5
  1
072267
100
AcDbAttributeDefinition
  3

  2
NB
 70
     8
280
     0
  0
ATTDEF
  5
76
330
6E
100
AcDbEntity
  8
AM_6
100
AcDbText
 10
5.181250000000001
 20
2.282
 30
0.0
 40
0.5
  1
$PN.
100
AcDbAttributeDefinition
  3

  2
NBSYN
 70
     8
280
     0
  0
ATTDEF
  5
77
330
6E
100
AcDbEntity
  8
AM_6
100
AcDbText
 10
5.181250000000001
 20
1.782
 30
0.0
 40
0.5
  1
072267
100
AcDbAttributeDefinition
  3

  2
LINA
 70
     8
280
     0
  0
ATTDEF
  5
78
330
6E
100
AcDbEntity
  8
AM_6
100
AcDbText
 10
5.181250000000001
 20
1.282
 30
0.0
 40
0.5
  1
3
100
AcDbAttributeDefinition
  3

  2
SS
 70
     8
280
     0
  0
ATTDEF
  5
79
330
6E
100
AcDbEntity
  8
AM_6
100
AcDbText
 10
5.181250000000001
 20
0.7819999999999996
 30
0.0
 40
0.5
  1
SEF4B-IP-300RE
100
AcDbAttributeDefinition
  3

  2
DESCRIPTION
 70
     8
280
     0
  0
ATTDEF
  5
7A
330
6E
100
AcDbEntity
  8
AM_6
100
AcDbText
 10
5.181250000000001
 20
0.2819999999999996
 30
0.0
 40
0.5
  1
Expansion
100
AcDbAttributeDefinition
  3

  2
TYPE
 70
     8
280
     0
  0
ATTDEF
  5
7B
330
6E
100
AcDbEntity
  8
AM_6
100
AcDbText
 10
5.181250000000001
 20
-0.2180000000000004
 30
0.0
 40
0.5
  1
072267
100
AcDbAttributeDefinition
  3

  2
PN
 70
     8
280
     0
  0
ATTDEF
  5
7C
330
6E
100
AcDbEntity
  8
AM_6
100
AcDbText
 10
5.181250000000001
 20
-0.7180000000000004
 30
0.0
 40
0.5
  1
Expansion
100
AcDbAttributeDefinition
  3

  2
EF
 70
     8
280
     0
  0
ATTDEF
  5
7D
330
6E
100
AcDbEntity
  8
AM_6
100
AcDbText
 10
5.181250000000001
 20
-1.218
 30
0.0
 40
0.5
  1
Contact Seal
100
AcDbAttributeDefinition
  3

  2
ST
 70
     8
280
     0
  0
ATTDEF
  5
7E
330
6E
100
AcDbEntity
  8
AM_6
100
AcDbText
 10
5.181250000000001
 20
-1.718
 30
0.0
 40
0.5
  1
3.50
100
AcDbAttributeDefinition
  3

  2
A
 70
     8
280
     0
  0
ATTDEF
  5
7F
330
6E
100
AcDbEntity
  8
AM_6
100
AcDbText
 10
5.181250000000001
 20
-2.218
 30
0.0
 40
0.5
  1
7.43
100
AcDbAttributeDefinition
  3

  2
B
 70
     8
280
     0
  0
ATTDEF
  5
80
330
6E
100
AcDbEntity
  8
AM_6
100
AcDbText
 10
5.181250000000001
 20
-2.718
 30
0.0
 40
0.5
  1
3.77
100
AcDbAttributeDefinition
  3

  2
C
 70
     8
280
     0
  0
ATTDEF
  5
81
330
6E
100
AcDbEntity
  8
AM_6
100
AcDbText
 10
5.181250000000001
 20
-3.218
 30
0.0
 40
0.5
  1
6.00
100
AcDbAttributeDefinition
  3

  2
D
 70
     8
280
     0
  0
ATTDEF
  5
82
330
6E
100
AcDbEntity
  8
AM_6
100
AcDbText
 10
5.181250000000001
 20
-3.718
 30
0.0
 40
0.5
  1
8.49
100
AcDbAttributeDefinition
  3

  2
DD
 70
     8
280
     0
  0
ATTDEF
  5
83
330
6E
100
AcDbEntity
  8
AM_6
100
AcDbText
 10
5.181250000000001
 20
-4.218
 30
0.0
 40
0.5
  1
3/4
100
AcDbAttributeDefinition
  3

  2
F
 70
     8
280
     0
  0
ATTDEF
  5
84
330
6E
100
AcDbEntity
  8
AM_6
100
AcDbText
 10
5.181250000000001
 20
-4.718
 30
0.0
 40
0.5
  1
0.94
100
AcDbAttributeDefinition
  3

  2
G
 70
     8
280
     0
  0
ATTDEF
  5
85
330
6E
100
AcDbEntity
  8
AM_6
100
AcDbText
 10
5.181250000000001
 20
-5.218
 30
0.0
 40
0.5
  1
1.06
100
AcDbAttributeDefinition
  3

  2
H
 70
     8
280
     0
  0
ATTDEF
  5
86
330
6E
100
AcDbEntity
  8
AM_6
100
AcDbText
 10
5.181250000000001
 20
-5.718
 30
0.0
 40
0.5
  1
6.66
100
AcDbAttributeDefinition
  3

  2
J
 70
     8
280
     0
  0
ATTDEF
  5
87
330
6E
100
AcDbEntity
  8
AM_6
100
AcDbText
 10
5.181250000000001
 20
-6.218
 30
0.0
 40
0.5
  1
4.20
100
AcDbAttributeDefinition
  3

  2
L
 70
     8
280
     0
  0
ATTDEF
  5
88
330
6E
100
AcDbEntity
  8
AM_6
100
AcDbText
 10
5.181250000000001
 20
-6.718
 30
0.0
 40
0.5
  1
3.75
100
AcDbAttributeDefinition
  3

  2
N
 70
     8
280
     0
  0
ATTDEF
  5
89
330
6E
100
AcDbEntity
  8
AM_6
100
AcDbText
 10
5.181250000000001
 20
-7.218
 30
0.0
 40
0.5
  1
0.27
100
AcDbAttributeDefinition
  3

  2
P
 70
     8
280
     0
  0
ATTDEF
  5
8A
330
6E
100
AcDbEntity
  8
AM_6
100
AcDbText
 10
5.181250000000001
 20
-7.718
 30
0.0
 40
0.5
  1
0.25
100
AcDbAttributeDefinition
  3

  2
X
 70
     8
280
     0
  0
ATTDEF
  5
8B
330
6E
100
AcDbEntity
  8
AM_6
100
AcDbText
 10
5.181250000000001
 20
-8.218
 30
0.0
 40
0.5
  1
0.025
100
AcDbAttributeDefinition
  3

  2
Y
 70
     8
280
     0
  0
ATTDEF
  5
8C
330
6E
100
AcDbEntity
  8
AM_6
100
AcDbText
 10
5.181250000000001
 20
-8.718
 30
0.0
 40
0.5
  1
3.47
100
AcDbAttributeDefinition
  3

  2
Z
 70
     8
280
     0
  0
ATTDEF
  5
8D
330
6E
100
AcDbEntity
  8
AM_6
100
AcDbText
 10
5.181250000000001
 20
-9.218
 30
0.0
 40
0.5
  1
baldor
100
AcDbAttributeDefinition
  3

  2
COMPANY
 70
     8
280
     0
  0
INSERT
  5
8F
330
6E
100
AcDbEntity
  8
0
100
AcDbBlockReference
  2
2_405015E_Inch_1_0_in_072267_2
 10
0.0
 20
0.0
 30
0.0
  0
INSERT
  5
D4
330
6E
100
AcDbEntity
  8
0
100
AcDbBlockReference
  2
3_ASME_B18_3_10_1_0_in_072267_2
 10
0.0
 20
0.0
 30
0.0
  0
INSERT
  5
FD
330
6E
100
AcDbEntity
  8
0
100
AcDbBlockReference
  2
4_ASME_B18_3_10_2_0_in_072267_2
 10
0.0
 20
0.0
 30
0.0
  0
INSERT
  5
126
330
6E
100
AcDbEntity
  8
0
100
AcDbBlockReference
  2
5_070900LWE_0_in_072267_2
 10
0.0
 20
0.0
 30
0.0
  0
INSERT
  5
160
330
6E
100
AcDbEntity
  8
0
100
AcDbBlockReference
  2
6_070900E_0_in_072267_2
 10
0.0
 20
0.0
 30
0.0
  0
INSERT
  5
1F3
330
6E
100
AcDbEntity
  8
0
100
AcDbBlockReference
  2
7_405015E_Inch_2_0_in_072267_2
 10
0.0
 20
0.0
 30
0.0
  0
INSERT
  5
232
330
6E
100
AcDbEntity
  8
0
100
AcDbBlockReference
  2
8_072267DUMMY_0_in_072267_2
 10
0.0
 20
0.0
 30
0.0
  0
ENDBLK
  5
71
330
6E
100
AcDbEntity
  8
0
100
AcDbBlockEnd
  0
BLOCK
  5
90
330
8E
100
AcDbEntity
  8
0
100
AcDbBlockBegin
  2
2_405015E_Inch_1_0_in_072267_2
 70
     2
 10
0.0
 20
0.0
 30
0.0
  3
2_405015E_Inch_1_0_in_072267_2
  1

  0
ATTDEF
  5
92
330
8E
100
AcDbEntity
  8
AM_6
100
AcDbText
 10
3.307590742770461
 20
-3.078
 30
0.0
 40
0.5
  1
405015E -Inch
100
AcDbAttributeDefinition
  3

  2
NN
 70
     8
280
     0
  0
ATTDEF
  5
93
330
8E
100
AcDbEntity
  8
AM_6
100
AcDbText
 10
3.307590742770461
 20
-3.578
 30
0.0
 40
0.5
  1
Grease Fitting
100
AcDbAttributeDefinition
  3

  2
NT
 70
     8
280
     0
  0
ATTDEF
  5
94
330
8E
100
AcDbEntity
  8
AM_6
100
AcDbText
 10
3.307590742770461
 20
-4.077999999999999
 30
0.0
 40
0.5
  1
405015E-Inch
100
AcDbAttributeDefinition
  3

  2
NB
 70
     8
280
     0
  0
ATTDEF
  5
95
330
8E
100
AcDbEntity
  8
AM_6
100
AcDbText
 10
3.307590742770461
 20
-4.577999999999999
 30
0.0
 40
0.5
  1
$MN.-Inch
100
AcDbAttributeDefinition
  3

  2
NBSYN
 70
     8
280
     0
  0
ATTDEF
  5
96
330
8E
100
AcDbEntity
  8
AM_6
100
AcDbText
 10
3.307590742770461
 20
-5.077999999999999
 30
0.0
 40
0.5
  1
405015E
100
AcDbAttributeDefinition
  3

  2
LINA
 70
     8
280
     0
  0
ATTDEF
  5
97
330
8E
100
AcDbEntity
  8
AM_6
100
AcDbText
 10
3.307590742770461
 20
-5.577999999999999
 30
0.0
 40
0.5
  1
405015E
100
AcDbAttributeDefinition
  3

  2
MN
 70
     8
280
     0
  0
ATTDEF
  5
98
330
8E
100
AcDbEntity
  8
AM_6
100
AcDbText
 10
3.307590742770461
 20
-6.077999999999999
 30
0.0
 40
0.5
  1
1/8 x 27PTF
100
AcDbAttributeDefinition
  3

  2
T
 70
     8
280
     0
  0
ATTDEF
  5
99
330
8E
100
AcDbEntity
  8
AM_6
100
AcDbText
 10
3.307590742770461
 20
-6.577999999999999
 30
0.0
 40
0.5
  1
baldor
100
AcDbAttributeDefinition
  3

  2
COMPANY
 70
     8
280
     0
  0
LINE
  5
9C
330
8E
100
AcDbEntity
  8
AM_9
100
AcDbLine
 10
-1.783097127527731
 20
-3.11
 30
0.0
 11
-2.106902872472269
 21
-3.11
 31
0.0
  0
LINE
  5
9D
330
8E
100
AcDbEntity
  8
AM_9
100
AcDbLine
 10
-2.106902872472269
 20
-3.11
 30
0.0
 11
-2.143617626781216
 21
-3.146714754308947
 31
0.0
  0
LINE
  5
9E
330
8E
100
AcDbEntity
  8
AM_9
100
AcDbLine
 10
-1.746382373218785
 20
-3.146714754308947
 30
0.0
 11
-1.783097127527731
 21
-3.11
 31
0.0
  0
LINE
  5
9F
330
8E
100
AcDbEntity
  8
AM_9
100
AcDbLine
 10
-1.746382373218785
 20
-3.146714754308947
 30
0.0
 11
-2.143617626781216
 21
-3.146714754308947
 31
0.0
  0
LINE
  5
A0
330
8E
100
AcDbEntity
  8
AM_9
100
AcDbLine
 10
-2.143617626781216
 20
-3.146714754308947
 30
0.0
 11
-2.15075189722307
 21
-3.375
 31
0.0
  0
LINE
  5
A1
330
8E
100
AcDbEntity
  8
AM_9
100
AcDbLine
 10
-1.73924810277693
 20
-3.375
 30
0.0
 11
-1.746382373218785
 21
-3.146714754308947
 31
0.0
  0
LINE
  5
A3
330
8E
100
AcDbEntity
  8
AM_5
100
AcDbLine
 10
-2.113149124852348
 20
-3.309870087748463
 30
0.0
 11
-2.106902872472269
 21
-3.11
 31
0.0
  0
LINE
  5
A4
330
8E
100
AcDbEntity
  8
AM_5
100
AcDbLine
 10
-2.15075189722307
 20
-3.375
 30
0.0
 11
-2.113149124852348
 21
-3.309870087748463
 31
0.0
  0
LINE
  5
A5
330
8E
100
AcDbEntity
  8
AM_5
100
AcDbLine
 10
-1.741283514248443
 20
-3.309870087748463
 30
0.0
 11
-2.148716485751557
 21
-3.309870087748463
 31
0.0
  0
LINE
  5
A6
330
8E
100
AcDbEntity
  8
AM_5
100
AcDbLine
 10
-1.776850875147652
 20
-3.309870087748463
 30
0.0
 11
-1.783097127527731
 21
-3.11
 31
0.0
  0
LINE
  5
A7
330
8E
100
AcDbEntity
  8
AM_5
100
AcDbLine
 10
-1.73924810277693
 20
-3.375
 30
0.0
 11
-1.776850875147652
 21
-3.309870087748463
 31
0.0
  0
LINE
  5
AA
330
8E
100
AcDbEntity
  8
AM_7
100
AcDbLine
 10
-1.945
 20
-3.782
 30
0.0
 11
-1.945
 21
-3.078
 31
0.0
  0
LINE
  5
AC
330
8E
100
AcDbEntity
  8
AM_4
100
AcDbLine
 10
-2.05
 20
-3.58
 30
0.0
 11
-2.05
 21
-3.61
 31
0.0
  0
LINE
  5
AD
330
8E
100
AcDbEntity
  8
AM_4
100
AcDbLine
 10
-1.84
 20
-3.61
 30
0.0
 11
-1.84
 21
-3.58
 31
0.0
  0
LINE
  5
AE
330
8E
100
AcDbEntity
  8
AM_4
100
AcDbLine
 10
-1.72625
 20
-3.475
 30
0.0
 11
-1.692409257229539
 21
-3.465932400303386
 31
0.0
  0
LINE
  5
AF
330
8E
100
AcDbEntity
  8
AM_4
100
AcDbLine
 10
-1.72625
 20
-3.475
 30
0.0
 11
-2.16375
 21
-3.475
 31
0.0
  0
LINE
  5
B0
330
8E
100
AcDbEntity
  8
AM_4
100
AcDbLine
 10
-2.197590742770462
 20
-3.465932400303386
 30
0.0
 11
-2.16375
 21
-3.475
 31
0.0
  0
LINE
  5
B1
330
8E
100
AcDbEntity
  8
AM_4
100
AcDbLine
 10
-1.692409257229539
 20
-3.384067599696615
 30
0.0
 11
-1.72625
 21
-3.375
 31
0.0
  0
LINE
  5
B2
330
8E
100
AcDbEntity
  8
AM_4
100
AcDbLine
 10
-2.16375
 20
-3.375
 30
0.0
 11
-2.197590742770462
 21
-3.384067599696615
 31
0.0
  0
LINE
  5
B3
330
8E
100
AcDbEntity
  8
AM_4
100
AcDbLine
 10
-1.84
 20
-3.58
 30
0.0
 11
-2.05
 21
-3.58
 31
0.0
  0
LINE
  5
B4
330
8E
100
AcDbEntity
  8
AM_4
100
AcDbLine
 10
-1.84
 20
-3.58
 30
0.0
 11
-1.826179909265103
 21
-3.547753121618573
 31
0.0
  0
LINE
  5
B5
330
8E
100
AcDbEntity
  8
AM_4
100
AcDbLine
 10
-2.063820090734898
 20
-3.547753121618573
 30
0.0
 11
-2.05
 21
-3.58
 31
0.0
  0
LINE
  5
B6
330
8E
100
AcDbEntity
  8
AM_4
100
AcDbLine
 10
-1.842322098066813
 20
-3.75
 30
0.0
 11
-2.047677901933187
 21
-3.75
 31
0.0
  0
LINE
  5
B7
330
8E
100
AcDbEntity
  8
AM_4
100
AcDbLine
 10
-1.842322098066813
 20
-3.75
 30
0.0
 11
-1.81
 21
-3.67
 31
0.0
  0
LINE
  5
B8
330
8E
100
AcDbEntity
  8
AM_4
100
AcDbLine
 10
-2.08
 20
-3.67
 30
0.0
 11
-2.047677901933187
 21
-3.75
 31
0.0
  0
LINE
  5
B9
330
8E
100
AcDbEntity
  8
AM_4
100
AcDbLine
 10
-1.81
 20
-3.67
 30
0.0
 11
-2.08
 21
-3.67
 31
0.0
  0
LINE
  5
BA
330
8E
100
AcDbEntity
  8
AM_4
100
AcDbLine
 10
-1.84
 20
-3.61
 30
0.0
 11
-2.05
 21
-3.61
 31
0.0
  0
LINE
  5
BB
330
8E
100
AcDbEntity
  8
AM_4
100
AcDbLine
 10
-2.05
 20
-3.61
 30
0.0
 11
-2.08
 21
-3.67
 31
0.0
  0
LINE
  5
BC
330
8E
100
AcDbEntity
  8
AM_4
100
AcDbLine
 10
-1.81
 20
-3.67
 30
0.0
 11
-1.84
 21
-3.61
 31
0.0
  0
LINE
  5
BD
330
8E
100
AcDbEntity
  8
AM_4
100
AcDbLine
 10
-1.826179909265103
 20
-3.547753121618573
 30
0.0
 11
-2.063820090734898
 21
-3.547753121618573
 31
0.0
  0
LINE
  5
BE
330
8E
100
AcDbEntity
  8
AM_4
100
AcDbLine
 10
-1.826179909265103
 20
-3.547753121618573
 30
0.0
 11
-1.772465946716985
 21
-3.493318198540882
 31
0.0
  0
LINE
  5
BF
330
8E
100
AcDbEntity
  8
AM_4
100
AcDbLine
 10
-2.117534053283015
 20
-3.493318198540882
 30
0.0
 11
-2.063820090734898
 21
-3.547753121618573
 31
0.0
  0
LINE
  5
C0
330
8E
100
AcDbEntity
  8
AM_4
100
AcDbLine
 10
-1.772465946716985
 20
-3.493318198540882
 30
0.0
 11
-2.117534053283015
 21
-3.493318198540882
 31
0.0
  0
LINE
  5
C1
330
8E
100
AcDbEntity
  8
AM_4
100
AcDbLine
 10
-1.772465946716985
 20
-3.493318198540882
 30
0.0
 11
-1.73125
 21
-3.475
 31
0.0
  0
LINE
  5
C2
330
8E
100
AcDbEntity
  8
AM_4
100
AcDbLine
 10
-2.15875
 20
-3.475
 30
0.0
 11
-2.117534053283015
 21
-3.493318198540882
 31
0.0
  0
LWPOLYLINE
  5
C3
330
8E
100
AcDbEntity
  8
AM_4
100
AcDbPolyline
 90
        3
 70
     0
 43
0.0
 10
-1.755556942922154
 20
-3.475
 10
-1.787130785768462
 20
-3.472606619214965
 10
-1.818704628614769
 20
-3.465932400303386
  0
LWPOLYLINE
  5
C4
330
8E
100
AcDbEntity
  8
AM_4
100
AcDbPolyline
 90
        3
 70
     0
 43
0.0
 10
-1.692409257229539
 20
-3.465932400303386
 10
-1.723841135576436
 20
-3.47258547505038
 10
-1.755556942922154
 20
-3.475
  0
LINE
  5
C5
330
8E
100
AcDbEntity
  8
AM_4
100
AcDbLine
 10
-1.692409257229539
 20
-3.465932400303386
 30
0.0
 11
-1.692409257229539
 21
-3.384067599696615
 31
0.0
  0
LWPOLYLINE
  5
C6
330
8E
100
AcDbEntity
  8
AM_4
100
AcDbPolyline
 90
        3
 70
     0
 43
0.0
 10
-1.755556942922154
 20
-3.375
 10
-1.723983100075847
 20
-3.377393380785035
 10
-1.692409257229539
 20
-3.384067599696615
  0
LWPOLYLINE
  5
C7
330
8E
100
AcDbEntity
  8
AM_4
100
AcDbPolyline
 90
        3
 70
     0
 43
0.0
 10
-1.818704628614769
 20
-3.384067599696615
 10
-1.787272750267872
 20
-3.37741452494962
 10
-1.755556942922154
 20
-3.375
  0
LINE
  5
C8
330
8E
100
AcDbEntity
  8
AM_4
100
AcDbLine
 10
-2.197590742770462
 20
-3.465932400303386
 30
0.0
 11
-2.197590742770462
 21
-3.384067599696615
 31
0.0
  0
LWPOLYLINE
  5
C9
330
8E
100
AcDbEntity
  8
AM_4
100
AcDbPolyline
 90
        3
 70
     0
 43
0.0
 10
-2.134443057077846
 20
-3.475
 10
-2.166016899924154
 20
-3.472606619214965
 10
-2.197590742770462
 20
-3.465932400303386
  0
LWPOLYLINE
  5
CA
330
8E
100
AcDbEntity
  8
AM_4
100
AcDbPolyline
 90
        3
 70
     0
 43
0.0
 10
-2.071295371385231
 20
-3.465932400303386
 10
-2.102727249732128
 20
-3.47258547505038
 10
-2.134443057077846
 20
-3.475
  0
LWPOLYLINE
  5
CB
330
8E
100
AcDbEntity
  8
AM_4
100
AcDbPolyline
 90
        3
 70
     0
 43
0.0
 10
-2.134443057077846
 20
-3.375
 10
-2.102869214231538
 20
-3.377393380785035
 10
-2.071295371385231
 20
-3.384067599696615
  0
LWPOLYLINE
  5
CC
330
8E
100
AcDbEntity
  8
AM_4
100
AcDbPolyline
 90
        3
 70
     0
 43
0.0
 10
-2.197590742770462
 20
-3.384067599696615
 10
-2.166158864423565
 20
-3.37741452494962
 10
-2.134443057077846
 20
-3.375
  0
LINE
  5
CD
330
8E
100
AcDbEntity
  8
AM_4
100
AcDbLine
 10
-2.071295371385231
 20
-3.465932400303386
 30
0.0
 11
-2.071295371385231
 21
-3.384067599696615
 31
0.0
  0
LWPOLYLINE
  5
CE
330
8E
100
AcDbEntity
  8
AM_4
100
AcDbPolyline
 90
        4
 70
     0
 43
0.0
 10
-1.945
 20
-3.475
 10
-1.993399816055899
 20
-3.473582439282862
 10
-2.041799632111798
 20
-3.469517587482156
 10
-2.071295371385231
 20
-3.465932400303386
  0
LWPOLYLINE
  5
CF
330
8E
100
AcDbEntity
  8
AM_4
100
AcDbPolyline
 90
        3
 70
     0
 43
0.0
 10
-1.818704628614769
 20
-3.465932400303386
 10
-1.881568385308563
 20
-3.47258547505038
 10
-1.945
 20
-3.475
  0
LINE
  5
D0
330
8E
100
AcDbEntity
  8
AM_4
100
AcDbLine
 10
-1.818704628614769
 20
-3.465932400303386
 30
0.0
 11
-1.818704628614769
 21
-3.384067599696615
 31
0.0
  0
LWPOLYLINE
  5
D1
330
8E
100
AcDbEntity
  8
AM_4
100
AcDbPolyline
 90
        3
 70
     0
 43
0.0
 10
-1.945
 20
-3.375
 10
-1.881852314307385
 20
-3.377393380785035
 10
-1.818704628614769
 20
-3.384067599696615
  0
LWPOLYLINE
  5
D2
330
8E
100
AcDbEntity
  8
AM_4
100
AcDbPolyline
 90
        4
 70
     0
 43
0.0
 10
-2.071295371385231
 20
-3.384067599696615
 10
-2.041799632111798
 20
-3.380482412517844
 10
-1.993542441247754
 20
-3.376425828243072
 10
-1.945
 20
-3.375
  0
ENDBLK
  5
91
330
8E
100
AcDbEntity
  8
0
100
AcDbBlockEnd
  0
BLOCK
  5
D5
330
D3
100
AcDbEntity
  8
0
100
AcDbBlockBegin
  2
3_ASME_B18_3_10_1_0_in_072267_2
 70
     2
 10
0.0
 20
0.0
 30
0.0
  3
3_ASME_B18_3_10_1_0_in_072267_2
  1

  0
ATTDEF
  5
D7
330
D3
100
AcDbEntity
  8
AM_6
100
AcDbText
 10
2.380999666666667
 20
-1.723145833333333
 30
0.0
 40
0.5
  1
ANSI/ASME-B18.3-1998
100
AcDbAttributeDefinition
  3

  2
NN
 70
     8
280
     0
  0
ATTDEF
  5
D8
330
D3
100
AcDbEntity
  8
AM_6
100
AcDbText
 10
2.380999666666667
 20
-2.223145833333333
 30
0.0
 40
0.5
  1
Socket Button Head Cap Screws
100
AcDbAttributeDefinition
  3

  2
NT
 70
     8
280
     0
  0
ATTDEF
  5
D9
330
D3
100
AcDbEntity
  8
AM_6
100
AcDbText
 10
2.380999666666667
 20
-2.723145833333333
 30
0.0
 40
0.5
  1
ASME-B18.3-10
100
AcDbAttributeDefinition
  3

  2
NB
 70
     8
280
     0
  0
ATTDEF
  5
DA
330
D3
100
AcDbEntity
  8
AM_6
100
AcDbText
 10
2.380999666666667
 20
-3.223145833333333
 30
0.0
 40
0.5
  1
ASME-B18.3-$NS.
100
AcDbAttributeDefinition
  3

  2
NBSYN
 70
     8
280
     0
  0
ATTDEF
  5
DB
330
D3
100
AcDbEntity
  8
AM_6
100
AcDbText
 10
2.380999666666667
 20
-3.723145833333333
 30
0.0
 40
0.5
  1
ASME-B18.3-10
100
AcDbAttributeDefinition
  3

  2
LINA
 70
     8
280
     0
  0
ATTDEF
  5
DC
330
D3
100
AcDbEntity
  8
AM_6
100
AcDbText
 10
2.380999666666667
 20
-4.223145833333334
 30
0.0
 40
0.5
  1
10
100
AcDbAttributeDefinition
  3

  2
NS
 70
     8
280
     0
  0
ATTDEF
  5
DD
330
D3
100
AcDbEntity
  8
AM_6
100
AcDbText
 10
2.380999666666667
 20
-4.723145833333334
 30
0.0
 40
0.5
  1
0.361
100
AcDbAttributeDefinition
  3

  2
A
 70
     8
280
     0
  0
ATTDEF
  5
DE
330
D3
100
AcDbEntity
  8
AM_6
100
AcDbText
 10
2.380999666666667
 20
-5.223145833333334
 30
0.0
 40
0.5
  1
0.101
100
AcDbAttributeDefinition
  3

  2
H
 70
     8
280
     0
  0
ATTDEF
  5
DF
330
D3
100
AcDbEntity
  8
AM_6
100
AcDbText
 10
2.380999666666667
 20
-5.723145833333334
 30
0.0
 40
0.5
  1
0.800
100
AcDbAttributeDefinition
  3

  2
L
 70
     8
280
     0
  0
ATTDEF
  5
E0
330
D3
100
AcDbEntity
  8
AM_6
100
AcDbText
 10
2.380999666666667
 20
-6.223145833333334
 30
0.0
 40
0.5
  1
0.020
100
AcDbAttributeDefinition
  3

  2
S
 70
     8
280
     0
  0
ATTDEF
  5
E1
330
D3
100
AcDbEntity
  8
AM_6
100
AcDbText
 10
2.380999666666667
 20
-6.723145833333334
 30
0.0
 40
0.5
  1
0.125000
100
AcDbAttributeDefinition
  3

  2
J
 70
     8
280
     0
  0
ATTDEF
  5
E2
330
D3
100
AcDbEntity
  8
AM_6
100
AcDbText
 10
2.380999666666667
 20
-7.223145833333334
 30
0.0
 40
0.5
  1
baldor
100
AcDbAttributeDefinition
  3

  2
COMPANY
 70
     8
280
     0
  0
LINE
  5
E3
330
D3
100
AcDbEntity
  8
AM_9
100
AcDbLine
 10
-3.459000333333333
 20
-1.83147704968463
 30
0.0
 11
-3.520000333333333
 21
-1.83147704968463
 31
0.0
  0
LINE
  5
E4
330
D3
100
AcDbEntity
  8
AM_9
100
AcDbLine
 10
-3.459000333333333
 20
-1.975814616982036
 30
0.0
 11
-3.520000333333333
 21
-1.975814616982036
 31
0.0
  0
LINE
  5
E5
330
D3
100
AcDbEntity
  8
AM_9
100
AcDbLine
 10
-3.459000333333333
 20
-1.83147704968463
 30
0.0
 11
-3.459000333333333
 21
-1.975814616982036
 31
0.0
  0
LINE
  5
E6
330
D3
100
AcDbEntity
  8
AM_9
100
AcDbLine
 10
-3.459000333333333
 20
-1.867561441508982
 30
0.0
 11
-3.520000333333333
 21
-1.867561441508982
 31
0.0
  0
LINE
  5
E7
330
D3
100
AcDbEntity
  8
AM_9
100
AcDbLine
 10
-3.459000333333333
 20
-1.939730225157685
 30
0.0
 11
-3.520000333333333
 21
-1.939730225157685
 31
0.0
  0
LINE
  5
E8
330
D3
100
AcDbEntity
  8
AM_9
100
AcDbLine
 10
-2.619000333333333
 20
-1.833445833333333
 30
0.0
 11
-2.619000333333333
 21
-1.973845833333333
 31
0.0
  0
LINE
  5
E9
330
D3
100
AcDbEntity
  8
AM_9
100
AcDbLine
 10
-2.619000333333333
 20
-1.833445833333333
 30
0.0
 11
-2.643800333333334
 21
-1.808645833333333
 31
0.0
  0
LINE
  5
EA
330
D3
100
AcDbEntity
  8
AM_9
100
AcDbLine
 10
-2.643800333333334
 20
-1.998645833333333
 30
0.0
 11
-2.619000333333333
 21
-1.973845833333333
 31
0.0
  0
LINE
  5
EB
330
D3
100
AcDbEntity
  8
AM_9
100
AcDbLine
 10
-2.643800333333334
 20
-1.808645833333333
 30
0.0
 11
-2.643800333333334
 21
-1.998645833333333
 31
0.0
  0
LINE
  5
EC
330
D3
100
AcDbEntity
  8
AM_9
100
AcDbLine
 10
-3.316833333333333
 20
-1.998645833333333
 30
0.0
 11
-2.643800333333334
 21
-1.998645833333333
 31
0.0
  0
LINE
  5
ED
330
D3
100
AcDbEntity
  8
AM_9
100
AcDbLine
 10
-2.643800333333334
 20
-1.808645833333333
 30
0.0
 11
-3.316833333333333
 21
-1.808645833333333
 31
0.0
  0
LINE
  5
EE
330
D3
100
AcDbEntity
  8
AM_5
100
AcDbLine
 10
-2.619000333333333
 20
-1.973845833333333
 30
0.0
 11
-3.316833333333333
 21
-1.973845833333333
 31
0.0
  0
LINE
  5
EF
330
D3
100
AcDbEntity
  8
AM_5
100
AcDbLine
 10
-2.619000333333333
 20
-1.833445833333333
 30
0.0
 11
-3.316833333333333
 21
-1.833445833333333
 31
0.0
  0
LINE
  5
F0
330
D3
100
AcDbEntity
  8
AM_4
100
AcDbLine
 10
-3.419000333333333
 20
-1.998645833333333
 30
0.0
 11
-3.316833333333333
 21
-1.998645833333333
 31
0.0
  0
LINE
  5
F1
330
D3
100
AcDbEntity
  8
AM_4
100
AcDbLine
 10
-3.316833333333333
 20
-1.808645833333333
 30
0.0
 11
-3.419000333333333
 21
-1.808645833333333
 31
0.0
  0
LINE
  5
F2
330
D3
100
AcDbEntity
  8
AM_4
100
AcDbLine
 10
-3.520000333333333
 20
-1.804145833333333
 30
0.0
 11
-3.520000333333333
 21
-2.003145833333333
 31
0.0
  0
ARC
  5
F3
330
D3
100
AcDbEntity
  8
AM_4
100
AcDbCircle
 10
-3.439000333333333
 20
-2.003145833333333
 30
0.0
 40
0.0810000000000008
100
AcDbArc
 50
180.0
 51
270.0
  0
ARC
  5
F4
330
D3
100
AcDbEntity
  8
AM_4
100
AcDbCircle
 10
-3.439000333333333
 20
-1.804145833333334
 30
0.0
 40
0.0810000000000008
100
AcDbArc
 50
90.0
 51
180.0
  0
LINE
  5
F5
330
D3
100
AcDbEntity
  8
AM_4
100
AcDbLine
 10
-3.419000333333333
 20
-1.723145833333333
 30
0.0
 11
-3.419000333333333
 21
-2.084145833333333
 31
0.0
  0
LINE
  5
F6
330
D3
100
AcDbEntity
  8
AM_4
100
AcDbLine
 10
-3.439000333333333
 20
-1.723145833333333
 30
0.0
 11
-3.439000333333333
 21
-2.084145833333333
 31
0.0
  0
LINE
  5
F7
330
D3
100
AcDbEntity
  8
AM_4
100
AcDbLine
 10
-3.439000333333333
 20
-2.084145833333333
 30
0.0
 11
-3.419000333333333
 21
-2.084145833333333
 31
0.0
  0
LINE
  5
F8
330
D3
100
AcDbEntity
  8
AM_4
100
AcDbLine
 10
-3.419000333333333
 20
-1.723145833333333
 30
0.0
 11
-3.439000333333333
 21
-1.723145833333333
 31
0.0
  0
LINE
  5
F9
330
D3
100
AcDbEntity
  8
AM_5
100
AcDbLine
 10
-3.316833333333333
 20
-1.973845833333333
 30
0.0
 11
-3.459000333333333
 21
-1.973845833333333
 31
0.0
  0
LINE
  5
FA
330
D3
100
AcDbEntity
  8
AM_5
100
AcDbLine
 10
-3.719000333333333
 20
-1.998645833333333
 30
0.0
 11
-3.719000333333333
 21
-1.808645833333333
 31
0.0
  0
LINE
  5
FB
330
D3
100
AcDbEntity
  8
AM_5
100
AcDbLine
 10
-3.316833333333333
 20
-1.833445833333333
 30
0.0
 11
-3.459000333333333
 21
-1.833445833333333
 31
0.0
  0
ENDBLK
  5
D6
330
D3
100
AcDbEntity
  8
0
100
AcDbBlockEnd
  0
BLOCK
  5
FE
330
FC
100
AcDbEntity
  8
0
100
AcDbBlockBegin
  2
4_ASME_B18_3_10_2_0_in_072267_2
 70
     2
 10
0.0
 20
0.0
 30
0.0
  3
4_ASME_B18_3_10_2_0_in_072267_2
  1

  0
ATTDEF
  5
100
330
FC
100
AcDbEntity
  8
AM_6
100
AcDbText
 10
2.380999666666667
 20
2.084145833333333
 30
0.0
 40
0.5
  1
ANSI/ASME-B18.3-1998
100
AcDbAttributeDefinition
  3

  2
NN
 70
     8
280
     0
  0
ATTDEF
  5
101
330
FC
100
AcDbEntity
  8
AM_6
100
AcDbText
 10
2.380999666666667
 20
1.584145833333333
 30
0.0
 40
0.5
  1
Socket Button Head Cap Screws
100
AcDbAttributeDefinition
  3

  2
NT
 70
     8
280
     0
  0
ATTDEF
  5
102
330
FC
100
AcDbEntity
  8
AM_6
100
AcDbText
 10
2.380999666666667
 20
1.084145833333333
 30
0.0
 40
0.5
  1
ASME-B18.3-10
100
AcDbAttributeDefinition
  3

  2
NB
 70
     8
280
     0
  0
ATTDEF
  5
103
330
FC
100
AcDbEntity
  8
AM_6
100
AcDbText
 10
2.380999666666667
 20
0.5841458333333329
 30
0.0
 40
0.5
  1
ASME-B18.3-$NS.
100
AcDbAttributeDefinition
  3

  2
NBSYN
 70
     8
280
     0
  0
ATTDEF
  5
104
330
FC
100
AcDbEntity
  8
AM_6
100
AcDbText
 10
2.380999666666667
 20
0.0841458333333329
 30
0.0
 40
0.5
  1
ASME-B18.3-10
100
AcDbAttributeDefinition
  3

  2
LINA
 70
     8
280
     0
  0
ATTDEF
  5
105
330
FC
100
AcDbEntity
  8
AM_6
100
AcDbText
 10
2.380999666666667
 20
-0.4158541666666671
 30
0.0
 40
0.5
  1
10
100
AcDbAttributeDefinition
  3

  2
NS
 70
     8
280
     0
  0
ATTDEF
  5
106
330
FC
100
AcDbEntity
  8
AM_6
100
AcDbText
 10
2.380999666666667
 20
-0.9158541666666671
 30
0.0
 40
0.5
  1
0.361
100
AcDbAttributeDefinition
  3

  2
A
 70
     8
280
     0
  0
ATTDEF
  5
107
330
FC
100
AcDbEntity
  8
AM_6
100
AcDbText
 10
2.380999666666667
 20
-1.415854166666667
 30
0.0
 40
0.5
  1
0.101
100
AcDbAttributeDefinition
  3

  2
H
 70
     8
280
     0
  0
ATTDEF
  5
108
330
FC
100
AcDbEntity
  8
AM_6
100
AcDbText
 10
2.380999666666667
 20
-1.915854166666667
 30
0.0
 40
0.5
  1
0.800
100
AcDbAttributeDefinition
  3

  2
L
 70
     8
280
     0
  0
ATTDEF
  5
109
330
FC
100
AcDbEntity
  8
AM_6
100
AcDbText
 10
2.380999666666667
 20
-2.415854166666667
 30
0.0
 40
0.5
  1
0.020
100
AcDbAttributeDefinition
  3

  2
S
 70
     8
280
     0
  0
ATTDEF
  5
10A
330
FC
100
AcDbEntity
  8
AM_6
100
AcDbText
 10
2.380999666666667
 20
-2.915854166666667
 30
0.0
 40
0.5
  1
0.125000
100
AcDbAttributeDefinition
  3

  2
J
 70
     8
280
     0
  0
ATTDEF
  5
10B
330
FC
100
AcDbEntity
  8
AM_6
100
AcDbText
 10
2.380999666666667
 20
-3.415854166666667
 30
0.0
 40
0.5
  1
baldor
100
AcDbAttributeDefinition
  3

  2
COMPANY
 70
     8
280
     0
  0
LINE
  5
10C
330
FC
100
AcDbEntity
  8
AM_9
100
AcDbLine
 10
-3.459000333333333
 20
1.975814616982036
 30
0.0
 11
-3.520000333333333
 21
1.975814616982036
 31
0.0
  0
LINE
  5
10D
330
FC
100
AcDbEntity
  8
AM_9
100
AcDbLine
 10
-3.459000333333333
 20
1.83147704968463
 30
0.0
 11
-3.520000333333333
 21
1.83147704968463
 31
0.0
  0
LINE
  5
10E
330
FC
100
AcDbEntity
  8
AM_9
100
AcDbLine
 10
-3.459000333333333
 20
1.939730225157685
 30
0.0
 11
-3.520000333333333
 21
1.939730225157685
 31
0.0
  0
LINE
  5
10F
330
FC
100
AcDbEntity
  8
AM_9
100
AcDbLine
 10
-3.459000333333333
 20
1.975814616982036
 30
0.0
 11
-3.459000333333333
 21
1.83147704968463
 31
0.0
  0
LINE
  5
110
330
FC
100
AcDbEntity
  8
AM_9
100
AcDbLine
 10
-3.459000333333333
 20
1.867561441508982
 30
0.0
 11
-3.520000333333333
 21
1.867561441508982
 31
0.0
  0
LINE
  5
111
330
FC
100
AcDbEntity
  8
AM_9
100
AcDbLine
 10
-2.619000333333333
 20
1.973845833333333
 30
0.0
 11
-2.619000333333333
 21
1.833445833333333
 31
0.0
  0
LINE
  5
112
330
FC
100
AcDbEntity
  8
AM_9
100
AcDbLine
 10
-2.619000333333333
 20
1.973845833333333
 30
0.0
 11
-2.643800333333334
 21
1.998645833333333
 31
0.0
  0
LINE
  5
113
330
FC
100
AcDbEntity
  8
AM_9
100
AcDbLine
 10
-2.643800333333334
 20
1.808645833333333
 30
0.0
 11
-2.619000333333333
 21
1.833445833333333
 31
0.0
  0
LINE
  5
114
330
FC
100
AcDbEntity
  8
AM_9
100
AcDbLine
 10
-2.643800333333334
 20
1.998645833333333
 30
0.0
 11
-2.643800333333334
 21
1.808645833333333
 31
0.0
  0
LINE
  5
115
330
FC
100
AcDbEntity
  8
AM_9
100
AcDbLine
 10
-3.316833333333333
 20
1.808645833333333
 30
0.0
 11
-2.643800333333334
 21
1.808645833333333
 31
0.0
  0
LINE
  5
116
330
FC
100
AcDbEntity
  8
AM_9
100
AcDbLine
 10
-2.643800333333334
 20
1.998645833333333
 30
0.0
 11
-3.316833333333333
 21
1.998645833333333
 31
0.0
  0
LINE
  5
117
330
FC
100
AcDbEntity
  8
AM_5
100
AcDbLine
 10
-2.619000333333333
 20
1.833445833333333
 30
0.0
 11
-3.316833333333333
 21
1.833445833333333
 31
0.0
  0
LINE
  5
118
330
FC
100
AcDbEntity
  8
AM_5
100
AcDbLine
 10
-2.619000333333333
 20
1.973845833333333
 30
0.0
 11
-3.316833333333333
 21
1.973845833333333
 31
0.0
  0
LINE
  5
119
330
FC
100
AcDbEntity
  8
AM_4
100
AcDbLine
 10
-3.419000333333333
 20
1.808645833333333
 30
0.0
 11
-3.316833333333333
 21
1.808645833333333
 31
0.0
  0
LINE
  5
11A
330
FC
100
AcDbEntity
  8
AM_4
100
AcDbLine
 10
-3.316833333333333
 20
1.998645833333333
 30
0.0
 11
-3.419000333333333
 21
1.998645833333333
 31
0.0
  0
LINE
  5
11B
330
FC
100
AcDbEntity
  8
AM_4
100
AcDbLine
 10
-3.520000333333333
 20
2.003145833333333
 30
0.0
 11
-3.520000333333333
 21
1.804145833333333
 31
0.0
  0
ARC
  5
11C
330
FC
100
AcDbEntity
  8
AM_4
100
AcDbCircle
 10
-3.439000333333333
 20
1.804145833333334
 30
0.0
 40
0.0810000000000008
100
AcDbArc
 50
180.0
 51
270.0
  0
ARC
  5
11D
330
FC
100
AcDbEntity
  8
AM_4
100
AcDbCircle
 10
-3.439000333333333
 20
2.003145833333333
 30
0.0
 40
0.0810000000000004
100
AcDbArc
 50
90.0
 51
180.0
  0
LINE
  5
11E
330
FC
100
AcDbEntity
  8
AM_4
100
AcDbLine
 10
-3.419000333333333
 20
2.084145833333333
 30
0.0
 11
-3.419000333333333
 21
1.723145833333333
 31
0.0
  0
LINE
  5
11F
330
FC
100
AcDbEntity
  8
AM_4
100
AcDbLine
 10
-3.439000333333333
 20
2.084145833333333
 30
0.0
 11
-3.439000333333333
 21
1.723145833333333
 31
0.0
  0
LINE
  5
120
330
FC
100
AcDbEntity
  8
AM_4
100
AcDbLine
 10
-3.439000333333333
 20
1.723145833333333
 30
0.0
 11
-3.419000333333333
 21
1.723145833333333
 31
0.0
  0
LINE
  5
121
330
FC
100
AcDbEntity
  8
AM_4
100
AcDbLine
 10
-3.419000333333333
 20
2.084145833333333
 30
0.0
 11
-3.439000333333333
 21
2.084145833333333
 31
0.0
  0
LINE
  5
122
330
FC
100
AcDbEntity
  8
AM_5
100
AcDbLine
 10
-3.316833333333333
 20
1.833445833333333
 30
0.0
 11
-3.459000333333333
 21
1.833445833333333
 31
0.0
  0
LINE
  5
123
330
FC
100
AcDbEntity
  8
AM_5
100
AcDbLine
 10
-3.719000333333333
 20
1.808645833333333
 30
0.0
 11
-3.719000333333333
 21
1.998645833333333
 31
0.0
  0
LINE
  5
124
330
FC
100
AcDbEntity
  8
AM_5
100
AcDbLine
 10
-3.316833333333333
 20
1.973845833333333
 30
0.0
 11
-3.459000333333333
 21
1.973845833333333
 31
0.0
  0
ENDBLK
  5
FF
330
FC
100
AcDbEntity
  8
0
100
AcDbBlockEnd
  0
BLOCK
  5
127
330
125
100
AcDbEntity
  8
0
100
AcDbBlockBegin
  2
5_070900LWE_0_in_072267_2
 70
     2
 10
0.0
 20
0.0
 30
0.0
  3
5_070900LWE_0_in_072267_2
  1

  0
ATTDEF
  5
129
330
125
100
AcDbEntity
  8
AM_6
100
AcDbText
 10
2.123166666666666
 20
2.140000000000001
 30
0.0
 40
0.5
  1
Imperial/E Insert Lockwasher -Inch
100
AcDbAttributeDefinition
  3

  2
NN
 70
     8
280
     0
  0
ATTDEF
  5
12A
330
125
100
AcDbEntity
  8
AM_6
100
AcDbText
 10
2.123166666666666
 20
1.640000000000001
 30
0.0
 40
0.5
  1
Imperial/E Bearings
100
AcDbAttributeDefinition
  3

  2
NT
 70
     8
280
     0
  0
ATTDEF
  5
12B
330
125
100
AcDbEntity
  8
AM_6
100
AcDbText
 10
2.123166666666666
 20
1.140000000000001
 30
0.0
 40
0.5
  1
070900LWE
100
AcDbAttributeDefinition
  3

  2
NB
 70
     8
280
     0
  0
ATTDEF
  5
12C
330
125
100
AcDbEntity
  8
AM_6
100
AcDbText
 10
2.123166666666666
 20
0.6400000000000006
 30
0.0
 40
0.5
  1
$PN.LWE
100
AcDbAttributeDefinition
  3

  2
NBSYN
 70
     8
280
     0
  0
ATTDEF
  5
12D
330
125
100
AcDbEntity
  8
AM_6
100
AcDbText
 10
2.123166666666666
 20
0.1400000000000006
 30
0.0
 40
0.5
  1
070900
100
AcDbAttributeDefinition
  3

  2
LINA
 70
     8
280
     0
  0
ATTDEF
  5
12E
330
125
100
AcDbEntity
  8
AM_6
100
AcDbText
 10
2.123166666666666
 20
-0.3599999999999994
 30
0.0
 40
0.5
  1
3
100
AcDbAttributeDefinition
  3

  2
SS
 70
     8
280
     0
  0
ATTDEF
  5
12F
330
125
100
AcDbEntity
  8
AM_6
100
AcDbText
 10
2.123166666666666
 20
-0.8599999999999994
 30
0.0
 40
0.5
  1
4.280000
100
AcDbAttributeDefinition
  3

  2
E1
 70
     8
280
     0
  0
ATTDEF
  5
130
330
125
100
AcDbEntity
  8
AM_6
100
AcDbText
 10
2.123166666666666
 20
-1.359999999999999
 30
0.0
 40
0.5
  1
3.000000
100
AcDbAttributeDefinition
  3

  2
SS1
 70
     8
280
     0
  0
ATTDEF
  5
131
330
125
100
AcDbEntity
  8
AM_6
100
AcDbText
 10
2.123166666666666
 20
-1.859999999999999
 30
0.0
 40
0.5
  1
070900
100
AcDbAttributeDefinition
  3

  2
PN
 70
     8
280
     0
  0
ATTDEF
  5
132
330
125
100
AcDbEntity
  8
AM_6
100
AcDbText
 10
2.123166666666666
 20
-2.359999999999999
 30
0.0
 40
0.5
  1
INS-IP-300R
100
AcDbAttributeDefinition
  3

  2
DESCRIPTION
 70
     8
280
     0
  0
ATTDEF
  5
133
330
125
100
AcDbEntity
  8
AM_6
100
AcDbText
 10
2.123166666666666
 20
-2.859999999999999
 30
0.0
 40
0.5
  1
5.1181
100
AcDbAttributeDefinition
  3

  2
A
 70
     8
280
     0
  0
ATTDEF
  5
134
330
125
100
AcDbEntity
  8
AM_6
100
AcDbText
 10
2.123166666666666
 20
-3.359999999999999
 30
0.0
 40
0.5
  1
1-9/32
100
AcDbAttributeDefinition
  3

  2
B
 70
     8
280
     0
  0
ATTDEF
  5
135
330
125
100
AcDbEntity
  8
AM_6
100
AcDbText
 10
2.123166666666666
 20
-3.859999999999999
 30
0.0
 40
0.5
  1
1.281250
100
AcDbAttributeDefinition
  3

  2
B1
 70
     8
280
     0
  0
ATTDEF
  5
136
330
125
100
AcDbEntity
  8
AM_6
100
AcDbText
 10
2.123166666666666
 20
-4.359999999999999
 30
0.0
 40
0.5
  1
3-1/2
100
AcDbAttributeDefinition
  3

  2
C
 70
     8
280
     0
  0
ATTDEF
  5
137
330
125
100
AcDbEntity
  8
AM_6
100
AcDbText
 10
2.123166666666666
 20
-4.859999999999999
 30
0.0
 40
0.5
  1
3.500000
100
AcDbAttributeDefinition
  3

  2
C1
 70
     8
280
     0
  0
ATTDEF
  5
138
330
125
100
AcDbEntity
  8
AM_6
100
AcDbText
 10
2.123166666666666
 20
-5.359999999999999
 30
0.0
 40
0.5
  1
1.219
100
AcDbAttributeDefinition
  3

  2
D
 70
     8
280
     0
  0
ATTDEF
  5
139
330
125
100
AcDbEntity
  8
AM_6
100
AcDbText
 10
2.123166666666666
 20
-5.859999999999999
 30
0.0
 40
0.5
  1
4-9/32
100
AcDbAttributeDefinition
  3

  2
E
 70
     8
280
     0
  0
ATTDEF
  5
13A
330
125
100
AcDbEntity
  8
AM_6
100
AcDbText
 10
2.123166666666666
 20
-6.359999999999999
 30
0.0
 40
0.5
  1
0.1900
100
AcDbAttributeDefinition
  3

  2
NDM
 70
     8
280
     0
  0
ATTDEF
  5
13B
330
125
100
AcDbEntity
  8
AM_6
100
AcDbText
 10
2.123166666666666
 20
-6.859999999999999
 30
0.0
 40
0.5
  1
0.1450
100
AcDbAttributeDefinition
  3

  2
KDM
 70
     8
280
     0
  0
ATTDEF
  5
13C
330
125
100
AcDbEntity
  8
AM_6
100
AcDbText
 10
2.123166666666666
 20
-7.359999999999999
 30
0.0
 40
0.5
  1
3.74
100
AcDbAttributeDefinition
  3

  2
AL
 70
     8
280
     0
  0
ATTDEF
  5
13D
330
125
100
AcDbEntity
  8
AM_6
100
AcDbText
 10
2.123166666666666
 20
-7.859999999999999
 30
0.0
 40
0.5
  1
0.50
100
AcDbAttributeDefinition
  3

  2
BL
 70
     8
280
     0
  0
ATTDEF
  5
13E
330
125
100
AcDbEntity
  8
AM_6
100
AcDbText
 10
2.123166666666666
 20
-8.36
 30
0.0
 40
0.5
  1
0.07
100
AcDbAttributeDefinition
  3

  2
CL
 70
     8
280
     0
  0
ATTDEF
  5
13F
330
125
100
AcDbEntity
  8
AM_6
100
AcDbText
 10
2.123166666666666
 20
-8.86
 30
0.0
 40
0.5
  1
0.44
100
AcDbAttributeDefinition
  3

  2
DL
 70
     8
280
     0
  0
ATTDEF
  5
140
330
125
100
AcDbEntity
  8
AM_6
100
AcDbText
 10
2.123166666666666
 20
-9.36
 30
0.0
 40
0.5
  1
baldor
100
AcDbAttributeDefinition
  3

  2
COMPANY
 70
     8
280
     0
  0
LINE
  5
141
330
125
100
AcDbEntity
  8
AM_9
100
AcDbLine
 10
-3.246833333333333
 20
1.445889983053101
 30
0.0
 11
-3.316833333333333
 21
1.445889983053101
 31
0.0
  0
LINE
  5
142
330
125
100
AcDbEntity
  8
AM_9
100
AcDbLine
 10
-2.876833333333334
 20
1.406343263617088
 30
0.0
 11
-3.246833333333333
 21
1.406343263617088
 31
0.0
  0
LINE
  5
143
330
125
100
AcDbEntity
  8
AM_9
100
AcDbLine
 10
-2.876833333333334
 20
1.333163614077438
 30
0.0
 11
-3.316833333333333
 21
1.333163614077438
 31
0.0
  0
LINE
  5
144
330
125
100
AcDbEntity
  8
AM_9
100
AcDbLine
 10
-3.246833333333333
 20
1.50201412170836
 30
0.0
 11
-2.876833333333334
 21
1.50201412170836
 31
0.0
  0
LINE
  5
145
330
125
100
AcDbEntity
  8
AM_9
100
AcDbLine
 10
-2.876833333333334
 20
1.428834472168711
 30
0.0
 11
-3.316833333333333
 21
1.428834472168711
 31
0.0
  0
LINE
  5
146
330
125
100
AcDbEntity
  8
AM_9
100
AcDbLine
 10
-2.876833333333334
 20
1.333163614077438
 30
0.0
 11
-2.876833333333334
 21
1.50201412170836
 31
0.0
  0
LINE
  5
147
330
125
100
AcDbEntity
  8
AM_9
100
AcDbLine
 10
-3.246833333333333
 20
1.541560841144374
 30
0.0
 11
-3.316833333333333
 21
1.541560841144374
 31
0.0
  0
LINE
  5
148
330
125
100
AcDbEntity
  8
AM_9
100
AcDbLine
 10
-3.246833333333333
 20
1.903333333333333
 30
0.0
 11
-3.316833333333333
 21
1.903333333333333
 31
0.0
  0
LINE
  5
149
330
125
100
AcDbEntity
  8
AM_9
100
AcDbLine
 10
-3.246833333333333
 20
1.9983629492314
 30
0.0
 11
-3.316833333333333
 21
1.9983629492314
 31
0.0
  0
LINE
  5
14A
330
125
100
AcDbEntity
  8
AM_9
100
AcDbLine
 10
-3.246833333333333
 20
-1.903333333333333
 30
0.0
 11
-3.316833333333333
 21
-1.903333333333333
 31
0.0
  0
LINE
  5
14B
330
125
100
AcDbEntity
  8
AM_9
100
AcDbLine
 10
-3.316833333333333
 20
-1.9983629492314
 30
0.0
 11
-3.246833333333333
 21
-1.9983629492314
 31
0.0
  0
LINE
  5
14C
330
125
100
AcDbEntity
  8
AM_9
100
AcDbLine
 10
-3.246833333333333
 20
1.618836521613821
 30
0.0
 11
-3.316833333333333
 21
1.618836521613821
 31
0.0
  0
LINE
  5
14D
330
125
100
AcDbEntity
  8
AM_9
100
AcDbLine
 10
-3.246833333333333
 20
-1.618836521613822
 30
0.0
 11
-3.316833333333333
 21
-1.618836521613822
 31
0.0
  0
LINE
  5
14E
330
125
100
AcDbEntity
  8
AM_9
100
AcDbLine
 10
-3.246833333333333
 20
1.211865426278298
 30
0.0
 11
-3.316833333333333
 21
1.211865426278298
 31
0.0
  0
LINE
  5
14F
330
125
100
AcDbEntity
  8
AM_9
100
AcDbLine
 10
-3.246833333333333
 20
-1.211865426278298
 30
0.0
 11
-3.316833333333333
 21
-1.211865426278298
 31
0.0
  0
LINE
  5
150
330
125
100
AcDbEntity
  8
AM_9
100
AcDbLine
 10
-3.246833333333333
 20
-1.077515137852854
 30
0.0
 11
-3.316833333333333
 21
-1.077515137852854
 31
0.0
  0
LINE
  5
151
330
125
100
AcDbEntity
  8
AM_9
100
AcDbLine
 10
-3.246833333333333
 20
1.077515137852854
 30
0.0
 11
-3.316833333333333
 21
1.077515137852854
 31
0.0
  0
LINE
  5
152
330
125
100
AcDbEntity
  8
AM_9
100
AcDbLine
 10
-3.246833333333333
 20
1.413035051071118
 30
0.0
 11
-3.316833333333333
 21
1.413035051071118
 31
0.0
  0
LINE
  5
153
330
125
100
AcDbEntity
  8
AM_9
100
AcDbLine
 10
-3.246833333333333
 20
1.278684762645674
 30
0.0
 11
-3.316833333333333
 21
1.278684762645674
 31
0.0
  0
LINE
  5
154
330
125
100
AcDbEntity
  8
AM_9
100
AcDbLine
 10
-3.246833333333333
 20
1.440880849812418
 30
0.0
 11
-3.316833333333333
 21
1.440880849812418
 31
0.0
  0
LINE
  5
155
330
125
100
AcDbEntity
  8
AM_9
100
AcDbLine
 10
-3.246833333333333
 20
-1.278684762645673
 30
0.0
 11
-3.316833333333333
 21
-1.278684762645673
 31
0.0
  0
LINE
  5
156
330
125
100
AcDbEntity
  8
AM_9
100
AcDbLine
 10
-3.246833333333333
 20
-1.413035051071144
 30
0.0
 11
-3.316833333333333
 21
-1.413035051071144
 31
0.0
  0
LINE
  5
157
330
125
100
AcDbEntity
  8
AM_9
100
AcDbLine
 10
-3.316833333333333
 20
-1.440880849812417
 30
0.0
 11
-3.246833333333333
 21
-1.440880849812417
 31
0.0
  0
LINE
  5
158
330
125
100
AcDbEntity
  8
AM_9
100
AcDbLine
 10
-3.246833333333333
 20
0.0950000000000001
 30
0.0
 11
-3.316833333333333
 21
0.0950000000000001
 31
0.0
  0
LINE
  5
159
330
125
100
AcDbEntity
  8
AM_9
100
AcDbLine
 10
-3.246833333333333
 20
-0.0949999999999995
 30
0.0
 11
-3.316833333333333
 21
-0.0949999999999995
 31
0.0
  0
LINE
  5
15A
330
125
100
AcDbEntity
  8
AM_4
100
AcDbLine
 10
-3.246833333333333
 20
2.140000000000001
 30
0.0
 11
-3.316833333333333
 21
2.140000000000001
 31
0.0
  0
LINE
  5
15B
330
125
100
AcDbEntity
  8
AM_4
100
AcDbLine
 10
-3.316833333333333
 20
-2.140000000000001
 30
0.0
 11
-3.246833333333333
 21
-2.140000000000001
 31
0.0
  0
LINE
  5
15C
330
125
100
AcDbEntity
  8
AM_4
100
AcDbLine
 10
-3.316833333333333
 20
2.140000000000001
 30
0.0
 11
-3.316833333333333
 21
-2.140000000000001
 31
0.0
  0
LINE
  5
15D
330
125
100
AcDbEntity
  8
AM_4
100
AcDbLine
 10
-3.246833333333333
 20
-1.326515590093167
 30
0.0
 11
-3.246833333333333
 21
-1.679623992928702
 31
0.0
  0
LINE
  5
15E
330
125
100
AcDbEntity
  8
AM_4
100
AcDbLine
 10
-3.246833333333333
 20
1.680068980686441
 30
0.0
 11
-3.246833333333333
 21
1.326515590093167
 31
0.0
  0
ENDBLK
  5
128
330
125
100
AcDbEntity
  8
0
100
AcDbBlockEnd
  0
BLOCK
  5
161
330
15F
100
AcDbEntity
  8
0
100
AcDbBlockBegin
  2
6_070900E_0_in_072267_2
 70
     2
 10
0.0
 20
0.0
 30
0.0
  3
6_070900E_0_in_072267_2
  1

  0
ATTDEF
  5
163
330
15F
100
AcDbEntity
  8
AM_6
100
AcDbText
 10
5.181250000000001
 20
2.55905
 30
0.0
 40
0.5
  1
Imperial/E Insert -Inch
100
AcDbAttributeDefinition
  3

  2
NN
 70
     8
280
     0
  0
ATTDEF
  5
164
330
15F
100
AcDbEntity
  8
AM_6
100
AcDbText
 10
5.181250000000001
 20
2.05905
 30
0.0
 40
0.5
  1
Imperial Bearings
100
AcDbAttributeDefinition
  3

  2
NT
 70
     8
280
     0
  0
ATTDEF
  5
165
330
15F
100
AcDbEntity
  8
AM_6
100
AcDbText
 10
5.181250000000001
 20
1.55905
 30
0.0
 40
0.5
  1
070900E
100
AcDbAttributeDefinition
  3

  2
NB
 70
     8
280
     0
  0
ATTDEF
  5
166
330
15F
100
AcDbEntity
  8
AM_6
100
AcDbText
 10
5.181250000000001
 20
1.05905
 30
0.0
 40
0.5
  1
$PN.
100
AcDbAttributeDefinition
  3

  2
NBSYN
 70
     8
280
     0
  0
ATTDEF
  5
167
330
15F
100
AcDbEntity
  8
AM_6
100
AcDbText
 10
5.181250000000001
 20
0.55905
 30
0.0
 40
0.5
  1
070900E
100
AcDbAttributeDefinition
  3

  2
LINA
 70
     8
280
     0
  0
ATTDEF
  5
168
330
15F
100
AcDbEntity
  8
AM_6
100
AcDbText
 10
5.181250000000001
 20
0.05905
 30
0.0
 40
0.5
  1
3
100
AcDbAttributeDefinition
  3

  2
SS
 70
     8
280
     0
  0
ATTDEF
  5
169
330
15F
100
AcDbEntity
  8
AM_6
100
AcDbText
 10
5.181250000000001
 20
-0.44095
 30
0.0
 40
0.5
  1
3.000000
100
AcDbAttributeDefinition
  3

  2
SS1
 70
     8
280
     0
  0
ATTDEF
  5
16A
330
15F
100
AcDbEntity
  8
AM_6
100
AcDbText
 10
5.181250000000001
 20
-0.94095
 30
0.0
 40
0.5
  1
070900E
100
AcDbAttributeDefinition
  3

  2
PN
 70
     8
280
     0
  0
ATTDEF
  5
16B
330
15F
100
AcDbEntity
  8
AM_6
100
AcDbText
 10
5.181250000000001
 20
-1.44095
 30
0.0
 40
0.5
  1
INS-IP-300R
100
AcDbAttributeDefinition
  3

  2
DESCRIPTION
 70
     8
280
     0
  0
ATTDEF
  5
16C
330
15F
100
AcDbEntity
  8
AM_6
100
AcDbText
 10
5.181250000000001
 20
-1.94095
 30
0.0
 40
0.5
  1
Contact Seal
100
AcDbAttributeDefinition
  3

  2
ST
 70
     8
280
     0
  0
ATTDEF
  5
16D
330
15F
100
AcDbEntity
  8
AM_6
100
AcDbText
 10
5.181250000000001
 20
-2.44095
 30
0.0
 40
0.5
  1
1
100
AcDbAttributeDefinition
  3

  2
ST1
 70
     8
280
     0
  0
ATTDEF
  5
16E
330
15F
100
AcDbEntity
  8
AM_6
100
AcDbText
 10
5.181250000000001
 20
-2.94095
 30
0.0
 40
0.5
  1
5.1181
100
AcDbAttributeDefinition
  3

  2
A
 70
     8
280
     0
  0
ATTDEF
  5
16F
330
15F
100
AcDbEntity
  8
AM_6
100
AcDbText
 10
5.181250000000001
 20
-3.44095
 30
0.0
 40
0.5
  1
1-9/32
100
AcDbAttributeDefinition
  3

  2
B
 70
     8
280
     0
  0
ATTDEF
  5
170
330
15F
100
AcDbEntity
  8
AM_6
100
AcDbText
 10
5.181250000000001
 20
-3.94095
 30
0.0
 40
0.5
  1
1.281250
100
AcDbAttributeDefinition
  3

  2
B1
 70
     8
280
     0
  0
ATTDEF
  5
171
330
15F
100
AcDbEntity
  8
AM_6
100
AcDbText
 10
5.181250000000001
 20
-4.44095
 30
0.0
 40
0.5
  1
3-1/2
100
AcDbAttributeDefinition
  3

  2
C
 70
     8
280
     0
  0
ATTDEF
  5
172
330
15F
100
AcDbEntity
  8
AM_6
100
AcDbText
 10
5.181250000000001
 20
-4.94095
 30
0.0
 40
0.5
  1
3.500000
100
AcDbAttributeDefinition
  3

  2
C1
 70
     8
280
     0
  0
ATTDEF
  5
173
330
15F
100
AcDbEntity
  8
AM_6
100
AcDbText
 10
5.181250000000001
 20
-5.44095
 30
0.0
 40
0.5
  1
4.59000
100
AcDbAttributeDefinition
  3

  2
CR
 70
     8
280
     0
  0
ATTDEF
  5
174
330
15F
100
AcDbEntity
  8
AM_6
100
AcDbText
 10
5.181250000000001
 20
-5.94095
 30
0.0
 40
0.5
  1
1.219
100
AcDbAttributeDefinition
  3

  2
D
 70
     8
280
     0
  0
ATTDEF
  5
175
330
15F
100
AcDbEntity
  8
AM_6
100
AcDbText
 10
5.181250000000001
 20
-6.44095
 30
0.0
 40
0.5
  1
4-9/32
100
AcDbAttributeDefinition
  3

  2
E
 70
     8
280
     0
  0
ATTDEF
  5
176
330
15F
100
AcDbEntity
  8
AM_6
100
AcDbText
 10
5.181250000000001
 20
-6.94095
 30
0.0
 40
0.5
  1
4.281250
100
AcDbAttributeDefinition
  3

  2
E1
 70
     8
280
     0
  0
ATTDEF
  5
177
330
15F
100
AcDbEntity
  8
AM_6
100
AcDbText
 10
5.181250000000001
 20
-7.44095
 30
0.0
 40
0.5
  1
0.1900
100
AcDbAttributeDefinition
  3

  2
NDM
 70
     8
280
     0
  0
ATTDEF
  5
178
330
15F
100
AcDbEntity
  8
AM_6
100
AcDbText
 10
5.181250000000001
 20
-7.94095
 30
0.0
 40
0.5
  1
0.1450
100
AcDbAttributeDefinition
  3

  2
KDM
 70
     8
280
     0
  0
ATTDEF
  5
179
330
15F
100
AcDbEntity
  8
AM_6
100
AcDbText
 10
5.181250000000001
 20
-8.44095
 30
0.0
 40
0.5
  1
3.74
100
AcDbAttributeDefinition
  3

  2
AL
 70
     8
280
     0
  0
ATTDEF
  5
17A
330
15F
100
AcDbEntity
  8
AM_6
100
AcDbText
 10
5.181250000000001
 20
-8.94095
 30
0.0
 40
0.5
  1
0.50
100
AcDbAttributeDefinition
  3

  2
BL
 70
     8
280
     0
  0
ATTDEF
  5
17B
330
15F
100
AcDbEntity
  8
AM_6
100
AcDbText
 10
5.181250000000001
 20
-9.44095
 30
0.0
 40
0.5
  1
0.07
100
AcDbAttributeDefinition
  3

  2
CL
 70
     8
280
     0
  0
ATTDEF
  5
17C
330
15F
100
AcDbEntity
  8
AM_6
100
AcDbText
 10
5.181250000000001
 20
-9.94095
 30
0.0
 40
0.5
  1
0.44
100
AcDbAttributeDefinition
  3

  2
DL
 70
     8
280
     0
  0
ATTDEF
  5
17D
330
15F
100
AcDbEntity
  8
AM_6
100
AcDbText
 10
5.181250000000001
 20
-10.44095
 30
0.0
 40
0.5
  1
0.8000
100
AcDbAttributeDefinition
  3

  2
LL
 70
     8
280
     0
  0
ATTDEF
  5
17E
330
15F
100
AcDbEntity
  8
AM_6
100
AcDbText
 10
5.181250000000001
 20
-10.94095
 30
0.0
 40
0.5
  1
0.025
100
AcDbAttributeDefinition
  3

  2
Y
 70
     8
280
     0
  0
ATTDEF
  5
17F
330
15F
100
AcDbEntity
  8
AM_6
100
AcDbText
 10
5.181250000000001
 20
-11.44095
 30
0.0
 40
0.5
  1
0.025000
100
AcDbAttributeDefinition
  3

  2
Y1
 70
     8
280
     0
  0
ATTDEF
  5
180
330
15F
100
AcDbEntity
  8
AM_6
100
AcDbText
 10
5.181250000000001
 20
-11.94095
 30
0.0
 40
0.5
  1
3-15/32
100
AcDbAttributeDefinition
  3

  2
Z
 70
     8
280
     0
  0
ATTDEF
  5
181
330
15F
100
AcDbEntity
  8
AM_6
100
AcDbText
 10
5.181250000000001
 20
-12.44095
 30
0.0
 40
0.5
  1
3.468750
100
AcDbAttributeDefinition
  3

  2
Z1
 70
     8
280
     0
  0
ATTDEF
  5
182
330
15F
100
AcDbEntity
  8
AM_6
100
AcDbText
 10
5.181250000000001
 20
-12.94095
 30
0.0
 40
0.5
  1
1.10000
100
AcDbAttributeDefinition
  3

  2
P1
 70
     8
280
     0
  0
ATTDEF
  5
183
330
15F
100
AcDbEntity
  8
AM_6
100
AcDbText
 10
5.181250000000001
 20
-13.44095
 30
0.0
 40
0.5
  1
1.61000
100
AcDbAttributeDefinition
  3

  2
H1
 70
     8
280
     0
  0
ATTDEF
  5
184
330
15F
100
AcDbEntity
  8
AM_6
100
AcDbText
 10
5.181250000000001
 20
-13.94095
 30
0.0
 40
0.5
  1
0.79000
100
AcDbAttributeDefinition
  3

  2
G1
 70
     8
280
     0
  0
ATTDEF
  5
185
330
15F
100
AcDbEntity
  8
AM_6
100
AcDbText
 10
5.181250000000001
 20
-14.44095
 30
0.0
 40
0.5
  1
0.10100
100
AcDbAttributeDefinition
  3

  2
CW
 70
     8
280
     0
  0
ATTDEF
  5
186
330
15F
100
AcDbEntity
  8
AM_6
100
AcDbText
 10
5.181250000000001
 20
-14.94095
 30
0.0
 40
0.5
  1
4.28000
100
AcDbAttributeDefinition
  3

  2
L1
 70
     8
280
     0
  0
ATTDEF
  5
187
330
15F
100
AcDbEntity
  8
AM_6
100
AcDbText
 10
5.181250000000001
 20
-15.44095
 30
0.0
 40
0.5
  1
baldor
100
AcDbAttributeDefinition
  3

  2
COMPANY
 70
     8
280
     0
  0
LINE
  5
188
330
15F
100
AcDbEntity
  8
AM_9
100
AcDbLine
 10
-0.5983750000000004
 20
1.50587517155613
 30
0.0
 11
-3.246833333333334
 21
1.50587517155613
 31
0.0
  0
LINE
  5
189
330
15F
100
AcDbEntity
  8
AM_9
100
AcDbLine
 10
-0.5983750000000004
 20
1.410204313464857
 30
0.0
 11
-3.246833333333334
 21
1.410204313464857
 31
0.0
  0
LINE
  5
18A
330
15F
100
AcDbEntity
  8
AM_9
100
AcDbLine
 10
-2.406833333333335
 20
-1.903645833333333
 30
0.0
 11
-2.448662360336101
 21
-1.831195833333333
 31
0.0
  0
LINE
  5
18B
330
15F
100
AcDbEntity
  8
AM_9
100
AcDbLine
 10
-2.448662360336101
 20
-1.976095833333333
 30
0.0
 11
-2.406833333333335
 21
-1.903645833333333
 31
0.0
  0
LINE
  5
18C
330
15F
100
AcDbEntity
  8
AM_9
100
AcDbLine
 10
-2.406833333333334
 20
1.903645833333333
 30
0.0
 11
-2.448662360336122
 21
1.976095833333333
 31
0.0
  0
LINE
  5
18D
330
15F
100
AcDbEntity
  8
AM_9
100
AcDbLine
 10
-2.448662360336122
 20
1.831195833333333
 30
0.0
 11
-2.406833333333334
 21
1.903645833333333
 31
0.0
  0
LINE
  5
18E
330
15F
100
AcDbEntity
  8
AM_9
100
AcDbLine
 10
-3.224283333333338
 20
-1.976095833333333
 30
0.0
 11
-2.448662360336101
 21
-1.976095833333333
 31
0.0
  0
LINE
  5
18F
330
15F
100
AcDbEntity
  8
AM_9
100
AcDbLine
 10
-2.448662360336101
 20
-1.831195833333333
 30
0.0
 11
-3.224283333333338
 21
-1.831195833333333
 31
0.0
  0
LINE
  5
190
330
15F
100
AcDbEntity
  8
AM_9
100
AcDbLine
 10
-2.448662360336101
 20
-1.831195833333333
 30
0.0
 11
-2.448662360336101
 21
-1.976095833333333
 31
0.0
  0
LINE
  5
191
330
15F
100
AcDbEntity
  8
AM_9
100
AcDbLine
 10
-2.448662360336122
 20
1.831195833333333
 30
0.0
 11
-2.448662360336122
 21
1.976095833333333
 31
0.0
  0
LINE
  5
192
330
15F
100
AcDbEntity
  8
AM_9
100
AcDbLine
 10
-2.448662360336122
 20
1.976095833333333
 30
0.0
 11
-3.224283333333333
 21
1.976095833333333
 31
0.0
  0
LINE
  5
193
330
15F
100
AcDbEntity
  8
AM_9
100
AcDbLine
 10
-3.224283333333333
 20
1.831195833333333
 30
0.0
 11
-2.448662360336122
 21
1.831195833333333
 31
0.0
  0
LINE
  5
194
330
15F
100
AcDbEntity
  8
AM_9
100
AcDbLine
 10
-3.224283333333333
 20
1.831195833333333
 30
0.0
 11
-3.224283333333333
 21
1.976095833333333
 31
0.0
  0
LINE
  5
195
330
15F
100
AcDbEntity
  8
AM_9
100
AcDbLine
 10
-3.224283333333333
 20
1.976095833333333
 30
0.0
 11
-3.246833333333333
 21
1.998645833333333
 31
0.0
  0
LINE
  5
196
330
15F
100
AcDbEntity
  8
AM_9
100
AcDbLine
 10
-3.246833333333333
 20
1.808645833333333
 30
0.0
 11
-3.224283333333333
 21
1.831195833333333
 31
0.0
  0
LINE
  5
197
330
15F
100
AcDbEntity
  8
AM_9
100
AcDbLine
 10
-3.224283333333338
 20
-1.831195833333333
 30
0.0
 11
-3.246833333333314
 21
-1.808645833333333
 31
0.0
  0
LINE
  5
198
330
15F
100
AcDbEntity
  8
AM_9
100
AcDbLine
 10
-3.246833333333314
 20
-1.998645833333333
 30
0.0
 11
-3.224283333333338
 21
-1.976095833333333
 31
0.0
  0
LINE
  5
199
330
15F
100
AcDbEntity
  8
AM_9
100
AcDbLine
 10
-3.224283333333338
 20
-1.831195833333333
 30
0.0
 11
-3.224283333333338
 21
-1.976095833333333
 31
0.0
  0
LINE
  5
19A
330
15F
100
AcDbEntity
  8
AM_9
100
AcDbLine
 10
-2.806833333333334
 20
-1.145512985522207
 30
0.0
 11
-3.246833333333333
 21
-1.145512985522207
 31
0.0
  0
LINE
  5
19B
330
15F
100
AcDbEntity
  8
AM_9
100
AcDbLine
 10
-2.806833333333334
 20
-1.499066376115481
 30
0.0
 11
-2.83
 21
-1.499066376115481
 31
0.0
  0
LINE
  5
19C
330
15F
100
AcDbEntity
  8
AM_9
100
AcDbLine
 10
-2.806833333333334
 20
1.145512985522207
 30
0.0
 11
-3.246833333333333
 21
1.145512985522207
 31
0.0
  0
LINE
  5
19D
330
15F
100
AcDbEntity
  8
AM_9
100
AcDbLine
 10
-2.806833333333334
 20
1.499066376115481
 30
0.0
 11
-2.83
 21
1.499066376115481
 31
0.0
  0
LINE
  5
19E
330
15F
100
AcDbEntity
  8
AM_9
100
AcDbLine
 10
-0.5983750000000004
 20
1.42883447216871
 30
0.0
 11
-3.52
 21
1.42883447216871
 31
0.0
  0
LINE
  5
19F
330
15F
100
AcDbEntity
  8
AM_9
100
AcDbLine
 10
-3.52
 20
1.333163614077437
 30
0.0
 11
-0.5983750000000004
 21
1.333163614077438
 31
0.0
  0
LINE
  5
1A0
330
15F
100
AcDbEntity
  8
AM_9
100
AcDbLine
 10
-0.5983750000000004
 20
1.5
 30
0.0
 11
-3.52
 21
1.5
 31
0.0
  0
LINE
  5
1A1
330
15F
100
AcDbEntity
  8
AM_9
100
AcDbLine
 10
-3.52
 20
-1.5
 30
0.0
 11
-0.5983750000000004
 21
-1.5
 31
0.0
  0
LINE
  5
1A2
330
15F
100
AcDbEntity
  8
AM_9
100
AcDbLine
 10
-0.0199999999999998
 20
1.578947368421053
 30
0.0
 11
-0.5983750000000004
 21
1.578947368421053
 31
0.0
  0
LINE
  5
1A3
330
15F
100
AcDbEntity
  8
AM_9
100
AcDbLine
 10
-0.5983750000000004
 20
-1.578947368421053
 30
0.0
 11
-0.0199999999999998
 21
-1.578947368421053
 31
0.0
  0
LINE
  5
1A4
330
15F
100
AcDbEntity
  8
AM_9
100
AcDbLine
 10
-3.52
 20
1.50201412170836
 30
0.0
 11
-3.246833333333333
 21
1.502014121708361
 31
0.0
  0
LINE
  5
1A5
330
15F
100
AcDbEntity
  8
AM_9
100
AcDbLine
 10
-3.246833333333333
 20
1.406343263617088
 30
0.0
 11
-3.52
 21
1.406343263617088
 31
0.0
  0
LINE
  5
1A6
330
15F
100
AcDbEntity
  8
AM_9
100
AcDbLine
 10
-3.246833333333333
 20
1.578947368421053
 30
0.0
 11
-3.316833333333333
 21
1.578947368421053
 31
0.0
  0
LINE
  5
1A7
330
15F
100
AcDbEntity
  8
AM_9
100
AcDbLine
 10
-3.316833333333333
 20
-1.578947368421053
 30
0.0
 11
-3.246833333333333
 21
-1.578947368421053
 31
0.0
  0
LINE
  5
1A8
330
15F
100
AcDbEntity
  8
AM_9
100
AcDbLine
 10
-2.806833333333334
 20
1.685537006793197
 30
0.0
 11
-2.806833333333334
 21
1.145512985522207
 31
0.0
  0
LINE
  5
1A9
330
15F
100
AcDbEntity
  8
AM_9
100
AcDbLine
 10
-2.806833333333334
 20
-1.145512985522207
 30
0.0
 11
-2.806833333333334
 21
-1.685537006793197
 31
0.0
  0
LINE
  5
1AA
330
15F
100
AcDbEntity
  8
AM_9
100
AcDbLine
 10
-0.0199999999999998
 20
-1.734375
 30
0.0
 11
-0.0199999999999998
 21
1.734375
 31
0.0
  0
LINE
  5
1AB
330
15F
100
AcDbEntity
  8
AM_9
100
AcDbLine
 10
0.004999999999999
 20
1.734375
 30
0.0
 11
-0.0199999999999998
 21
1.734375
 31
0.0
  0
LINE
  5
1AC
330
15F
100
AcDbEntity
  8
AM_9
100
AcDbLine
 10
-0.0199999999999998
 20
-1.734375
 30
0.0
 11
0.004999999999999
 21
-1.734375
 31
0.0
  0
LINE
  5
1AD
330
15F
100
AcDbEntity
  8
AM_9
100
AcDbLine
 10
-2.830000000166925
 20
-1.331695723056717
 30
0.0
 11
-2.806833333333334
 21
-1.331983616199923
 31
0.0
  0
LINE
  5
1AE
330
15F
100
AcDbEntity
  8
AM_9
100
AcDbLine
 10
-2.806833333333334
 20
-1.685537006793197
 30
0.0
 11
-2.830000000166925
 21
-1.68524911364999
 31
0.0
  0
LINE
  5
1AF
330
15F
100
AcDbEntity
  8
AM_9
100
AcDbLine
 10
-2.830000000166925
 20
1.68524911364999
 30
0.0
 11
-2.806833333333334
 21
1.685537006793197
 31
0.0
  0
LINE
  5
1B0
330
15F
100
AcDbEntity
  8
AM_9
100
AcDbLine
 10
-2.806833333333334
 20
1.331983616199923
 30
0.0
 11
-2.830000000166925
 21
1.331695723056717
 31
0.0
  0
LINE
  5
1B1
330
15F
100
AcDbEntity
  8
AM_9
100
AcDbLine
 10
-2.83
 20
-2.147900852897579
 30
0.0
 11
-1.928752379678136
 21
-2.163632188626698
 31
0.0
  0
LINE
  5
1B2
330
15F
100
AcDbEntity
  8
AM_9
100
AcDbLine
 10
-1.928752379678136
 20
2.163632188626698
 30
0.0
 11
-2.83
 21
2.147900852897579
 31
0.0
  0
LINE
  5
1B3
330
15F
100
AcDbEntity
  8
AM_9
100
AcDbLine
 10
-1.928752379678136
 20
-2.163632188626698
 30
0.0
 11
-1.928752379678136
 21
2.163632188626698
 31
0.0
  0
ARC
  5
1B4
330
15F
100
AcDbEntity
  8
AM_9
100
AcDbCircle
 10
-1.929625000000001
 20
2.213624573384519
 30
0.0
 40
0.0500000000000007
100
AcDbArc
 50
271.0000000000002
 51
0.0
  0
ARC
  5
1B5
330
15F
100
AcDbEntity
  8
AM_9
100
AcDbCircle
 10
-1.929625000000001
 20
-2.213624573384519
 30
0.0
 40
0.0500000000000003
100
AcDbArc
 50
0.0
 51
88.99999999999989
  0
ARC
  5
1B6
330
15F
100
AcDbEntity
  8
AM_9
100
AcDbCircle
 10
-0.442125000000001
 20
2.153368966601195
 30
0.0
 40
0.1000000000000003
100
AcDbArc
 50
0.0
 51
59.99999999999971
  0
ARC
  5
1B7
330
15F
100
AcDbEntity
  8
AM_9
100
AcDbCircle
 10
-0.442124999999999
 20
-2.153368966601196
 30
0.0
 40
0.0999999999999985
100
AcDbArc
 50
299.9999999999996
 51
0.0
  0
LINE
  5
1B8
330
15F
100
AcDbEntity
  8
AM_9
100
AcDbLine
 10
-0.3421250000000006
 20
1.909090909090909
 30
0.0
 11
-0.3421250000000007
 21
2.3125
 31
0.0
  0
LINE
  5
1B9
330
15F
100
AcDbEntity
  8
AM_9
100
AcDbLine
 10
-0.0000000000000001
 20
2.3125
 30
0.0
 11
-0.3421250000000007
 21
2.3125
 31
0.0
  0
LINE
  5
1BA
330
15F
100
AcDbEntity
  8
AM_9
100
AcDbLine
 10
-0.3421250000000007
 20
-2.3125
 30
0.0
 11
-0.0000000000000002
 21
-2.3125
 31
0.0
  0
LINE
  5
1BB
330
15F
100
AcDbEntity
  8
AM_9
100
AcDbLine
 10
-0.3421250000000007
 20
-2.3125
 30
0.0
 11
-0.3421250000000006
 21
-1.909090909090909
 31
0.0
  0
LINE
  5
1BC
330
15F
100
AcDbEntity
  8
AM_9
100
AcDbLine
 10
-0.3921250000000003
 20
1.909090909090909
 30
0.0
 11
-0.3921250000000004
 21
2.239971506979639
 31
0.0
  0
LINE
  5
1BD
330
15F
100
AcDbEntity
  8
AM_9
100
AcDbLine
 10
-0.3921250000000004
 20
2.239971506979639
 30
0.0
 11
-0.5983750000000004
 21
2.35905
 31
0.0
  0
LINE
  5
1BE
330
15F
100
AcDbEntity
  8
AM_9
100
AcDbLine
 10
-0.5983750000000004
 20
-2.35905
 30
0.0
 11
-0.3921250000000004
 21
-2.239971506979639
 31
0.0
  0
LINE
  5
1BF
330
15F
100
AcDbEntity
  8
AM_9
100
AcDbLine
 10
-0.3921250000000004
 20
-2.239971506979639
 30
0.0
 11
-0.3921250000000003
 21
-1.909090909090909
 31
0.0
  0
LINE
  5
1C0
330
15F
100
AcDbEntity
  8
AM_9
100
AcDbLine
 10
-1.22201349838004
 20
2.4949875
 30
0.0
 11
-1.295986501619961
 21
2.4949875
 31
0.0
  0
LINE
  5
1C1
330
15F
100
AcDbEntity
  8
AM_9
100
AcDbLine
 10
-1.295986501619961
 20
-2.4949875
 30
0.0
 11
-1.22201349838004
 21
-2.4949875
 31
0.0
  0
LINE
  5
1C2
330
15F
100
AcDbEntity
  8
AM_9
100
AcDbLine
 10
-0.5983750000000003
 20
1.909090909090909
 30
0.0
 11
-0.5983750000000004
 21
2.50905
 31
0.0
  0
LINE
  5
1C3
330
15F
100
AcDbEntity
  8
AM_9
100
AcDbLine
 10
-0.5983750000000004
 20
-2.50905
 30
0.0
 11
-0.5983750000000003
 21
-1.909090909090909
 31
0.0
  0
ARC
  5
1C4
330
15F
100
AcDbEntity
  8
AM_9
100
AcDbCircle
 10
-0.648375000000001
 20
2.50905
 30
0.0
 40
0.0500000000000005
100
AcDbArc
 50
0.0
 51
90.0
  0
ARC
  5
1C5
330
15F
100
AcDbEntity
  8
AM_9
100
AcDbCircle
 10
-0.648375000000001
 20
-2.50905
 30
0.0
 40
0.0500000000000003
100
AcDbArc
 50
270.0
 51
0.0
  0
LINE
  5
1C6
330
15F
100
AcDbEntity
  8
AM_9
100
AcDbLine
 10
-1.295986501619961
 20
-2.494987500000001
 30
0.0
 11
-1.295986501619961
 21
2.494987500000001
 31
0.0
  0
LINE
  5
1C7
330
15F
100
AcDbEntity
  8
AM_9
100
AcDbLine
 10
-1.295986501619961
 20
2.494987500000001
 30
0.0
 11
-1.332973003239921
 21
2.55905
 31
0.0
  0
LINE
  5
1C8
330
15F
100
AcDbEntity
  8
AM_9
100
AcDbLine
 10
-1.332973003239921
 20
-2.55905
 30
0.0
 11
-1.295986501619961
 21
-2.494987500000001
 31
0.0
  0
LINE
  5
1C9
330
15F
100
AcDbEntity
  8
AM_9
100
AcDbLine
 10
-1.22201349838004
 20
-2.4949875
 30
0.0
 11
-1.22201349838004
 21
2.4949875
 31
0.0
  0
LINE
  5
1CA
330
15F
100
AcDbEntity
  8
AM_9
100
AcDbLine
 10
-1.22201349838004
 20
-2.4949875
 30
0.0
 11
-1.18502699676008
 21
-2.55905
 31
0.0
  0
LINE
  5
1CB
330
15F
100
AcDbEntity
  8
AM_9
100
AcDbLine
 10
-1.18502699676008
 20
2.55905
 30
0.0
 11
-1.22201349838004
 21
2.4949875
 31
0.0
  0
LINE
  5
1CC
330
15F
100
AcDbEntity
  8
AM_9
100
AcDbLine
 10
-1.332973003239921
 20
-2.55905
 30
0.0
 11
-1.332973003239921
 21
2.55905
 31
0.0
  0
LINE
  5
1CD
330
15F
100
AcDbEntity
  8
AM_9
100
AcDbLine
 10
-1.332973003239921
 20
2.55905
 30
0.0
 11
-1.869625000000001
 21
2.55905
 31
0.0
  0
LINE
  5
1CE
330
15F
100
AcDbEntity
  8
AM_9
100
AcDbLine
 10
-1.869625000000001
 20
-2.55905
 30
0.0
 11
-1.332973003239921
 21
-2.55905
 31
0.0
  0
LINE
  5
1CF
330
15F
100
AcDbEntity
  8
AM_9
100
AcDbLine
 10
-1.869625000000001
 20
-2.55905
 30
0.0
 11
-1.869625000000001
 21
2.55905
 31
0.0
  0
LINE
  5
1D0
330
15F
100
AcDbEntity
  8
AM_9
100
AcDbLine
 10
-1.879625
 20
-2.549049999999999
 30
0.0
 11
-1.879625
 21
2.549049999999999
 31
0.0
  0
ARC
  5
1D1
330
15F
100
AcDbEntity
  8
AM_9
100
AcDbCircle
 10
-1.869625000000001
 20
2.549050000000001
 30
0.0
 40
0.0099999999999989
100
AcDbArc
 50
90.0
 51
180.0
  0
ARC
  5
1D2
330
15F
100
AcDbEntity
  8
AM_9
100
AcDbCircle
 10
-1.869625000000001
 20
-2.549050000000001
 30
0.0
 40
0.0099999999999989
100
AcDbArc
 50
180.0
 51
270.0
  0
LINE
  5
1D3
330
15F
100
AcDbEntity
  8
AM_9
100
AcDbLine
 10
-0.6483750000000001
 20
-2.55905
 30
0.0
 11
-0.6483750000000001
 21
2.55905
 31
0.0
  0
LINE
  5
1D4
330
15F
100
AcDbEntity
  8
AM_9
100
AcDbLine
 10
-1.18502699676008
 20
-2.55905
 30
0.0
 11
-1.18502699676008
 21
2.55905
 31
0.0
  0
LINE
  5
1D5
330
15F
100
AcDbEntity
  8
AM_9
100
AcDbLine
 10
-0.6483750000000001
 20
2.55905
 30
0.0
 11
-1.18502699676008
 21
2.55905
 31
0.0
  0
LINE
  5
1D6
330
15F
100
AcDbEntity
  8
AM_9
100
AcDbLine
 10
-1.18502699676008
 20
-2.55905
 30
0.0
 11
-0.6483750000000001
 21
-2.55905
 31
0.0
  0
LINE
  5
1D7
330
15F
100
AcDbEntity
  8
AM_5
100
AcDbLine
 10
-2.546833333333334
 20
1.998645833333333
 30
0.0
 11
-2.507775587622655
 21
1.976095833333333
 31
0.0
  0
LINE
  5
1D8
330
15F
100
AcDbEntity
  8
AM_5
100
AcDbLine
 10
-2.546833333333334
 20
1.808645833333333
 30
0.0
 11
-2.507775587622656
 21
1.831195833333333
 31
0.0
  0
LINE
  5
1D9
330
15F
100
AcDbEntity
  8
AM_5
100
AcDbLine
 10
-2.546833333333337
 20
-1.998645833333333
 30
0.0
 11
-2.507775587622657
 21
-1.976095833333333
 31
0.0
  0
LINE
  5
1DA
330
15F
100
AcDbEntity
  8
AM_5
100
AcDbLine
 10
-2.546833333333337
 20
-1.808645833333333
 30
0.0
 11
-2.507775587622658
 21
-1.831195833333333
 31
0.0
  0
LINE
  5
1DB
330
15F
100
AcDbEntity
  8
AM_7
100
AcDbLine
 10
0.1812500000000013
 20
0.0
 30
0.0
 11
-3.696250000000001
 21
0.0
 31
0.0
  0
LINE
  5
1DC
330
15F
100
AcDbEntity
  8
AM_7
100
AcDbLine
 10
-2.364833333333334
 20
1.903645833333333
 30
0.0
 11
-3.565050333333333
 21
1.903645833333333
 31
0.0
  0
LINE
  5
1DD
330
15F
100
AcDbEntity
  8
AM_7
100
AcDbLine
 10
-2.364833333333336
 20
-1.903645833333333
 30
0.0
 11
-3.565050333333333
 21
-1.903645833333333
 31
0.0
  0
LINE
  5
1DE
330
15F
100
AcDbEntity
  8
AM_4
100
AcDbLine
 10
-2.83
 20
-1.499066376115481
 30
0.0
 11
-3.246833333333333
 21
-1.499066376115481
 31
0.0
  0
LINE
  5
1DF
330
15F
100
AcDbEntity
  8
AM_4
100
AcDbLine
 10
-2.83
 20
1.499066376115481
 30
0.0
 11
-3.246833333333333
 21
1.499066376115481
 31
0.0
  0
LINE
  5
1E0
330
15F
100
AcDbEntity
  8
AM_4
100
AcDbLine
 10
-3.316833333333333
 20
1.578947368421053
 30
0.0
 11
-3.52
 21
1.578947368421053
 31
0.0
  0
LINE
  5
1E1
330
15F
100
AcDbEntity
  8
AM_4
100
AcDbLine
 10
-3.52
 20
-1.578947368421053
 30
0.0
 11
-3.316833333333333
 21
-1.578947368421053
 31
0.0
  0
LINE
  5
1E2
330
15F
100
AcDbEntity
  8
AM_4
100
AcDbLine
 10
-3.52
 20
-1.578947368421053
 30
0.0
 11
-3.52
 21
1.578947368421053
 31
0.0
  0
LINE
  5
1E3
330
15F
100
AcDbEntity
  8
AM_4
100
AcDbLine
 10
-3.246833333333333
 20
-1.326515590093167
 30
0.0
 11
-3.246833333333333
 21
1.326515590093167
 31
0.0
  0
LINE
  5
1E4
330
15F
100
AcDbEntity
  8
AM_4
100
AcDbLine
 10
-3.246833333333333
 20
-1.326515590093167
 30
0.0
 11
-2.830000000166925
 21
-1.331695723056717
 31
0.0
  0
LINE
  5
1E5
330
15F
100
AcDbEntity
  8
AM_4
100
AcDbLine
 10
-2.830000000166925
 20
-1.68524911364999
 30
0.0
 11
-3.246833333333333
 21
-1.680068980686441
 31
0.0
  0
LINE
  5
1E6
330
15F
100
AcDbEntity
  8
AM_4
100
AcDbLine
 10
-3.246833333333333
 20
1.680068980686441
 30
0.0
 11
-3.246833333333333
 21
2.140625
 31
0.0
  0
LINE
  5
1E7
330
15F
100
AcDbEntity
  8
AM_4
100
AcDbLine
 10
-3.246833333333333
 20
1.680068980686441
 30
0.0
 11
-2.830000000166925
 21
1.68524911364999
 31
0.0
  0
LINE
  5
1E8
330
15F
100
AcDbEntity
  8
AM_4
100
AcDbLine
 10
-2.830000000166925
 20
1.331695723056717
 30
0.0
 11
-3.246833333333333
 21
1.326515590093167
 31
0.0
  0
LINE
  5
1E9
330
15F
100
AcDbEntity
  8
AM_4
100
AcDbLine
 10
-3.246833333333333
 20
-2.140625
 30
0.0
 11
-2.83
 21
-2.147900852897579
 31
0.0
  0
LINE
  5
1EA
330
15F
100
AcDbEntity
  8
AM_4
100
AcDbLine
 10
-2.83
 20
2.147900852897579
 30
0.0
 11
-3.246833333333333
 21
2.140625
 31
0.0
  0
LINE
  5
1EB
330
15F
100
AcDbEntity
  8
AM_4
100
AcDbLine
 10
-3.246833333333333
 20
-2.140625
 30
0.0
 11
-3.246833333333333
 21
-1.680068980686441
 31
0.0
  0
LINE
  5
1EC
330
15F
100
AcDbEntity
  8
AM_4
100
AcDbLine
 10
0.0050000000000012
 20
-2.3125
 30
0.0
 11
0.0050000000000012
 21
2.3125
 31
0.0
  0
LINE
  5
1ED
330
15F
100
AcDbEntity
  8
AM_4
100
AcDbLine
 10
-0.3421250000000006
 20
-1.909090909090909
 30
0.0
 11
-0.3421250000000006
 21
1.909090909090909
 31
0.0
  0
LINE
  5
1EE
330
15F
100
AcDbEntity
  8
AM_4
100
AcDbLine
 10
0.0050000000000012
 20
2.3125
 30
0.0
 11
-0.0000000000000001
 21
2.3125
 31
0.0
  0
LINE
  5
1EF
330
15F
100
AcDbEntity
  8
AM_4
100
AcDbLine
 10
-0.0000000000000002
 20
-2.3125
 30
0.0
 11
0.0050000000000012
 21
-2.3125
 31
0.0
  0
LINE
  5
1F0
330
15F
100
AcDbEntity
  8
AM_4
100
AcDbLine
 10
-0.3921250000000003
 20
-1.909090909090909
 30
0.0
 11
-0.3921250000000003
 21
1.909090909090909
 31
0.0
  0
LINE
  5
1F1
330
15F
100
AcDbEntity
  8
AM_4
100
AcDbLine
 10
-0.5983750000000003
 20
-1.909090909090909
 30
0.0
 11
-0.5983750000000003
 21
1.909090909090909
 31
0.0
  0
ENDBLK
  5
162
330
15F
100
AcDbEntity
  8
0
100
AcDbBlockEnd
  0
BLOCK
  5
1F4
330
1F2
100
AcDbEntity
  8
0
100
AcDbBlockBegin
  2
7_405015E_Inch_2_0_in_072267_2
 70
     2
 10
0.0
 20
0.0
 30
0.0
  3
7_405015E_Inch_2_0_in_072267_2
  1

  0
ATTDEF
  5
1F6
330
1F2
100
AcDbEntity
  8
AM_6
100
AcDbText
 10
3.307590742770461
 20
3.782
 30
0.0
 40
0.5
  1
405015E -Inch
100
AcDbAttributeDefinition
  3

  2
NN
 70
     8
280
     0
  0
ATTDEF
  5
1F7
330
1F2
100
AcDbEntity
  8
AM_6
100
AcDbText
 10
3.307590742770461
 20
3.282
 30
0.0
 40
0.5
  1
Grease Fitting
100
AcDbAttributeDefinition
  3

  2
NT
 70
     8
280
     0
  0
ATTDEF
  5
1F8
330
1F2
100
AcDbEntity
  8
AM_6
100
AcDbText
 10
3.307590742770461
 20
2.782
 30
0.0
 40
0.5
  1
405015E-Inch
100
AcDbAttributeDefinition
  3

  2
NB
 70
     8
280
     0
  0
ATTDEF
  5
1F9
330
1F2
100
AcDbEntity
  8
AM_6
100
AcDbText
 10
3.307590742770461
 20
2.282
 30
0.0
 40
0.5
  1
$MN.-Inch
100
AcDbAttributeDefinition
  3

  2
NBSYN
 70
     8
280
     0
  0
ATTDEF
  5
1FA
330
1F2
100
AcDbEntity
  8
AM_6
100
AcDbText
 10
3.307590742770461
 20
1.782
 30
0.0
 40
0.5
  1
405015E
100
AcDbAttributeDefinition
  3

  2
LINA
 70
     8
280
     0
  0
ATTDEF
  5
1FB
330
1F2
100
AcDbEntity
  8
AM_6
100
AcDbText
 10
3.307590742770461
 20
1.282
 30
0.0
 40
0.5
  1
405015E
100
AcDbAttributeDefinition
  3

  2
MN
 70
     8
280
     0
  0
ATTDEF
  5
1FC
330
1F2
100
AcDbEntity
  8
AM_6
100
AcDbText
 10
3.307590742770461
 20
0.7819999999999996
 30
0.0
 40
0.5
  1
1/8 x 27PTF
100
AcDbAttributeDefinition
  3

  2
T
 70
     8
280
     0
  0
ATTDEF
  5
1FD
330
1F2
100
AcDbEntity
  8
AM_6
100
AcDbText
 10
3.307590742770461
 20
0.2819999999999996
 30
0.0
 40
0.5
  1
baldor
100
AcDbAttributeDefinition
  3

  2
COMPANY
 70
     8
280
     0
  0
LINE
  5
1FE
330
1F2
100
AcDbEntity
  8
AM_9
100
AcDbLine
 10
-2.106902872472269
 20
3.11
 30
0.0
 11
-1.783097127527731
 21
3.11
 31
0.0
  0
LINE
  5
1FF
330
1F2
100
AcDbEntity
  8
AM_9
100
AcDbLine
 10
-1.783097127527731
 20
3.11
 30
0.0
 11
-1.746382373218785
 21
3.146714754308947
 31
0.0
  0
LINE
  5
200
330
1F2
100
AcDbEntity
  8
AM_9
100
AcDbLine
 10
-2.143617626781216
 20
3.146714754308947
 30
0.0
 11
-2.106902872472269
 21
3.11
 31
0.0
  0
LINE
  5
201
330
1F2
100
AcDbEntity
  8
AM_9
100
AcDbLine
 10
-2.143617626781216
 20
3.146714754308947
 30
0.0
 11
-1.746382373218785
 21
3.146714754308947
 31
0.0
  0
LINE
  5
202
330
1F2
100
AcDbEntity
  8
AM_9
100
AcDbLine
 10
-1.746382373218785
 20
3.146714754308947
 30
0.0
 11
-1.73924810277693
 21
3.375
 31
0.0
  0
LINE
  5
203
330
1F2
100
AcDbEntity
  8
AM_9
100
AcDbLine
 10
-2.15075189722307
 20
3.375
 30
0.0
 11
-2.143617626781216
 21
3.146714754308947
 31
0.0
  0
LINE
  5
204
330
1F2
100
AcDbEntity
  8
AM_5
100
AcDbLine
 10
-1.776850875147652
 20
3.309870087748463
 30
0.0
 11
-1.783097127527731
 21
3.11
 31
0.0
  0
LINE
  5
205
330
1F2
100
AcDbEntity
  8
AM_5
100
AcDbLine
 10
-1.73924810277693
 20
3.375
 30
0.0
 11
-1.776850875147652
 21
3.309870087748463
 31
0.0
  0
LINE
  5
206
330
1F2
100
AcDbEntity
  8
AM_5
100
AcDbLine
 10
-2.148716485751557
 20
3.309870087748463
 30
0.0
 11
-1.741283514248443
 21
3.309870087748463
 31
0.0
  0
LINE
  5
207
330
1F2
100
AcDbEntity
  8
AM_5
100
AcDbLine
 10
-2.113149124852348
 20
3.309870087748463
 30
0.0
 11
-2.106902872472269
 21
3.11
 31
0.0
  0
LINE
  5
208
330
1F2
100
AcDbEntity
  8
AM_5
100
AcDbLine
 10
-2.15075189722307
 20
3.375
 30
0.0
 11
-2.113149124852348
 21
3.309870087748463
 31
0.0
  0
LINE
  5
209
330
1F2
100
AcDbEntity
  8
AM_7
100
AcDbLine
 10
-1.945
 20
3.782
 30
0.0
 11
-1.945
 21
3.078
 31
0.0
  0
LINE
  5
20A
330
1F2
100
AcDbEntity
  8
AM_4
100
AcDbLine
 10
-1.84
 20
3.58
 30
0.0
 11
-1.84
 21
3.61
 31
0.0
  0
LINE
  5
20B
330
1F2
100
AcDbEntity
  8
AM_4
100
AcDbLine
 10
-2.05
 20
3.61
 30
0.0
 11
-2.05
 21
3.58
 31
0.0
  0
LINE
  5
20C
330
1F2
100
AcDbEntity
  8
AM_4
100
AcDbLine
 10
-2.16375
 20
3.475
 30
0.0
 11
-1.72625
 21
3.475
 31
0.0
  0
LINE
  5
20D
330
1F2
100
AcDbEntity
  8
AM_4
100
AcDbLine
 10
-1.692409257229539
 20
3.465932400303386
 30
0.0
 11
-1.72625
 21
3.475
 31
0.0
  0
LINE
  5
20E
330
1F2
100
AcDbEntity
  8
AM_4
100
AcDbLine
 10
-2.16375
 20
3.475
 30
0.0
 11
-2.197590742770462
 21
3.465932400303386
 31
0.0
  0
LINE
  5
20F
330
1F2
100
AcDbEntity
  8
AM_4
100
AcDbLine
 10
-1.72625
 20
3.375
 30
0.0
 11
-1.692409257229539
 21
3.384067599696615
 31
0.0
  0
LINE
  5
210
330
1F2
100
AcDbEntity
  8
AM_4
100
AcDbLine
 10
-2.197590742770462
 20
3.384067599696615
 30
0.0
 11
-2.16375
 21
3.375
 31
0.0
  0
LINE
  5
211
330
1F2
100
AcDbEntity
  8
AM_4
100
AcDbLine
 10
-2.05
 20
3.58
 30
0.0
 11
-1.84
 21
3.58
 31
0.0
  0
LINE
  5
212
330
1F2
100
AcDbEntity
  8
AM_4
100
AcDbLine
 10
-2.05
 20
3.58
 30
0.0
 11
-2.063820090734898
 21
3.547753121618573
 31
0.0
  0
LINE
  5
213
330
1F2
100
AcDbEntity
  8
AM_4
100
AcDbLine
 10
-1.826179909265103
 20
3.547753121618573
 30
0.0
 11
-1.84
 21
3.58
 31
0.0
  0
LINE
  5
214
330
1F2
100
AcDbEntity
  8
AM_4
100
AcDbLine
 10
-2.05
 20
3.61
 30
0.0
 11
-1.84
 21
3.61
 31
0.0
  0
LINE
  5
215
330
1F2
100
AcDbEntity
  8
AM_4
100
AcDbLine
 10
-1.84
 20
3.61
 30
0.0
 11
-1.81
 21
3.67
 31
0.0
  0
LINE
  5
216
330
1F2
100
AcDbEntity
  8
AM_4
100
AcDbLine
 10
-2.08
 20
3.67
 30
0.0
 11
-2.05
 21
3.61
 31
0.0
  0
LINE
  5
217
330
1F2
100
AcDbEntity
  8
AM_4
100
AcDbLine
 10
-2.047677901933187
 20
3.75
 30
0.0
 11
-1.842322098066813
 21
3.75
 31
0.0
  0
LINE
  5
218
330
1F2
100
AcDbEntity
  8
AM_4
100
AcDbLine
 10
-2.08
 20
3.67
 30
0.0
 11
-1.81
 21
3.67
 31
0.0
  0
LINE
  5
219
330
1F2
100
AcDbEntity
  8
AM_4
100
AcDbLine
 10
-2.047677901933187
 20
3.75
 30
0.0
 11
-2.08
 21
3.67
 31
0.0
  0
LINE
  5
21A
330
1F2
100
AcDbEntity
  8
AM_4
100
AcDbLine
 10
-1.81
 20
3.67
 30
0.0
 11
-1.842322098066813
 21
3.75
 31
0.0
  0
LINE
  5
21B
330
1F2
100
AcDbEntity
  8
AM_4
100
AcDbLine
 10
-2.063820090734898
 20
3.547753121618573
 30
0.0
 11
-1.826179909265103
 21
3.547753121618573
 31
0.0
  0
LINE
  5
21C
330
1F2
100
AcDbEntity
  8
AM_4
100
AcDbLine
 10
-2.063820090734898
 20
3.547753121618573
 30
0.0
 11
-2.117534053283015
 21
3.493318198540882
 31
0.0
  0
LINE
  5
21D
330
1F2
100
AcDbEntity
  8
AM_4
100
AcDbLine
 10
-1.772465946716985
 20
3.493318198540882
 30
0.0
 11
-1.826179909265103
 21
3.547753121618573
 31
0.0
  0
LINE
  5
21E
330
1F2
100
AcDbEntity
  8
AM_4
100
AcDbLine
 10
-2.117534053283015
 20
3.493318198540882
 30
0.0
 11
-1.772465946716985
 21
3.493318198540882
 31
0.0
  0
LINE
  5
21F
330
1F2
100
AcDbEntity
  8
AM_4
100
AcDbLine
 10
-2.117534053283015
 20
3.493318198540882
 30
0.0
 11
-2.15875
 21
3.475
 31
0.0
  0
LINE
  5
220
330
1F2
100
AcDbEntity
  8
AM_4
100
AcDbLine
 10
-1.73125
 20
3.475
 30
0.0
 11
-1.772465946716985
 21
3.493318198540882
 31
0.0
  0
LWPOLYLINE
  5
221
330
1F2
100
AcDbEntity
  8
AM_4
100
AcDbPolyline
 90
        3
 70
     0
 43
0.0
 10
-2.197590742770462
 20
3.465932400303386
 10
-2.166158864423565
 20
3.47258547505038
 10
-2.134443057077846
 20
3.475
  0
LINE
  5
222
330
1F2
100
AcDbEntity
  8
AM_4
100
AcDbLine
 10
-2.197590742770462
 20
3.465932400303386
 30
0.0
 11
-2.197590742770462
 21
3.384067599696615
 31
0.0
  0
LWPOLYLINE
  5
223
330
1F2
100
AcDbEntity
  8
AM_4
100
AcDbPolyline
 90
        3
 70
     0
 43
0.0
 10
-2.134443057077846
 20
3.375
 10
-2.166016899924154
 20
3.377393380785035
 10
-2.197590742770462
 20
3.384067599696615
  0
LWPOLYLINE
  5
224
330
1F2
100
AcDbEntity
  8
AM_4
100
AcDbPolyline
 90
        3
 70
     0
 43
0.0
 10
-2.071295371385231
 20
3.384067599696615
 10
-2.102727249732128
 20
3.37741452494962
 10
-2.134443057077846
 20
3.375
  0
LWPOLYLINE
  5
225
330
1F2
100
AcDbEntity
  8
AM_4
100
AcDbPolyline
 90
        4
 70
     0
 43
0.0
 10
-1.945
 20
3.475
 10
-1.896600183944101
 20
3.473582439282862
 10
-1.848200367888202
 20
3.469517587482156
 10
-1.818704628614769
 20
3.465932400303386
  0
LINE
  5
226
330
1F2
100
AcDbEntity
  8
AM_4
100
AcDbLine
 10
-2.071295371385231
 20
3.465932400303386
 30
0.0
 11
-2.071295371385231
 21
3.384067599696615
 31
0.0
  0
LWPOLYLINE
  5
227
330
1F2
100
AcDbEntity
  8
AM_4
100
AcDbPolyline
 90
        3
 70
     0
 43
0.0
 10
-1.945
 20
3.375
 10
-2.008147685692616
 20
3.377393380785035
 10
-2.071295371385231
 20
3.384067599696615
  0
LWPOLYLINE
  5
228
330
1F2
100
AcDbEntity
  8
AM_4
100
AcDbPolyline
 90
        4
 70
     0
 43
0.0
 10
-1.818704628614769
 20
3.384067599696615
 10
-1.848200367888202
 20
3.380482412517844
 10
-1.896457558752246
 20
3.376425828243072
 10
-1.945
 20
3.375
  0
LWPOLYLINE
  5
229
330
1F2
100
AcDbEntity
  8
AM_4
100
AcDbPolyline
 90
        3
 70
     0
 43
0.0
 10
-2.134443057077846
 20
3.475
 10
-2.102869214231539
 20
3.472606619214965
 10
-2.071295371385231
 20
3.465932400303386
  0
LWPOLYLINE
  5
22A
330
1F2
100
AcDbEntity
  8
AM_4
100
AcDbPolyline
 90
        3
 70
     0
 43
0.0
 10
-2.071295371385231
 20
3.465932400303386
 10
-2.008431614691437
 20
3.47258547505038
 10
-1.945
 20
3.475
  0
LINE
  5
22B
330
1F2
100
AcDbEntity
  8
AM_4
100
AcDbLine
 10
-1.692409257229539
 20
3.465932400303386
 30
0.0
 11
-1.692409257229539
 21
3.384067599696615
 31
0.0
  0
LWPOLYLINE
  5
22C
330
1F2
100
AcDbEntity
  8
AM_4
100
AcDbPolyline
 90
        3
 70
     0
 43
0.0
 10
-1.755556942922154
 20
3.475
 10
-1.723983100075847
 20
3.472606619214965
 10
-1.692409257229539
 20
3.465932400303386
  0
LWPOLYLINE
  5
22D
330
1F2
100
AcDbEntity
  8
AM_4
100
AcDbPolyline
 90
        3
 70
     0
 43
0.0
 10
-1.818704628614769
 20
3.465932400303386
 10
-1.787272750267872
 20
3.47258547505038
 10
-1.755556942922154
 20
3.475
  0
LINE
  5
22E
330
1F2
100
AcDbEntity
  8
AM_4
100
AcDbLine
 10
-1.818704628614769
 20
3.465932400303386
 30
0.0
 11
-1.818704628614769
 21
3.384067599696615
 31
0.0
  0
LWPOLYLINE
  5
22F
330
1F2
100
AcDbEntity
  8
AM_4
100
AcDbPolyline
 90
        3
 70
     0
 43
0.0
 10
-1.755556942922154
 20
3.375
 10
-1.787130785768462
 20
3.377393380785035
 10
-1.818704628614769
 20
3.384067599696615
  0
LWPOLYLINE
  5
230
330
1F2
100
AcDbEntity
  8
AM_4
100
AcDbPolyline
 90
        3
 70
     0
 43
0.0
 10
-1.692409257229539
 20
3.384067599696615
 10
-1.723841135576436
 20
3.37741452494962
 10
-1.755556942922154
 20
3.375
  0
ENDBLK
  5
1F5
330
1F2
100
AcDbEntity
  8
0
100
AcDbBlockEnd
  0
BLOCK
  5
233
330
231
100
AcDbEntity
  8
0
100
AcDbBlockBegin
  2
8_072267DUMMY_0_in_072267_2
 70
     2
 10
0.0
 20
0.0
 30
0.0
  3
8_072267DUMMY_0_in_072267_2
  1

  0
ATTDEF
  5
235
330
231
100
AcDbEntity
  8
AM_6
100
AcDbText
 10
5.0636
 20
3.715
 30
0.0
 40
0.5
  1
SEF4B-IP-207-408-(Contact Seal) Housing
100
AcDbAttributeDefinition
  3

  2
NN
 70
     8
280
     0
  0
ATTDEF
  5
236
330
231
100
AcDbEntity
  8
AM_6
100
AcDbText
 10
5.0636
 20
3.215
 30
0.0
 40
0.5
  1
Steel Imperial/E 4 Bolt Flange Bearing-Inch-207-408
100
AcDbAttributeDefinition
  3

  2
NT
 70
     8
280
     0
  0
ATTDEF
  5
237
330
231
100
AcDbEntity
  8
AM_6
100
AcDbText
 10
5.0636
 20
2.715
 30
0.0
 40
0.5
  1
072267DUMMY
100
AcDbAttributeDefinition
  3

  2
NB
 70
     8
280
     0
  0
ATTDEF
  5
238
330
231
100
AcDbEntity
  8
AM_6
100
AcDbText
 10
5.0636
 20
2.215
 30
0.0
 40
0.5
  1
$PN.
100
AcDbAttributeDefinition
  3

  2
NBSYN
 70
     8
280
     0
  0
ATTDEF
  5
239
330
231
100
AcDbEntity
  8
AM_6
100
AcDbText
 10
5.0636
 20
1.715
 30
0.0
 40
0.5
  1
072267DUMMY
100
AcDbAttributeDefinition
  3

  2
LINA
 70
     8
280
     0
  0
ATTDEF
  5
23A
330
231
100
AcDbEntity
  8
AM_6
100
AcDbText
 10
5.0636
 20
1.215
 30
0.0
 40
0.5
  1
3
100
AcDbAttributeDefinition
  3

  2
SS
 70
     8
280
     0
  0
ATTDEF
  5
23B
330
231
100
AcDbEntity
  8
AM_6
100
AcDbText
 10
5.0636
 20
0.7150000000000003
 30
0.0
 40
0.5
  1
3.0000
100
AcDbAttributeDefinition
  3

  2
SS1
 70
     8
280
     0
  0
ATTDEF
  5
23C
330
231
100
AcDbEntity
  8
AM_6
100
AcDbText
 10
5.0636
 20
0.2150000000000003
 30
0.0
 40
0.5
  1
5.1181
100
AcDbAttributeDefinition
  3

  2
BORE
 70
     8
280
     0
  0
ATTDEF
  5
23D
330
231
100
AcDbEntity
  8
AM_6
100
AcDbText
 10
5.0636
 20
-0.2849999999999997
 30
0.0
 40
0.5
  1
Expansion
100
AcDbAttributeDefinition
  3

  2
TYPE
 70
     8
280
     0
  0
ATTDEF
  5
23E
330
231
100
AcDbEntity
  8
AM_6
100
AcDbText
 10
5.0636
 20
-0.7849999999999997
 30
0.0
 40
0.5
  1
Contact Seal
100
AcDbAttributeDefinition
  3

  2
ST
 70
     8
280
     0
  0
ATTDEF
  5
23F
330
231
100
AcDbEntity
  8
AM_6
100
AcDbText
 10
5.0636
 20
-1.285
 30
0.0
 40
0.5
  1
1
100
AcDbAttributeDefinition
  3

  2
ST1
 70
     8
280
     0
  0
ATTDEF
  5
240
330
231
100
AcDbEntity
  8
AM_6
100
AcDbText
 10
5.0636
 20
-1.785
 30
0.0
 40
0.5
  1
3.50
100
AcDbAttributeDefinition
  3

  2
A
 70
     8
280
     0
  0
ATTDEF
  5
241
330
231
100
AcDbEntity
  8
AM_6
100
AcDbText
 10
5.0636
 20
-2.285
 30
0.0
 40
0.5
  1
3.500000
100
AcDbAttributeDefinition
  3

  2
A1
 70
     8
280
     0
  0
ATTDEF
  5
242
330
231
100
AcDbEntity
  8
AM_6
100
AcDbText
 10
5.0636
 20
-2.785
 30
0.0
 40
0.5
  1
7.43
100
AcDbAttributeDefinition
  3

  2
B
 70
     8
280
     0
  0
ATTDEF
  5
243
330
231
100
AcDbEntity
  8
AM_6
100
AcDbText
 10
5.0636
 20
-3.285
 30
0.0
 40
0.5
  1
7.430000
100
AcDbAttributeDefinition
  3

  2
B1
 70
     8
280
     0
  0
ATTDEF
  5
244
330
231
100
AcDbEntity
  8
AM_6
100
AcDbText
 10
5.0636
 20
-3.785
 30
0.0
 40
0.5
  1
3.77
100
AcDbAttributeDefinition
  3

  2
C
 70
     8
280
     0
  0
ATTDEF
  5
245
330
231
100
AcDbEntity
  8
AM_6
100
AcDbText
 10
5.0636
 20
-4.285
 30
0.0
 40
0.5
  1
3.770000
100
AcDbAttributeDefinition
  3

  2
C1
 70
     8
280
     0
  0
ATTDEF
  5
246
330
231
100
AcDbEntity
  8
AM_6
100
AcDbText
 10
5.0636
 20
-4.785
 30
0.0
 40
0.5
  1
6.00
100
AcDbAttributeDefinition
  3

  2
D
 70
     8
280
     0
  0
ATTDEF
  5
247
330
231
100
AcDbEntity
  8
AM_6
100
AcDbText
 10
5.0636
 20
-5.285
 30
0.0
 40
0.5
  1
6.000000
100
AcDbAttributeDefinition
  3

  2
D1
 70
     8
280
     0
  0
ATTDEF
  5
248
330
231
100
AcDbEntity
  8
AM_6
100
AcDbText
 10
5.0636
 20
-5.785
 30
0.0
 40
0.5
  1
8.49
100
AcDbAttributeDefinition
  3

  2
DD
 70
     8
280
     0
  0
ATTDEF
  5
249
330
231
100
AcDbEntity
  8
AM_6
100
AcDbText
 10
5.0636
 20
-6.285
 30
0.0
 40
0.5
  1
8.490000
100
AcDbAttributeDefinition
  3

  2
DD1
 70
     8
280
     0
  0
ATTDEF
  5
24A
330
231
100
AcDbEntity
  8
AM_6
100
AcDbText
 10
5.0636
 20
-6.785
 30
0.0
 40
0.5
  1
3/4
100
AcDbAttributeDefinition
  3

  2
F
 70
     8
280
     0
  0
ATTDEF
  5
24B
330
231
100
AcDbEntity
  8
AM_6
100
AcDbText
 10
5.0636
 20
-7.285
 30
0.0
 40
0.5
  1
0.750
100
AcDbAttributeDefinition
  3

  2
F1
 70
     8
280
     0
  0
ATTDEF
  5
24C
330
231
100
AcDbEntity
  8
AM_6
100
AcDbText
 10
5.0636
 20
-7.785
 30
0.0
 40
0.5
  1
0.94
100
AcDbAttributeDefinition
  3

  2
G
 70
     8
280
     0
  0
ATTDEF
  5
24D
330
231
100
AcDbEntity
  8
AM_6
100
AcDbText
 10
5.0636
 20
-8.285
 30
0.0
 40
0.5
  1
0.940000
100
AcDbAttributeDefinition
  3

  2
G1
 70
     8
280
     0
  0
ATTDEF
  5
24E
330
231
100
AcDbEntity
  8
AM_6
100
AcDbText
 10
5.0636
 20
-8.785
 30
0.0
 40
0.5
  1
1.06
100
AcDbAttributeDefinition
  3

  2
H
 70
     8
280
     0
  0
ATTDEF
  5
24F
330
231
100
AcDbEntity
  8
AM_6
100
AcDbText
 10
5.0636
 20
-9.285
 30
0.0
 40
0.5
  1
1.060000
100
AcDbAttributeDefinition
  3

  2
H1
 70
     8
280
     0
  0
ATTDEF
  5
250
330
231
100
AcDbEntity
  8
AM_6
100
AcDbText
 10
5.0636
 20
-9.785
 30
0.0
 40
0.5
  1
6.66
100
AcDbAttributeDefinition
  3

  2
J
 70
     8
280
     0
  0
ATTDEF
  5
251
330
231
100
AcDbEntity
  8
AM_6
100
AcDbText
 10
5.0636
 20
-10.285
 30
0.0
 40
0.5
  1
6.660000
100
AcDbAttributeDefinition
  3

  2
J1
 70
     8
280
     0
  0
ATTDEF
  5
252
330
231
100
AcDbEntity
  8
AM_6
100
AcDbText
 10
5.0636
 20
-10.785
 30
0.0
 40
0.5
  1
7-7/8
100
AcDbAttributeDefinition
  3

  2
K
 70
     8
280
     0
  0
ATTDEF
  5
253
330
231
100
AcDbEntity
  8
AM_6
100
AcDbText
 10
5.0636
 20
-11.285
 30
0.0
 40
0.5
  1
6.1250
100
AcDbAttributeDefinition
  3

  2
K1
 70
     8
280
     0
  0
ATTDEF
  5
254
330
231
100
AcDbEntity
  8
AM_6
100
AcDbText
 10
5.0636
 20
-11.785
 30
0.0
 40
0.5
  1
4.20
100
AcDbAttributeDefinition
  3

  2
L
 70
     8
280
     0
  0
ATTDEF
  5
255
330
231
100
AcDbEntity
  8
AM_6
100
AcDbText
 10
5.0636
 20
-12.285
 30
0.0
 40
0.5
  1
4.20000
100
AcDbAttributeDefinition
  3

  2
L1
 70
     8
280
     0
  0
ATTDEF
  5
256
330
231
100
AcDbEntity
  8
AM_6
100
AcDbText
 10
5.0636
 20
-12.785
 30
0.0
 40
0.5
  1
3.75
100
AcDbAttributeDefinition
  3

  2
N
 70
     8
280
     0
  0
ATTDEF
  5
257
330
231
100
AcDbEntity
  8
AM_6
100
AcDbText
 10
5.0636
 20
-13.285
 30
0.0
 40
0.5
  1
3.750000
100
AcDbAttributeDefinition
  3

  2
N1
 70
     8
280
     0
  0
ATTDEF
  5
258
330
231
100
AcDbEntity
  8
AM_6
100
AcDbText
 10
5.0636
 20
-13.785
 30
0.0
 40
0.5
  1
0.27
100
AcDbAttributeDefinition
  3

  2
P
 70
     8
280
     0
  0
ATTDEF
  5
259
330
231
100
AcDbEntity
  8
AM_6
100
AcDbText
 10
5.0636
 20
-14.285
 30
0.0
 40
0.5
  1
0.270000
100
AcDbAttributeDefinition
  3

  2
P1
 70
     8
280
     0
  0
ATTDEF
  5
25A
330
231
100
AcDbEntity
  8
AM_6
100
AcDbText
 10
5.0636
 20
-14.785
 30
0.0
 40
0.5
  1
0.25
100
AcDbAttributeDefinition
  3

  2
X
 70
     8
280
     0
  0
ATTDEF
  5
25B
330
231
100
AcDbEntity
  8
AM_6
100
AcDbText
 10
5.0636
 20
-15.285
 30
0.0
 40
0.5
  1
0.2500
100
AcDbAttributeDefinition
  3

  2
X1
 70
     8
280
     0
  0
ATTDEF
  5
25C
330
231
100
AcDbEntity
  8
AM_6
100
AcDbText
 10
5.0636
 20
-15.785
 30
0.0
 40
0.5
  1
0.025
100
AcDbAttributeDefinition
  3

  2
Y
 70
     8
280
     0
  0
ATTDEF
  5
25D
330
231
100
AcDbEntity
  8
AM_6
100
AcDbText
 10
5.0636
 20
-16.285
 30
0.0
 40
0.5
  1
3.47
100
AcDbAttributeDefinition
  3

  2
Z
 70
     8
280
     0
  0
ATTDEF
  5
25E
330
231
100
AcDbEntity
  8
AM_6
100
AcDbText
 10
5.0636
 20
-16.785
 30
0.0
 40
0.5
  1
3.470000
100
AcDbAttributeDefinition
  3

  2
Z1
 70
     8
280
     0
  0
ATTDEF
  5
25F
330
231
100
AcDbEntity
  8
AM_6
100
AcDbText
 10
5.0636
 20
-17.285
 30
0.0
 40
0.5
  1
072242
100
AcDbAttributeDefinition
  3

  2
PN1
 70
     8
280
     0
  0
ATTDEF
  5
260
330
231
100
AcDbEntity
  8
AM_6
100
AcDbText
 10
5.0636
 20
-17.785
 30
0.0
 40
0.5
  1
072267
100
AcDbAttributeDefinition
  3

  2
PN2
 70
     8
280
     0
  0
ATTDEF
  5
261
330
231
100
AcDbEntity
  8
AM_6
100
AcDbText
 10
5.0636
 20
-18.285
 30
0.0
 40
0.5
  1
SEF4B-IP-300R
100
AcDbAttributeDefinition
  3

  2
DESC1
 70
     8
280
     0
  0
ATTDEF
  5
262
330
231
100
AcDbEntity
  8
AM_6
100
AcDbText
 10
5.0636
 20
-18.785
 30
0.0
 40
0.5
  1
0.1021670
100
AcDbAttributeDefinition
  3

  2
O
 70
     8
280
     0
  0
ATTDEF
  5
263
330
231
100
AcDbEntity
  8
AM_6
100
AcDbText
 10
5.0636
 20
-19.285
 30
0.0
 40
0.5
  1
baldor
100
AcDbAttributeDefinition
  3

  2
COMPANY
 70
     8
280
     0
  0
LINE
  5
264
330
231
100
AcDbEntity
  8
AM_9
100
AcDbLine
 10
-0.6057142857142856
 20
3.714999999999999
 30
0.0
 11
-0.6057142857142856
 21
1.909090909090909
 31
0.0
  0
LINE
  5
265
330
231
100
AcDbEntity
  8
AM_9
100
AcDbLine
 10
-0.6057142857142856
 20
-1.909090909090908
 30
0.0
 11
-0.6057142857142856
 21
-3.714999999999999
 31
0.0
  0
LINE
  5
266
330
231
100
AcDbEntity
  8
AM_9
100
AcDbLine
 10
-0.6057142857142859
 20
2.55905
 30
0.0
 11
-2.83
 21
2.55905
 31
0.0
  0
LINE
  5
267
330
231
100
AcDbEntity
  8
AM_9
100
AcDbLine
 10
-2.83
 20
-2.55905
 30
0.0
 11
-0.6057142857142859
 21
-2.55905
 31
0.0
  0
LINE
  5
268
330
231
100
AcDbEntity
  8
AM_9
100
AcDbLine
 10
-1.06
 20
2.625
 30
0.0
 11
0.0000000000000002
 21
2.625
 31
0.0
  0
LINE
  5
269
330
231
100
AcDbEntity
  8
AM_9
100
AcDbLine
 10
0.0000000000000002
 20
3.375
 30
0.0
 11
-1.06
 21
3.375
 31
0.0
  0
LINE
  5
26A
330
231
100
AcDbEntity
  8
AM_9
100
AcDbLine
 10
-1.06
 20
-3.375
 30
0.0
 11
0.0000000000000002
 21
-3.375
 31
0.0
  0
LINE
  5
26B
330
231
100
AcDbEntity
  8
AM_9
100
AcDbLine
 10
0.0000000000000002
 20
-2.625
 30
0.0
 11
-1.06
 21
-2.625
 31
0.0
  0
LINE
  5
26C
330
231
100
AcDbEntity
  8
AM_7
100
AcDbLine
 10
0.0635999999999998
 20
3.0
 30
0.0
 11
-1.3356
 21
3.0
 31
0.0
  0
LINE
  5
26D
330
231
100
AcDbEntity
  8
AM_7
100
AcDbLine
 10
0.0635999999999998
 20
-3.0
 30
0.0
 11
-1.3356
 21
-3.0
 31
0.0
  0
LINE
  5
26E
330
231
100
AcDbEntity
  8
AM_4
100
AcDbLine
 10
-1.545
 20
3.375
 30
0.0
 11
-2.344999999776236
 21
3.375
 31
0.0
  0
ARC
  5
26F
330
231
100
AcDbEntity
  8
AM_4
100
AcDbCircle
 10
-2.345000000000001
 20
3.275000000000002
 30
0.0
 40
0.0999999999999979
100
AcDbArc
 50
90.0
 51
146.5381683501121
  0
ARC
  5
270
330
231
100
AcDbEntity
  8
AM_4
100
AcDbCircle
 10
-1.545
 20
3.274999999999998
 30
0.0
 40
0.1000000000000015
100
AcDbArc
 50
33.40708020778555
 51
90.0
  0
LINE
  5
271
330
231
100
AcDbEntity
  8
AM_4
100
AcDbLine
 10
-1.545
 20
-3.375
 30
0.0
 11
-2.344999999776237
 21
-3.375
 31
0.0
  0
ARC
  5
272
330
231
100
AcDbEntity
  8
AM_4
100
AcDbCircle
 10
-2.345000000000002
 20
-3.275000000000003
 30
0.0
 40
0.0999999999999975
100
AcDbArc
 50
213.42585657399
 51
270.0
  0
ARC
  5
273
330
231
100
AcDbEntity
  8
AM_4
100
AcDbCircle
 10
-1.544999999999999
 20
-3.275000000000003
 30
0.0
 40
0.099999999999997
100
AcDbArc
 50
270.0
 51
326.5082743658534
  0
LINE
  5
274
330
231
100
AcDbEntity
  8
AM_4
100
AcDbLine
 10
-2.83
 20
-3.236
 30
0.0
 11
-2.83
 21
3.236
 31
0.0
  0
ARC
  5
275
330
231
100
AcDbEntity
  8
AM_4
100
AcDbCircle
 10
-2.736000000000001
 20
3.236
 30
0.0
 40
0.0939999999999994
100
AcDbArc
 50
90.0
 51
180.0
  0
ARC
  5
276
330
231
100
AcDbEntity
  8
AM_4
100
AcDbCircle
 10
-2.736000000000001
 20
-3.236
 30
0.0
 40
0.093999999999999
100
AcDbArc
 50
180.0
 51
270.0
  0
LINE
  5
277
330
231
100
AcDbEntity
  8
AM_4
100
AcDbLine
 10
-2.736000000000001
 20
-3.33
 30
0.0
 11
-2.736000000000001
 21
3.33
 31
0.0
  0
LINE
  5
278
330
231
100
AcDbEntity
  8
AM_4
100
AcDbLine
 10
-1.06
 20
3.33
 30
0.0
 11
-1.461672572566437
 21
3.33
 31
0.0
  0
LINE
  5
279
330
231
100
AcDbEntity
  8
AM_4
100
AcDbLine
 10
-2.428186601330554
 20
3.33
 30
0.0
 11
-2.736000000000001
 21
3.33
 31
0.0
  0
LINE
  5
27A
330
231
100
AcDbEntity
  8
AM_4
100
AcDbLine
 10
-2.736000000000001
 20
-3.33
 30
0.0
 11
-2.428254620296153
 21
-3.33
 31
0.0
  0
LINE
  5
27B
330
231
100
AcDbEntity
  8
AM_4
100
AcDbLine
 10
-1.461908428581651
 20
-3.33
 30
0.0
 11
-1.06
 21
-3.33
 31
0.0
  0
LWPOLYLINE
  5
27C
330
231
100
AcDbEntity
  8
AM_4
100
AcDbPolyline
 90
       39
 70
     0
 43
0.0
 10
-1.461483534557539
 20
-3.329999999999999
 10
-1.46207889057902
 20
-3.329903895625104
 10
-1.465854908708385
 20
-3.329301890182166
 10
-1.473377667355316
 20
-3.328117267495421
 10
-1.484566870349547
 20
-3.326396779940524
 10
-1.499057560264738
 20
-3.324237717931591
 10
-1.516985309991051
 20
-3.32167486629811
 10
-1.539023906517475
 20
-3.318683653919663
 10
-1.564513643612124
 20
-3.315439401199582
 10
-1.59094677489147
 20
-3.31231422769084
 10
-1.620005900765843
 20
-3.309153694111397
 10
-1.652535835575697
 20
-3.305953081999009
 10
-1.687401705542946
 20
-3.302910066152688
 10
-1.721754261684205
 20
-3.30030082358794
 10
-1.7576573541086
 20
-3.297979094029698
 10
-1.795974237106366
 20
-3.295956538994597
 10
-1.83538288505394
 20
-3.294359447464308
 10
-1.874253549505634
 20
-3.293264225606317
 10
-1.913606364988268
 20
-3.292635797337337
 10
-1.954309219295391
 20
-3.29249639051412
 10
-1.994945061171098
 20
-3.292871361577408
 10
-2.034346756412414
 20
-3.293729554869925
 10
-2.073131311412508
 20
-3.295048377270849
 10
-2.112117998175445
 20
-3.296853775040333
 10
-2.149875425718676
 20
-3.299060943308298
 10
-2.184993043239562
 20
-3.301525336578036
 10
-2.218449442722475
 20
-3.304243791900414
 10
-2.250900504131868
 20
-3.307232433460863
 10
-2.281115875933508
 20
-3.310329451917213
 10
-2.308035824600029
 20
-3.313349228696413
 10
-2.332501855221872
 20
-3.316309569133362
 10
-2.35493810494615
 20
-3.319208554277327
 10
-2.374518834910457
 20
-3.321885400841043
 10
-2.39106357652284
 20
-3.324255523182686
 10
-2.404632310260951
 20
-3.326275423804409
 10
-2.415412323129992
 20
-3.327928990709658
 10
-2.422990244943797
 20
-3.329118701243147
 10
-2.427409460346479
 20
-3.329821958814497
 10
-2.428516465442425
 20
-3.329999999999995
  0
LWPOLYLINE
  5
27D
330
231
100
AcDbEntity
  8
AM_4
100
AcDbPolyline
 90
       40
 70
     0
 43
0.0
 10
-2.428516465442427
 20
3.329999999999996
 10
-2.428397962041173
 20
3.329980976728816
 10
-2.425716066995887
 20
3.329551333376926
 10
-2.41951135772026
 20
3.32856997655106
 10
-2.409446100191676
 20
3.32700803170936
 10
-2.395683464589975
 20
3.324935707309216
 10
-2.378890372167251
 20
3.322501715341034
 10
-2.358750563984166
 20
3.319718993516831
 10
-2.334540653810924
 20
3.31656574141613
 10
-2.307023540145644
 20
3.313231042391172
 10
-2.278974391234078
 20
3.310100131295473
 10
-2.248479296412071
 20
3.306997019007164
 10
-2.214686051023088
 20
3.303920325939675
 10
-2.178776180755309
 20
3.301059613812823
 10
-2.143417603447806
 20
3.29865167692006
 10
-2.106690461030738
 20
3.296572907559091
 10
-2.067730230078567
 20
3.294837084577323
 10
-2.027878185865714
 20
3.29355464959277
 10
-1.988601497075015
 20
3.29277950365052
 10
-1.94902731220404
 20
3.292484510388533
 10
-1.908289830636813
 20
3.292693201819387
 10
-1.867817348840942
 20
3.293412196848158
 10
-1.82880320124727
 20
3.294592690165185
 10
-1.790593445083301
 20
3.296211732461287
 10
-1.752388233449338
 20
3.298294645189586
 10
-1.715603164178329
 20
3.300739449725378
 10
-1.681657222433843
 20
3.303384424549914
 10
-1.649529247402122
 20
3.30623362385327
 10
-1.618600682168801
 20
3.309300289343506
 10
-1.590042780313503
 20
3.312416914470774
 10
-1.564770656228836
 20
3.31540792943423
 10
-1.542057161076436
 20
3.318285633263662
 10
-1.521518230422114
 20
3.321045223912896
 10
-1.503904725028863
 20
3.323533394259902
 10
-1.489288680173263
 20
3.325684409135477
 10
-1.477721564270267
 20
3.327444023766716
 10
-1.469059778926082
 20
3.3287943122687
 10
-1.463655417316014
 20
3.32965221950187
 10
-1.461512147722357
 20
3.329994832239183
 10
-1.46148353455757
 20
3.329999999999997
  0
LINE
  5
27E
330
231
100
AcDbEntity
  8
AM_4
100
AcDbLine
 10
0.0000000000000002
 20
-3.714999999999999
 30
0.0
 11
0.0000000000000002
 21
-1.909090909090909
 31
0.0
  0
LINE
  5
27F
330
231
100
AcDbEntity
  8
AM_4
100
AcDbLine
 10
-1.06
 20
-3.714999999999999
 30
0.0
 11
0.0000000000000002
 21
-3.714999999999999
 31
0.0
  0
LINE
  5
280
330
231
100
AcDbEntity
  8
AM_4
100
AcDbLine
 10
0.0000000000000002
 20
1.909090909090909
 30
0.0
 11
0.0000000000000002
 21
3.715
 31
0.0
  0
LINE
  5
281
330
231
100
AcDbEntity
  8
AM_4
100
AcDbLine
 10
-1.06
 20
3.715
 30
0.0
 11
0.0000000000000002
 21
3.715
 31
0.0
  0
LINE
  5
282
330
231
100
AcDbEntity
  8
AM_4
100
AcDbLine
 10
-1.06
 20
-3.714999999999999
 30
0.0
 11
-1.06
 21
3.715
 31
0.0
  0
LINE
  5
283
330
231
100
AcDbEntity
  8
AM_4
100
AcDbLine
 10
0.0000000000000002
 20
1.909090909090909
 30
0.0
 11
-0.6057142857142855
 21
1.909090909090909
 31
0.0
  0
LINE
  5
284
330
231
100
AcDbEntity
  8
AM_4
100
AcDbLine
 10
-1.06
 20
2.999999999999999
 30
0.0
 11
0.0000000000000002
 21
2.999999999999999
 31
0.0
  0
LINE
  5
285
330
231
100
AcDbEntity
  8
AM_4
100
AcDbLine
 10
-1.06
 20
-3.0
 30
0.0
 11
0.0000000000000002
 21
-3.0
 31
0.0
  0
LINE
  5
286
330
231
100
AcDbEntity
  8
AM_4
100
AcDbLine
 10
-0.6057142857142855
 20
-1.909090909090909
 30
0.0
 11
0.0000000000000002
 21
-1.909090909090909
 31
0.0
  0
LINE
  5
287
330
231
100
AcDbEntity
  8
AM_4
100
AcDbLine
 10
-0.6057142857142855
 20
1.909090909090909
 30
0.0
 11
-0.6057142857142855
 21
-1.909090909090909
 31
0.0
  0
ENDBLK
  5
234
330
231
100
AcDbEntity
  8
0
100
AcDbBlockEnd
  0
ENDSEC
  0
SECTION
  2
ENTITIES
  0
INSERT
  5
6F
330
1F
100
AcDbEntity
  8
0
100
AcDbBlockReference
  2
1_072267_2
 10
0.0
 20
0.0
 30
0.0
  0
POINT
  5
289
330
1F
100
AcDbEntity
  8
ConnectionPoints
100
AcDbPoint
 10
-3.419000333333333
 20
-1.903645833333333
 30
0.0000000000000002
  0
POINT
  5
28A
330
1F
100
AcDbEntity
  8
ConnectionPoints
100
AcDbPoint
 10
-3.419000333333333
 20
1.903645833333333
 30
0.0000000000000002
  0
POINT
  5
28B
330
1F
100
AcDbEntity
  8
ConnectionPoints
100
AcDbPoint
 10
-3.246833333333333
 20
0.0
 30
0.0000000000000002
  0
POINT
  5
28C
330
1F
100
AcDbEntity
  8
ConnectionPoints
100
AcDbPoint
 10
-3.52
 20
0.0
 30
0.0000000000000002
  0
POINT
  5
28D
330
1F
100
AcDbEntity
  8
ConnectionPoints
100
AcDbPoint
 10
-3.445833333333333
 20
0.0
 30
0.0000000000000002
  0
POINT
  5
28E
330
1F
100
AcDbEntity
  8
ConnectionPoints
100
AcDbPoint
 10
-3.246833333333333
 20
1.903645833333333
 30
0.0000000000000002
  0
POINT
  5
28F
330
1F
100
AcDbEntity
  8
ConnectionPoints
100
AcDbPoint
 10
-3.246833333333333
 20
-1.903645833333333
 30
0.0000000000000002
  0
POINT
  5
290
330
1F
100
AcDbEntity
  8
ConnectionPoints
100
AcDbPoint
 10
-3.246833333333333
 20
0.0
 30
0.0000000000000002
  0
POINT
  5
291
330
1F
100
AcDbEntity
  8
ConnectionPoints
100
AcDbPoint
 10
-1.945
 20
3.375
 30
0.0000000000000001
  0
POINT
  5
292
330
1F
100
AcDbEntity
  8
ConnectionPoints
100
AcDbPoint
 10
-1.945
 20
3.375
 30
0.0000000000000001
  0
POINT
  5
293
330
1F
100
AcDbEntity
  8
ConnectionPoints
100
AcDbPoint
 10
-1.945
 20
-3.375
 30
0.0000000000000001
  0
POINT
  5
294
330
1F
100
AcDbEntity
  8
ConnectionPoints
100
AcDbPoint
 10
-3.52
 20
0.0
 30
0.0000000000000002
  0
POINT
  5
295
330
1F
100
AcDbEntity
  8
ConnectionPoints
100
AcDbPoint
 10
-3.77
 20
0.0
 30
0.0000000000000002
  0
ENDSEC
  0
SECTION
  2
OBJECTS
  0
DICTIONARY
  5
C
330
0
100
AcDbDictionary
281
     1
  3
ACAD_DETAILVIEWSTYLE
350
29D
  3
ACAD_GROUP
350
D
  3
ACAD_LAYOUT
350
1A
  3
ACAD_MATERIAL
350
43
  3
ACAD_MLEADERSTYLE
350
6B
  3
ACAD_MLINESTYLE
350
17
  3
ACAD_PLOTSETTINGS
350
19
  3
ACAD_PLOTSTYLENAME
350
E
  3
ACAD_SCALELIST
350
47
  3
ACAD_SECTIONVIEWSTYLE
350
29E
  3
ACAD_TABLESTYLE
350
69
  3
ACAD_VISUALSTYLE
350
2A
  3
ACDB_RECOMPOSE_DATA
350
29A
  3
AcDbVariableDictionary
350
296
  0
SUN
  5
6D
330
29
100
AcDbSun
 90
        1
290
     0
 63
     7
421
 16777215
 40
1.0
291
     1
 91
  2455826
 92
 54000000
292
     0
 70
     2
 71
   256
280
     1
  0
DICTIONARY
  5
29D
102
{ACAD_REACTORS
330
C
102
}
330
C
100
AcDbDictionary
281
     1
  0
DICTIONARY
  5
D
102
{ACAD_REACTORS
330
C
102
}
330
C
100
AcDbDictionary
281
     1
  0
DICTIONARY
  5
1A
102
{ACAD_REACTORS
330
C
102
}
330
C
100
AcDbDictionary
281
     1
  3
Layout1
350
1E
  3
Layout2
350
26
  3
Model
350
22
  0
DICTIONARY
  5
43
102
{ACAD_REACTORS
330
C
102
}
330
C
100
AcDbDictionary
281
     1
  3
ByBlock
350
45
  3
ByLayer
350
44
  3
Global
350
46
  0
DICTIONARY
  5
6B
102
{ACAD_REACTORS
330
C
102
}
330
C
100
AcDbDictionary
281
     1
  3
Standard
350
6C
  0
DICTIONARY
  5
17
102
{ACAD_REACTORS
330
C
102
}
330
C
100
AcDbDictionary
281
     1
  3
Standard
350
18
  0
DICTIONARY
  5
19
102
{ACAD_REACTORS
330
C
102
}
330
C
100
AcDbDictionary
281
     1
  0
ACDBDICTIONARYWDFLT
  5
E
102
{ACAD_REACTORS
330
C
102
}
330
C
100
AcDbDictionary
281
     1
  3
Normal
350
F
100
AcDbDictionaryWithDefault
340
F
  0
DICTIONARY
  5
47
102
{ACAD_REACTORS
330
C
102
}
330
C
100
AcDbDictionary
281
     1
  3
A0
350
48
  3
A1
350
49
  3
A2
350
4A
  3
A3
350
4B
  3
A4
350
4C
  3
A5
350
4D
  3
A6
350
4E
  3
A7
350
4F
  3
A8
350
50
  3
A9
350
51
  3
B0
350
52
  3
B1
350
53
  3
B2
350
54
  3
B3
350
55
  3
B4
350
56
  3
B5
350
57
  3
B6
350
58
  3
B7
350
59
  3
B8
350
5A
  3
B9
350
5B
  3
C0
350
5C
  3
C1
350
5D
  3
C2
350
5E
  3
C3
350
5F
  3
C4
350
60
  3
C5
350
61
  3
C6
350
62
  3
C7
350
63
  3
C8
350
64
  3
C9
350
65
  3
D0
350
66
  3
D1
350
67
  3
D2
350
68
  0
DICTIONARY
  5
29E
102
{ACAD_REACTORS
330
C
102
}
330
C
100
AcDbDictionary
281
     1
  0
DICTIONARY
  5
69
102
{ACAD_REACTORS
330
C
102
}
330
C
100
AcDbDictionary
281
     1
  3
Standard
350
6A
  0
DICTIONARY
  5
2A
102
{ACAD_REACTORS
330
C
102
}
330
C
100
AcDbDictionary
281
     1
  3
2dWireframe
350
2F
  3
Basic
350
32
  3
Brighten
350
36
  3
ColorChange
350
3A
  3
Conceptual
350
34
  3
Dim
350
35
  3
EdgeColorOff
350
3D
  3
Facepattern
350
39
  3
Flat
350
2B
  3
FlatWithEdges
350
2C
  3
Gouraud
350
2D
  3
GouraudWithEdges
350
2E
  3
Hidden
350
31
  3
JitterOff
350
3B
  3
Linepattern
350
38
  3
OverhangOff
350
3C
  3
Realistic
350
33
  3
Shaded
350
42
  3
Shaded with edges
350
41
  3
Shades of Gray
350
3E
  3
Sketchy
350
3F
  3
Thicken
350
37
  3
Wireframe
350
30
  3
X-Ray
350
40
  0
XRECORD
  5
29A
102
{ACAD_REACTORS
330
C
102
}
330
C
100
AcDbXrecord
280
     1
 90
        1
330
6A
  0
DICTIONARY
  5
296
102
{ACAD_REACTORS
330
C
102
}
330
C
100
AcDbDictionary
281
     1
  3
CANNOSCALE
350
297
  3
CMLEADERSTYLE
350
29C
  3
CTABLESTYLE
350
29B
  0
LAYOUT
  5
1E
102
{ACAD_REACTORS
330
1A
102
}
330
1A
100
AcDbPlotSettings
  1

  2
none_device
  4

  6

 40
0.0
 41
0.0
 42
0.0
 43
0.0
 44
0.0
 45
0.0
 46
0.0
 47
0.0
 48
0.0
 49
0.0
140
0.0
141
0.0
142
1.0
143
1.0
 70
   688
 72
     0
 73
     0
 74
     5
  7

 75
    16
 76
     0
 77
     2
 78
   300
147
1.0
148
0.0
149
0.0
100
AcDbLayout
  1
Layout1
 70
     1
 71
     1
 10
0.0
 20
0.0
 11
12.0
 21
9.0
 12
0.0
 22
0.0
 32
0.0
 14
1.000000000000000E+20
 24
1.000000000000000E+20
 34
1.000000000000000E+20
 15
-1.000000000000000E+20
 25
-1.000000000000000E+20
 35
-1.000000000000000E+20
146
0.0
 13
0.0
 23
0.0
 33
0.0
 16
1.0
 26
0.0
 36
0.0
 17
0.0
 27
1.0
 37
0.0
 76
     0
330
1B
  0
LAYOUT
  5
26
102
{ACAD_REACTORS
330
1A
102
}
330
1A
100
AcDbPlotSettings
  1

  2
none_device
  4

  6

 40
0.0
 41
0.0
 42
0.0
 43
0.0
 44
0.0
 45
0.0
 46
0.0
 47
0.0
 48
0.0
 49
0.0
140
0.0
141
0.0
142
1.0
143
1.0
 70
   688
 72
     0
 73
     0
 74
     5
  7

 75
    16
 76
     0
 77
     2
 78
   300
147
1.0
148
0.0
149
0.0
100
AcDbLayout
  1
Layout2
 70
     1
 71
     2
 10
0.0
 20
0.0
 11
0.0
 21
0.0
 12
0.0
 22
0.0
 32
0.0
 14
0.0
 24
0.0
 34
0.0
 15
0.0
 25
0.0
 35
0.0
146
0.0
 13
0.0
 23
0.0
 33
0.0
 16
1.0
 26
0.0
 36
0.0
 17
0.0
 27
1.0
 37
0.0
 76
     0
330
23
  0
LAYOUT
  5
22
102
{ACAD_REACTORS
330
1A
102
}
330
1A
100
AcDbPlotSettings
  1

  2
none_device
  4
Letter_(8.50_x_11.00_Inches)
  6

 40
6.35
 41
6.35
 42
6.35000508
 43
6.35000508
 44
215.9
 45
279.4
 46
0.0
 47
0.0
 48
0.0
 49
0.0
140
0.0
141
0.0
142
1.0
143
1.0
 70
  1712
 72
     0
 73
     0
 74
     0
  7

 75
     0
 76
     0
 77
     2
 78
   300
147
1.0
148
0.0
149
0.0
100
AcDbLayout
  1
Model
 70
     1
 71
     0
 10
0.0
 20
0.0
 11
12.0
 21
9.0
 12
0.0
 22
0.0
 32
0.0
 14
1.000000000000000E+20
 24
1.000000000000000E+20
 34
1.000000000000000E+20
 15
-1.000000000000000E+20
 25
-1.000000000000000E+20
 35
-1.000000000000000E+20
146
0.0
 13
0.0
 23
0.0
 33
0.0
 16
1.0
 26
0.0
 36
0.0
 17
0.0
 27
1.0
 37
0.0
 76
     0
330
1F
331
29
  0
MATERIAL
  5
45
102
{ACAD_REACTORS
330
43
102
}
330
43
100
AcDbMaterial
  1
ByBlock
 72
     1
 94
      127
  0
MATERIAL
  5
44
102
{ACAD_REACTORS
330
43
102
}
330
43
100
AcDbMaterial
  1
ByLayer
 72
     1
 94
      127
  0
MATERIAL
  5
46
102
{ACAD_REACTORS
330
43
102
}
330
43
100
AcDbMaterial
  1
Global
 72
     1
 94
      127
  0
MLEADERSTYLE
  5
6C
102
{ACAD_REACTORS
330
6B
102
}
330
6B
100
AcDbMLeaderStyle
179
     2
170
     2
171
     1
172
     0
 90
        2
 40
0.0
 41
0.0
173
     1
 91
-1056964608
340
14
 92
       -2
290
     1
 42
0.09
291
     1
 43
0.36
  3
Standard
341
0
 44
0.18
300

342
11
174
     1
178
     6
175
     1
176
     0
 93
-1056964608
 45
0.18
292
     0
297
     0
 46
0.18
343
0
 94
-1056964608
 47
1.0
 49
1.0
140
1.0
293
     1
141
0.0
294
     1
177
     0
142
1.0
295
     0
296
     0
143
0.125
271
     0
272
     9
273
     9
298
     0
  0
MLINESTYLE
  5
18
102
{ACAD_REACTORS
330
17
102
}
330
17
100
AcDbMlineStyle
  2
Standard
 70
     0
  3

 62
   256
 51
90.0
 52
90.0
 71
     2
 49
0.5
 62
   256
  6
BYLAYER
 49
-0.5
 62
   256
  6
BYLAYER
  0
ACDBPLACEHOLDER
  5
F
102
{ACAD_REACTORS
330
E
102
}
330
E
  0
SCALE
  5
48
102
{ACAD_REACTORS
330
47
102
}
330
47
100
AcDbScale
 70
     0
300
1:1
140
1.0
141
1.0
290
     1
  0
SCALE
  5
49
102
{ACAD_REACTORS
330
47
102
}
330
47
100
AcDbScale
 70
     0
300
1:2
140
1.0
141
2.0
290
     0
  0
SCALE
  5
4A
102
{ACAD_REACTORS
330
47
102
}
330
47
100
AcDbScale
 70
     0
300
1:4
140
1.0
141
4.0
290
     0
  0
SCALE
  5
4B
102
{ACAD_REACTORS
330
47
102
}
330
47
100
AcDbScale
 70
     0
300
1:5
140
1.0
141
5.0
290
     0
  0
SCALE
  5
4C
102
{ACAD_REACTORS
330
47
102
}
330
47
100
AcDbScale
 70
     0
300
1:8
140
1.0
141
8.0
290
     0
  0
SCALE
  5
4D
102
{ACAD_REACTORS
330
47
102
}
330
47
100
AcDbScale
 70
     0
300
1:10
140
1.0
141
10.0
290
     0
  0
SCALE
  5
4E
102
{ACAD_REACTORS
330
47
102
}
330
47
100
AcDbScale
 70
     0
300
1:16
140
1.0
141
16.0
290
     0
  0
SCALE
  5
4F
102
{ACAD_REACTORS
330
47
102
}
330
47
100
AcDbScale
 70
     0
300
1:20
140
1.0
141
20.0
290
     0
  0
SCALE
  5
50
102
{ACAD_REACTORS
330
47
102
}
330
47
100
AcDbScale
 70
     0
300
1:30
140
1.0
141
30.0
290
     0
  0
SCALE
  5
51
102
{ACAD_REACTORS
330
47
102
}
330
47
100
AcDbScale
 70
     0
300
1:40
140
1.0
141
40.0
290
     0
  0
SCALE
  5
52
102
{ACAD_REACTORS
330
47
102
}
330
47
100
AcDbScale
 70
     0
300
1:50
140
1.0
141
50.0
290
     0
  0
SCALE
  5
53
102
{ACAD_REACTORS
330
47
102
}
330
47
100
AcDbScale
 70
     0
300
1:100
140
1.0
141
100.0
290
     0
  0
SCALE
  5
54
102
{ACAD_REACTORS
330
47
102
}
330
47
100
AcDbScale
 70
     0
300
2:1
140
2.0
141
1.0
290
     0
  0
SCALE
  5
55
102
{ACAD_REACTORS
330
47
102
}
330
47
100
AcDbScale
 70
     0
300
4:1
140
4.0
141
1.0
290
     0
  0
SCALE
  5
56
102
{ACAD_REACTORS
330
47
102
}
330
47
100
AcDbScale
 70
     0
300
8:1
140
8.0
141
1.0
290
     0
  0
SCALE
  5
57
102
{ACAD_REACTORS
330
47
102
}
330
47
100
AcDbScale
 70
     0
300
10:1
140
10.0
141
1.0
290
     0
  0
SCALE
  5
58
102
{ACAD_REACTORS
330
47
102
}
330
47
100
AcDbScale
 70
     0
300
100:1
140
100.0
141
1.0
290
     0
  0
SCALE
  5
59
102
{ACAD_REACTORS
330
47
102
}
330
47
100
AcDbScale
 70
     0
300
1/128" = 1'-0"
140
0.0078125
141
12.0
290
     0
  0
SCALE
  5
5A
102
{ACAD_REACTORS
330
47
102
}
330
47
100
AcDbScale
 70
     0
300
1/64" = 1'-0"
140
0.015625
141
12.0
290
     0
  0
SCALE
  5
5B
102
{ACAD_REACTORS
330
47
102
}
330
47
100
AcDbScale
 70
     0
300
1/32" = 1'-0"
140
0.03125
141
12.0
290
     0
  0
SCALE
  5
5C
102
{ACAD_REACTORS
330
47
102
}
330
47
100
AcDbScale
 70
     0
300
1/16" = 1'-0"
140
0.0625
141
12.0
290
     0
  0
SCALE
  5
5D
102
{ACAD_REACTORS
330
47
102
}
330
47
100
AcDbScale
 70
     0
300
3/32" = 1'-0"
140
0.09375
141
12.0
290
     0
  0
SCALE
  5
5E
102
{ACAD_REACTORS
330
47
102
}
330
47
100
AcDbScale
 70
     0
300
1/8" = 1'-0"
140
0.125
141
12.0
290
     0
  0
SCALE
  5
5F
102
{ACAD_REACTORS
330
47
102
}
330
47
100
AcDbScale
 70
     0
300
3/16" = 1'-0"
140
0.1875
141
12.0
290
     0
  0
SCALE
  5
60
102
{ACAD_REACTORS
330
47
102
}
330
47
100
AcDbScale
 70
     0
300
1/4" = 1'-0"
140
0.25
141
12.0
290
     0
  0
SCALE
  5
61
102
{ACAD_REACTORS
330
47
102
}
330
47
100
AcDbScale
 70
     0
300
3/8" = 1'-0"
140
0.375
141
12.0
290
     0
  0
SCALE
  5
62
102
{ACAD_REACTORS
330
47
102
}
330
47
100
AcDbScale
 70
     0
300
1/2" = 1'-0"
140
0.5
141
12.0
290
     0
  0
SCALE
  5
63
102
{ACAD_REACTORS
330
47
102
}
330
47
100
AcDbScale
 70
     0
300
3/4" = 1'-0"
140
0.75
141
12.0
290
     0
  0
SCALE
  5
64
102
{ACAD_REACTORS
330
47
102
}
330
47
100
AcDbScale
 70
     0
300
1" = 1'-0"
140
1.0
141
12.0
290
     0
  0
SCALE
  5
65
102
{ACAD_REACTORS
330
47
102
}
330
47
100
AcDbScale
 70
     0
300
1-1/2" = 1'-0"
140
1.5
141
12.0
290
     0
  0
SCALE
  5
66
102
{ACAD_REACTORS
330
47
102
}
330
47
100
AcDbScale
 70
     0
300
3" = 1'-0"
140
3.0
141
12.0
290
     0
  0
SCALE
  5
67
102
{ACAD_REACTORS
330
47
102
}
330
47
100
AcDbScale
 70
     0
300
6" = 1'-0"
140
6.0
141
12.0
290
     0
  0
SCALE
  5
68
102
{ACAD_REACTORS
330
47
102
}
330
47
100
AcDbScale
 70
     0
300
1'-0" = 1'-0"
140
12.0
141
12.0
290
     0
  0
TABLESTYLE
  5
6A
102
{ACAD_REACTORS
330
69
102
}
102
{ACAD_XDICTIONARY
360
298
102
}
330
69
100
AcDbTableStyle
  3
Standard
 70
     0
 71
     0
 40
0.06
 41
0.06
280
     0
281
     0
  7
Standard
140
0.18
170
     2
 62
     0
 63
   257
283
     0
 90
        4
 91
        0
  1

274
    -2
284
     1
 64
     0
275
    -2
285
     1
 65
     0
276
    -2
286
     1
 66
     0
277
    -2
287
     1
 67
     0
278
    -2
288
     1
 68
     0
279
    -2
289
     1
 69
     0
  7
Standard
140
0.25
170
     5
 62
     0
 63
   257
283
     0
 90
        4
 91
        0
  1

274
    -2
284
     1
 64
     0
275
    -2
285
     1
 65
     0
276
    -2
286
     1
 66
     0
277
    -2
287
     1
 67
     0
278
    -2
288
     1
 68
     0
279
    -2
289
     1
 69
     0
  7
Standard
140
0.18
170
     5
 62
     0
 63
   257
283
     0
 90
        4
 91
        0
  1

274
    -2
284
     1
 64
     0
275
    -2
285
     1
 65
     0
276
    -2
286
     1
 66
     0
277
    -2
287
     1
 67
     0
278
    -2
288
     1
 68
     0
279
    -2
289
     1
 69
     0
  0
VISUALSTYLE
  5
2F
102
{ACAD_REACTORS
330
2A
102
}
330
2A
100
AcDbVisualStyle
  2
2dWireframe
 70
     4
177
     3
291
     0
 70
    58
 90
        0
176
     1
 90
        2
176
     1
 90
        0
176
     1
 90
        0
176
     1
 40
0.6
176
     1
 40
30.0
176
     1
 62
     7
420
 16777215
176
     1
 90
        1
176
     1
 90
        4
176
     1
 62
     7
176
     1
 62
   257
176
     1
 90
        1
176
     1
 90
        1
176
     1
 40
1.0
176
     1
 90
        0
176
     1
 62
   257
176
     1
 40
1.0
176
     1
 90
        1
176
     1
 90
        6
176
     1
 90
        2
176
     1
 62
     7
176
     1
 90
        5
176
     1
 90
        0
176
     1
 90
        0
176
     1
290
     0
176
     1
 90
        1
176
     1
 40
0.0
176
     1
 90
        0
176
     1
290
     1
176
     1
290
     1
176
     1
290
     0
176
     1
290
     0
176
     1
290
     0
176
     1
290
     0
176
     1
290
     0
176
     1
290
     0
176
     1
290
     0
176
     1
 90
       50
176
     1
 40
0.0
176
     1
 40
1.0
176
     1
 90
        0
176
     1
 62
    18
420
        0
176
     1
 90
       50
176
     1
 90
        3
176
     1
 62
     5
420
      255
176
     1
290
     0
176
     1
 90
       50
176
     1
 90
       50
176
     1
 90
       50
176
     1
290
     0
176
     1
 90
       50
176
     1
 62
   256
176
     0
 40
1.0
176
     0
 90
        2
176
     1
  1
strokes_ogs.tif
176
     1
290
     0
176
     1
 40
1.0
176
     1
 40
1.0
176
     1
  0
VISUALSTYLE
  5
32
102
{ACAD_REACTORS
330
2A
102
}
330
2A
100
AcDbVisualStyle
  2
Basic
 70
     7
177
     3
291
     1
 70
    58
 90
        1
176
     1
 90
        0
176
     1
 90
        1
176
     1
 90
        0
176
     1
 40
0.6
176
     1
 40
30.0
176
     1
 62
     7
420
 16777215
176
     1
 90
        0
176
     1
 90
        4
176
     1
 62
     7
176
     1
 62
   257
176
     1
 90
        1
176
     1
 90
        1
176
     1
 40
1.0
176
     1
 90
        8
176
     1
 62
     7
176
     1
 40
1.0
176
     1
 90
        1
176
     1
 90
        6
176
     1
 90
        2
176
     1
 62
     7
176
     1
 90
        5
176
     1
 90
        0
176
     1
 90
        0
176
     1
290
     0
176
     1
 90
        1
176
     1
 40
0.0
176
     1
 90
        0
176
     1
290
     0
176
     1
290
     1
176
     1
290
     1
176
     1
290
     0
176
     1
290
     0
176
     1
290
     0
176
     1
290
     0
176
     1
290
     0
176
     1
290
     0
176
     1
 90
       50
176
     1
 40
0.0
176
     1
 40
1.0
176
     1
 90
        0
176
     1
 62
    18
420
        0
176
     1
 90
       50
176
     1
 90
        3
176
     1
 62
     5
420
      255
176
     1
290
     0
176
     1
 90
       50
176
     1
 90
       50
176
     1
 90
       50
176
     1
290
     0
176
     1
 90
       50
176
     1
 62
   256
176
     0
 40
1.0
176
     0
 90
        2
176
     1
  1
strokes_ogs.tif
176
     1
290
     0
176
     1
 40
1.0
176
     1
 40
1.0
176
     1
  0
VISUALSTYLE
  5
36
102
{ACAD_REACTORS
330
2A
102
}
330
2A
100
AcDbVisualStyle
  2
Brighten
 70
    12
177
     3
291
     1
 70
    58
 90
        2
176
     1
 90
        2
176
     1
 90
        0
176
     1
 90
        0
176
     1
 40
0.6
176
     1
 40
30.0
176
     1
 62
     7
420
 16777215
176
     1
 90
        1
176
     1
 90
        4
176
     1
 62
     7
176
     1
 62
   257
176
     1
 90
        1
176
     1
 90
        1
176
     1
 40
1.0
176
     1
 90
        8
176
     1
 62
     7
176
     1
 40
1.0
176
     1
 90
        1
176
     1
 90
        6
176
     1
 90
        2
176
     1
 62
     7
176
     1
 90
        5
176
     1
 90
        0
176
     1
 90
        0
176
     1
290
     0
176
     1
 90
        1
176
     1
 40
50.0
176
     1
 90
        0
176
     1
290
     0
176
     1
290
     1
176
     1
290
     1
176
     1
290
     0
176
     1
290
     0
176
     1
290
     0
176
     1
290
     0
176
     1
290
     0
176
     1
290
     0
176
     1
 90
       50
176
     1
 40
0.0
176
     1
 40
1.0
176
     1
 90
        0
176
     1
 62
    18
420
        0
176
     1
 90
       50
176
     1
 90
        3
176
     1
 62
     5
420
      255
176
     1
290
     0
176
     1
 90
       50
176
     1
 90
       50
176
     1
 90
       50
176
     1
290
     0
176
     1
 90
       50
176
     1
 62
   256
176
     0
 40
1.0
176
     0
 90
        2
176
     1
  1
strokes_ogs.tif
176
     1
290
     0
176
     1
 40
1.0
176
     1
 40
1.0
176
     1
  0
VISUALSTYLE
  5
3A
102
{ACAD_REACTORS
330
2A
102
}
330
2A
100
AcDbVisualStyle
  2
ColorChange
 70
    16
177
     3
291
     1
 70
    58
 90
        2
176
     1
 90
        2
176
     1
 90
        3
176
     1
 90
        0
176
     1
 40
0.6
176
     1
 40
30.0
176
     1
 62
     8
420
  8421504
176
     1
 90
        1
176
     1
 90
        4
176
     1
 62
     7
176
     1
 62
   257
176
     1
 90
        1
176
     1
 90
        1
176
     1
 40
1.0
176
     1
 90
        8
176
     1
 62
     8
420
  8421504
176
     1
 40
1.0
176
     1
 90
        1
176
     1
 90
        6
176
     1
 90
        2
176
     1
 62
     7
176
     1
 90
        5
176
     1
 90
        0
176
     1
 90
        0
176
     1
290
     0
176
     1
 90
        1
176
     1
 40
0.0
176
     1
 90
        0
176
     1
290
     0
176
     1
290
     1
176
     1
290
     1
176
     1
290
     0
176
     1
290
     0
176
     1
290
     0
176
     1
290
     0
176
     1
290
     0
176
     1
290
     0
176
     1
 90
       50
176
     1
 40
0.0
176
     1
 40
1.0
176
     1
 90
        0
176
     1
 62
    18
420
        0
176
     1
 90
       50
176
     1
 90
        3
176
     1
 62
     5
420
      255
176
     1
290
     0
176
     1
 90
       50
176
     1
 90
       50
176
     1
 90
       50
176
     1
290
     0
176
     1
 90
       50
176
     1
 62
   256
176
     0
 40
1.0
176
     0
 90
        2
176
     1
  1
strokes_ogs.tif
176
     1
290
     0
176
     1
 40
1.0
176
     1
 40
1.0
176
     1
  0
VISUALSTYLE
  5
34
102
{ACAD_REACTORS
330
2A
102
}
330
2A
100
AcDbVisualStyle
  2
Conceptual
 70
     9
177
     3
291
     0
 70
    58
 90
        3
176
     1
 90
        2
176
     1
 90
        0
176
     1
 90
        0
176
     1
 40
0.6
176
     1
 40
30.0
176
     1
 62
     7
420
 16777215
176
     1
 90
        2
176
     1
 90
        2
176
     1
 62
     7
176
     1
 62
   257
176
     1
 90
        1
176
     1
 90
        1
176
     1
 40
179.0
176
     1
 90
        8
176
     1
 62
     7
176
     1
 40
1.0
176
     1
 90
        1
176
     1
 90
        6
176
     1
 90
        2
176
     1
 62
     7
176
     1
 90
        3
176
     1
 90
        0
176
     1
 90
        0
176
     1
290
     0
176
     1
 90
        1
176
     1
 40
0.0
176
     1
 90
        0
176
     1
290
     0
176
     1
290
     1
176
     1
290
     1
176
     1
290
     0
176
     1
290
     0
176
     1
290
     0
176
     1
290
     0
176
     1
290
     0
176
     1
290
     0
176
     1
 90
       50
176
     1
 40
0.0
176
     1
 40
1.0
176
     1
 90
        0
176
     1
 62
    18
420
        0
176
     1
 90
       50
176
     1
 90
        3
176
     1
 62
     5
420
      255
176
     1
290
     0
176
     1
 90
       50
176
     1
 90
       50
176
     1
 90
       50
176
     1
290
     0
176
     1
 90
       50
176
     1
 62
   256
176
     0
 40
1.0
176
     0
 90
        2
176
     1
  1
strokes_ogs.tif
176
     1
290
     0
176
     1
 40
1.0
176
     1
 40
1.0
176
     1
  0
VISUALSTYLE
  5
35
102
{ACAD_REACTORS
330
2A
102
}
330
2A
100
AcDbVisualStyle
  2
Dim
 70
    11
177
     3
291
     1
 70
    58
 90
        2
176
     1
 90
        2
176
     1
 90
        0
176
     1
 90
        0
176
     1
 40
0.6
176
     1
 40
30.0
176
     1
 62
     7
420
 16777215
176
     1
 90
        1
176
     1
 90
        4
176
     1
 62
     7
176
     1
 62
   257
176
     1
 90
        1
176
     1
 90
        1
176
     1
 40
1.0
176
     1
 90
        8
176
     1
 62
     7
176
     1
 40
1.0
176
     1
 90
        1
176
     1
 90
        6
176
     1
 90
        2
176
     1
 62
     7
176
     1
 90
        5
176
     1
 90
        0
176
     1
 90
        0
176
     1
290
     0
176
     1
 90
        1
176
     1
 40
-50.0
176
     1
 90
        0
176
     1
290
     0
176
     1
290
     1
176
     1
290
     1
176
     1
290
     0
176
     1
290
     0
176
     1
290
     0
176
     1
290
     0
176
     1
290
     0
176
     1
290
     0
176
     1
 90
       50
176
     1
 40
0.0
176
     1
 40
1.0
176
     1
 90
        0
176
     1
 62
    18
420
        0
176
     1
 90
       50
176
     1
 90
        3
176
     1
 62
     5
420
      255
176
     1
290
     0
176
     1
 90
       50
176
     1
 90
       50
176
     1
 90
       50
176
     1
290
     0
176
     1
 90
       50
176
     1
 62
   256
176
     0
 40
1.0
176
     0
 90
        2
176
     1
  1
strokes_ogs.tif
176
     1
290
     0
176
     1
 40
1.0
176
     1
 40
1.0
176
     1
  0
VISUALSTYLE
  5
3D
102
{ACAD_REACTORS
330
2A
102
}
330
2A
100
AcDbVisualStyle
  2
EdgeColorOff
 70
    22
177
     3
291
     1
 70
    58
 90
        2
176
     0
 90
        2
176
     0
 90
        0
176
     0
 90
        0
176
     0
 40
0.6
176
     0
 40
30.0
176
     0
 62
     7
420
 16777215
176
     0
 90
        1
176
     0
 90
        4
176
     0
 62
     7
176
     0
 62
   257
176
     0
 90
        1
176
     0
 90
        1
176
     0
 40
1.0
176
     0
 90
        8
176
     2
 62
     7
176
     0
 40
1.0
176
     0
 90
        1
176
     0
 90
        6
176
     0
 90
        2
176
     0
 62
     7
176
     0
 90
        5
176
     0
 90
        0
176
     0
 90
        0
176
     0
290
     0
176
     0
 90
        1
176
     0
 40
0.0
176
     0
 90
        0
176
     0
290
     0
176
     0
290
     1
176
     0
290
     1
176
     0
290
     0
176
     0
290
     0
176
     0
290
     0
176
     0
290
     0
176
     0
290
     0
176
     0
290
     0
176
     0
 90
       50
176
     0
 40
0.0
176
     0
 40
1.0
176
     0
 90
        0
176
     0
 62
    18
420
        0
176
     0
 90
       50
176
     0
 90
        3
176
     0
 62
     5
420
      255
176
     0
290
     0
176
     0
 90
       50
176
     0
 90
       50
176
     0
 90
       50
176
     0
290
     0
176
     0
 90
       50
176
     0
 62
   256
176
     0
 40
1.0
176
     0
 90
        2
176
     0
  1
strokes_ogs.tif
176
     0
290
     0
176
     0
 40
1.0
176
     0
 40
1.0
176
     0
  0
VISUALSTYLE
  5
39
102
{ACAD_REACTORS
330
2A
102
}
330
2A
100
AcDbVisualStyle
  2
Facepattern
 70
    15
177
     3
291
     1
 70
    58
 90
        2
176
     1
 90
        2
176
     1
 90
        0
176
     1
 90
        0
176
     1
 40
0.6
176
     1
 40
30.0
176
     1
 62
     7
420
 16777215
176
     1
 90
        1
176
     1
 90
        4
176
     1
 62
     7
176
     1
 62
   257
176
     1
 90
        1
176
     1
 90
        1
176
     1
 40
1.0
176
     1
 90
        8
176
     1
 62
     7
176
     1
 40
1.0
176
     1
 90
        1
176
     1
 90
        6
176
     1
 90
        2
176
     1
 62
     7
176
     1
 90
        5
176
     1
 90
        0
176
     1
 90
        0
176
     1
290
     0
176
     1
 90
        1
176
     1
 40
0.0
176
     1
 90
        0
176
     1
290
     0
176
     1
290
     1
176
     1
290
     1
176
     1
290
     0
176
     1
290
     0
176
     1
290
     0
176
     1
290
     0
176
     1
290
     0
176
     1
290
     0
176
     1
 90
       50
176
     1
 40
0.0
176
     1
 40
1.0
176
     1
 90
        0
176
     1
 62
    18
420
        0
176
     1
 90
       50
176
     1
 90
        3
176
     1
 62
     5
420
      255
176
     1
290
     0
176
     1
 90
       50
176
     1
 90
       50
176
     1
 90
       50
176
     1
290
     0
176
     1
 90
       50
176
     1
 62
   256
176
     0
 40
1.0
176
     0
 90
        2
176
     1
  1
strokes_ogs.tif
176
     1
290
     0
176
     1
 40
1.0
176
     1
 40
1.0
176
     1
  0
VISUALSTYLE
  5
2B
102
{ACAD_REACTORS
330
2A
102
}
330
2A
100
AcDbVisualStyle
  2
Flat
 70
     0
177
     3
291
     1
 70
    58
 90
        2
176
     1
 90
        1
176
     1
 90
        1
176
     1
 90
        2
176
     1
 40
0.6
176
     1
 40
30.0
176
     1
 62
     7
420
 16777215
176
     1
 90
        0
176
     1
 90
        0
176
     1
 62
     7
176
     1
 62
   257
176
     1
 90
        1
176
     1
 90
        1
176
     1
 40
1.0
176
     1
 90
        8
176
     1
 62
     7
176
     1
 40
1.0
176
     1
 90
        1
176
     1
 90
        6
176
     1
 90
        2
176
     1
 62
     7
176
     1
 90
        5
176
     1
 90
        0
176
     1
 90
        0
176
     1
290
     0
176
     1
 90
       13
176
     1
 40
0.0
176
     1
 90
        0
176
     1
290
     0
176
     1
290
     1
176
     1
290
     1
176
     1
290
     0
176
     1
290
     0
176
     1
290
     0
176
     1
290
     0
176
     1
290
     0
176
     1
290
     0
176
     1
 90
       50
176
     1
 40
0.0
176
     1
 40
1.0
176
     1
 90
        0
176
     1
 62
    18
420
        0
176
     1
 90
       50
176
     1
 90
        3
176
     1
 62
     5
420
      255
176
     1
290
     0
176
     1
 90
       50
176
     1
 90
       50
176
     1
 90
       50
176
     1
290
     0
176
     1
 90
       50
176
     1
 62
   256
176
     0
 40
1.0
176
     0
 90
        2
176
     1
  1
strokes_ogs.tif
176
     1
290
     0
176
     1
 40
1.0
176
     1
 40
1.0
176
     1
  0
VISUALSTYLE
  5
2C
102
{ACAD_REACTORS
330
2A
102
}
330
2A
100
AcDbVisualStyle
  2
FlatWithEdges
 70
     1
177
     3
291
     1
 70
    58
 90
        2
176
     1
 90
        1
176
     1
 90
        1
176
     1
 90
        2
176
     1
 40
0.6
176
     1
 40
30.0
176
     1
 62
     7
420
 16777215
176
     1
 90
        1
176
     1
 90
        0
176
     1
 62
     7
176
     1
 62
   257
176
     1
 90
        1
176
     1
 90
        1
176
     1
 40
1.0
176
     1
 90
        0
176
     1
 62
   257
176
     1
 40
1.0
176
     1
 90
        1
176
     1
 90
        6
176
     1
 90
        2
176
     1
 62
     7
176
     1
 90
        5
176
     1
 90
        0
176
     1
 90
        0
176
     1
290
     0
176
     1
 90
       13
176
     1
 40
0.0
176
     1
 90
        0
176
     1
290
     0
176
     1
290
     1
176
     1
290
     1
176
     1
290
     0
176
     1
290
     0
176
     1
290
     0
176
     1
290
     0
176
     1
290
     0
176
     1
290
     0
176
     1
 90
       50
176
     1
 40
0.0
176
     1
 40
1.0
176
     1
 90
        0
176
     1
 62
    18
420
        0
176
     1
 90
       50
176
     1
 90
        3
176
     1
 62
     5
420
      255
176
     1
290
     0
176
     1
 90
       50
176
     1
 90
       50
176
     1
 90
       50
176
     1
290
     0
176
     1
 90
       50
176
     1
 62
   256
176
     0
 40
1.0
176
     0
 90
        2
176
     1
  1
strokes_ogs.tif
176
     1
290
     0
176
     1
 40
1.0
176
     1
 40
1.0
176
     1
  0
VISUALSTYLE
  5
2D
102
{ACAD_REACTORS
330
2A
102
}
330
2A
100
AcDbVisualStyle
  2
Gouraud
 70
     2
177
     3
291
     1
 70
    58
 90
        2
176
     1
 90
        2
176
     1
 90
        1
176
     1
 90
        2
176
     1
 40
0.6
176
     1
 40
30.0
176
     1
 62
     7
420
 16777215
176
     1
 90
        0
176
     1
 90
        0
176
     1
 62
     7
176
     1
 62
   257
176
     1
 90
        1
176
     1
 90
        1
176
     1
 40
1.0
176
     1
 90
        0
176
     1
 62
     7
176
     1
 40
1.0
176
     1
 90
        1
176
     1
 90
        6
176
     1
 90
        2
176
     1
 62
     7
176
     1
 90
        5
176
     1
 90
        0
176
     1
 90
        0
176
     1
290
     0
176
     1
 90
       13
176
     1
 40
0.0
176
     1
 90
        0
176
     1
290
     0
176
     1
290
     1
176
     1
290
     1
176
     1
290
     0
176
     1
290
     0
176
     1
290
     0
176
     1
290
     0
176
     1
290
     0
176
     1
290
     0
176
     1
 90
       50
176
     1
 40
0.0
176
     1
 40
1.0
176
     1
 90
        0
176
     1
 62
    18
420
        0
176
     1
 90
       50
176
     1
 90
        3
176
     1
 62
     5
420
      255
176
     1
290
     0
176
     1
 90
       50
176
     1
 90
       50
176
     1
 90
       50
176
     1
290
     0
176
     1
 90
       50
176
     1
 62
   256
176
     0
 40
1.0
176
     0
 90
        2
176
     1
  1
strokes_ogs.tif
176
     1
290
     0
176
     1
 40
1.0
176
     1
 40
1.0
176
     1
  0
VISUALSTYLE
  5
2E
102
{ACAD_REACTORS
330
2A
102
}
330
2A
100
AcDbVisualStyle
  2
GouraudWithEdges
 70
     3
177
     3
291
     1
 70
    58
 90
        2
176
     1
 90
        2
176
     1
 90
        1
176
     1
 90
        2
176
     1
 40
0.6
176
     1
 40
30.0
176
     1
 62
     7
420
 16777215
176
     1
 90
        1
176
     1
 90
        0
176
     1
 62
     7
176
     1
 62
   257
176
     1
 90
        1
176
     1
 90
        1
176
     1
 40
1.0
176
     1
 90
        0
176
     1
 62
   257
176
     1
 40
1.0
176
     1
 90
        1
176
     1
 90
        6
176
     1
 90
        2
176
     1
 62
     7
176
     1
 90
        5
176
     1
 90
        0
176
     1
 90
        0
176
     1
290
     0
176
     1
 90
       13
176
     1
 40
0.0
176
     1
 90
        0
176
     1
290
     0
176
     1
290
     1
176
     1
290
     1
176
     1
290
     0
176
     1
290
     0
176
     1
290
     0
176
     1
290
     0
176
     1
290
     0
176
     1
290
     0
176
     1
 90
       50
176
     1
 40
0.0
176
     1
 40
1.0
176
     1
 90
        0
176
     1
 62
    18
420
        0
176
     1
 90
       50
176
     1
 90
        3
176
     1
 62
     5
420
      255
176
     1
290
     0
176
     1
 90
       50
176
     1
 90
       50
176
     1
 90
       50
176
     1
290
     0
176
     1
 90
       50
176
     1
 62
   256
176
     0
 40
1.0
176
     0
 90
        2
176
     1
  1
strokes_ogs.tif
176
     1
290
     0
176
     1
 40
1.0
176
     1
 40
1.0
176
     1
  0
VISUALSTYLE
  5
31
102
{ACAD_REACTORS
330
2A
102
}
330
2A
100
AcDbVisualStyle
  2
Hidden
 70
     6
177
     3
291
     0
 70
    58
 90
        1
176
     1
 90
        2
176
     1
 90
        2
176
     1
 90
        0
176
     1
 40
0.6
176
     1
 40
30.0
176
     1
 62
     7
420
 16777215
176
     1
 90
        2
176
     1
 90
        2
176
     1
 62
     7
176
     1
 62
   257
176
     1
 90
        2
176
     1
 90
        1
176
     1
 40
40.0
176
     1
 90
        0
176
     1
 62
   257
176
     1
 40
1.0
176
     1
 90
        1
176
     1
 90
        6
176
     1
 90
        2
176
     1
 62
     7
176
     1
 90
        3
176
     1
 90
        0
176
     1
 90
        0
176
     1
290
     0
176
     1
 90
        1
176
     1
 40
0.0
176
     1
 90
        0
176
     1
290
     0
176
     1
290
     1
176
     1
290
     1
176
     1
290
     0
176
     1
290
     0
176
     1
290
     0
176
     1
290
     0
176
     1
290
     0
176
     1
290
     0
176
     1
 90
       50
176
     1
 40
0.0
176
     1
 40
1.0
176
     1
 90
        0
176
     1
 62
    18
420
        0
176
     1
 90
       50
176
     1
 90
        3
176
     1
 62
     5
420
      255
176
     1
290
     0
176
     1
 90
       50
176
     1
 90
       50
176
     1
 90
       50
176
     1
290
     0
176
     1
 90
       50
176
     1
 62
   256
176
     0
 40
1.0
176
     0
 90
        2
176
     1
  1
strokes_ogs.tif
176
     1
290
     0
176
     1
 40
1.0
176
     1
 40
1.0
176
     1
  0
VISUALSTYLE
  5
3B
102
{ACAD_REACTORS
330
2A
102
}
330
2A
100
AcDbVisualStyle
  2
JitterOff
 70
    20
177
     3
291
     1
 70
    58
 90
        2
176
     0
 90
        2
176
     0
 90
        0
176
     0
 90
        0
176
     0
 40
0.6
176
     0
 40
30.0
176
     0
 62
     7
420
 16777215
176
     0
 90
        1
176
     0
 90
        4
176
     0
 62
     7
176
     0
 62
   257
176
     0
 90
        1
176
     0
 90
        1
176
     0
 40
1.0
176
     0
 90
       10
176
     2
 62
     7
176
     0
 40
1.0
176
     0
 90
        1
176
     0
 90
        6
176
     0
 90
        2
176
     0
 62
     7
176
     0
 90
        5
176
     0
 90
        0
176
     0
 90
        0
176
     0
290
     0
176
     0
 90
        1
176
     0
 40
0.0
176
     0
 90
        0
176
     0
290
     0
176
     0
290
     1
176
     0
290
     1
176
     0
290
     0
176
     0
290
     0
176
     0
290
     0
176
     0
290
     0
176
     0
290
     0
176
     0
290
     0
176
     0
 90
       50
176
     0
 40
0.0
176
     0
 40
1.0
176
     0
 90
        0
176
     0
 62
    18
420
        0
176
     0
 90
       50
176
     0
 90
        3
176
     0
 62
     5
420
      255
176
     0
290
     0
176
     0
 90
       50
176
     0
 90
       50
176
     0
 90
       50
176
     0
290
     0
176
     0
 90
       50
176
     0
 62
   256
176
     0
 40
1.0
176
     0
 90
        2
176
     0
  1
strokes_ogs.tif
176
     0
290
     0
176
     0
 40
1.0
176
     0
 40
1.0
176
     0
  0
VISUALSTYLE
  5
38
102
{ACAD_REACTORS
330
2A
102
}
330
2A
100
AcDbVisualStyle
  2
Linepattern
 70
    14
177
     3
291
     1
 70
    58
 90
        2
176
     1
 90
        2
176
     1
 90
        0
176
     1
 90
        0
176
     1
 40
0.6
176
     1
 40
30.0
176
     1
 62
     7
420
 16777215
176
     1
 90
        1
176
     1
 90
        4
176
     1
 62
     7
176
     1
 62
   257
176
     1
 90
        7
176
     1
 90
        7
176
     1
 40
1.0
176
     1
 90
        8
176
     1
 62
     7
176
     1
 40
1.0
176
     1
 90
        1
176
     1
 90
        6
176
     1
 90
        2
176
     1
 62
     7
176
     1
 90
        5
176
     1
 90
        0
176
     1
 90
        0
176
     1
290
     0
176
     1
 90
        1
176
     1
 40
0.0
176
     1
 90
        0
176
     1
290
     0
176
     1
290
     1
176
     1
290
     1
176
     1
290
     0
176
     1
290
     0
176
     1
290
     0
176
     1
290
     0
176
     1
290
     0
176
     1
290
     0
176
     1
 90
       50
176
     1
 40
0.0
176
     1
 40
1.0
176
     1
 90
        0
176
     1
 62
    18
420
        0
176
     1
 90
       50
176
     1
 90
        3
176
     1
 62
     5
420
      255
176
     1
290
     0
176
     1
 90
       50
176
     1
 90
       50
176
     1
 90
       50
176
     1
290
     0
176
     1
 90
       50
176
     1
 62
   256
176
     0
 40
1.0
176
     0
 90
        2
176
     1
  1
strokes_ogs.tif
176
     1
290
     0
176
     1
 40
1.0
176
     1
 40
1.0
176
     1
  0
VISUALSTYLE
  5
3C
102
{ACAD_REACTORS
330
2A
102
}
330
2A
100
AcDbVisualStyle
  2
OverhangOff
 70
    21
177
     3
291
     1
 70
    58
 90
        2
176
     0
 90
        2
176
     0
 90
        0
176
     0
 90
        0
176
     0
 40
0.6
176
     0
 40
30.0
176
     0
 62
     7
420
 16777215
176
     0
 90
        1
176
     0
 90
        4
176
     0
 62
     7
176
     0
 62
   257
176
     0
 90
        1
176
     0
 90
        1
176
     0
 40
1.0
176
     0
 90
        9
176
     2
 62
     7
176
     0
 40
1.0
176
     0
 90
        1
176
     0
 90
        6
176
     0
 90
        2
176
     0
 62
     7
176
     0
 90
        5
176
     0
 90
        0
176
     0
 90
        0
176
     0
290
     0
176
     0
 90
        1
176
     0
 40
0.0
176
     0
 90
        0
176
     0
290
     0
176
     0
290
     1
176
     0
290
     1
176
     0
290
     0
176
     0
290
     0
176
     0
290
     0
176
     0
290
     0
176
     0
290
     0
176
     0
290
     0
176
     0
 90
       50
176
     0
 40
0.0
176
     0
 40
1.0
176
     0
 90
        0
176
     0
 62
    18
420
        0
176
     0
 90
       50
176
     0
 90
        3
176
     0
 62
     5
420
      255
176
     0
290
     0
176
     0
 90
       50
176
     0
 90
       50
176
     0
 90
       50
176
     0
290
     0
176
     0
 90
       50
176
     0
 62
   256
176
     0
 40
1.0
176
     0
 90
        2
176
     0
  1
strokes_ogs.tif
176
     0
290
     0
176
     0
 40
1.0
176
     0
 40
1.0
176
     0
  0
VISUALSTYLE
  5
33
102
{ACAD_REACTORS
330
2A
102
}
330
2A
100
AcDbVisualStyle
  2
Realistic
 70
     8
177
     3
291
     0
 70
    58
 90
        2
176
     1
 90
        3
176
     1
 90
        0
176
     1
 90
        2
176
     1
 40
0.6
176
     1
 40
30.0
176
     1
 62
     7
420
 16777215
176
     1
 90
        0
176
     1
 90
        0
176
     1
 62
     7
176
     1
 62
   257
176
     1
 90
        1
176
     1
 90
        1
176
     1
 40
1.0
176
     1
 90
        8
176
     1
 62
   257
176
     1
 40
1.0
176
     1
 90
        1
176
     1
 90
        6
176
     1
 90
        2
176
     1
 62
     7
176
     1
 90
        3
176
     1
 90
        0
176
     1
 90
        0
176
     1
290
     0
176
     1
 90
       13
176
     1
 40
0.0
176
     1
 90
        0
176
     1
290
     0
176
     1
290
     1
176
     1
290
     1
176
     1
290
     0
176
     1
290
     0
176
     1
290
     0
176
     1
290
     0
176
     1
290
     0
176
     1
290
     0
176
     1
 90
       50
176
     1
 40
0.0
176
     1
 40
1.0
176
     1
 90
        0
176
     1
 62
    18
420
        0
176
     1
 90
       50
176
     1
 90
        3
176
     1
 62
     5
420
      255
176
     1
290
     0
176
     1
 90
       50
176
     1
 90
       50
176
     1
 90
       50
176
     1
290
     0
176
     1
 90
       50
176
     1
 62
   256
176
     0
 40
1.0
176
     0
 90
        2
176
     1
  1
strokes_ogs.tif
176
     1
290
     0
176
     1
 40
1.0
176
     1
 40
1.0
176
     1
  0
VISUALSTYLE
  5
42
102
{ACAD_REACTORS
330
2A
102
}
330
2A
100
AcDbVisualStyle
  2
Shaded
 70
    27
177
     3
291
     0
 70
    58
 90
        2
176
     1
 90
        2
176
     1
 90
        1
176
     1
 90
        2
176
     1
 40
0.6
176
     1
 40
30.0
176
     1
 62
     7
420
 16777215
176
     1
 90
        0
176
     1
 90
        4
176
     1
 62
     7
176
     1
 62
   257
176
     1
 90
        1
176
     1
 90
        1
176
     1
 40
1.0
176
     1
 90
        8
176
     1
 62
   257
176
     1
 40
1.0
176
     1
 90
        1
176
     1
 90
        6
176
     1
 90
        2
176
     1
 62
     8
420
  7895160
176
     1
 90
        3
176
     1
 90
        0
176
     1
 90
        0
176
     1
290
     0
176
     1
 90
        5
176
     1
 40
0.0
176
     1
 90
        0
176
     1
290
     0
176
     1
290
     1
176
     1
290
     1
176
     1
290
     0
176
     1
290
     0
176
     1
290
     0
176
     1
290
     0
176
     1
290
     0
176
     1
290
     0
176
     1
 90
       50
176
     1
 40
0.0
176
     1
 40
1.0
176
     1
 90
        0
176
     1
 62
    18
420
        0
176
     1
 90
       50
176
     1
 90
        3
176
     1
 62
     5
420
      255
176
     1
290
     0
176
     1
 90
       50
176
     1
 90
       50
176
     1
 90
       50
176
     1
290
     0
176
     1
 90
       50
176
     1
 62
   256
176
     0
 40
1.0
176
     0
 90
        2
176
     1
  1
strokes_ogs.tif
176
     1
290
     0
176
     1
 40
1.0
176
     1
 40
1.0
176
     1
  0
VISUALSTYLE
  5
41
102
{ACAD_REACTORS
330
2A
102
}
330
2A
100
AcDbVisualStyle
  2
Shaded with edges
 70
    26
177
     3
291
     0
 70
    58
 90
        2
176
     1
 90
        2
176
     1
 90
        1
176
     1
 90
        2
176
     1
 40
0.6
176
     1
 40
30.0
176
     1
 62
     7
420
 16777215
176
     1
 90
        1
176
     1
 90
       10
176
     1
 62
     7
176
     1
 62
   257
176
     1
 90
        2
176
     1
 90
        1
176
     1
 40
1.0
176
     1
 90
        8
176
     1
 62
   257
176
     1
 40
1.0
176
     1
 90
        1
176
     1
 90
        6
176
     1
 90
        2
176
     1
 62
     7
176
     1
 90
        3
176
     1
 90
        0
176
     1
 90
        0
176
     1
290
     0
176
     1
 90
        5
176
     1
 40
0.0
176
     1
 90
        0
176
     1
290
     0
176
     1
290
     1
176
     1
290
     1
176
     1
290
     0
176
     1
290
     0
176
     1
290
     0
176
     1
290
     0
176
     1
290
     0
176
     1
290
     0
176
     1
 90
       50
176
     1
 40
0.0
176
     1
 40
1.0
176
     1
 90
        0
176
     1
 62
    18
420
        0
176
     1
 90
       50
176
     1
 90
        3
176
     1
 62
     5
420
      255
176
     1
290
     0
176
     1
 90
       50
176
     1
 90
       50
176
     1
 90
       50
176
     1
290
     0
176
     1
 90
       50
176
     1
 62
   256
176
     0
 40
1.0
176
     0
 90
        2
176
     1
  1
strokes_ogs.tif
176
     1
290
     0
176
     1
 40
1.0
176
     1
 40
1.0
176
     1
  0
VISUALSTYLE
  5
3E
102
{ACAD_REACTORS
330
2A
102
}
330
2A
100
AcDbVisualStyle
  2
Shades of Gray
 70
    23
177
     3
291
     0
 70
    58
 90
        2
176
     1
 90
        2
176
     1
 90
        3
176
     1
 90
        0
176
     1
 40
0.6
176
     1
 40
30.0
176
     1
 62
     7
420
 16777215
176
     1
 90
        2
176
     1
 90
        2
176
     1
 62
     7
176
     1
 62
     7
176
     1
 90
        1
176
     1
 90
        1
176
     1
 40
40.0
176
     1
 90
        8
176
     1
 62
     7
176
     1
 40
1.0
176
     1
 90
        1
176
     1
 90
        6
176
     1
 90
        2
176
     1
 62
     7
176
     1
 90
        3
176
     1
 90
        0
176
     1
 90
        0
176
     1
290
     0
176
     1
 90
        1
176
     1
 40
0.0
176
     1
 90
        0
176
     1
290
     0
176
     1
290
     1
176
     1
290
     1
176
     1
290
     0
176
     1
290
     0
176
     1
290
     0
176
     1
290
     0
176
     1
290
     0
176
     1
290
     0
176
     1
 90
       50
176
     1
 40
0.0
176
     1
 40
1.0
176
     1
 90
        0
176
     1
 62
    18
420
        0
176
     1
 90
       50
176
     1
 90
        3
176
     1
 62
     5
420
      255
176
     1
290
     0
176
     1
 90
       50
176
     1
 90
       50
176
     1
 90
       50
176
     1
290
     0
176
     1
 90
       50
176
     1
 62
   256
176
     0
 40
1.0
176
     0
 90
        2
176
     1
  1
strokes_ogs.tif
176
     1
290
     0
176
     1
 40
1.0
176
     1
 40
1.0
176
     1
  0
VISUALSTYLE
  5
3F
102
{ACAD_REACTORS
330
2A
102
}
330
2A
100
AcDbVisualStyle
  2
Sketchy
 70
    24
177
     3
291
     0
 70
    58
 90
        1
176
     1
 90
        2
176
     1
 90
        2
176
     1
 90
        0
176
     1
 40
0.6
176
     1
 40
30.0
176
     1
 62
     7
420
 16777215
176
     1
 90
        2
176
     1
 90
        2
176
     1
 62
     7
176
     1
 62
     7
176
     1
 90
        1
176
     1
 90
        1
176
     1
 40
40.0
176
     1
 90
       11
176
     1
 62
     7
176
     1
 40
1.0
176
     1
 90
        1
176
     1
 90
        6
176
     1
 90
        2
176
     1
 62
     7
176
     1
 90
        6
176
     1
 90
        0
176
     1
 90
        0
176
     1
290
     0
176
     1
 90
        1
176
     1
 40
0.0
176
     1
 90
        0
176
     1
290
     0
176
     1
290
     1
176
     1
290
     1
176
     1
290
     0
176
     1
290
     0
176
     1
290
     0
176
     1
290
     0
176
     1
290
     0
176
     1
290
     0
176
     1
 90
       50
176
     1
 40
0.0
176
     1
 40
1.0
176
     1
 90
        0
176
     1
 62
    18
420
        0
176
     1
 90
       50
176
     1
 90
        3
176
     1
 62
     5
420
      255
176
     1
290
     0
176
     1
 90
       50
176
     1
 90
       50
176
     1
 90
       50
176
     1
290
     0
176
     1
 90
       50
176
     1
 62
   256
176
     0
 40
1.0
176
     0
 90
        2
176
     1
  1
strokes_ogs.tif
176
     1
290
     0
176
     1
 40
1.0
176
     1
 40
1.0
176
     1
  0
VISUALSTYLE
  5
37
102
{ACAD_REACTORS
330
2A
102
}
330
2A
100
AcDbVisualStyle
  2
Thicken
 70
    13
177
     3
291
     1
 70
    58
 90
        2
176
     1
 90
        2
176
     1
 90
        0
176
     1
 90
        0
176
     1
 40
0.6
176
     1
 40
30.0
176
     1
 62
     7
420
 16777215
176
     1
 90
        1
176
     1
 90
        4
176
     1
 62
     7
176
     1
 62
   257
176
     1
 90
        1
176
     1
 90
        1
176
     1
 40
1.0
176
     1
 90
       12
176
     1
 62
     7
176
     1
 40
1.0
176
     1
 90
        1
176
     1
 90
        6
176
     1
 90
        2
176
     1
 62
     7
176
     1
 90
        5
176
     1
 90
        0
176
     1
 90
        0
176
     1
290
     0
176
     1
 90
        1
176
     1
 40
0.0
176
     1
 90
        0
176
     1
290
     0
176
     1
290
     1
176
     1
290
     1
176
     1
290
     0
176
     1
290
     0
176
     1
290
     0
176
     1
290
     0
176
     1
290
     0
176
     1
290
     0
176
     1
 90
       50
176
     1
 40
0.0
176
     1
 40
1.0
176
     1
 90
        0
176
     1
 62
    18
420
        0
176
     1
 90
       50
176
     1
 90
        3
176
     1
 62
     5
420
      255
176
     1
290
     0
176
     1
 90
       50
176
     1
 90
       50
176
     1
 90
       50
176
     1
290
     0
176
     1
 90
       50
176
     1
 62
   256
176
     0
 40
1.0
176
     0
 90
        2
176
     1
  1
strokes_ogs.tif
176
     1
290
     0
176
     1
 40
1.0
176
     1
 40
1.0
176
     1
  0
VISUALSTYLE
  5
30
102
{ACAD_REACTORS
330
2A
102
}
330
2A
100
AcDbVisualStyle
  2
Wireframe
 70
     5
177
     3
291
     0
 70
    58
 90
        0
176
     1
 90
        2
176
     1
 90
        0
176
     1
 90
        0
176
     1
 40
0.6
176
     1
 40
30.0
176
     1
 62
     7
420
 16777215
176
     1
 90
        1
176
     1
 90
        4
176
     1
 62
     7
176
     1
 62
   257
176
     1
 90
        1
176
     1
 90
        1
176
     1
 40
1.0
176
     1
 90
        0
176
     1
 62
   257
176
     1
 40
1.0
176
     1
 90
        1
176
     1
 90
        6
176
     1
 90
        2
176
     1
 62
     7
176
     1
 90
        3
176
     1
 90
        0
176
     1
 90
        0
176
     1
290
     0
176
     1
 90
        1
176
     1
 40
0.0
176
     1
 90
        0
176
     1
290
     0
176
     1
290
     1
176
     1
290
     1
176
     1
290
     0
176
     1
290
     0
176
     1
290
     0
176
     1
290
     0
176
     1
290
     0
176
     1
290
     0
176
     1
 90
       50
176
     1
 40
0.0
176
     1
 40
1.0
176
     1
 90
        0
176
     1
 62
    18
420
        0
176
     1
 90
       50
176
     1
 90
        3
176
     1
 62
     5
420
      255
176
     1
290
     0
176
     1
 90
       50
176
     1
 90
       50
176
     1
 90
       50
176
     1
290
     0
176
     1
 90
       50
176
     1
 62
   256
176
     0
 40
1.0
176
     0
 90
        2
176
     1
  1
strokes_ogs.tif
176
     1
290
     0
176
     1
 40
1.0
176
     1
 40
1.0
176
     1
  0
VISUALSTYLE
  5
40
102
{ACAD_REACTORS
330
2A
102
}
330
2A
100
AcDbVisualStyle
  2
X-Ray
 70
    25
177
     3
291
     0
 70
    58
 90
        2
176
     1
 90
        2
176
     1
 90
        1
176
     1
 90
        1
176
     1
 40
0.5
176
     1
 40
30.0
176
     1
 62
     7
420
 16777215
176
     1
 90
        1
176
     1
 90
        0
176
     1
 62
     7
176
     1
 62
   257
176
     1
 90
        1
176
     1
 90
        1
176
     1
 40
1.0
176
     1
 90
        8
176
     1
 62
     7
176
     1
 40
1.0
176
     1
 90
        1
176
     1
 90
        6
176
     1
 90
        2
176
     1
 62
     7
176
     1
 90
        3
176
     1
 90
        0
176
     1
 90
        0
176
     1
290
     0
176
     1
 90
       13
176
     1
 40
0.0
176
     1
 90
        0
176
     1
290
     0
176
     1
290
     1
176
     1
290
     1
176
     1
290
     0
176
     1
290
     0
176
     1
290
     0
176
     1
290
     0
176
     1
290
     0
176
     1
290
     0
176
     1
 90
       50
176
     1
 40
0.0
176
     1
 40
1.0
176
     1
 90
        0
176
     1
 62
    18
420
        0
176
     1
 90
       50
176
     1
 90
        3
176
     1
 62
     5
420
      255
176
     1
290
     0
176
     1
 90
       50
176
     1
 90
       50
176
     1
 90
       50
176
     1
290
     0
176
     1
 90
       50
176
     1
 62
   256
176
     0
 40
1.0
176
     0
 90
        2
176
     1
  1
strokes_ogs.tif
176
     1
290
     0
176
     1
 40
1.0
176
     1
 40
1.0
176
     1
  0
DICTIONARYVAR
  5
297
102
{ACAD_REACTORS
330
296
102
}
330
296
100
DictionaryVariables
280
     0
  1
1:1
  0
DICTIONARYVAR
  5
29C
102
{ACAD_REACTORS
330
296
102
}
330
296
100
DictionaryVariables
280
     0
  1
Standard
  0
DICTIONARYVAR
  5
29B
102
{ACAD_REACTORS
330
296
102
}
330
296
100
DictionaryVariables
280
     0
  1
Standard
  0
DICTIONARY
  5
298
330
6A
100
AcDbDictionary
280
     1
281
     1
  3
ACAD_ROUNDTRIP_2008_TABLESTYLE_CELLSTYLEMAP
360
299
  0
CELLSTYLEMAP
  5
299
102
{ACAD_REACTORS
330
298
102
}
330
298
100
AcDbCellStyleMap
 90
        3
300
CELLSTYLE
  1
TABLEFORMAT_BEGIN
 90
        5
170
     1
 91
        0
 92
    32768
 62
   257
 93
        1
300
CONTENTFORMAT
  1
CONTENTFORMAT_BEGIN
 90
        0
 91
        0
 92
        4
 93
        0
300

 40
0.0
140
1.0
 94
        5
 62
     0
340
11
144
0.25
309
CONTENTFORMAT_END
171
     1
301
MARGIN
  1
CELLMARGIN_BEGIN
 40
0.06
 40
0.06
 40
0.06
 40
0.06
 40
0.06
 40
0.06
309
CELLMARGIN_END
 94
        6
 95
        1
302
GRIDFORMAT
  1
GRIDFORMAT_BEGIN
 90
        0
 91
        1
 62
     0
 92
       -2
340
14
 93
        0
 40
0.045
309
GRIDFORMAT_END
 95
        2
302
GRIDFORMAT
  1
GRIDFORMAT_BEGIN
 90
        0
 91
        1
 62
     0
 92
       -2
340
14
 93
        0
 40
0.045
309
GRIDFORMAT_END
 95
        4
302
GRIDFORMAT
  1
GRIDFORMAT_BEGIN
 90
        0
 91
        1
 62
     0
 92
       -2
340
14
 93
        0
 40
0.045
309
GRIDFORMAT_END
 95
        8
302
GRIDFORMAT
  1
GRIDFORMAT_BEGIN
 90
        0
 91
        1
 62
     0
 92
       -2
340
14
 93
        0
 40
0.045
309
GRIDFORMAT_END
 95
       16
302
GRIDFORMAT
  1
GRIDFORMAT_BEGIN
 90
        0
 91
        1
 62
     0
 92
       -2
340
14
 93
        0
 40
0.045
309
GRIDFORMAT_END
 95
       32
302
GRIDFORMAT
  1
GRIDFORMAT_BEGIN
 90
        0
 91
        1
 62
     0
 92
       -2
340
14
 93
        0
 40
0.045
309
GRIDFORMAT_END
309
TABLEFORMAT_END
  1
CELLSTYLE_BEGIN
 90
        1
 91
        1
300
_TITLE
309
CELLSTYLE_END
300
CELLSTYLE
  1
TABLEFORMAT_BEGIN
 90
        5
170
     1
 91
        0
 92
        0
 62
   257
 93
        1
300
CONTENTFORMAT
  1
CONTENTFORMAT_BEGIN
 90
        0
 91
        0
 92
        4
 93
        0
300

 40
0.0
140
1.0
 94
        5
 62
     0
340
11
144
0.18
309
CONTENTFORMAT_END
171
     1
301
MARGIN
  1
CELLMARGIN_BEGIN
 40
0.06
 40
0.06
 40
0.06
 40
0.06
 40
0.06
 40
0.06
309
CELLMARGIN_END
 94
        6
 95
        1
302
GRIDFORMAT
  1
GRIDFORMAT_BEGIN
 90
        0
 91
        1
 62
     0
 92
       -2
340
14
 93
        0
 40
0.045
309
GRIDFORMAT_END
 95
        2
302
GRIDFORMAT
  1
GRIDFORMAT_BEGIN
 90
        0
 91
        1
 62
     0
 92
       -2
340
14
 93
        0
 40
0.045
309
GRIDFORMAT_END
 95
        4
302
GRIDFORMAT
  1
GRIDFORMAT_BEGIN
 90
        0
 91
        1
 62
     0
 92
       -2
340
14
 93
        0
 40
0.045
309
GRIDFORMAT_END
 95
        8
302
GRIDFORMAT
  1
GRIDFORMAT_BEGIN
 90
        0
 91
        1
 62
     0
 92
       -2
340
14
 93
        0
 40
0.045
309
GRIDFORMAT_END
 95
       16
302
GRIDFORMAT
  1
GRIDFORMAT_BEGIN
 90
        0
 91
        1
 62
     0
 92
       -2
340
14
 93
        0
 40
0.045
309
GRIDFORMAT_END
 95
       32
302
GRIDFORMAT
  1
GRIDFORMAT_BEGIN
 90
        0
 91
        1
 62
     0
 92
       -2
340
14
 93
        0
 40
0.045
309
GRIDFORMAT_END
309
TABLEFORMAT_END
  1
CELLSTYLE_BEGIN
 90
        2
 91
        1
300
_HEADER
309
CELLSTYLE_END
300
CELLSTYLE
  1
TABLEFORMAT_BEGIN
 90
        5
170
     1
 91
        0
 92
        0
 62
   257
 93
        1
300
CONTENTFORMAT
  1
CONTENTFORMAT_BEGIN
 90
        0
 91
        0
 92
        4
 93
        0
300

 40
0.0
140
1.0
 94
        2
 62
     0
340
11
144
0.18
309
CONTENTFORMAT_END
171
     1
301
MARGIN
  1
CELLMARGIN_BEGIN
 40
0.06
 40
0.06
 40
0.06
 40
0.06
 40
0.06
 40
0.06
309
CELLMARGIN_END
 94
        6
 95
        1
302
GRIDFORMAT
  1
GRIDFORMAT_BEGIN
 90
        0
 91
        1
 62
     0
 92
       -2
340
14
 93
        0
 40
0.045
309
GRIDFORMAT_END
 95
        2
302
GRIDFORMAT
  1
GRIDFORMAT_BEGIN
 90
        0
 91
        1
 62
     0
 92
       -2
340
14
 93
        0
 40
0.045
309
GRIDFORMAT_END
 95
        4
302
GRIDFORMAT
  1
GRIDFORMAT_BEGIN
 90
        0
 91
        1
 62
     0
 92
       -2
340
14
 93
        0
 40
0.045
309
GRIDFORMAT_END
 95
        8
302
GRIDFORMAT
  1
GRIDFORMAT_BEGIN
 90
        0
 91
        1
 62
     0
 92
       -2
340
14
 93
        0
 40
0.045
309
GRIDFORMAT_END
 95
       16
302
GRIDFORMAT
  1
GRIDFORMAT_BEGIN
 90
        0
 91
        1
 62
     0
 92
       -2
340
14
 93
        0
 40
0.045
309
GRIDFORMAT_END
 95
       32
302
GRIDFORMAT
  1
GRIDFORMAT_BEGIN
 90
        0
 91
        1
 62
     0
 92
       -2
340
14
 93
        0
 40
0.045
309
GRIDFORMAT_END
309
TABLEFORMAT_END
  1
CELLSTYLE_BEGIN
 90
        3
 91
        2
300
_DATA
309
CELLSTYLE_END
  0
ENDSEC
  0
EOF