0
SECTION
  2
HEADER
  9
$ACADVER
  1
AC1027
  9
$ACADMAINTVER
 70
     8
  9
$DWGCODEPAGE
  3
ANSI_1252
  9
$REQUIREDVERSIONS
160
                 0
  9
$COMMENTS
  1
File was created by Cadenas
  9
$CUSTOMPROPERTYTAG
  1
NN
  9
$CUSTOMPROPERTY
  1
Steel Imperial-HD Flange 4 Bolt with Type E Dimensions Non-Expansion 207-408
  9
$CUSTOMPROPERTYTAG
  1
NT
  9
$CUSTOMPROPERTY
  1
Steel Imperial/E 4 Bolt Flange Bearing-Inch-207-408
  9
$CUSTOMPROPERTYTAG
  1
NB
  9
$CUSTOMPROPERTY
  1
072238
  9
$CUSTOMPROPERTYTAG
  1
NBSYN
  9
$CUSTOMPROPERTY
  1
$PN.
  9
$CUSTOMPROPERTYTAG
  1
LINA
  9
$CUSTOMPROPERTY
  1
072238
  9
$CUSTOMPROPERTYTAG
  1
SS
  9
$CUSTOMPROPERTY
  1
2-1/2
  9
$CUSTOMPROPERTYTAG
  1
DESCRIPTION
  9
$CUSTOMPROPERTY
  1
SEF4B-IP-208R
  9
$CUSTOMPROPERTYTAG
  1
TYPE
  9
$CUSTOMPROPERTY
  1
Non-Expansion
  9
$CUSTOMPROPERTYTAG
  1
PN
  9
$CUSTOMPROPERTY
  1
072238
  9
$CUSTOMPROPERTYTAG
  1
EF
  9
$CUSTOMPROPERTY
  1
Non-Expansion
  9
$CUSTOMPROPERTYTAG
  1
ST
  9
$CUSTOMPROPERTY
  1
Contact Seal
  9
$CUSTOMPROPERTYTAG
  1
A
  9
$CUSTOMPROPERTY
  1
3,42
  9
$CUSTOMPROPERTYTAG
  1
B
  9
$CUSTOMPROPERTY
  1
6.62
  9
$CUSTOMPROPERTYTAG
  1
C
  9
$CUSTOMPROPERTY
  1
3.57
  9
$CUSTOMPROPERTYTAG
  1
D
  9
$CUSTOMPROPERTY
  1
5.37
  9
$CUSTOMPROPERTYTAG
  1
DD
  9
$CUSTOMPROPERTY
  1
7.60
  9
$CUSTOMPROPERTYTAG
  1
F
  9
$CUSTOMPROPERTY
  1
5/8
  9
$CUSTOMPROPERTYTAG
  1
G
  9
$CUSTOMPROPERTY
  1
0.95
  9
$CUSTOMPROPERTYTAG
  1
H
  9
$CUSTOMPROPERTY
  1
1.00
  9
$CUSTOMPROPERTYTAG
  1
J
  9
$CUSTOMPROPERTY
  1
5.63
  9
$CUSTOMPROPERTYTAG
  1
L
  9
$CUSTOMPROPERTY
  1
3.80
  9
$CUSTOMPROPERTYTAG
  1
N
  9
$CUSTOMPROPERTY
  1
3.23
  9
$CUSTOMPROPERTYTAG
  1
P
  9
$CUSTOMPROPERTY
  1
0.15
  9
$CUSTOMPROPERTYTAG
  1
X
  9
$CUSTOMPROPERTY
  1
0.25
  9
$CUSTOMPROPERTYTAG
  1
Y
  9
$CUSTOMPROPERTY
  1
0.025
  9
$CUSTOMPROPERTYTAG
  1
Z
  9
$CUSTOMPROPERTY
  1
2.95
  9
$CUSTOMPROPERTYTAG
  1
COMPANY
  9
$CUSTOMPROPERTY
  1
baldor
  9
$INSBASE
 10
0.0
 20
0.0
 30
0.0
  9
$EXTMIN
 10
1.000000000000000E+20
 20
1.000000000000000E+20
 30
1.000000000000000E+20
  9
$EXTMAX
 10
-1.000000000000000E+20
 20
-1.000000000000000E+20
 30
-1.000000000000000E+20
  9
$LIMMIN
 10
0.0
 20
0.0
  9
$LIMMAX
 10
12.0
 20
9.0
  9
$ORTHOMODE
 70
     0
  9
$REGENMODE
 70
     1
  9
$FILLMODE
 70
     1
  9
$QTEXTMODE
 70
     0
  9
$MIRRTEXT
 70
     1
  9
$LTSCALE
 40
1.0
  9
$ATTMODE
 70
     1
  9
$TEXTSIZE
 40
0.2
  9
$TRACEWID
 40
0.05
  9
$TEXTSTYLE
  7
Standard
  9
$CLAYER
  8
0
  9
$CELTYPE
  6
ByLayer
  9
$CECOLOR
 62
   256
  9
$CELTSCALE
 40
1.0
  9
$DISPSILH
 70
     0
  9
$DIMSCALE
 40
1.0
  9
$DIMASZ
 40
0.18
  9
$DIMEXO
 40
0.0625
  9
$DIMDLI
 40
0.38
  9
$DIMRND
 40
0.0
  9
$DIMDLE
 40
0.0
  9
$DIMEXE
 40
0.18
  9
$DIMTP
 40
0.0
  9
$DIMTM
 40
0.0
  9
$DIMTXT
 40
0.18
  9
$DIMCEN
 40
0.09
  9
$DIMTSZ
 40
0.0
  9
$DIMTOL
 70
     0
  9
$DIMLIM
 70
     0
  9
$DIMTIH
 70
     1
  9
$DIMTOH
 70
     1
  9
$DIMSE1
 70
     0
  9
$DIMSE2
 70
     0
  9
$DIMTAD
 70
     0
  9
$DIMZIN
 70
     0
  9
$DIMBLK
  1

  9
$DIMASO
 70
     1
  9
$DIMSHO
 70
     1
  9
$DIMPOST
  1

  9
$DIMAPOST
  1

  9
$DIMALT
 70
     0
  9
$DIMALTD
 70
     2
  9
$DIMALTF
 40
25.4
  9
$DIMLFAC
 40
1.0
  9
$DIMTOFL
 70
     0
  9
$DIMTVP
 40
0.0
  9
$DIMTIX
 70
     0
  9
$DIMSOXD
 70
     0
  9
$DIMSAH
 70
     0
  9
$DIMBLK1
  1

  9
$DIMBLK2
  1

  9
$DIMSTYLE
  2
Standard
  9
$DIMCLRD
 70
     0
  9
$DIMCLRE
 70
     0
  9
$DIMCLRT
 70
     0
  9
$DIMTFAC
 40
1.0
  9
$DIMGAP
 40
0.09
  9
$DIMJUST
 70
     0
  9
$DIMSD1
 70
     0
  9
$DIMSD2
 70
     0
  9
$DIMTOLJ
 70
     1
  9
$DIMTZIN
 70
     0
  9
$DIMALTZ
 70
     0
  9
$DIMALTTZ
 70
     0
  9
$DIMUPT
 70
     0
  9
$DIMDEC
 70
     4
  9
$DIMTDEC
 70
     4
  9
$DIMALTU
 70
     2
  9
$DIMALTTD
 70
     2
  9
$DIMTXSTY
  7
Standard
  9
$DIMAUNIT
 70
     0
  9
$DIMADEC
 70
     0
  9
$DIMALTRND
 40
0.0
  9
$DIMAZIN
 70
     0
  9
$DIMDSEP
 70
    46
  9
$DIMATFIT
 70
     3
  9
$DIMFRAC
 70
     0
  9
$DIMLDRBLK
  1

  9
$DIMLUNIT
 70
     2
  9
$DIMLWD
 70
    -2
  9
$DIMLWE
 70
    -2
  9
$DIMTMOVE
 70
     0
  9
$DIMFXL
 40
1.0
  9
$DIMFXLON
 70
     0
  9
$DIMJOGANG
 40
0.7853981633974483
  9
$DIMTFILL
 70
     0
  9
$DIMTFILLCLR
 70
     0
  9
$DIMARCSYM
 70
     0
  9
$DIMLTYPE
  6

  9
$DIMLTEX1
  6

  9
$DIMLTEX2
  6

  9
$DIMTXTDIRECTION
 70
     0
  9
$LUNITS
 70
     2
  9
$LUPREC
 70
     4
  9
$SKETCHINC
 40
0.1
  9
$FILLETRAD
 40
0.5
  9
$AUNITS
 70
     0
  9
$AUPREC
 70
     0
  9
$MENU
  1
.
  9
$ELEVATION
 40
0.0
  9
$PELEVATION
 40
0.0
  9
$THICKNESS
 40
0.0
  9
$LIMCHECK
 70
     0
  9
$CHAMFERA
 40
0.0
  9
$CHAMFERB
 40
0.0
  9
$CHAMFERC
 40
0.0
  9
$CHAMFERD
 40
0.0
  9
$SKPOLY
 70
     0
  9
$TDCREATE
 40
2458168.898282037
  9
$TDUCREATE
 40
2458168.85661537
  9
$TDUPDATE
 40
2458168.898282037
  9
$TDUUPDATE
 40
2458168.85661537
  9
$TDINDWG
 40
0.0000000116
  9
$TDUSRTIMER
 40
0.0000000116
  9
$USRTIMER
 70
     1
  9
$ANGBASE
 50
0.0
  9
$ANGDIR
 70
     0
  9
$PDMODE
 70
     0
  9
$PDSIZE
 40
0.0
  9
$PLINEWID
 40
0.0
  9
$SPLFRAME
 70
     0
  9
$SPLINETYPE
 70
     6
  9
$SPLINESEGS
 70
     8
  9
$HANDSEED
  5
220
  9
$SURFTAB1
 70
     6
  9
$SURFTAB2
 70
     6
  9
$SURFTYPE
 70
     6
  9
$SURFU
 70
     6
  9
$SURFV
 70
     6
  9
$UCSBASE
  2

  9
$UCSNAME
  2

  9
$UCSORG
 10
0.0
 20
0.0
 30
0.0
  9
$UCSXDIR
 10
1.0
 20
0.0
 30
0.0
  9
$UCSYDIR
 10
0.0
 20
1.0
 30
0.0
  9
$UCSORTHOREF
  2

  9
$UCSORTHOVIEW
 70
     0
  9
$UCSORGTOP
 10
0.0
 20
0.0
 30
0.0
  9
$UCSORGBOTTOM
 10
0.0
 20
0.0
 30
0.0
  9
$UCSORGLEFT
 10
0.0
 20
0.0
 30
0.0
  9
$UCSORGRIGHT
 10
0.0
 20
0.0
 30
0.0
  9
$UCSORGFRONT
 10
0.0
 20
0.0
 30
0.0
  9
$UCSORGBACK
 10
0.0
 20
0.0
 30
0.0
  9
$PUCSBASE
  2

  9
$PUCSNAME
  2

  9
$PUCSORG
 10
0.0
 20
0.0
 30
0.0
  9
$PUCSXDIR
 10
1.0
 20
0.0
 30
0.0
  9
$PUCSYDIR
 10
0.0
 20
1.0
 30
0.0
  9
$PUCSORTHOREF
  2

  9
$PUCSORTHOVIEW
 70
     0
  9
$PUCSORGTOP
 10
0.0
 20
0.0
 30
0.0
  9
$PUCSORGBOTTOM
 10
0.0
 20
0.0
 30
0.0
  9
$PUCSORGLEFT
 10
0.0
 20
0.0
 30
0.0
  9
$PUCSORGRIGHT
 10
0.0
 20
0.0
 30
0.0
  9
$PUCSORGFRONT
 10
0.0
 20
0.0
 30
0.0
  9
$PUCSORGBACK
 10
0.0
 20
0.0
 30
0.0
  9
$USERI1
 70
     0
  9
$USERI2
 70
     0
  9
$USERI3
 70
     0
  9
$USERI4
 70
     0
  9
$USERI5
 70
     0
  9
$USERR1
 40
0.0
  9
$USERR2
 40
0.0
  9
$USERR3
 40
0.0
  9
$USERR4
 40
0.0
  9
$USERR5
 40
0.0
  9
$WORLDVIEW
 70
     1
  9
$SHADEDGE
 70
     3
  9
$SHADEDIF
 70
    70
  9
$TILEMODE
 70
     1
  9
$MAXACTVP
 70
    64
  9
$PINSBASE
 10
0.0
 20
0.0
 30
0.0
  9
$PLIMCHECK
 70
     0
  9
$PEXTMIN
 10
1.000000000000000E+20
 20
1.000000000000000E+20
 30
1.000000000000000E+20
  9
$PEXTMAX
 10
-1.000000000000000E+20
 20
-1.000000000000000E+20
 30
-1.000000000000000E+20
  9
$PLIMMIN
 10
0.0
 20
0.0
  9
$PLIMMAX
 10
12.0
 20
9.0
  9
$UNITMODE
 70
     0
  9
$VISRETAIN
 70
     1
  9
$PLINEGEN
 70
     0
  9
$PSLTSCALE
 70
     1
  9
$TREEDEPTH
 70
  3020
  9
$CMLSTYLE
  2
Standard
  9
$CMLJUST
 70
     0
  9
$CMLSCALE
 40
1.0
  9
$PROXYGRAPHICS
 70
     1
  9
$MEASUREMENT
 70
     0
  9
$CELWEIGHT
370
    -1
  9
$ENDCAPS
280
     0
  9
$JOINSTYLE
280
     0
  9
$LWDISPLAY
290
     0
  9
$INSUNITS
 70
     1
  9
$HYPERLINKBASE
  1

  9
$STYLESHEET
  1

  9
$XEDIT
290
     1
  9
$CEPSNTYPE
380
     0
  9
$PSTYLEMODE
290
     1
  9
$FINGERPRINTGUID
  2
{2D58C76B-31FE-4A32-83FA-61BB52525BBD}
  9
$VERSIONGUID
  2
{FAEB1C32-E019-11D5-929B-00C0DF256EC4}
  9
$EXTNAMES
290
     1
  9
$PSVPSCALE
 40
0.0
  9
$OLESTARTUP
290
     0
  9
$SORTENTS
280
   127
  9
$INDEXCTL
280
     0
  9
$HIDETEXT
280
     1
  9
$XCLIPFRAME
280
     2
  9
$HALOGAP
280
     0
  9
$OBSCOLOR
 70
   257
  9
$OBSLTYPE
280
     0
  9
$INTERSECTIONDISPLAY
280
     0
  9
$INTERSECTIONCOLOR
 70
   257
  9
$DIMASSOC
280
     2
  9
$PROJECTNAME
  1

  9
$CAMERADISPLAY
290
     0
  9
$LENSLENGTH
 40
50.0
  9
$CAMERAHEIGHT
 40
0.0
  9
$STEPSPERSEC
 40
2.0
  9
$STEPSIZE
 40
6.0
  9
$3DDWFPREC
 40
2.0
  9
$PSOLWIDTH
 40
0.25
  9
$PSOLHEIGHT
 40
4.0
  9
$LOFTANG1
 40
1.570796326794897
  9
$LOFTANG2
 40
1.570796326794897
  9
$LOFTMAG1
 40
0.0
  9
$LOFTMAG2
 40
0.0
  9
$LOFTPARAM
 70
     7
  9
$LOFTNORMALS
280
     1
  9
$LATITUDE
 40
37.795
  9
$LONGITUDE
 40
-122.394
  9
$NORTHDIRECTION
 40
0.0
  9
$TIMEZONE
 70
 -8000
  9
$LIGHTGLYPHDISPLAY
280
     1
  9
$TILEMODELIGHTSYNCH
280
     1
  9
$CMATERIAL
347
44
  9
$SOLIDHIST
280
     0
  9
$SHOWHIST
280
     1
  9
$DWFFRAME
280
     2
  9
$DGNFRAME
280
     2
  9
$REALWORLDSCALE
290
     1
  9
$INTERFERECOLOR
 62
   256
  9
$CSHADOW
280
     0
  9
$SHADOWPLANELOCATION
 40
0.0
  0
ENDSEC
  0
SECTION
  2
CLASSES
  0
CLASS
  1
ACDBDICTIONARYWDFLT
  2
AcDbDictionaryWithDefault
  3
ObjectDBX Classes
 90
        0
 91
        4
280
     0
281
     0
  0
CLASS
  1
VISUALSTYLE
  2
AcDbVisualStyle
  3
ObjectDBX Classes
 90
     4095
 91
        4
280
     0
281
     0
  0
CLASS
  1
MATERIAL
  2
AcDbMaterial
  3
ObjectDBX Classes
 90
     1153
 91
        4
280
     0
281
     0
  0
CLASS
  1
SCALE
  2
AcDbScale
  3
ObjectDBX Classes
 90
     1153
 91
        4
280
     0
281
     0
  0
CLASS
  1
TABLESTYLE
  2
AcDbTableStyle
  3
ObjectDBX Classes
 90
     4095
 91
        4
280
     0
281
     0
  0
CLASS
  1
MLEADERSTYLE
  2
AcDbMLeaderStyle
  3
ACDB_MLEADERSTYLE_CLASS
 90
     4095
 91
        4
280
     0
281
     0
  0
CLASS
  1
SUN
  2
AcDbSun
  3
SCENEOE
 90
     1153
 91
        4
280
     0
281
     0
  0
CLASS
  1
DICTIONARYVAR
  2
AcDbDictionaryVar
  3
ObjectDBX Classes
 90
        0
 91
        4
280
     0
281
     0
  0
CLASS
  1
CELLSTYLEMAP
  2
AcDbCellStyleMap
  3
ObjectDBX Classes
 90
     1152
 91
        4
280
     0
281
     0
  0
ENDSEC
  0
SECTION
  2
TABLES
  0
TABLE
  2
VPORT
  5
8
330
0
100
AcDbSymbolTable
 70
     1
  0
VPORT
  5
29
330
8
100
AcDbSymbolTableRecord
100
AcDbViewportTableRecord
  2
*Active
 70
     0
 10
0.0
 20
0.0
 11
1.0
 21
1.0
 12
0.0
 22
-1.810073333318996
 13
0.0
 23
0.0
 14
0.5
 24
0.5
 15
0.5
 25
0.5
 16
0.0
 26
0.0
 36
1.0
 17
0.0
 27
0.0
 37
0.0
 40
3.996203600029247
 41
1.689703697767197
 42
50.0
 43
0.0
 44
0.0
 50
0.0
 51
0.0
 71
     0
 72
   100
 73
     1
 74
     3
 75
     0
 76
     0
 77
     0
 78
     0
281
     0
 65
     1
110
0.0
120
0.0
130
0.0
111
1.0
121
0.0
131
0.0
112
0.0
122
1.0
132
0.0
 79
     0
146
0.0
348
2F
 60
     3
 61
     5
292
     1
282
     1
141
0.0
142
0.0
 63
   250
361
6D
  0
ENDTAB
  0
TABLE
  2
LTYPE
  5
5
330
0
100
AcDbSymbolTable
 70
     3
  0
LTYPE
  5
14
330
5
100
AcDbSymbolTableRecord
100
AcDbLinetypeTableRecord
  2
ByBlock
 70
     0
  3

 72
    65
 73
     0
 40
0.0
  0
LTYPE
  5
15
330
5
100
AcDbSymbolTableRecord
100
AcDbLinetypeTableRecord
  2
ByLayer
 70
     0
  3

 72
    65
 73
     0
 40
0.0
  0
LTYPE
  5
16
330
5
100
AcDbSymbolTableRecord
100
AcDbLinetypeTableRecord
  2
Continuous
 70
     0
  3
Solid line
 72
    65
 73
     0
 40
0.0
  0
LTYPE
  5
C0
330
5
100
AcDbSymbolTableRecord
100
AcDbLinetypeTableRecord
  2
Dashed
 70
     0
  3

 72
    65
 73
     2
 40
2.0
 49
1.0
 74
     0
 49
-1.0
 74
     0
  0
LTYPE
  5
1F1
330
5
100
AcDbSymbolTableRecord
100
AcDbLinetypeTableRecord
  2
Center
 70
     0
  3

 72
    65
 73
     4
 40
1.5
 49
0.45
 74
     0
 49
-0.5
 74
     0
 49
0.05
 74
     0
 49
-0.5
 74
     0
  0
ENDTAB
  0
TABLE
  2
LAYER
  5
2
330
0
100
AcDbSymbolTable
 70
     7
  0
LAYER
  5
10
330
2
100
AcDbSymbolTableRecord
100
AcDbLayerTableRecord
  2
0
 70
     0
 62
     7
  6
Continuous
370
    -3
390
F
347
46
348
0
  0
LAYER
  5
72
330
2
100
AcDbSymbolTableRecord
100
AcDbLayerTableRecord
  2
AM_6
 70
     0
 62
    -2
  6
Continuous
370
    35
390
F
347
46
348
0
  0
LAYER
  5
9A
330
2
100
AcDbSymbolTableRecord
100
AcDbLayerTableRecord
  2
AM_5
 70
     0
 62
     3
  6
Continuous
370
    25
390
F
347
46
348
0
  0
LAYER
  5
C1
330
2
100
AcDbSymbolTableRecord
100
AcDbLayerTableRecord
  2
AM_9
 70
     0
 62
     6
  6
Dashed
370
    25
390
F
347
46
348
0
  0
LAYER
  5
CE
330
2
100
AcDbSymbolTableRecord
100
AcDbLayerTableRecord
  2
AM_4
 70
     0
 62
     7
  6
Continuous
370
    50
390
F
347
46
348
0
  0
LAYER
  5
1F2
330
2
100
AcDbSymbolTableRecord
100
AcDbLayerTableRecord
  2
AM_7
 70
     0
 62
     7
  6
Center
370
    25
390
F
347
46
348
0
  0
LAYER
  5
209
330
2
100
AcDbSymbolTableRecord
100
AcDbLayerTableRecord
  2
ConnectionPoints
 70
     0
 62
     7
  6
Continuous
370
    50
390
F
347
46
348
0
  0
ENDTAB
  0
TABLE
  2
STYLE
  5
3
330
0
100
AcDbSymbolTable
 70
     1
  0
STYLE
  5
11
330
3
100
AcDbSymbolTableRecord
100
AcDbTextStyleTableRecord
  2
Standard
 70
     0
 40
0.0
 41
1.0
 50
0.0
 71
     0
 42
0.2
  3
txt
  4

  0
ENDTAB
  0
TABLE
  2
VIEW
  5
6
330
0
100
AcDbSymbolTable
 70
     0
  0
ENDTAB
  0
TABLE
  2
UCS
  5
7
330
0
100
AcDbSymbolTable
 70
     0
  0
ENDTAB
  0
TABLE
  2
APPID
  5
9
330
0
100
AcDbSymbolTable
 70
     1
  0
APPID
  5
12
330
9
100
AcDbSymbolTableRecord
100
AcDbRegAppTableRecord
  2
ACAD
 70
     0
  0
ENDTAB
  0
TABLE
  2
DIMSTYLE
  5
A
330
0
100
AcDbSymbolTable
 70
     1
100
AcDbDimStyleTable
  0
DIMSTYLE
105
27
330
A
100
AcDbSymbolTableRecord
100
AcDbDimStyleTableRecord
  2
Standard
 70
     0
178
     0
340
11
  0
ENDTAB
  0
TABLE
  2
BLOCK_RECORD
  5
1
330
0
100
AcDbSymbolTable
 70
     9
  0
BLOCK_RECORD
  5
1F
330
1
100
AcDbSymbolTableRecord
100
AcDbBlockTableRecord
  2
*Model_Space
340
22
 70
     0
280
     1
281
     0
  0
BLOCK_RECORD
  5
1B
330
1
100
AcDbSymbolTableRecord
100
AcDbBlockTableRecord
  2
*Paper_Space
340
1E
 70
     0
280
     1
281
     0
  0
BLOCK_RECORD
  5
23
330
1
100
AcDbSymbolTableRecord
100
AcDbBlockTableRecord
  2
*Paper_Space0
340
26
 70
     0
280
     1
281
     0
  0
BLOCK_RECORD
  5
6E
330
1
100
AcDbSymbolTableRecord
100
AcDbBlockTableRecord
  2
1_072238_4
340
0
102
{BLKREFS
331
6F
102
}
 70
     0
280
     1
281
     0
  0
BLOCK_RECORD
  5
8E
330
1
100
AcDbSymbolTableRecord
100
AcDbBlockTableRecord
  2
2_405015E_Inch_1_0_in_072238_4
340
0
102
{BLKREFS
331
8F
102
}
 70
     0
280
     1
281
     0
  0
BLOCK_RECORD
  5
9D
330
1
100
AcDbSymbolTableRecord
100
AcDbBlockTableRecord
  2
3_ASME_B18_3_10_1_0_in_072238_4
340
0
102
{BLKREFS
331
9E
102
}
 70
     0
280
     1
281
     0
  0
BLOCK_RECORD
  5
B0
330
1
100
AcDbSymbolTableRecord
100
AcDbBlockTableRecord
  2
4_ASME_B18_3_10_2_0_in_072238_4
340
0
102
{BLKREFS
331
B1
102
}
 70
     0
280
     1
281
     0
  0
BLOCK_RECORD
  5
DB
330
1
100
AcDbSymbolTableRecord
100
AcDbBlockTableRecord
  2
5_070896LWE_0_in_072238_4
340
0
102
{BLKREFS
331
DC
102
}
 70
     0
280
     1
281
     0
  0
BLOCK_RECORD
  5
114
330
1
100
AcDbSymbolTableRecord
100
AcDbBlockTableRecord
  2
6_070896E_0_in_072238_4
340
0
102
{BLKREFS
331
115
102
}
 70
     0
280
     1
281
     0
  0
BLOCK_RECORD
  5
196
330
1
100
AcDbSymbolTableRecord
100
AcDbBlockTableRecord
  2
7_405015E_Inch_2_0_in_072238_4
340
0
102
{BLKREFS
331
197
102
}
 70
     0
280
     1
281
     0
  0
BLOCK_RECORD
  5
1B3
330
1
100
AcDbSymbolTableRecord
100
AcDbBlockTableRecord
  2
8_072238DUMMY_0_in_072238_4
340
0
102
{BLKREFS
331
1B4
102
}
 70
     0
280
     1
281
     0
  0
ENDTAB
  0
ENDSEC
  0
SECTION
  2
BLOCKS
  0
BLOCK
  5
20
330
1F
100
AcDbEntity
  8
0
100
AcDbBlockBegin
  2
*Model_Space
 70
     0
 10
0.0
 20
0.0
 30
0.0
  3
*Model_Space
  1

  0
ENDBLK
  5
21
330
1F
100
AcDbEntity
  8
0
100
AcDbBlockEnd
  0
BLOCK
  5
1C
330
1B
100
AcDbEntity
 67
     1
  8
0
100
AcDbBlockBegin
  2
*Paper_Space
 70
     0
 10
0.0
 20
0.0
 30
0.0
  3
*Paper_Space
  1

  0
ENDBLK
  5
1D
330
1B
100
AcDbEntity
 67
     1
  8
0
100
AcDbBlockEnd
  0
BLOCK
  5
24
330
23
100
AcDbEntity
  8
0
100
AcDbBlockBegin
  2
*Paper_Space0
 70
     0
 10
0.0
 20
0.0
 30
0.0
  3
*Paper_Space0
  1

  0
ENDBLK
  5
25
330
23
100
AcDbEntity
  8
0
100
AcDbBlockEnd
  0
BLOCK
  5
70
330
6E
100
AcDbEntity
  8
0
100
AcDbBlockBegin
  2
1_072238_4
 70
     2
 10
0.0
 20
0.0
 30
0.0
  3
1_072238_4
  1

  0
ATTDEF
  5
73
330
6E
100
AcDbEntity
  8
AM_6
100
AcDbText
 10
8.31
 20
0.1488500000286722
 30
0.0
 40
0.5
  1
Steel Imperial-HD Flange 4 Bolt with Type E Dimensions Non-Expansion 207-408
100
AcDbAttributeDefinition
  3

  2
NN
 70
     8
280
     0
  0
ATTDEF
  5
74
330
6E
100
AcDbEntity
  8
AM_6
100
AcDbText
 10
8.31
 20
-0.3511499999713278
 30
0.0
 40
0.5
  1
Steel Imperial/E 4 Bolt Flange Bearing-Inch-207-408
100
AcDbAttributeDefinition
  3

  2
NT
 70
     8
280
     0
  0
ATTDEF
  5
75
330
6E
100
AcDbEntity
  8
AM_6
100
AcDbText
 10
8.31
 20
-0.8511499999713278
 30
0.0
 40
0.5
  1
072238
100
AcDbAttributeDefinition
  3

  2
NB
 70
     8
280
     0
  0
ATTDEF
  5
76
330
6E
100
AcDbEntity
  8
AM_6
100
AcDbText
 10
8.31
 20
-1.351149999971328
 30
0.0
 40
0.5
  1
$PN.
100
AcDbAttributeDefinition
  3

  2
NBSYN
 70
     8
280
     0
  0
ATTDEF
  5
77
330
6E
100
AcDbEntity
  8
AM_6
100
AcDbText
 10
8.31
 20
-1.851149999971328
 30
0.0
 40
0.5
  1
072238
100
AcDbAttributeDefinition
  3

  2
LINA
 70
     8
280
     0
  0
ATTDEF
  5
78
330
6E
100
AcDbEntity
  8
AM_6
100
AcDbText
 10
8.31
 20
-2.351149999971328
 30
0.0
 40
0.5
  1
2-1/2
100
AcDbAttributeDefinition
  3

  2
SS
 70
     8
280
     0
  0
ATTDEF
  5
79
330
6E
100
AcDbEntity
  8
AM_6
100
AcDbText
 10
8.31
 20
-2.851149999971328
 30
0.0
 40
0.5
  1
SEF4B-IP-208R
100
AcDbAttributeDefinition
  3

  2
DESCRIPTION
 70
     8
280
     0
  0
ATTDEF
  5
7A
330
6E
100
AcDbEntity
  8
AM_6
100
AcDbText
 10
8.31
 20
-3.351149999971328
 30
0.0
 40
0.5
  1
Non-Expansion
100
AcDbAttributeDefinition
  3

  2
TYPE
 70
     8
280
     0
  0
ATTDEF
  5
7B
330
6E
100
AcDbEntity
  8
AM_6
100
AcDbText
 10
8.31
 20
-3.851149999971328
 30
0.0
 40
0.5
  1
072238
100
AcDbAttributeDefinition
  3

  2
PN
 70
     8
280
     0
  0
ATTDEF
  5
7C
330
6E
100
AcDbEntity
  8
AM_6
100
AcDbText
 10
8.31
 20
-4.351149999971328
 30
0.0
 40
0.5
  1
Non-Expansion
100
AcDbAttributeDefinition
  3

  2
EF
 70
     8
280
     0
  0
ATTDEF
  5
7D
330
6E
100
AcDbEntity
  8
AM_6
100
AcDbText
 10
8.31
 20
-4.851149999971328
 30
0.0
 40
0.5
  1
Contact Seal
100
AcDbAttributeDefinition
  3

  2
ST
 70
     8
280
     0
  0
ATTDEF
  5
7E
330
6E
100
AcDbEntity
  8
AM_6
100
AcDbText
 10
8.31
 20
-5.351149999971328
 30
0.0
 40
0.5
  1
3,42
100
AcDbAttributeDefinition
  3

  2
A
 70
     8
280
     0
  0
ATTDEF
  5
7F
330
6E
100
AcDbEntity
  8
AM_6
100
AcDbText
 10
8.31
 20
-5.851149999971328
 30
0.0
 40
0.5
  1
6.62
100
AcDbAttributeDefinition
  3

  2
B
 70
     8
280
     0
  0
ATTDEF
  5
80
330
6E
100
AcDbEntity
  8
AM_6
100
AcDbText
 10
8.31
 20
-6.351149999971328
 30
0.0
 40
0.5
  1
3.57
100
AcDbAttributeDefinition
  3

  2
C
 70
     8
280
     0
  0
ATTDEF
  5
81
330
6E
100
AcDbEntity
  8
AM_6
100
AcDbText
 10
8.31
 20
-6.851149999971328
 30
0.0
 40
0.5
  1
5.37
100
AcDbAttributeDefinition
  3

  2
D
 70
     8
280
     0
  0
ATTDEF
  5
82
330
6E
100
AcDbEntity
  8
AM_6
100
AcDbText
 10
8.31
 20
-7.351149999971328
 30
0.0
 40
0.5
  1
7.60
100
AcDbAttributeDefinition
  3

  2
DD
 70
     8
280
     0
  0
ATTDEF
  5
83
330
6E
100
AcDbEntity
  8
AM_6
100
AcDbText
 10
8.31
 20
-7.851149999971328
 30
0.0
 40
0.5
  1
5/8
100
AcDbAttributeDefinition
  3

  2
F
 70
     8
280
     0
  0
ATTDEF
  5
84
330
6E
100
AcDbEntity
  8
AM_6
100
AcDbText
 10
8.31
 20
-8.351149999971328
 30
0.0
 40
0.5
  1
0.95
100
AcDbAttributeDefinition
  3

  2
G
 70
     8
280
     0
  0
ATTDEF
  5
85
330
6E
100
AcDbEntity
  8
AM_6
100
AcDbText
 10
8.31
 20
-8.851149999971328
 30
0.0
 40
0.5
  1
1.00
100
AcDbAttributeDefinition
  3

  2
H
 70
     8
280
     0
  0
ATTDEF
  5
86
330
6E
100
AcDbEntity
  8
AM_6
100
AcDbText
 10
8.31
 20
-9.351149999971328
 30
0.0
 40
0.5
  1
5.63
100
AcDbAttributeDefinition
  3

  2
J
 70
     8
280
     0
  0
ATTDEF
  5
87
330
6E
100
AcDbEntity
  8
AM_6
100
AcDbText
 10
8.31
 20
-9.851149999971328
 30
0.0
 40
0.5
  1
3.80
100
AcDbAttributeDefinition
  3

  2
L
 70
     8
280
     0
  0
ATTDEF
  5
88
330
6E
100
AcDbEntity
  8
AM_6
100
AcDbText
 10
8.31
 20
-10.35114999997133
 30
0.0
 40
0.5
  1
3.23
100
AcDbAttributeDefinition
  3

  2
N
 70
     8
280
     0
  0
ATTDEF
  5
89
330
6E
100
AcDbEntity
  8
AM_6
100
AcDbText
 10
8.31
 20
-10.85114999997133
 30
0.0
 40
0.5
  1
0.15
100
AcDbAttributeDefinition
  3

  2
P
 70
     8
280
     0
  0
ATTDEF
  5
8A
330
6E
100
AcDbEntity
  8
AM_6
100
AcDbText
 10
8.31
 20
-11.35114999997133
 30
0.0
 40
0.5
  1
0.25
100
AcDbAttributeDefinition
  3

  2
X
 70
     8
280
     0
  0
ATTDEF
  5
8B
330
6E
100
AcDbEntity
  8
AM_6
100
AcDbText
 10
8.31
 20
-11.85114999997133
 30
0.0
 40
0.5
  1
0.025
100
AcDbAttributeDefinition
  3

  2
Y
 70
     8
280
     0
  0
ATTDEF
  5
8C
330
6E
100
AcDbEntity
  8
AM_6
100
AcDbText
 10
8.31
 20
-12.35114999997133
 30
0.0
 40
0.5
  1
2.95
100
AcDbAttributeDefinition
  3

  2
Z
 70
     8
280
     0
  0
ATTDEF
  5
8D
330
6E
100
AcDbEntity
  8
AM_6
100
AcDbText
 10
8.31
 20
-12.85114999997133
 30
0.0
 40
0.5
  1
baldor
100
AcDbAttributeDefinition
  3

  2
COMPANY
 70
     8
280
     0
  0
INSERT
  5
8F
330
6E
100
AcDbEntity
  8
0
100
AcDbBlockReference
  2
2_405015E_Inch_1_0_in_072238_4
 10
0.0
 20
0.0
 30
0.0
  0
INSERT
  5
9E
330
6E
100
AcDbEntity
  8
0
100
AcDbBlockReference
  2
3_ASME_B18_3_10_1_0_in_072238_4
 10
0.0
 20
0.0
 30
0.0
  0
INSERT
  5
B1
330
6E
100
AcDbEntity
  8
0
100
AcDbBlockReference
  2
4_ASME_B18_3_10_2_0_in_072238_4
 10
0.0
 20
0.0
 30
0.0
  0
INSERT
  5
DC
330
6E
100
AcDbEntity
  8
0
100
AcDbBlockReference
  2
5_070896LWE_0_in_072238_4
 10
0.0
 20
0.0
 30
0.0
  0
INSERT
  5
115
330
6E
100
AcDbEntity
  8
0
100
AcDbBlockReference
  2
6_070896E_0_in_072238_4
 10
0.0
 20
0.0
 30
0.0
  0
INSERT
  5
197
330
6E
100
AcDbEntity
  8
0
100
AcDbBlockReference
  2
7_405015E_Inch_2_0_in_072238_4
 10
0.0
 20
0.0
 30
0.0
  0
INSERT
  5
1B4
330
6E
100
AcDbEntity
  8
0
100
AcDbBlockReference
  2
8_072238DUMMY_0_in_072238_4
 10
0.0
 20
0.0
 30
0.0
  0
ENDBLK
  5
71
330
6E
100
AcDbEntity
  8
0
100
AcDbBlockEnd
  0
BLOCK
  5
90
330
8E
100
AcDbEntity
  8
0
100
AcDbBlockBegin
  2
2_405015E_Inch_1_0_in_072238_4
 70
     2
 10
0.0
 20
0.0
 30
0.0
  3
2_405015E_Inch_1_0_in_072238_4
  1

  0
ATTDEF
  5
92
330
8E
100
AcDbEntity
  8
AM_6
100
AcDbText
 10
5.202500005
 20
-1.607499995
 30
0.0
 40
0.5
  1
405015E -Inch
100
AcDbAttributeDefinition
  3

  2
NN
 70
     8
280
     0
  0
ATTDEF
  5
93
330
8E
100
AcDbEntity
  8
AM_6
100
AcDbText
 10
5.202500005
 20
-2.107499995
 30
0.0
 40
0.5
  1
Grease Fitting
100
AcDbAttributeDefinition
  3

  2
NT
 70
     8
280
     0
  0
ATTDEF
  5
94
330
8E
100
AcDbEntity
  8
AM_6
100
AcDbText
 10
5.202500005
 20
-2.607499995
 30
0.0
 40
0.5
  1
405015E-Inch
100
AcDbAttributeDefinition
  3

  2
NB
 70
     8
280
     0
  0
ATTDEF
  5
95
330
8E
100
AcDbEntity
  8
AM_6
100
AcDbText
 10
5.202500005
 20
-3.107499995
 30
0.0
 40
0.5
  1
$MN.-Inch
100
AcDbAttributeDefinition
  3

  2
NBSYN
 70
     8
280
     0
  0
ATTDEF
  5
96
330
8E
100
AcDbEntity
  8
AM_6
100
AcDbText
 10
5.202500005
 20
-3.607499995
 30
0.0
 40
0.5
  1
405015E
100
AcDbAttributeDefinition
  3

  2
LINA
 70
     8
280
     0
  0
ATTDEF
  5
97
330
8E
100
AcDbEntity
  8
AM_6
100
AcDbText
 10
5.202500005
 20
-4.107499995
 30
0.0
 40
0.5
  1
405015E
100
AcDbAttributeDefinition
  3

  2
MN
 70
     8
280
     0
  0
ATTDEF
  5
98
330
8E
100
AcDbEntity
  8
AM_6
100
AcDbText
 10
5.202500005
 20
-4.607499995
 30
0.0
 40
0.5
  1
1/8 x 27PTF
100
AcDbAttributeDefinition
  3

  2
T
 70
     8
280
     0
  0
ATTDEF
  5
99
330
8E
100
AcDbEntity
  8
AM_6
100
AcDbText
 10
5.202500005
 20
-5.107499995
 30
0.0
 40
0.5
  1
baldor
100
AcDbAttributeDefinition
  3

  2
COMPANY
 70
     8
280
     0
  0
ARC
  5
9B
330
8E
100
AcDbEntity
  8
AM_5
100
AcDbCircle
 10
0.0000000000000002
 20
-1.81
 30
0.0
 40
0.2025000050000003
100
AcDbArc
 50
75.00000000000003
 51
15.00000000000007
  0
ARC
  5
9C
330
8E
100
AcDbEntity
  8
AM_5
100
AcDbCircle
 10
-0.0000000000000001
 20
-1.81
 30
0.0
 40
0.2025000050000001
100
AcDbArc
 50
345.0
 51
285.0
  0
ENDBLK
  5
91
330
8E
100
AcDbEntity
  8
0
100
AcDbBlockEnd
  0
BLOCK
  5
9F
330
9D
100
AcDbEntity
  8
0
100
AcDbBlockBegin
  2
3_ASME_B18_3_10_1_0_in_072238_4
 70
     2
 10
0.0
 20
0.0
 30
0.0
  3
3_ASME_B18_3_10_1_0_in_072238_4
  1

  0
ATTDEF
  5
A1
330
9D
100
AcDbEntity
  8
AM_6
100
AcDbText
 10
5.095
 20
-2.668996666666666
 30
0.0
 40
0.5
  1
ANSI/ASME-B18.3-1998
100
AcDbAttributeDefinition
  3

  2
NN
 70
     8
280
     0
  0
ATTDEF
  5
A2
330
9D
100
AcDbEntity
  8
AM_6
100
AcDbText
 10
5.095
 20
-3.168996666666666
 30
0.0
 40
0.5
  1
Socket Button Head Cap Screws
100
AcDbAttributeDefinition
  3

  2
NT
 70
     8
280
     0
  0
ATTDEF
  5
A3
330
9D
100
AcDbEntity
  8
AM_6
100
AcDbText
 10
5.095
 20
-3.668996666666666
 30
0.0
 40
0.5
  1
ASME-B18.3-10
100
AcDbAttributeDefinition
  3

  2
NB
 70
     8
280
     0
  0
ATTDEF
  5
A4
330
9D
100
AcDbEntity
  8
AM_6
100
AcDbText
 10
5.095
 20
-4.168996666666667
 30
0.0
 40
0.5
  1
ASME-B18.3-$NS.
100
AcDbAttributeDefinition
  3

  2
NBSYN
 70
     8
280
     0
  0
ATTDEF
  5
A5
330
9D
100
AcDbEntity
  8
AM_6
100
AcDbText
 10
5.095
 20
-4.668996666666667
 30
0.0
 40
0.5
  1
ASME-B18.3-10
100
AcDbAttributeDefinition
  3

  2
LINA
 70
     8
280
     0
  0
ATTDEF
  5
A6
330
9D
100
AcDbEntity
  8
AM_6
100
AcDbText
 10
5.095
 20
-5.168996666666667
 30
0.0
 40
0.5
  1
10
100
AcDbAttributeDefinition
  3

  2
NS
 70
     8
280
     0
  0
ATTDEF
  5
A7
330
9D
100
AcDbEntity
  8
AM_6
100
AcDbText
 10
5.095
 20
-5.668996666666667
 30
0.0
 40
0.5
  1
0.361
100
AcDbAttributeDefinition
  3

  2
A
 70
     8
280
     0
  0
ATTDEF
  5
A8
330
9D
100
AcDbEntity
  8
AM_6
100
AcDbText
 10
5.095
 20
-6.168996666666667
 30
0.0
 40
0.5
  1
0.101
100
AcDbAttributeDefinition
  3

  2
H
 70
     8
280
     0
  0
ATTDEF
  5
A9
330
9D
100
AcDbEntity
  8
AM_6
100
AcDbText
 10
5.095
 20
-6.668996666666667
 30
0.0
 40
0.5
  1
0.800
100
AcDbAttributeDefinition
  3

  2
L
 70
     8
280
     0
  0
ATTDEF
  5
AA
330
9D
100
AcDbEntity
  8
AM_6
100
AcDbText
 10
5.095
 20
-7.168996666666667
 30
0.0
 40
0.5
  1
0.020
100
AcDbAttributeDefinition
  3

  2
S
 70
     8
280
     0
  0
ATTDEF
  5
AB
330
9D
100
AcDbEntity
  8
AM_6
100
AcDbText
 10
5.095
 20
-7.668996666666667
 30
0.0
 40
0.5
  1
0.125000
100
AcDbAttributeDefinition
  3

  2
J
 70
     8
280
     0
  0
ATTDEF
  5
AC
330
9D
100
AcDbEntity
  8
AM_6
100
AcDbText
 10
5.095
 20
-8.168996666666667
 30
0.0
 40
0.5
  1
baldor
100
AcDbAttributeDefinition
  3

  2
COMPANY
 70
     8
280
     0
  0
LINE
  5
AD
330
9D
100
AcDbEntity
  8
AM_5
100
AcDbLine
 10
0.0702
 20
-2.668996666666666
 30
0.0
 11
0.0702
 21
-3.569996666666666
 31
0.0
  0
LINE
  5
AE
330
9D
100
AcDbEntity
  8
AM_5
100
AcDbLine
 10
-0.0702
 20
-2.668996666666666
 30
0.0
 11
-0.0702
 21
-3.569996666666666
 31
0.0
  0
LINE
  5
AF
330
9D
100
AcDbEntity
  8
AM_5
100
AcDbLine
 10
0.095
 20
-3.768996666666666
 30
0.0
 11
-0.095
 21
-3.768996666666666
 31
0.0
  0
ENDBLK
  5
A0
330
9D
100
AcDbEntity
  8
0
100
AcDbBlockEnd
  0
BLOCK
  5
B2
330
B0
100
AcDbEntity
  8
0
100
AcDbBlockBegin
  2
4_ASME_B18_3_10_2_0_in_072238_4
 70
     2
 10
0.0
 20
0.0
 30
0.0
  3
4_ASME_B18_3_10_2_0_in_072238_4
  1

  0
ATTDEF
  5
B4
330
B0
100
AcDbEntity
  8
AM_6
100
AcDbText
 10
5.1805
 20
-2.668996666666666
 30
0.0
 40
0.5
  1
ANSI/ASME-B18.3-1998
100
AcDbAttributeDefinition
  3

  2
NN
 70
     8
280
     0
  0
ATTDEF
  5
B5
330
B0
100
AcDbEntity
  8
AM_6
100
AcDbText
 10
5.1805
 20
-3.168996666666666
 30
0.0
 40
0.5
  1
Socket Button Head Cap Screws
100
AcDbAttributeDefinition
  3

  2
NT
 70
     8
280
     0
  0
ATTDEF
  5
B6
330
B0
100
AcDbEntity
  8
AM_6
100
AcDbText
 10
5.1805
 20
-3.668996666666666
 30
0.0
 40
0.5
  1
ASME-B18.3-10
100
AcDbAttributeDefinition
  3

  2
NB
 70
     8
280
     0
  0
ATTDEF
  5
B7
330
B0
100
AcDbEntity
  8
AM_6
100
AcDbText
 10
5.1805
 20
-4.168996666666667
 30
0.0
 40
0.5
  1
ASME-B18.3-$NS.
100
AcDbAttributeDefinition
  3

  2
NBSYN
 70
     8
280
     0
  0
ATTDEF
  5
B8
330
B0
100
AcDbEntity
  8
AM_6
100
AcDbText
 10
5.1805
 20
-4.668996666666667
 30
0.0
 40
0.5
  1
ASME-B18.3-10
100
AcDbAttributeDefinition
  3

  2
LINA
 70
     8
280
     0
  0
ATTDEF
  5
B9
330
B0
100
AcDbEntity
  8
AM_6
100
AcDbText
 10
5.1805
 20
-5.168996666666667
 30
0.0
 40
0.5
  1
10
100
AcDbAttributeDefinition
  3

  2
NS
 70
     8
280
     0
  0
ATTDEF
  5
BA
330
B0
100
AcDbEntity
  8
AM_6
100
AcDbText
 10
5.1805
 20
-5.668996666666667
 30
0.0
 40
0.5
  1
0.361
100
AcDbAttributeDefinition
  3

  2
A
 70
     8
280
     0
  0
ATTDEF
  5
BB
330
B0
100
AcDbEntity
  8
AM_6
100
AcDbText
 10
5.1805
 20
-6.168996666666667
 30
0.0
 40
0.5
  1
0.101
100
AcDbAttributeDefinition
  3

  2
H
 70
     8
280
     0
  0
ATTDEF
  5
BC
330
B0
100
AcDbEntity
  8
AM_6
100
AcDbText
 10
5.1805
 20
-6.668996666666667
 30
0.0
 40
0.5
  1
0.800
100
AcDbAttributeDefinition
  3

  2
L
 70
     8
280
     0
  0
ATTDEF
  5
BD
330
B0
100
AcDbEntity
  8
AM_6
100
AcDbText
 10
5.1805
 20
-7.168996666666667
 30
0.0
 40
0.5
  1
0.020
100
AcDbAttributeDefinition
  3

  2
S
 70
     8
280
     0
  0
ATTDEF
  5
BE
330
B0
100
AcDbEntity
  8
AM_6
100
AcDbText
 10
5.1805
 20
-7.668996666666667
 30
0.0
 40
0.5
  1
0.125000
100
AcDbAttributeDefinition
  3

  2
J
 70
     8
280
     0
  0
ATTDEF
  5
BF
330
B0
100
AcDbEntity
  8
AM_6
100
AcDbText
 10
5.1805
 20
-8.168996666666667
 30
0.0
 40
0.5
  1
baldor
100
AcDbAttributeDefinition
  3

  2
COMPANY
 70
     8
280
     0
  0
LINE
  5
C2
330
B0
100
AcDbEntity
  8
AM_9
100
AcDbLine
 10
-0.0625
 20
-3.508996666666667
 30
0.0
 11
-0.0625
 21
-3.569996666666666
 31
0.0
  0
LINE
  5
C3
330
B0
100
AcDbEntity
  8
AM_9
100
AcDbLine
 10
0.0625
 20
-3.508996666666667
 30
0.0
 11
0.0625
 21
-3.569996666666666
 31
0.0
  0
LINE
  5
C4
330
B0
100
AcDbEntity
  8
AM_9
100
AcDbLine
 10
-0.0625
 20
-3.508996666666667
 30
0.0
 11
0.0625
 21
-3.508996666666667
 31
0.0
  0
LINE
  5
C5
330
B0
100
AcDbEntity
  8
AM_9
100
AcDbLine
 10
0.0
 20
-3.508996666666667
 30
0.0
 11
0.0
 21
-3.569996666666666
 31
0.0
  0
LINE
  5
C6
330
B0
100
AcDbEntity
  8
AM_9
100
AcDbLine
 10
0.095
 20
-3.298666666666666
 30
0.0
 11
0.095
 21
-2.693796666666666
 31
0.0
  0
LINE
  5
C7
330
B0
100
AcDbEntity
  8
AM_9
100
AcDbLine
 10
-0.095
 20
-2.693796666666666
 30
0.0
 11
-0.095
 21
-3.298666666666666
 31
0.0
  0
LINE
  5
C8
330
B0
100
AcDbEntity
  8
AM_9
100
AcDbLine
 10
-0.0702
 20
-2.668996666666666
 30
0.0
 11
-0.095
 21
-2.693796666666666
 31
0.0
  0
LINE
  5
C9
330
B0
100
AcDbEntity
  8
AM_9
100
AcDbLine
 10
0.095
 20
-2.693796666666666
 30
0.0
 11
0.0702
 21
-2.668996666666666
 31
0.0
  0
LINE
  5
CA
330
B0
100
AcDbEntity
  8
AM_9
100
AcDbLine
 10
-0.0702
 20
-2.668996666666666
 30
0.0
 11
0.0702
 21
-2.668996666666666
 31
0.0
  0
LINE
  5
CB
330
B0
100
AcDbEntity
  8
AM_9
100
AcDbLine
 10
-0.095
 20
-2.693796666666666
 30
0.0
 11
0.095
 21
-2.693796666666666
 31
0.0
  0
LINE
  5
CC
330
B0
100
AcDbEntity
  8
AM_5
100
AcDbLine
 10
0.0702
 20
-2.668996666666666
 30
0.0
 11
0.0702
 21
-3.368666666666666
 31
0.0
  0
LINE
  5
CD
330
B0
100
AcDbEntity
  8
AM_5
100
AcDbLine
 10
-0.0702
 20
-2.668996666666666
 30
0.0
 11
-0.0702
 21
-3.368666666666666
 31
0.0
  0
LINE
  5
CF
330
B0
100
AcDbEntity
  8
AM_4
100
AcDbLine
 10
0.095
 20
-3.468996666666667
 30
0.0
 11
0.095
 21
-3.368666666666666
 31
0.0
  0
LINE
  5
D0
330
B0
100
AcDbEntity
  8
AM_4
100
AcDbLine
 10
-0.095
 20
-3.368666666666666
 30
0.0
 11
-0.095
 21
-3.468996666666667
 31
0.0
  0
LINE
  5
D1
330
B0
100
AcDbEntity
  8
AM_4
100
AcDbLine
 10
-0.0994999954873834
 20
-3.569996666666666
 30
0.0
 11
0.0995
 21
-3.569996666666666
 31
0.0
  0
ARC
  5
D2
330
B0
100
AcDbEntity
  8
AM_4
100
AcDbCircle
 10
0.0995000000000003
 20
-3.488996666666667
 30
0.0
 40
0.0809999999999995
100
AcDbArc
 50
270.0
 51
0.0
  0
ARC
  5
D3
330
B0
100
AcDbEntity
  8
AM_4
100
AcDbCircle
 10
-0.0995000000000003
 20
-3.488996666666667
 30
0.0
 40
0.0809999999999996
100
AcDbArc
 50
180.0
 51
270.0
  0
LINE
  5
D4
330
B0
100
AcDbEntity
  8
AM_4
100
AcDbLine
 10
0.1805
 20
-3.488996666666666
 30
0.0
 11
0.1805
 21
-3.468996666666667
 31
0.0
  0
LINE
  5
D5
330
B0
100
AcDbEntity
  8
AM_4
100
AcDbLine
 10
-0.1805
 20
-3.468996666666667
 30
0.0
 11
-0.1805
 21
-3.488996666666666
 31
0.0
  0
LINE
  5
D6
330
B0
100
AcDbEntity
  8
AM_4
100
AcDbLine
 10
-0.1805
 20
-3.468996666666667
 30
0.0
 11
0.1805
 21
-3.468996666666667
 31
0.0
  0
LINE
  5
D7
330
B0
100
AcDbEntity
  8
AM_4
100
AcDbLine
 10
-0.1805
 20
-3.488996666666666
 30
0.0
 11
0.1805
 21
-3.488996666666666
 31
0.0
  0
LINE
  5
D8
330
B0
100
AcDbEntity
  8
AM_5
100
AcDbLine
 10
0.0702
 20
-3.368666666666666
 30
0.0
 11
0.0702
 21
-3.569996666666666
 31
0.0
  0
LINE
  5
D9
330
B0
100
AcDbEntity
  8
AM_5
100
AcDbLine
 10
0.095
 20
-3.768996666666666
 30
0.0
 11
-0.095
 21
-3.768996666666666
 31
0.0
  0
LINE
  5
DA
330
B0
100
AcDbEntity
  8
AM_5
100
AcDbLine
 10
-0.0702
 20
-3.368666666666666
 30
0.0
 11
-0.0702
 21
-3.569996666666666
 31
0.0
  0
ENDBLK
  5
B3
330
B0
100
AcDbEntity
  8
0
100
AcDbBlockEnd
  0
BLOCK
  5
DD
330
DB
100
AcDbEntity
  8
0
100
AcDbBlockBegin
  2
5_070896LWE_0_in_072238_4
 70
     2
 10
0.0
 20
0.0
 30
0.0
  3
5_070896LWE_0_in_072238_4
  1

  0
ATTDEF
  5
DF
330
DB
100
AcDbEntity
  8
AM_6
100
AcDbText
 10
6.94
 20
-2.928666666666666
 30
0.0
 40
0.5
  1
Imperial/E Insert Lockwasher -Inch
100
AcDbAttributeDefinition
  3

  2
NN
 70
     8
280
     0
  0
ATTDEF
  5
E0
330
DB
100
AcDbEntity
  8
AM_6
100
AcDbText
 10
6.94
 20
-3.428666666666666
 30
0.0
 40
0.5
  1
Imperial/E Bearings
100
AcDbAttributeDefinition
  3

  2
NT
 70
     8
280
     0
  0
ATTDEF
  5
E1
330
DB
100
AcDbEntity
  8
AM_6
100
AcDbText
 10
6.94
 20
-3.928666666666666
 30
0.0
 40
0.5
  1
070896LWE
100
AcDbAttributeDefinition
  3

  2
NB
 70
     8
280
     0
  0
ATTDEF
  5
E2
330
DB
100
AcDbEntity
  8
AM_6
100
AcDbText
 10
6.94
 20
-4.428666666666667
 30
0.0
 40
0.5
  1
$PN.LWE
100
AcDbAttributeDefinition
  3

  2
NBSYN
 70
     8
280
     0
  0
ATTDEF
  5
E3
330
DB
100
AcDbEntity
  8
AM_6
100
AcDbText
 10
6.94
 20
-4.928666666666667
 30
0.0
 40
0.5
  1
070896
100
AcDbAttributeDefinition
  3

  2
LINA
 70
     8
280
     0
  0
ATTDEF
  5
E4
330
DB
100
AcDbEntity
  8
AM_6
100
AcDbText
 10
6.94
 20
-5.428666666666667
 30
0.0
 40
0.5
  1
2-1/2
100
AcDbAttributeDefinition
  3

  2
SS
 70
     8
280
     0
  0
ATTDEF
  5
E5
330
DB
100
AcDbEntity
  8
AM_6
100
AcDbText
 10
6.94
 20
-5.928666666666667
 30
0.0
 40
0.5
  1
3.880000
100
AcDbAttributeDefinition
  3

  2
E1
 70
     8
280
     0
  0
ATTDEF
  5
E6
330
DB
100
AcDbEntity
  8
AM_6
100
AcDbText
 10
6.94
 20
-6.428666666666667
 30
0.0
 40
0.5
  1
2.500000
100
AcDbAttributeDefinition
  3

  2
SS1
 70
     8
280
     0
  0
ATTDEF
  5
E7
330
DB
100
AcDbEntity
  8
AM_6
100
AcDbText
 10
6.94
 20
-6.928666666666667
 30
0.0
 40
0.5
  1
070896
100
AcDbAttributeDefinition
  3

  2
PN
 70
     8
280
     0
  0
ATTDEF
  5
E8
330
DB
100
AcDbEntity
  8
AM_6
100
AcDbText
 10
6.94
 20
-7.428666666666667
 30
0.0
 40
0.5
  1
INS-IP-208R
100
AcDbAttributeDefinition
  3

  2
DESCRIPTION
 70
     8
280
     0
  0
ATTDEF
  5
E9
330
DB
100
AcDbEntity
  8
AM_6
100
AcDbText
 10
6.94
 20
-7.928666666666667
 30
0.0
 40
0.5
  1
4.7241
100
AcDbAttributeDefinition
  3

  2
A
 70
     8
280
     0
  0
ATTDEF
  5
EA
330
DB
100
AcDbEntity
  8
AM_6
100
AcDbText
 10
6.94
 20
-8.428666666666667
 30
0.0
 40
0.5
  1
1-9/32
100
AcDbAttributeDefinition
  3

  2
B
 70
     8
280
     0
  0
ATTDEF
  5
EB
330
DB
100
AcDbEntity
  8
AM_6
100
AcDbText
 10
6.94
 20
-8.928666666666667
 30
0.0
 40
0.5
  1
1.281250
100
AcDbAttributeDefinition
  3

  2
B1
 70
     8
280
     0
  0
ATTDEF
  5
EC
330
DB
100
AcDbEntity
  8
AM_6
100
AcDbText
 10
6.94
 20
-9.428666666666667
 30
0.0
 40
0.5
  1
3-27/64
100
AcDbAttributeDefinition
  3

  2
C
 70
     8
280
     0
  0
ATTDEF
  5
ED
330
DB
100
AcDbEntity
  8
AM_6
100
AcDbText
 10
6.94
 20
-9.928666666666667
 30
0.0
 40
0.5
  1
3.421875
100
AcDbAttributeDefinition
  3

  2
C1
 70
     8
280
     0
  0
ATTDEF
  5
EE
330
DB
100
AcDbEntity
  8
AM_6
100
AcDbText
 10
6.94
 20
-10.42866666666667
 30
0.0
 40
0.5
  1
1.208
100
AcDbAttributeDefinition
  3

  2
D
 70
     8
280
     0
  0
ATTDEF
  5
EF
330
DB
100
AcDbEntity
  8
AM_6
100
AcDbText
 10
6.94
 20
-10.92866666666667
 30
0.0
 40
0.5
  1
3-7/8
100
AcDbAttributeDefinition
  3

  2
E
 70
     8
280
     0
  0
ATTDEF
  5
F0
330
DB
100
AcDbEntity
  8
AM_6
100
AcDbText
 10
6.94
 20
-11.42866666666667
 30
0.0
 40
0.5
  1
0.1900
100
AcDbAttributeDefinition
  3

  2
NDM
 70
     8
280
     0
  0
ATTDEF
  5
F1
330
DB
100
AcDbEntity
  8
AM_6
100
AcDbText
 10
6.94
 20
-11.92866666666667
 30
0.0
 40
0.5
  1
0.1450
100
AcDbAttributeDefinition
  3

  2
KDM
 70
     8
280
     0
  0
ATTDEF
  5
F2
330
DB
100
AcDbEntity
  8
AM_6
100
AcDbText
 10
6.94
 20
-12.42866666666667
 30
0.0
 40
0.5
  1
3.35
100
AcDbAttributeDefinition
  3

  2
AL
 70
     8
280
     0
  0
ATTDEF
  5
F3
330
DB
100
AcDbEntity
  8
AM_6
100
AcDbText
 10
6.94
 20
-12.92866666666667
 30
0.0
 40
0.5
  1
0.50
100
AcDbAttributeDefinition
  3

  2
BL
 70
     8
280
     0
  0
ATTDEF
  5
F4
330
DB
100
AcDbEntity
  8
AM_6
100
AcDbText
 10
6.94
 20
-13.42866666666667
 30
0.0
 40
0.5
  1
0.07
100
AcDbAttributeDefinition
  3

  2
CL
 70
     8
280
     0
  0
ATTDEF
  5
F5
330
DB
100
AcDbEntity
  8
AM_6
100
AcDbText
 10
6.94
 20
-13.92866666666667
 30
0.0
 40
0.5
  1
0.44
100
AcDbAttributeDefinition
  3

  2
DL
 70
     8
280
     0
  0
ATTDEF
  5
F6
330
DB
100
AcDbEntity
  8
AM_6
100
AcDbText
 10
6.94
 20
-14.42866666666667
 30
0.0
 40
0.5
  1
baldor
100
AcDbAttributeDefinition
  3

  2
COMPANY
 70
     8
280
     0
  0
LINE
  5
F7
330
DB
100
AcDbEntity
  8
AM_9
100
AcDbLine
 10
-1.664444444444445
 20
-3.298666666666666
 30
0.0
 11
-1.664444444444445
 21
-3.368666666666666
 31
0.0
  0
LINE
  5
F8
330
DB
100
AcDbEntity
  8
AM_9
100
AcDbLine
 10
-1.759483184651849
 20
-3.298666666666666
 30
0.0
 11
-1.759483184651849
 21
-3.368666666666666
 31
0.0
  0
LINE
  5
F9
330
DB
100
AcDbEntity
  8
AM_9
100
AcDbLine
 10
1.664444444444445
 20
-3.298666666666666
 30
0.0
 11
1.664444444444445
 21
-3.368666666666666
 31
0.0
  0
LINE
  5
FA
330
DB
100
AcDbEntity
  8
AM_9
100
AcDbLine
 10
1.759483184651849
 20
-3.368666666666666
 30
0.0
 11
1.759483184651849
 21
-3.298666666666666
 31
0.0
  0
LINE
  5
FB
330
DB
100
AcDbEntity
  8
AM_9
100
AcDbLine
 10
-1.348007965406408
 20
-3.298666666666666
 30
0.0
 11
-1.348007965406408
 21
-3.368666666666666
 31
0.0
  0
LINE
  5
FC
330
DB
100
AcDbEntity
  8
AM_9
100
AcDbLine
 10
1.348007965406408
 20
-3.298666666666666
 30
0.0
 11
1.348007965406408
 21
-3.368666666666666
 31
0.0
  0
LINE
  5
FD
330
DB
100
AcDbEntity
  8
AM_9
100
AcDbLine
 10
1.020360717645074
 20
-3.298666666666666
 30
0.0
 11
1.020360717645074
 21
-3.368666666666666
 31
0.0
  0
LINE
  5
FE
330
DB
100
AcDbEntity
  8
AM_9
100
AcDbLine
 10
-1.020360717645074
 20
-3.298666666666666
 30
0.0
 11
-1.020360717645074
 21
-3.368666666666666
 31
0.0
  0
LINE
  5
FF
330
DB
100
AcDbEntity
  8
AM_9
100
AcDbLine
 10
-0.5914414510540423
 20
-2.928666666666666
 30
0.0
 11
-0.5914414510540423
 21
-3.368666666666666
 31
0.0
  0
LINE
  5
100
330
DB
100
AcDbEntity
  8
AM_9
100
AcDbLine
 10
-0.6304075736445323
 20
-3.298666666666666
 30
0.0
 11
-0.6304075736445323
 21
-3.368666666666666
 31
0.0
  0
LINE
  5
101
330
DB
100
AcDbEntity
  8
AM_9
100
AcDbLine
 10
-0.8860104292196299
 20
-3.298666666666666
 30
0.0
 11
-0.8860104292196299
 21
-3.368666666666666
 31
0.0
  0
LINE
  5
102
330
DB
100
AcDbEntity
  8
AM_9
100
AcDbLine
 10
0.8860104292196304
 20
-3.298666666666666
 30
0.0
 11
0.8860104292196321
 21
-3.368666666666666
 31
0.0
  0
LINE
  5
103
330
DB
100
AcDbEntity
  8
AM_9
100
AcDbLine
 10
-0.3994376905167101
 20
-3.298666666666666
 30
0.0
 11
-0.3994376905167101
 21
-3.368666666666666
 31
0.0
  0
LINE
  5
104
330
DB
100
AcDbEntity
  8
AM_9
100
AcDbLine
 10
-0.3604715679262208
 20
-2.928666666666666
 30
0.0
 11
-0.6167384408657905
 21
-2.928666666666666
 31
0.0
  0
LINE
  5
105
330
DB
100
AcDbEntity
  8
AM_9
100
AcDbLine
 10
-0.3604715679262208
 20
-2.928666666666666
 30
0.0
 11
-0.3604715679262208
 21
-3.368666666666666
 31
0.0
  0
LINE
  5
106
330
DB
100
AcDbEntity
  8
AM_9
100
AcDbLine
 10
1.109764809362221
 20
-3.298666666666666
 30
0.0
 11
1.109764809362221
 21
-3.368666666666666
 31
0.0
  0
LINE
  5
107
330
DB
100
AcDbEntity
  8
AM_9
100
AcDbLine
 10
1.244115097787664
 20
-3.298666666666666
 30
0.0
 11
1.244115097787664
 21
-3.368666666666666
 31
0.0
  0
LINE
  5
108
330
DB
100
AcDbEntity
  8
AM_9
100
AcDbLine
 10
1.271967349350914
 20
-3.368666666666666
 30
0.0
 11
1.271967349350914
 21
-3.298666666666666
 31
0.0
  0
LINE
  5
109
330
DB
100
AcDbEntity
  8
AM_9
100
AcDbLine
 10
-1.244115097787664
 20
-3.298666666666666
 30
0.0
 11
-1.244115097787664
 21
-3.368666666666666
 31
0.0
  0
LINE
  5
10A
330
DB
100
AcDbEntity
  8
AM_9
100
AcDbLine
 10
-1.109764809362206
 20
-3.298666666666666
 30
0.0
 11
-1.109764809362206
 21
-3.368666666666666
 31
0.0
  0
LINE
  5
10B
330
DB
100
AcDbEntity
  8
AM_9
100
AcDbLine
 10
-1.271967349350914
 20
-3.298666666666666
 30
0.0
 11
-1.271967349350914
 21
-3.368666666666666
 31
0.0
  0
LINE
  5
10C
330
DB
100
AcDbEntity
  8
AM_9
100
AcDbLine
 10
-0.3857685577379689
 20
-3.298666666666666
 30
0.0
 11
-0.3857685577379691
 21
-2.928666666666666
 31
0.0
  0
LINE
  5
10D
330
DB
100
AcDbEntity
  8
AM_9
100
AcDbLine
 10
-0.6167384408657905
 20
-2.928666666666666
 30
0.0
 11
-0.6167384408657908
 21
-3.298666666666666
 31
0.0
  0
LINE
  5
10E
330
DB
100
AcDbEntity
  8
AM_9
100
AcDbLine
 10
-0.0949999999999998
 20
-3.298666666666666
 30
0.0
 11
-0.0949999999999998
 21
-3.368666666666666
 31
0.0
  0
LINE
  5
10F
330
DB
100
AcDbEntity
  8
AM_9
100
AcDbLine
 10
0.0950000000000003
 20
-3.298666666666666
 30
0.0
 11
0.0950000000000003
 21
-3.368666666666666
 31
0.0
  0
LINE
  5
110
330
DB
100
AcDbEntity
  8
AM_4
100
AcDbLine
 10
-1.94
 20
-3.298666666666666
 30
0.0
 11
-1.94
 21
-3.368666666666666
 31
0.0
  0
LINE
  5
111
330
DB
100
AcDbEntity
  8
AM_4
100
AcDbLine
 10
1.94
 20
-3.368666666666666
 30
0.0
 11
1.94
 21
-3.298666666666666
 31
0.0
  0
LINE
  5
112
330
DB
100
AcDbEntity
  8
AM_4
100
AcDbLine
 10
-1.94
 20
-3.368666666666666
 30
0.0
 11
1.94
 21
-3.368666666666666
 31
0.0
  0
LINE
  5
113
330
DB
100
AcDbEntity
  8
AM_4
100
AcDbLine
 10
-1.94
 20
-3.298666666666666
 30
0.0
 11
1.94
 21
-3.298666666666666
 31
0.0
  0
ENDBLK
  5
DE
330
DB
100
AcDbEntity
  8
0
100
AcDbBlockEnd
  0
BLOCK
  5
116
330
114
100
AcDbEntity
  8
0
100
AcDbBlockBegin
  2
6_070896E_0_in_072238_4
 70
     2
 10
0.0
 20
0.0
 30
0.0
  3
6_070896E_0_in_072238_4
  1

  0
ATTDEF
  5
118
330
114
100
AcDbEntity
  8
AM_6
100
AcDbText
 10
7.36205
 20
-0.1249999999999998
 30
0.0
 40
0.5
  1
Imperial/E Insert -Inch
100
AcDbAttributeDefinition
  3

  2
NN
 70
     8
280
     0
  0
ATTDEF
  5
119
330
114
100
AcDbEntity
  8
AM_6
100
AcDbText
 10
7.36205
 20
-0.6249999999999999
 30
0.0
 40
0.5
  1
Imperial Bearings
100
AcDbAttributeDefinition
  3

  2
NT
 70
     8
280
     0
  0
ATTDEF
  5
11A
330
114
100
AcDbEntity
  8
AM_6
100
AcDbText
 10
7.36205
 20
-1.125
 30
0.0
 40
0.5
  1
070896E
100
AcDbAttributeDefinition
  3

  2
NB
 70
     8
280
     0
  0
ATTDEF
  5
11B
330
114
100
AcDbEntity
  8
AM_6
100
AcDbText
 10
7.36205
 20
-1.625
 30
0.0
 40
0.5
  1
$PN.
100
AcDbAttributeDefinition
  3

  2
NBSYN
 70
     8
280
     0
  0
ATTDEF
  5
11C
330
114
100
AcDbEntity
  8
AM_6
100
AcDbText
 10
7.36205
 20
-2.125
 30
0.0
 40
0.5
  1
070896E
100
AcDbAttributeDefinition
  3

  2
LINA
 70
     8
280
     0
  0
ATTDEF
  5
11D
330
114
100
AcDbEntity
  8
AM_6
100
AcDbText
 10
7.36205
 20
-2.625
 30
0.0
 40
0.5
  1
2-1/2
100
AcDbAttributeDefinition
  3

  2
SS
 70
     8
280
     0
  0
ATTDEF
  5
11E
330
114
100
AcDbEntity
  8
AM_6
100
AcDbText
 10
7.36205
 20
-3.125
 30
0.0
 40
0.5
  1
2.500000
100
AcDbAttributeDefinition
  3

  2
SS1
 70
     8
280
     0
  0
ATTDEF
  5
11F
330
114
100
AcDbEntity
  8
AM_6
100
AcDbText
 10
7.36205
 20
-3.625
 30
0.0
 40
0.5
  1
070896E
100
AcDbAttributeDefinition
  3

  2
PN
 70
     8
280
     0
  0
ATTDEF
  5
120
330
114
100
AcDbEntity
  8
AM_6
100
AcDbText
 10
7.36205
 20
-4.125
 30
0.0
 40
0.5
  1
INS-IP-208R
100
AcDbAttributeDefinition
  3

  2
DESCRIPTION
 70
     8
280
     0
  0
ATTDEF
  5
121
330
114
100
AcDbEntity
  8
AM_6
100
AcDbText
 10
7.36205
 20
-4.625
 30
0.0
 40
0.5
  1
Contact Seal
100
AcDbAttributeDefinition
  3

  2
ST
 70
     8
280
     0
  0
ATTDEF
  5
122
330
114
100
AcDbEntity
  8
AM_6
100
AcDbText
 10
7.36205
 20
-5.125
 30
0.0
 40
0.5
  1
1
100
AcDbAttributeDefinition
  3

  2
ST1
 70
     8
280
     0
  0
ATTDEF
  5
123
330
114
100
AcDbEntity
  8
AM_6
100
AcDbText
 10
7.36205
 20
-5.625
 30
0.0
 40
0.5
  1
4.7241
100
AcDbAttributeDefinition
  3

  2
A
 70
     8
280
     0
  0
ATTDEF
  5
124
330
114
100
AcDbEntity
  8
AM_6
100
AcDbText
 10
7.36205
 20
-6.125
 30
0.0
 40
0.5
  1
1-9/32
100
AcDbAttributeDefinition
  3

  2
B
 70
     8
280
     0
  0
ATTDEF
  5
125
330
114
100
AcDbEntity
  8
AM_6
100
AcDbText
 10
7.36205
 20
-6.625
 30
0.0
 40
0.5
  1
1.281250
100
AcDbAttributeDefinition
  3

  2
B1
 70
     8
280
     0
  0
ATTDEF
  5
126
330
114
100
AcDbEntity
  8
AM_6
100
AcDbText
 10
7.36205
 20
-7.125
 30
0.0
 40
0.5
  1
3-27/64
100
AcDbAttributeDefinition
  3

  2
C
 70
     8
280
     0
  0
ATTDEF
  5
127
330
114
100
AcDbEntity
  8
AM_6
100
AcDbText
 10
7.36205
 20
-7.625
 30
0.0
 40
0.5
  1
3.420000
100
AcDbAttributeDefinition
  3

  2
C1
 70
     8
280
     0
  0
ATTDEF
  5
128
330
114
100
AcDbEntity
  8
AM_6
100
AcDbText
 10
7.36205
 20
-8.125
 30
0.0
 40
0.5
  1
4.41000
100
AcDbAttributeDefinition
  3

  2
CR
 70
     8
280
     0
  0
ATTDEF
  5
129
330
114
100
AcDbEntity
  8
AM_6
100
AcDbText
 10
7.36205
 20
-8.625
 30
0.0
 40
0.5
  1
1.208
100
AcDbAttributeDefinition
  3

  2
D
 70
     8
280
     0
  0
ATTDEF
  5
12A
330
114
100
AcDbEntity
  8
AM_6
100
AcDbText
 10
7.36205
 20
-9.125
 30
0.0
 40
0.5
  1
3-7/8
100
AcDbAttributeDefinition
  3

  2
E
 70
     8
280
     0
  0
ATTDEF
  5
12B
330
114
100
AcDbEntity
  8
AM_6
100
AcDbText
 10
7.36205
 20
-9.625
 30
0.0
 40
0.5
  1
3.875000
100
AcDbAttributeDefinition
  3

  2
E1
 70
     8
280
     0
  0
ATTDEF
  5
12C
330
114
100
AcDbEntity
  8
AM_6
100
AcDbText
 10
7.36205
 20
-10.125
 30
0.0
 40
0.5
  1
0.1900
100
AcDbAttributeDefinition
  3

  2
NDM
 70
     8
280
     0
  0
ATTDEF
  5
12D
330
114
100
AcDbEntity
  8
AM_6
100
AcDbText
 10
7.36205
 20
-10.625
 30
0.0
 40
0.5
  1
0.1450
100
AcDbAttributeDefinition
  3

  2
KDM
 70
     8
280
     0
  0
ATTDEF
  5
12E
330
114
100
AcDbEntity
  8
AM_6
100
AcDbText
 10
7.36205
 20
-11.125
 30
0.0
 40
0.5
  1
3.35
100
AcDbAttributeDefinition
  3

  2
AL
 70
     8
280
     0
  0
ATTDEF
  5
12F
330
114
100
AcDbEntity
  8
AM_6
100
AcDbText
 10
7.36205
 20
-11.625
 30
0.0
 40
0.5
  1
0.50
100
AcDbAttributeDefinition
  3

  2
BL
 70
     8
280
     0
  0
ATTDEF
  5
130
330
114
100
AcDbEntity
  8
AM_6
100
AcDbText
 10
7.36205
 20
-12.125
 30
0.0
 40
0.5
  1
0.07
100
AcDbAttributeDefinition
  3

  2
CL
 70
     8
280
     0
  0
ATTDEF
  5
131
330
114
100
AcDbEntity
  8
AM_6
100
AcDbText
 10
7.36205
 20
-12.625
 30
0.0
 40
0.5
  1
0.44
100
AcDbAttributeDefinition
  3

  2
DL
 70
     8
280
     0
  0
ATTDEF
  5
132
330
114
100
AcDbEntity
  8
AM_6
100
AcDbText
 10
7.36205
 20
-13.125
 30
0.0
 40
0.5
  1
0.8000
100
AcDbAttributeDefinition
  3

  2
LL
 70
     8
280
     0
  0
ATTDEF
  5
133
330
114
100
AcDbEntity
  8
AM_6
100
AcDbText
 10
7.36205
 20
-13.625
 30
0.0
 40
0.5
  1
0.025
100
AcDbAttributeDefinition
  3

  2
Y
 70
     8
280
     0
  0
ATTDEF
  5
134
330
114
100
AcDbEntity
  8
AM_6
100
AcDbText
 10
7.36205
 20
-14.125
 30
0.0
 40
0.5
  1
0.025000
100
AcDbAttributeDefinition
  3

  2
Y1
 70
     8
280
     0
  0
ATTDEF
  5
135
330
114
100
AcDbEntity
  8
AM_6
100
AcDbText
 10
7.36205
 20
-14.625
 30
0.0
 40
0.5
  1
2-15/16
100
AcDbAttributeDefinition
  3

  2
Z
 70
     8
280
     0
  0
ATTDEF
  5
136
330
114
100
AcDbEntity
  8
AM_6
100
AcDbText
 10
7.36205
 20
-15.125
 30
0.0
 40
0.5
  1
2.937500
100
AcDbAttributeDefinition
  3

  2
Z1
 70
     8
280
     0
  0
ATTDEF
  5
137
330
114
100
AcDbEntity
  8
AM_6
100
AcDbText
 10
7.36205
 20
-15.625
 30
0.0
 40
0.5
  1
0.99000
100
AcDbAttributeDefinition
  3

  2
P1
 70
     8
280
     0
  0
ATTDEF
  5
138
330
114
100
AcDbEntity
  8
AM_6
100
AcDbText
 10
7.36205
 20
-16.125
 30
0.0
 40
0.5
  1
1.50000
100
AcDbAttributeDefinition
  3

  2
H1
 70
     8
280
     0
  0
ATTDEF
  5
139
330
114
100
AcDbEntity
  8
AM_6
100
AcDbText
 10
7.36205
 20
-16.625
 30
0.0
 40
0.5
  1
1.04000
100
AcDbAttributeDefinition
  3

  2
G1
 70
     8
280
     0
  0
ATTDEF
  5
13A
330
114
100
AcDbEntity
  8
AM_6
100
AcDbText
 10
7.36205
 20
-17.125
 30
0.0
 40
0.5
  1
0.10100
100
AcDbAttributeDefinition
  3

  2
CW
 70
     8
280
     0
  0
ATTDEF
  5
13B
330
114
100
AcDbEntity
  8
AM_6
100
AcDbText
 10
7.36205
 20
-17.625
 30
0.0
 40
0.5
  1
3.88000
100
AcDbAttributeDefinition
  3

  2
L1
 70
     8
280
     0
  0
ATTDEF
  5
13C
330
114
100
AcDbEntity
  8
AM_6
100
AcDbText
 10
7.36205
 20
-18.125
 30
0.0
 40
0.5
  1
baldor
100
AcDbAttributeDefinition
  3

  2
COMPANY
 70
     8
280
     0
  0
LINE
  5
13D
330
114
100
AcDbEntity
  8
AM_9
100
AcDbLine
 10
-0.6180730383597594
 20
-0.7173750000000003
 30
0.0
 11
-0.6180730383597594
 21
-3.298666666666666
 31
0.0
  0
LINE
  5
13E
330
114
100
AcDbEntity
  8
AM_9
100
AcDbLine
 10
-0.3604715679262204
 20
-0.7173750000000003
 30
0.0
 11
-0.3604715679262205
 21
-3.57
 31
0.0
  0
LINE
  5
13F
330
114
100
AcDbEntity
  8
AM_9
100
AcDbLine
 10
-0.5914414510540422
 20
-3.368666666666666
 30
0.0
 11
-0.5914414510540422
 21
-0.7173750000000004
 31
0.0
  0
LINE
  5
140
330
114
100
AcDbEntity
  8
AM_9
100
AcDbLine
 10
-1.25
 20
-0.7173749999999999
 30
0.0
 11
-1.25
 21
-3.57
 31
0.0
  0
LINE
  5
141
330
114
100
AcDbEntity
  8
AM_9
100
AcDbLine
 10
1.25
 20
-3.57
 30
0.0
 11
1.25
 21
-0.7173749999999999
 31
0.0
  0
LINE
  5
142
330
114
100
AcDbEntity
  8
AM_9
100
AcDbLine
 10
-0.3871031552319376
 20
-0.7173750000000003
 30
0.0
 11
-0.3871031552319376
 21
-3.298666666666666
 31
0.0
  0
LINE
  5
143
330
114
100
AcDbEntity
  8
AM_9
100
AcDbLine
 10
-1.315789473684211
 20
-0.1499999999999998
 30
0.0
 11
-1.315789473684211
 21
-0.7173749999999999
 31
0.0
  0
LINE
  5
144
330
114
100
AcDbEntity
  8
AM_9
100
AcDbLine
 10
1.315789473684211
 20
-0.7173749999999999
 30
0.0
 11
1.315789473684211
 21
-0.1499999999999998
 31
0.0
  0
LINE
  5
145
330
114
100
AcDbEntity
  8
AM_9
100
AcDbLine
 10
-0.385768557737969
 20
-3.368666666666666
 30
0.0
 11
-0.385768557737969
 21
-3.298666666666666
 31
0.0
  0
LINE
  5
146
330
114
100
AcDbEntity
  8
AM_9
100
AcDbLine
 10
-0.616738440865791
 20
-3.298666666666666
 30
0.0
 11
-0.6167384408657909
 21
-3.368666666666666
 31
0.0
  0
LINE
  5
147
330
114
100
AcDbEntity
  8
AM_9
100
AcDbLine
 10
-1.315789473684211
 20
-3.298666666666666
 30
0.0
 11
-1.315789473684211
 21
-3.368666666666666
 31
0.0
  0
LINE
  5
148
330
114
100
AcDbEntity
  8
AM_9
100
AcDbLine
 10
1.315789473684211
 20
-3.368666666666666
 30
0.0
 11
1.315789473684211
 21
-3.298666666666666
 31
0.0
  0
LINE
  5
149
330
114
100
AcDbEntity
  8
AM_9
100
AcDbLine
 10
-1.00762716319083
 20
-2.858666666666667
 30
0.0
 11
-1.00762716319083
 21
-3.298666666666666
 31
0.0
  0
LINE
  5
14A
330
114
100
AcDbEntity
  8
AM_9
100
AcDbLine
 10
1.00762716319083
 20
-2.858666666666667
 30
0.0
 11
1.00762716319083
 21
-3.298666666666666
 31
0.0
  0
LINE
  5
14B
330
114
100
AcDbEntity
  8
AM_9
100
AcDbLine
 10
1.46875
 20
-0.1499999999999998
 30
0.0
 11
-1.46875
 21
-0.1499999999999998
 31
0.0
  0
LINE
  5
14C
330
114
100
AcDbEntity
  8
AM_9
100
AcDbLine
 10
-1.46875
 20
-0.1249999999999999
 30
0.0
 11
-1.46875
 21
-0.1499999999999998
 31
0.0
  0
LINE
  5
14D
330
114
100
AcDbEntity
  8
AM_9
100
AcDbLine
 10
1.46875
 20
-0.1499999999999998
 30
0.0
 11
1.46875
 21
-0.1249999999999999
 31
0.0
  0
LINE
  5
14E
330
114
100
AcDbEntity
  8
AM_9
100
AcDbLine
 10
-1.187266214881315
 20
-2.858666666666667
 30
0.0
 11
-1.00762716319083
 21
-2.858666666666667
 31
0.0
  0
LINE
  5
14F
330
114
100
AcDbEntity
  8
AM_9
100
AcDbLine
 10
1.00762716319083
 20
-2.858666666666667
 30
0.0
 11
1.187266214881315
 21
-2.858666666666667
 31
0.0
  0
LINE
  5
150
330
114
100
AcDbEntity
  8
AM_9
100
AcDbLine
 10
-0.0724499999999999
 20
-2.500495693669454
 30
0.0
 11
-0.0724499999999999
 21
-3.276116666666666
 31
0.0
  0
LINE
  5
151
330
114
100
AcDbEntity
  8
AM_9
100
AcDbLine
 10
0.0724499999999999
 20
-3.276116666666666
 30
0.0
 11
0.0724499999999999
 21
-2.500495693669454
 31
0.0
  0
LINE
  5
152
330
114
100
AcDbEntity
  8
AM_9
100
AcDbLine
 10
0.0724499999999999
 20
-2.500495693669454
 30
0.0
 11
-0.0724499999999999
 21
-2.500495693669454
 31
0.0
  0
LINE
  5
153
330
114
100
AcDbEntity
  8
AM_9
100
AcDbLine
 10
0.0
 20
-2.458666666666666
 30
0.0
 11
-0.0724499999999999
 21
-2.500495693669454
 31
0.0
  0
LINE
  5
154
330
114
100
AcDbEntity
  8
AM_9
100
AcDbLine
 10
0.0724499999999999
 20
-2.500495693669454
 30
0.0
 11
0.0
 21
-2.458666666666666
 31
0.0
  0
LINE
  5
155
330
114
100
AcDbEntity
  8
AM_9
100
AcDbLine
 10
0.0724499999999999
 20
-3.276116666666666
 30
0.0
 11
-0.0724499999999999
 21
-3.276116666666666
 31
0.0
  0
LINE
  5
156
330
114
100
AcDbEntity
  8
AM_9
100
AcDbLine
 10
-0.0724499999999999
 20
-3.276116666666666
 30
0.0
 11
-0.0949999999999999
 21
-3.298666666666666
 31
0.0
  0
LINE
  5
157
330
114
100
AcDbEntity
  8
AM_9
100
AcDbLine
 10
0.0949999999999999
 20
-3.298666666666666
 30
0.0
 11
0.0724499999999999
 21
-3.276116666666666
 31
0.0
  0
LINE
  5
158
330
114
100
AcDbEntity
  8
AM_9
100
AcDbLine
 10
-1.727272727272726
 20
-0.4611250000000001
 30
0.0
 11
-1.958333333333333
 21
-0.4611250000000001
 31
0.0
  0
LINE
  5
159
330
114
100
AcDbEntity
  8
AM_9
100
AcDbLine
 10
1.958333333333333
 20
-0.4611250000000001
 30
0.0
 11
1.727272727272727
 21
-0.4611250000000001
 31
0.0
  0
LINE
  5
15A
330
114
100
AcDbEntity
  8
AM_9
100
AcDbLine
 10
-1.727272727272726
 20
-0.1249999999999998
 30
0.0
 11
-1.958333333333333
 21
-0.1249999999999999
 31
0.0
  0
LINE
  5
15B
330
114
100
AcDbEntity
  8
AM_9
100
AcDbLine
 10
1.958333333333333
 20
-0.1249999999999999
 30
0.0
 11
1.727272727272727
 21
-0.1249999999999998
 31
0.0
  0
LINE
  5
15C
330
114
100
AcDbEntity
  8
AM_9
100
AcDbLine
 10
-1.958333333333333
 20
-0.1249999999999999
 30
0.0
 11
-1.958333333333333
 21
-0.4611250000000001
 31
0.0
  0
LINE
  5
15D
330
114
100
AcDbEntity
  8
AM_9
100
AcDbLine
 10
1.958333333333333
 20
-0.4611250000000001
 30
0.0
 11
1.958333333333333
 21
-0.1249999999999999
 31
0.0
  0
LINE
  5
15E
330
114
100
AcDbEntity
  8
AM_9
100
AcDbLine
 10
1.949346170731283
 20
-2.62
 30
0.0
 11
1.959334790099019
 21
-2.047752379678136
 31
0.0
  0
LINE
  5
15F
330
114
100
AcDbEntity
  8
AM_9
100
AcDbLine
 10
-1.959334790099019
 20
-2.047752379678136
 30
0.0
 11
-1.949346170731283
 21
-2.62
 31
0.0
  0
LINE
  5
160
330
114
100
AcDbEntity
  8
AM_9
100
AcDbLine
 10
1.959334790099019
 20
-2.047752379678136
 30
0.0
 11
-1.959334790099019
 21
-2.047752379678136
 31
0.0
  0
ARC
  5
161
330
114
100
AcDbEntity
  8
AM_9
100
AcDbCircle
 10
-2.009327174856839
 20
-2.048625
 30
0.0
 40
0.0500000000000005
100
AcDbArc
 50
1.000000000000629
 51
90.0
  0
ARC
  5
162
330
114
100
AcDbEntity
  8
AM_9
100
AcDbCircle
 10
2.00932717485684
 20
-2.048625
 30
0.0
 40
0.0500000000000003
100
AcDbArc
 50
90.0
 51
178.9999999999994
  0
ARC
  5
163
330
114
100
AcDbEntity
  8
AM_9
100
AcDbCircle
 10
-1.956368966601194
 20
-0.5611250000000028
 30
0.0
 40
0.1000000000000026
100
AcDbArc
 50
90.0
 51
149.9999999999994
  0
ARC
  5
164
330
114
100
AcDbEntity
  8
AM_9
100
AcDbCircle
 10
1.956368966601194
 20
-0.561125000000003
 30
0.0
 40
0.100000000000003
100
AcDbArc
 50
30.00000000000074
 51
90.0
  0
LINE
  5
165
330
114
100
AcDbEntity
  8
AM_9
100
AcDbLine
 10
-1.727272727272727
 20
-0.5111250000000004
 30
0.0
 11
-2.042971506979639
 21
-0.5111250000000004
 31
0.0
  0
LINE
  5
166
330
114
100
AcDbEntity
  8
AM_9
100
AcDbLine
 10
2.042971506979639
 20
-0.5111250000000004
 30
0.0
 11
1.727272727272727
 21
-0.5111250000000004
 31
0.0
  0
LINE
  5
167
330
114
100
AcDbEntity
  8
AM_9
100
AcDbLine
 10
-2.042971506979639
 20
-0.5111250000000004
 30
0.0
 11
-2.16205
 21
-0.7173749999999999
 31
0.0
  0
LINE
  5
168
330
114
100
AcDbEntity
  8
AM_9
100
AcDbLine
 10
2.16205
 20
-0.7173749999999999
 30
0.0
 11
2.042971506979639
 21
-0.5111250000000004
 31
0.0
  0
LINE
  5
169
330
114
100
AcDbEntity
  8
AM_9
100
AcDbLine
 10
-2.2979875
 20
-1.34101349838004
 30
0.0
 11
-2.2979875
 21
-1.414986501619961
 31
0.0
  0
LINE
  5
16A
330
114
100
AcDbEntity
  8
AM_9
100
AcDbLine
 10
2.2979875
 20
-1.414986501619961
 30
0.0
 11
2.2979875
 21
-1.34101349838004
 31
0.0
  0
LINE
  5
16B
330
114
100
AcDbEntity
  8
AM_9
100
AcDbLine
 10
2.2979875
 20
-1.34101349838004
 30
0.0
 11
-2.2979875
 21
-1.34101349838004
 31
0.0
  0
LINE
  5
16C
330
114
100
AcDbEntity
  8
AM_9
100
AcDbLine
 10
2.2979875
 20
-1.34101349838004
 30
0.0
 11
2.36205
 21
-1.304026996760079
 31
0.0
  0
LINE
  5
16D
330
114
100
AcDbEntity
  8
AM_9
100
AcDbLine
 10
-2.36205
 20
-1.304026996760079
 30
0.0
 11
-2.2979875
 21
-1.34101349838004
 31
0.0
  0
LINE
  5
16E
330
114
100
AcDbEntity
  8
AM_9
100
AcDbLine
 10
2.31205
 20
-0.7173749999999999
 30
0.0
 11
-2.312049999993568
 21
-0.7173749999999999
 31
0.0
  0
ARC
  5
16F
330
114
100
AcDbEntity
  8
AM_9
100
AcDbCircle
 10
-2.31205
 20
-0.7673750000000003
 30
0.0
 40
0.0500000000000003
100
AcDbArc
 50
90.0
 51
180.0
  0
ARC
  5
170
330
114
100
AcDbEntity
  8
AM_9
100
AcDbCircle
 10
2.31205
 20
-0.7673750000000003
 30
0.0
 40
0.0500000000000003
100
AcDbArc
 50
0.0
 51
90.0
  0
LINE
  5
171
330
114
100
AcDbEntity
  8
AM_9
100
AcDbLine
 10
-2.36205
 20
-1.451973003239921
 30
0.0
 11
-2.36205
 21
-1.988625000000001
 31
0.0
  0
LINE
  5
172
330
114
100
AcDbEntity
  8
AM_9
100
AcDbLine
 10
2.36205
 20
-1.988625000000001
 30
0.0
 11
2.36205
 21
-1.451973003239921
 31
0.0
  0
LINE
  5
173
330
114
100
AcDbEntity
  8
AM_9
100
AcDbLine
 10
2.36205
 20
-1.988625000000001
 30
0.0
 11
-2.36205
 21
-1.988625000000001
 31
0.0
  0
LINE
  5
174
330
114
100
AcDbEntity
  8
AM_9
100
AcDbLine
 10
-0.1108499890169707
 20
-1.998625
 30
0.0
 11
-2.352049999996702
 21
-1.998625
 31
0.0
  0
LINE
  5
175
330
114
100
AcDbEntity
  8
AM_9
100
AcDbLine
 10
0.1085853248735792
 20
-1.998625
 30
0.0
 11
-0.108600670566369
 21
-1.998625
 31
0.0
  0
LINE
  5
176
330
114
100
AcDbEntity
  8
AM_9
100
AcDbLine
 10
2.35205
 20
-1.998625
 30
0.0
 11
0.110835472082597
 21
-1.998625
 31
0.0
  0
ARC
  5
177
330
114
100
AcDbEntity
  8
AM_9
100
AcDbCircle
 10
-2.352050000000001
 20
-1.988625000000001
 30
0.0
 40
0.0099999999999993
100
AcDbArc
 50
180.0
 51
270.0
  0
ARC
  5
178
330
114
100
AcDbEntity
  8
AM_9
100
AcDbCircle
 10
2.352050000000001
 20
-1.988625000000001
 30
0.0
 40
0.0099999999999991
100
AcDbArc
 50
270.0
 51
0.0
  0
LINE
  5
179
330
114
100
AcDbEntity
  8
AM_9
100
AcDbLine
 10
2.36205
 20
-0.7673750000000001
 30
0.0
 11
-2.36205
 21
-0.7673750000000001
 31
0.0
  0
LINE
  5
17A
330
114
100
AcDbEntity
  8
AM_9
100
AcDbLine
 10
2.36205
 20
-1.304026996760079
 30
0.0
 11
-2.36205
 21
-1.304026996760079
 31
0.0
  0
LINE
  5
17B
330
114
100
AcDbEntity
  8
AM_9
100
AcDbLine
 10
-2.36205
 20
-0.7673750000000001
 30
0.0
 11
-2.36205
 21
-1.304026996760079
 31
0.0
  0
LINE
  5
17C
330
114
100
AcDbEntity
  8
AM_9
100
AcDbLine
 10
2.36205
 20
-1.304026996760079
 30
0.0
 11
2.36205
 21
-0.7673750000000001
 31
0.0
  0
LINE
  5
17D
330
114
100
AcDbEntity
  8
AM_9
100
AcDbLine
 10
2.2979875
 20
-1.414986501619961
 30
0.0
 11
-2.2979875
 21
-1.414986501619961
 31
0.0
  0
LINE
  5
17E
330
114
100
AcDbEntity
  8
AM_9
100
AcDbLine
 10
2.36205
 20
-1.451973003239921
 30
0.0
 11
-2.36205
 21
-1.451973003239921
 31
0.0
  0
LINE
  5
17F
330
114
100
AcDbEntity
  8
AM_9
100
AcDbLine
 10
-2.2979875
 20
-1.414986501619961
 30
0.0
 11
-2.36205
 21
-1.451973003239921
 31
0.0
  0
LINE
  5
180
330
114
100
AcDbEntity
  8
AM_9
100
AcDbLine
 10
2.36205
 20
-1.451973003239921
 30
0.0
 11
2.2979875
 21
-1.414986501619961
 31
0.0
  0
LINE
  5
181
330
114
100
AcDbEntity
  8
AM_5
100
AcDbLine
 10
0.0949999999999999
 20
-2.598666666666673
 30
0.0
 11
0.0724499999999999
 21
-2.559608920955979
 31
0.0
  0
LINE
  5
182
330
114
100
AcDbEntity
  8
AM_5
100
AcDbLine
 10
-0.0949999999999999
 20
-2.598666666666673
 30
0.0
 11
-0.0724499999999999
 21
-2.559608920955979
 31
0.0
  0
LINE
  5
183
330
114
100
AcDbEntity
  8
AM_4
100
AcDbLine
 10
-0.5914414510540424
 20
-3.57
 30
0.0
 11
-0.5914414510540422
 21
-3.368666666666666
 31
0.0
  0
LINE
  5
184
330
114
100
AcDbEntity
  8
AM_4
100
AcDbLine
 10
-0.3857685577379689
 20
-3.57
 30
0.0
 11
-0.385768557737969
 21
-3.368666666666666
 31
0.0
  0
LINE
  5
185
330
114
100
AcDbEntity
  8
AM_4
100
AcDbLine
 10
-0.6167384408657909
 20
-3.368666666666666
 30
0.0
 11
-0.6167384408657909
 21
-3.57
 31
0.0
  0
LINE
  5
186
330
114
100
AcDbEntity
  8
AM_4
100
AcDbLine
 10
-1.315789473684211
 20
-3.368666666666666
 30
0.0
 11
-1.315789473684211
 21
-3.57
 31
0.0
  0
LINE
  5
187
330
114
100
AcDbEntity
  8
AM_4
100
AcDbLine
 10
1.315789473684211
 20
-3.57
 30
0.0
 11
1.315789473684211
 21
-3.368666666666666
 31
0.0
  0
LINE
  5
188
330
114
100
AcDbEntity
  8
AM_4
100
AcDbLine
 10
1.315789473684211
 20
-3.57
 30
0.0
 11
-1.315789473684211
 21
-3.57
 31
0.0
  0
LINE
  5
189
330
114
100
AcDbEntity
  8
AM_4
100
AcDbLine
 10
-1.361180553784104
 20
-2.858666666666667
 30
0.0
 11
-1.361180553784104
 21
-3.298666666666666
 31
0.0
  0
LINE
  5
18A
330
114
100
AcDbEntity
  8
AM_4
100
AcDbLine
 10
1.361180553784104
 20
-2.858666666666667
 30
0.0
 11
1.361180553784104
 21
-3.298666666666666
 31
0.0
  0
LINE
  5
18B
330
114
100
AcDbEntity
  8
AM_4
100
AcDbLine
 10
1.727272727272727
 20
-0.4611250000000001
 30
0.0
 11
-1.727272727272726
 21
-0.4611250000000001
 31
0.0
  0
LINE
  5
18C
330
114
100
AcDbEntity
  8
AM_4
100
AcDbLine
 10
1.727272727272727
 20
-0.1249999999999998
 30
0.0
 11
-1.727272727272726
 21
-0.1249999999999998
 31
0.0
  0
LINE
  5
18D
330
114
100
AcDbEntity
  8
AM_4
100
AcDbLine
 10
-1.535343265251896
 20
-3.298666666666666
 30
0.0
 11
-1.540819605474588
 21
-2.858666666666667
 31
0.0
  0
LINE
  5
18E
330
114
100
AcDbEntity
  8
AM_4
100
AcDbLine
 10
-1.540819605474588
 20
-2.858666666666667
 30
0.0
 11
-1.187266214881315
 21
-2.858666666666667
 31
0.0
  0
LINE
  5
18F
330
114
100
AcDbEntity
  8
AM_4
100
AcDbLine
 10
-1.187266214881315
 20
-2.858666666666667
 30
0.0
 11
-1.181789874658622
 21
-3.298666666666666
 31
0.0
  0
LINE
  5
190
330
114
100
AcDbEntity
  8
AM_4
100
AcDbLine
 10
1.181789874658622
 20
-3.298666666666666
 30
0.0
 11
1.187266214881315
 21
-2.858666666666667
 31
0.0
  0
LINE
  5
191
330
114
100
AcDbEntity
  8
AM_4
100
AcDbLine
 10
1.187266214881315
 20
-2.858666666666667
 30
0.0
 11
1.540819605474589
 21
-2.858666666666667
 31
0.0
  0
LINE
  5
192
330
114
100
AcDbEntity
  8
AM_4
100
AcDbLine
 10
1.540819605474589
 20
-2.858666666666667
 30
0.0
 11
1.535343265251896
 21
-3.298666666666666
 31
0.0
  0
LINE
  5
193
330
114
100
AcDbEntity
  8
AM_4
100
AcDbLine
 10
1.937499999999999
 20
-3.298666666666666
 30
0.0
 11
1.949346170731283
 21
-2.62
 31
0.0
  0
LINE
  5
194
330
114
100
AcDbEntity
  8
AM_4
100
AcDbLine
 10
-1.949346170731283
 20
-2.62
 30
0.0
 11
-1.937499999999999
 21
-3.298666666666666
 31
0.0
  0
LINE
  5
195
330
114
100
AcDbEntity
  8
AM_4
100
AcDbLine
 10
1.727272727272727
 20
-0.5111250000000004
 30
0.0
 11
-1.727272727272727
 21
-0.5111250000000004
 31
0.0
  0
ENDBLK
  5
117
330
114
100
AcDbEntity
  8
0
100
AcDbBlockEnd
  0
BLOCK
  5
198
330
196
100
AcDbEntity
  8
0
100
AcDbBlockBegin
  2
7_405015E_Inch_2_0_in_072238_4
 70
     2
 10
0.0
 20
0.0
 30
0.0
  3
7_405015E_Inch_2_0_in_072238_4
  1

  0
ATTDEF
  5
19A
330
196
100
AcDbEntity
  8
AM_6
100
AcDbText
 10
5.21875
 20
-1.557409257229539
 30
0.0
 40
0.5
  1
405015E -Inch
100
AcDbAttributeDefinition
  3

  2
NN
 70
     8
280
     0
  0
ATTDEF
  5
19B
330
196
100
AcDbEntity
  8
AM_6
100
AcDbText
 10
5.21875
 20
-2.057409257229539
 30
0.0
 40
0.5
  1
Grease Fitting
100
AcDbAttributeDefinition
  3

  2
NT
 70
     8
280
     0
  0
ATTDEF
  5
19C
330
196
100
AcDbEntity
  8
AM_6
100
AcDbText
 10
5.21875
 20
-2.557409257229539
 30
0.0
 40
0.5
  1
405015E-Inch
100
AcDbAttributeDefinition
  3

  2
NB
 70
     8
280
     0
  0
ATTDEF
  5
19D
330
196
100
AcDbEntity
  8
AM_6
100
AcDbText
 10
5.21875
 20
-3.057409257229539
 30
0.0
 40
0.5
  1
$MN.-Inch
100
AcDbAttributeDefinition
  3

  2
NBSYN
 70
     8
280
     0
  0
ATTDEF
  5
19E
330
196
100
AcDbEntity
  8
AM_6
100
AcDbText
 10
5.21875
 20
-3.557409257229539
 30
0.0
 40
0.5
  1
405015E
100
AcDbAttributeDefinition
  3

  2
LINA
 70
     8
280
     0
  0
ATTDEF
  5
19F
330
196
100
AcDbEntity
  8
AM_6
100
AcDbText
 10
5.21875
 20
-4.057409257229539
 30
0.0
 40
0.5
  1
405015E
100
AcDbAttributeDefinition
  3

  2
MN
 70
     8
280
     0
  0
ATTDEF
  5
1A0
330
196
100
AcDbEntity
  8
AM_6
100
AcDbText
 10
5.21875
 20
-4.557409257229539
 30
0.0
 40
0.5
  1
1/8 x 27PTF
100
AcDbAttributeDefinition
  3

  2
T
 70
     8
280
     0
  0
ATTDEF
  5
1A1
330
196
100
AcDbEntity
  8
AM_6
100
AcDbText
 10
5.21875
 20
-5.057409257229539
 30
0.0
 40
0.5
  1
baldor
100
AcDbAttributeDefinition
  3

  2
COMPANY
 70
     8
280
     0
  0
CIRCLE
  5
1A2
330
196
100
AcDbEntity
  8
AM_9
100
AcDbCircle
 10
0.0
 20
-1.81
 30
0.0
 40
0.161902872472269
  0
CIRCLE
  5
1A3
330
196
100
AcDbEntity
  8
AM_9
100
AcDbCircle
 10
0.0
 20
-1.81
 30
0.0
 40
0.1986176267812154
  0
CIRCLE
  5
1A4
330
196
100
AcDbEntity
  8
AM_9
100
AcDbCircle
 10
0.0
 20
-1.81
 30
0.0
 40
0.2057518972230696
  0
CIRCLE
  5
1A5
330
196
100
AcDbEntity
  8
AM_9
100
AcDbCircle
 10
0.0
 20
-1.81
 30
0.0
 40
0.1188200907348975
  0
CIRCLE
  5
1A6
330
196
100
AcDbEntity
  8
AM_9
100
AcDbCircle
 10
0.0
 20
-1.81
 30
0.0
 40
0.105
  0
LINE
  5
1A7
330
196
100
AcDbEntity
  8
AM_4
100
AcDbLine
 10
0.0
 20
-1.557409257229539
 30
0.0
 11
-0.21875
 21
-1.683704628614769
 31
0.0
  0
LINE
  5
1A8
330
196
100
AcDbEntity
  8
AM_4
100
AcDbLine
 10
-0.21875
 20
-1.683704628614769
 30
0.0
 11
-0.21875
 21
-1.93629537138523
 31
0.0
  0
LINE
  5
1A9
330
196
100
AcDbEntity
  8
AM_4
100
AcDbLine
 10
-0.21875
 20
-1.93629537138523
 30
0.0
 11
0.0
 21
-2.062590742770461
 31
0.0
  0
LINE
  5
1AA
330
196
100
AcDbEntity
  8
AM_4
100
AcDbLine
 10
0.0
 20
-2.062590742770461
 30
0.0
 11
0.21875
 21
-1.936295371385231
 31
0.0
  0
LINE
  5
1AB
330
196
100
AcDbEntity
  8
AM_4
100
AcDbLine
 10
0.21875
 20
-1.936295371385231
 30
0.0
 11
0.21875
 21
-1.683704628614769
 31
0.0
  0
LINE
  5
1AC
330
196
100
AcDbEntity
  8
AM_4
100
AcDbLine
 10
0.21875
 20
-1.683704628614769
 30
0.0
 11
0.0
 21
-1.557409257229539
 31
0.0
  0
CIRCLE
  5
1AD
330
196
100
AcDbEntity
  8
AM_4
100
AcDbCircle
 10
0.0
 20
-1.81
 30
0.0
 40
0.21375
  0
CIRCLE
  5
1AE
330
196
100
AcDbEntity
  8
AM_4
100
AcDbCircle
 10
0.0
 20
-1.81
 30
0.0
 40
0.1725340532830154
  0
CIRCLE
  5
1AF
330
196
100
AcDbEntity
  8
AM_4
100
AcDbCircle
 10
0.0
 20
-1.81
 30
0.0
 40
0.135
  0
CIRCLE
  5
1B0
330
196
100
AcDbEntity
  8
AM_4
100
AcDbCircle
 10
0.0
 20
-1.81
 30
0.0
 40
0.1026779019331875
  0
ARC
  5
1B1
330
196
100
AcDbEntity
  8
AM_5
100
AcDbCircle
 10
-0.0000000000000001
 20
-1.81
 30
0.0
 40
0.2025000050000003
100
AcDbArc
 50
75.00000000000001
 51
15.00000000000007
  0
CIRCLE
  5
1B2
330
196
100
AcDbEntity
  8
AM_4
100
AcDbCircle
 10
0.0000000000000005
 20
-1.81
 30
0.0
 40
0.2187499999999994
  0
ENDBLK
  5
199
330
196
100
AcDbEntity
  8
0
100
AcDbBlockEnd
  0
BLOCK
  5
1B5
330
1B3
100
AcDbEntity
  8
0
100
AcDbBlockBegin
  2
8_072238DUMMY_0_in_072238_4
 70
     2
 10
0.0
 20
0.0
 30
0.0
  3
8_072238DUMMY_0_in_072238_4
  1

  0
ATTDEF
  5
1B7
330
1B3
100
AcDbEntity
  8
AM_6
100
AcDbText
 10
8.31
 20
0.1488500000286722
 30
0.0
 40
0.5
  1
SEF4B-IP-207-408-(Contact Seal) Housing
100
AcDbAttributeDefinition
  3

  2
NN
 70
     8
280
     0
  0
ATTDEF
  5
1B8
330
1B3
100
AcDbEntity
  8
AM_6
100
AcDbText
 10
8.31
 20
-0.3511499999713278
 30
0.0
 40
0.5
  1
Steel Imperial/E 4 Bolt Flange Bearing-Inch-207-408
100
AcDbAttributeDefinition
  3

  2
NT
 70
     8
280
     0
  0
ATTDEF
  5
1B9
330
1B3
100
AcDbEntity
  8
AM_6
100
AcDbText
 10
8.31
 20
-0.8511499999713278
 30
0.0
 40
0.5
  1
072238DUMMY
100
AcDbAttributeDefinition
  3

  2
NB
 70
     8
280
     0
  0
ATTDEF
  5
1BA
330
1B3
100
AcDbEntity
  8
AM_6
100
AcDbText
 10
8.31
 20
-1.351149999971328
 30
0.0
 40
0.5
  1
$PN.
100
AcDbAttributeDefinition
  3

  2
NBSYN
 70
     8
280
     0
  0
ATTDEF
  5
1BB
330
1B3
100
AcDbEntity
  8
AM_6
100
AcDbText
 10
8.31
 20
-1.851149999971328
 30
0.0
 40
0.5
  1
072238DUMMY
100
AcDbAttributeDefinition
  3

  2
LINA
 70
     8
280
     0
  0
ATTDEF
  5
1BC
330
1B3
100
AcDbEntity
  8
AM_6
100
AcDbText
 10
8.31
 20
-2.351149999971328
 30
0.0
 40
0.5
  1
2-1/2
100
AcDbAttributeDefinition
  3

  2
SS
 70
     8
280
     0
  0
ATTDEF
  5
1BD
330
1B3
100
AcDbEntity
  8
AM_6
100
AcDbText
 10
8.31
 20
-2.851149999971328
 30
0.0
 40
0.5
  1
1.5000
100
AcDbAttributeDefinition
  3

  2
SS1
 70
     8
280
     0
  0
ATTDEF
  5
1BE
330
1B3
100
AcDbEntity
  8
AM_6
100
AcDbText
 10
8.31
 20
-3.351149999971328
 30
0.0
 40
0.5
  1
4.7241
100
AcDbAttributeDefinition
  3

  2
BORE
 70
     8
280
     0
  0
ATTDEF
  5
1BF
330
1B3
100
AcDbEntity
  8
AM_6
100
AcDbText
 10
8.31
 20
-3.851149999971328
 30
0.0
 40
0.5
  1
Non-Expansion
100
AcDbAttributeDefinition
  3

  2
TYPE
 70
     8
280
     0
  0
ATTDEF
  5
1C0
330
1B3
100
AcDbEntity
  8
AM_6
100
AcDbText
 10
8.31
 20
-4.351149999971328
 30
0.0
 40
0.5
  1
Contact Seal
100
AcDbAttributeDefinition
  3

  2
ST
 70
     8
280
     0
  0
ATTDEF
  5
1C1
330
1B3
100
AcDbEntity
  8
AM_6
100
AcDbText
 10
8.31
 20
-4.851149999971328
 30
0.0
 40
0.5
  1
1
100
AcDbAttributeDefinition
  3

  2
ST1
 70
     8
280
     0
  0
ATTDEF
  5
1C2
330
1B3
100
AcDbEntity
  8
AM_6
100
AcDbText
 10
8.31
 20
-5.351149999971328
 30
0.0
 40
0.5
  1
3,42
100
AcDbAttributeDefinition
  3

  2
A
 70
     8
280
     0
  0
ATTDEF
  5
1C3
330
1B3
100
AcDbEntity
  8
AM_6
100
AcDbText
 10
8.31
 20
-5.851149999971328
 30
0.0
 40
0.5
  1
3.420000
100
AcDbAttributeDefinition
  3

  2
A1
 70
     8
280
     0
  0
ATTDEF
  5
1C4
330
1B3
100
AcDbEntity
  8
AM_6
100
AcDbText
 10
8.31
 20
-6.351149999971328
 30
0.0
 40
0.5
  1
6.62
100
AcDbAttributeDefinition
  3

  2
B
 70
     8
280
     0
  0
ATTDEF
  5
1C5
330
1B3
100
AcDbEntity
  8
AM_6
100
AcDbText
 10
8.31
 20
-6.851149999971328
 30
0.0
 40
0.5
  1
6.620000
100
AcDbAttributeDefinition
  3

  2
B1
 70
     8
280
     0
  0
ATTDEF
  5
1C6
330
1B3
100
AcDbEntity
  8
AM_6
100
AcDbText
 10
8.31
 20
-7.351149999971328
 30
0.0
 40
0.5
  1
3.57
100
AcDbAttributeDefinition
  3

  2
C
 70
     8
280
     0
  0
ATTDEF
  5
1C7
330
1B3
100
AcDbEntity
  8
AM_6
100
AcDbText
 10
8.31
 20
-7.851149999971328
 30
0.0
 40
0.5
  1
3.570000
100
AcDbAttributeDefinition
  3

  2
C1
 70
     8
280
     0
  0
ATTDEF
  5
1C8
330
1B3
100
AcDbEntity
  8
AM_6
100
AcDbText
 10
8.31
 20
-8.351149999971328
 30
0.0
 40
0.5
  1
5.37
100
AcDbAttributeDefinition
  3

  2
D
 70
     8
280
     0
  0
ATTDEF
  5
1C9
330
1B3
100
AcDbEntity
  8
AM_6
100
AcDbText
 10
8.31
 20
-8.851149999971328
 30
0.0
 40
0.5
  1
5.370000
100
AcDbAttributeDefinition
  3

  2
D1
 70
     8
280
     0
  0
ATTDEF
  5
1CA
330
1B3
100
AcDbEntity
  8
AM_6
100
AcDbText
 10
8.31
 20
-9.351149999971328
 30
0.0
 40
0.5
  1
7.60
100
AcDbAttributeDefinition
  3

  2
DD
 70
     8
280
     0
  0
ATTDEF
  5
1CB
330
1B3
100
AcDbEntity
  8
AM_6
100
AcDbText
 10
8.31
 20
-9.851149999971328
 30
0.0
 40
0.5
  1
7.600000
100
AcDbAttributeDefinition
  3

  2
DD1
 70
     8
280
     0
  0
ATTDEF
  5
1CC
330
1B3
100
AcDbEntity
  8
AM_6
100
AcDbText
 10
8.31
 20
-10.35114999997133
 30
0.0
 40
0.5
  1
5/8
100
AcDbAttributeDefinition
  3

  2
F
 70
     8
280
     0
  0
ATTDEF
  5
1CD
330
1B3
100
AcDbEntity
  8
AM_6
100
AcDbText
 10
8.31
 20
-10.85114999997133
 30
0.0
 40
0.5
  1
0.625
100
AcDbAttributeDefinition
  3

  2
F1
 70
     8
280
     0
  0
ATTDEF
  5
1CE
330
1B3
100
AcDbEntity
  8
AM_6
100
AcDbText
 10
8.31
 20
-11.35114999997133
 30
0.0
 40
0.5
  1
0.95
100
AcDbAttributeDefinition
  3

  2
G
 70
     8
280
     0
  0
ATTDEF
  5
1CF
330
1B3
100
AcDbEntity
  8
AM_6
100
AcDbText
 10
8.31
 20
-11.85114999997133
 30
0.0
 40
0.5
  1
0.950000
100
AcDbAttributeDefinition
  3

  2
G1
 70
     8
280
     0
  0
ATTDEF
  5
1D0
330
1B3
100
AcDbEntity
  8
AM_6
100
AcDbText
 10
8.31
 20
-12.35114999997133
 30
0.0
 40
0.5
  1
1.00
100
AcDbAttributeDefinition
  3

  2
H
 70
     8
280
     0
  0
ATTDEF
  5
1D1
330
1B3
100
AcDbEntity
  8
AM_6
100
AcDbText
 10
8.31
 20
-12.85114999997133
 30
0.0
 40
0.5
  1
1.000000
100
AcDbAttributeDefinition
  3

  2
H1
 70
     8
280
     0
  0
ATTDEF
  5
1D2
330
1B3
100
AcDbEntity
  8
AM_6
100
AcDbText
 10
8.31
 20
-13.35114999997133
 30
0.0
 40
0.5
  1
5.63
100
AcDbAttributeDefinition
  3

  2
J
 70
     8
280
     0
  0
ATTDEF
  5
1D3
330
1B3
100
AcDbEntity
  8
AM_6
100
AcDbText
 10
8.31
 20
-13.85114999997133
 30
0.0
 40
0.5
  1
5.630000
100
AcDbAttributeDefinition
  3

  2
J1
 70
     8
280
     0
  0
ATTDEF
  5
1D4
330
1B3
100
AcDbEntity
  8
AM_6
100
AcDbText
 10
8.31
 20
-14.35114999997133
 30
0.0
 40
0.5
  1
6-3/4
100
AcDbAttributeDefinition
  3

  2
K
 70
     8
280
     0
  0
ATTDEF
  5
1D5
330
1B3
100
AcDbEntity
  8
AM_6
100
AcDbText
 10
8.31
 20
-14.85114999997133
 30
0.0
 40
0.5
  1
5.2500
100
AcDbAttributeDefinition
  3

  2
K1
 70
     8
280
     0
  0
ATTDEF
  5
1D6
330
1B3
100
AcDbEntity
  8
AM_6
100
AcDbText
 10
8.31
 20
-15.35114999997133
 30
0.0
 40
0.5
  1
3.80
100
AcDbAttributeDefinition
  3

  2
L
 70
     8
280
     0
  0
ATTDEF
  5
1D7
330
1B3
100
AcDbEntity
  8
AM_6
100
AcDbText
 10
8.31
 20
-15.85114999997133
 30
0.0
 40
0.5
  1
3.80000
100
AcDbAttributeDefinition
  3

  2
L1
 70
     8
280
     0
  0
ATTDEF
  5
1D8
330
1B3
100
AcDbEntity
  8
AM_6
100
AcDbText
 10
8.31
 20
-16.35114999997133
 30
0.0
 40
0.5
  1
3.23
100
AcDbAttributeDefinition
  3

  2
N
 70
     8
280
     0
  0
ATTDEF
  5
1D9
330
1B3
100
AcDbEntity
  8
AM_6
100
AcDbText
 10
8.31
 20
-16.85114999997133
 30
0.0
 40
0.5
  1
3.230000
100
AcDbAttributeDefinition
  3

  2
N1
 70
     8
280
     0
  0
ATTDEF
  5
1DA
330
1B3
100
AcDbEntity
  8
AM_6
100
AcDbText
 10
8.31
 20
-17.35114999997133
 30
0.0
 40
0.5
  1
0.15
100
AcDbAttributeDefinition
  3

  2
P
 70
     8
280
     0
  0
ATTDEF
  5
1DB
330
1B3
100
AcDbEntity
  8
AM_6
100
AcDbText
 10
8.31
 20
-17.85114999997133
 30
0.0
 40
0.5
  1
0.150000
100
AcDbAttributeDefinition
  3

  2
P1
 70
     8
280
     0
  0
ATTDEF
  5
1DC
330
1B3
100
AcDbEntity
  8
AM_6
100
AcDbText
 10
8.31
 20
-18.35114999997133
 30
0.0
 40
0.5
  1
0.25
100
AcDbAttributeDefinition
  3

  2
X
 70
     8
280
     0
  0
ATTDEF
  5
1DD
330
1B3
100
AcDbEntity
  8
AM_6
100
AcDbText
 10
8.31
 20
-18.85114999997133
 30
0.0
 40
0.5
  1
0.2500
100
AcDbAttributeDefinition
  3

  2
X1
 70
     8
280
     0
  0
ATTDEF
  5
1DE
330
1B3
100
AcDbEntity
  8
AM_6
100
AcDbText
 10
8.31
 20
-19.35114999997133
 30
0.0
 40
0.5
  1
0.025
100
AcDbAttributeDefinition
  3

  2
Y
 70
     8
280
     0
  0
ATTDEF
  5
1DF
330
1B3
100
AcDbEntity
  8
AM_6
100
AcDbText
 10
8.31
 20
-19.85114999997133
 30
0.0
 40
0.5
  1
2.95
100
AcDbAttributeDefinition
  3

  2
Z
 70
     8
280
     0
  0
ATTDEF
  5
1E0
330
1B3
100
AcDbEntity
  8
AM_6
100
AcDbText
 10
8.31
 20
-20.35114999997133
 30
0.0
 40
0.5
  1
2.950000
100
AcDbAttributeDefinition
  3

  2
Z1
 70
     8
280
     0
  0
ATTDEF
  5
1E1
330
1B3
100
AcDbEntity
  8
AM_6
100
AcDbText
 10
8.31
 20
-20.85114999997133
 30
0.0
 40
0.5
  1
072238
100
AcDbAttributeDefinition
  3

  2
PN1
 70
     8
280
     0
  0
ATTDEF
  5
1E2
330
1B3
100
AcDbEntity
  8
AM_6
100
AcDbText
 10
8.31
 20
-21.35114999997133
 30
0.0
 40
0.5
  1
072263
100
AcDbAttributeDefinition
  3

  2
PN2
 70
     8
280
     0
  0
ATTDEF
  5
1E3
330
1B3
100
AcDbEntity
  8
AM_6
100
AcDbText
 10
8.31
 20
-21.85114999997133
 30
0.0
 40
0.5
  1
SEF4B-IP-208R
100
AcDbAttributeDefinition
  3

  2
DESC1
 70
     8
280
     0
  0
ATTDEF
  5
1E4
330
1B3
100
AcDbEntity
  8
AM_6
100
AcDbText
 10
8.31
 20
-22.35114999997133
 30
0.0
 40
0.5
  1
0.1003300
100
AcDbAttributeDefinition
  3

  2
O
 70
     8
280
     0
  0
ATTDEF
  5
1E5
330
1B3
100
AcDbEntity
  8
AM_6
100
AcDbText
 10
8.31
 20
-22.85114999997133
 30
0.0
 40
0.5
  1
baldor
100
AcDbAttributeDefinition
  3

  2
COMPANY
 70
     8
280
     0
  0
LINE
  5
1E6
330
1B3
100
AcDbEntity
  8
AM_9
100
AcDbLine
 10
-1.727272727272727
 20
-0.5714285714285712
 30
0.0
 11
-3.31
 21
-0.5714285714285712
 31
0.0
  0
LINE
  5
1E7
330
1B3
100
AcDbEntity
  8
AM_9
100
AcDbLine
 10
3.31
 20
-0.5714285714285712
 30
0.0
 11
1.727272727272727
 21
-0.5714285714285712
 31
0.0
  0
LINE
  5
1E8
330
1B3
100
AcDbEntity
  8
AM_9
100
AcDbLine
 10
-2.36205
 20
-0.5714285714285715
 30
0.0
 11
-2.36205
 21
-2.62
 31
0.0
  0
LINE
  5
1E9
330
1B3
100
AcDbEntity
  8
AM_9
100
AcDbLine
 10
2.36205
 20
-2.62
 30
0.0
 11
2.36205
 21
-0.5714285714285715
 31
0.0
  0
LINE
  5
1EA
330
1B3
100
AcDbEntity
  8
AM_9
100
AcDbLine
 10
-0.2622665797910383
 20
-1.398632120400976
 30
0.0
 11
-0.2531144096489049
 21
-1.393479559496773
 31
0.0
  0
LWPOLYLINE
  5
1EB
330
1B3
100
AcDbEntity
  8
AM_9
100
AcDbPolyline
 90
        4
 70
     0
 43
0.0
 10
-0.4332385689668491
 20
-1.567611055684165
 10
-0.4197871774650271
 20
-1.546108630694719
 10
-0.3967991299841836
 20
-1.514440567457085
 10
-0.3926906679145358
 20
-1.509328629023323
  0
LINE
  5
1EC
330
1B3
100
AcDbEntity
  8
AM_9
100
AcDbLine
 10
-0.2531144096489049
 20
-1.393479559496773
 30
0.0
 11
-0.2464296074135352
 21
-1.389876959448562
 31
0.0
  0
LINE
  5
1ED
330
1B3
100
AcDbEntity
  8
AM_9
100
AcDbLine
 10
-2.3725
 20
-0.9999999999999999
 30
0.0
 11
-2.3725
 21
0.0000000000000002
 31
0.0
  0
LINE
  5
1EE
330
1B3
100
AcDbEntity
  8
AM_9
100
AcDbLine
 10
-2.9975
 20
0.0000000000000002
 30
0.0
 11
-2.9975
 21
-0.9999999999999999
 31
0.0
  0
LINE
  5
1EF
330
1B3
100
AcDbEntity
  8
AM_9
100
AcDbLine
 10
2.9975
 20
-0.9999999999999999
 30
0.0
 11
2.9975
 21
0.0000000000000002
 31
0.0
  0
LINE
  5
1F0
330
1B3
100
AcDbEntity
  8
AM_9
100
AcDbLine
 10
2.3725
 20
0.0000000000000002
 30
0.0
 11
2.3725
 21
-0.9999999999999999
 31
0.0
  0
LINE
  5
1F3
330
1B3
100
AcDbEntity
  8
AM_7
100
AcDbLine
 10
-0.4199999999999999
 20
-1.81
 30
0.0
 11
0.4199999999999999
 21
-1.81
 31
0.0
  0
LINE
  5
1F4
330
1B3
100
AcDbEntity
  8
AM_7
100
AcDbLine
 10
0.0
 20
0.1488500000286722
 30
0.0
 11
0.0
 21
-3.742249999999999
 31
0.0
  0
LINE
  5
1F5
330
1B3
100
AcDbEntity
  8
AM_7
100
AcDbLine
 10
-2.685
 20
0.0599999999999998
 30
0.0
 11
-2.685
 21
-1.26
 31
0.0
  0
LINE
  5
1F6
330
1B3
100
AcDbEntity
  8
AM_7
100
AcDbLine
 10
2.685
 20
0.0599999999999998
 30
0.0
 11
2.685
 21
-1.26
 31
0.0
  0
LINE
  5
1F7
330
1B3
100
AcDbEntity
  8
AM_4
100
AcDbLine
 10
-2.815
 20
-1.0
 30
0.0
 11
-2.815
 21
-2.525
 31
0.0
  0
LINE
  5
1F8
330
1B3
100
AcDbEntity
  8
AM_4
100
AcDbLine
 10
2.815
 20
-2.525
 30
0.0
 11
2.815
 21
-1.0
 31
0.0
  0
LINE
  5
1F9
330
1B3
100
AcDbEntity
  8
AM_4
100
AcDbLine
 10
2.815
 20
-2.525
 30
0.0
 11
-2.815
 21
-2.525
 31
0.0
  0
LINE
  5
1FA
330
1B3
100
AcDbEntity
  8
AM_4
100
AcDbLine
 10
2.72
 20
-2.62
 30
0.0
 11
-2.719999999999879
 21
-2.62
 31
0.0
  0
ARC
  5
1FB
330
1B3
100
AcDbEntity
  8
AM_4
100
AcDbCircle
 10
-2.719999999999999
 20
-2.524999999999999
 30
0.0
 40
0.0950000000000006
100
AcDbArc
 50
180.0
 51
270.0
  0
ARC
  5
1FC
330
1B3
100
AcDbEntity
  8
AM_4
100
AcDbCircle
 10
2.719999999999999
 20
-2.524999999999999
 30
0.0
 40
0.0950000000000011
100
AcDbArc
 50
270.0
 51
0.0
  0
LWPOLYLINE
  5
1FD
330
1B3
100
AcDbEntity
  8
AM_4
100
AcDbPolyline
 90
       75
 70
     0
 43
0.0
 10
-0.4257823911720152
 20
-1.555369797928434
 10
-0.4451077120036642
 20
-1.58905018995278
 10
-0.461699926086505
 20
-1.624483970960831
 10
-0.4755767592517131
 20
-1.662001497176011
 10
-0.4863302256119107
 20
-1.7008598454554
 10
-0.4935822662690578
 20
-1.739105003810336
 10
-0.4977466658510467
 20
-1.778088025654502
 10
-0.4987304100180598
 20
-1.818117135562801
 10
-0.49637788936621
 20
-1.858373527463596
 10
-0.4908398509320137
 20
-1.897429234351218
 10
-0.4820566063170623
 20
-1.936149280107971
 10
-0.469803990067685
 20
-1.974805409318721
 10
-0.454182329074236
 20
-2.012525772593926
 10
-0.4361994930701391
 20
-2.04728248967553
 10
-0.4152355270466868
 20
-2.080625922673886
 10
-0.3909916123687846
 20
-2.112743041929143
 10
-0.3638664130149331
 20
-2.142857694326309
 10
-0.3355965635729486
 20
-2.169344895544099
 10
-0.3050304140795572
 20
-2.19358075382636
 10
-0.2718807707591642
 20
-2.215670216629905
 10
-0.236768459405971
 20
-2.235098380089377
 10
-0.200534850918209
 20
-2.251484406854663
 10
-0.1628616188059178
 20
-2.265062856902628
 10
-0.1234810983721301
 20
-2.275875532482546
 10
-0.0831131316379317
 20
-2.283669370475246
 10
-0.0408084118145282
 20
-2.288483947436197
 10
0.0020225968726785
 20
-2.289996283597304
 10
0.0456848667158837
 20
-2.288098959892917
 10
0.089333694594322
 20
-2.282676246880053
 10
0.1328701096915905
 20
-2.273594609023508
 10
0.1757685601187844
 20
-2.260783263167832
 10
0.2183355589771813
 20
-2.24386733513822
 10
0.2594879454694297
 20
-2.222959654556578
 10
0.2952042650968862
 20
-2.200547221334407
 10
0.3290514997305076
 20
-2.174886233159502
 10
0.3612031199871008
 20
-2.14554634799673
 10
0.3907342196396679
 20
-2.113054774664184
 10
0.4145234354073228
 20
-2.081656163703361
 10
0.435730728463065
 20
-2.048100883769235
 10
0.4544098054741929
 20
-2.012036603901442
 10
0.4700309043274659
 20
-1.974181526704342
 10
0.481787292723112
 20
-1.937139556241147
 10
0.49055179675601
 20
-1.898982275502905
 10
0.4962745568954557
 20
-1.859392288593885
 10
0.4987116697170925
 20
-1.819168058527641
 10
0.4978582490263954
 20
-1.779826384139179
 10
0.4937753546458463
 20
-1.740421653305088
 10
0.4862844173298482
 20
-1.700662500365284
 10
0.4753863525416236
 20
-1.661412833557976
 10
0.4617210410822896
 20
-1.624534417410343
 10
0.4449231482740675
 20
-1.588695612242806
 10
0.424709479248854
 20
-1.553675683285041
 10
0.4013719772526551
 20
-1.52030860181516
 10
0.3765133613079885
 20
-1.490531046907619
 10
0.3490771430746712
 20
-1.462740111522228
 10
0.3187657867299124
 20
-1.436804882185373
 10
0.2861360507490193
 20
-1.41334491769785
 10
0.2525624860138717
 20
-1.393177045075447
 10
0.2172341521966275
 20
-1.375637659534213
 10
0.1798813167066654
 20
-1.360660373909323
 10
0.141196697952903
 20
-1.348581376285337
 10
0.1007993927295241
 20
-1.339350460694881
 10
0.0595326510945067
 20
-1.333234139416164
 10
0.0171105413931249
 20
-1.330266066181253
 10
-0.0256855273620822
 20
-1.330599846610993
 10
-0.0697320792288561
 20
-1.334444683921662
 10
-0.1136027488660503
 20
-1.341918763176052
 10
-0.1576205771409879
 20
-1.353305892343049
 10
-0.200776570289097
 20
-1.368613658009669
 10
-0.2402115940477226
 20
-1.386643986662677
 10
-0.2781756101865526
 20
-1.4082249342865
 10
-0.314896260409137
 20
-1.433799461571667
 10
-0.3493299072901166
 20
-1.462975817759219
 10
-0.3902113745537925
 20
-1.506313689160293
 10
-0.4257823911720151
 20
-1.555369797928434
  0
CIRCLE
  5
1FE
330
1B3
100
AcDbEntity
  8
AM_4
100
AcDbCircle
 10
0.0
 20
-1.81
 30
0.0
 40
0.3999999999999999
  0
LINE
  5
1FF
330
1B3
100
AcDbEntity
  8
AM_4
100
AcDbLine
 10
3.31
 20
0.0000000000000002
 30
0.0
 11
1.727272727272727
 21
0.0000000000000002
 31
0.0
  0
LINE
  5
200
330
1B3
100
AcDbEntity
  8
AM_4
100
AcDbLine
 10
3.31
 20
-0.9999999999999999
 30
0.0
 11
3.31
 21
0.0000000000000002
 31
0.0
  0
LINE
  5
201
330
1B3
100
AcDbEntity
  8
AM_4
100
AcDbLine
 10
-1.727272727272727
 20
0.0000000000000002
 30
0.0
 11
-3.31
 21
0.0000000000000002
 31
0.0
  0
LINE
  5
202
330
1B3
100
AcDbEntity
  8
AM_4
100
AcDbLine
 10
3.31
 20
-0.9999999999999999
 30
0.0
 11
-3.31
 21
-0.9999999999999999
 31
0.0
  0
LINE
  5
203
330
1B3
100
AcDbEntity
  8
AM_4
100
AcDbLine
 10
-3.31
 20
-0.9999999999999999
 30
0.0
 11
-3.31
 21
0.0000000000000002
 31
0.0
  0
LINE
  5
204
330
1B3
100
AcDbEntity
  8
AM_4
100
AcDbLine
 10
-1.727272727272727
 20
0.0000000000000002
 30
0.0
 11
-1.727272727272727
 21
-0.5714285714285712
 31
0.0
  0
LINE
  5
205
330
1B3
100
AcDbEntity
  8
AM_4
100
AcDbLine
 10
1.727272727272727
 20
-0.5714285714285712
 30
0.0
 11
1.727272727272727
 21
0.0000000000000002
 31
0.0
  0
LINE
  5
206
330
1B3
100
AcDbEntity
  8
AM_4
100
AcDbLine
 10
-1.727272727272727
 20
-0.5714285714285712
 30
0.0
 11
1.727272727272727
 21
-0.5714285714285712
 31
0.0
  0
LINE
  5
207
330
1B3
100
AcDbEntity
  8
AM_4
100
AcDbLine
 10
-2.685
 20
-0.9999999999999999
 30
0.0
 11
-2.685
 21
0.0000000000000002
 31
0.0
  0
LINE
  5
208
330
1B3
100
AcDbEntity
  8
AM_4
100
AcDbLine
 10
2.685
 20
-0.9999999999999999
 30
0.0
 11
2.685
 21
0.0000000000000002
 31
0.0
  0
ENDBLK
  5
1B6
330
1B3
100
AcDbEntity
  8
0
100
AcDbBlockEnd
  0
ENDSEC
  0
SECTION
  2
ENTITIES
  0
INSERT
  5
6F
330
1F
100
AcDbEntity
  8
0
100
AcDbBlockReference
  2
1_072238_4
 10
0.0
 20
0.0
 30
0.0
  0
POINT
  5
20A
330
1F
100
AcDbEntity
  8
ConnectionPoints
100
AcDbPoint
 10
0.0
 20
-3.468996666666667
 30
-1.663194444444444
  0
POINT
  5
20B
330
1F
100
AcDbEntity
  8
ConnectionPoints
100
AcDbPoint
 10
0.0
 20
-3.468996666666667
 30
1.663194444444445
  0
POINT
  5
20C
330
1F
100
AcDbEntity
  8
ConnectionPoints
100
AcDbPoint
 10
0.0
 20
-3.298666666666667
 30
0.0000000000000002
  0
POINT
  5
20D
330
1F
100
AcDbEntity
  8
ConnectionPoints
100
AcDbPoint
 10
0.0
 20
-3.57
 30
0.0000000000000002
  0
POINT
  5
20E
330
1F
100
AcDbEntity
  8
ConnectionPoints
100
AcDbPoint
 10
0.0
 20
-3.497666666666666
 30
0.0000000000000002
  0
POINT
  5
20F
330
1F
100
AcDbEntity
  8
ConnectionPoints
100
AcDbPoint
 10
0.0
 20
-3.298666666666667
 30
1.663194444444445
  0
POINT
  5
210
330
1F
100
AcDbEntity
  8
ConnectionPoints
100
AcDbPoint
 10
0.0
 20
-3.298666666666667
 30
-1.663194444444444
  0
POINT
  5
211
330
1F
100
AcDbEntity
  8
ConnectionPoints
100
AcDbPoint
 10
0.0
 20
-3.298666666666667
 30
0.0000000000000002
  0
POINT
  5
212
330
1F
100
AcDbEntity
  8
ConnectionPoints
100
AcDbPoint
 10
0.0
 20
-1.81
 30
2.855
  0
POINT
  5
213
330
1F
100
AcDbEntity
  8
ConnectionPoints
100
AcDbPoint
 10
0.0
 20
-1.81
 30
2.855
  0
POINT
  5
214
330
1F
100
AcDbEntity
  8
ConnectionPoints
100
AcDbPoint
 10
0.0
 20
-1.81
 30
-2.855
  0
POINT
  5
215
330
1F
100
AcDbEntity
  8
ConnectionPoints
100
AcDbPoint
 10
0.0
 20
-3.32
 30
0.0000000000000002
  0
POINT
  5
216
330
1F
100
AcDbEntity
  8
ConnectionPoints
100
AcDbPoint
 10
0.0
 20
-3.57
 30
0.0000000000000002
  0
ENDSEC
  0
SECTION
  2
OBJECTS
  0
DICTIONARY
  5
C
330
0
100
AcDbDictionary
281
     1
  3
ACAD_DETAILVIEWSTYLE
350
21E
  3
ACAD_GROUP
350
D
  3
ACAD_LAYOUT
350
1A
  3
ACAD_MATERIAL
350
43
  3
ACAD_MLEADERSTYLE
350
6B
  3
ACAD_MLINESTYLE
350
17
  3
ACAD_PLOTSETTINGS
350
19
  3
ACAD_PLOTSTYLENAME
350
E
  3
ACAD_SCALELIST
350
47
  3
ACAD_SECTIONVIEWSTYLE
350
21F
  3
ACAD_TABLESTYLE
350
69
  3
ACAD_VISUALSTYLE
350
2A
  3
ACDB_RECOMPOSE_DATA
350
21B
  3
AcDbVariableDictionary
350
217
  0
SUN
  5
6D
330
29
100
AcDbSun
 90
        1
290
     0
 63
     7
421
 16777215
 40
1.0
291
     1
 91
  2455826
 92
 54000000
292
     0
 70
     2
 71
   256
280
     1
  0
DICTIONARY
  5
21E
102
{ACAD_REACTORS
330
C
102
}
330
C
100
AcDbDictionary
281
     1
  0
DICTIONARY
  5
D
102
{ACAD_REACTORS
330
C
102
}
330
C
100
AcDbDictionary
281
     1
  0
DICTIONARY
  5
1A
102
{ACAD_REACTORS
330
C
102
}
330
C
100
AcDbDictionary
281
     1
  3
Layout1
350
1E
  3
Layout2
350
26
  3
Model
350
22
  0
DICTIONARY
  5
43
102
{ACAD_REACTORS
330
C
102
}
330
C
100
AcDbDictionary
281
     1
  3
ByBlock
350
45
  3
ByLayer
350
44
  3
Global
350
46
  0
DICTIONARY
  5
6B
102
{ACAD_REACTORS
330
C
102
}
330
C
100
AcDbDictionary
281
     1
  3
Standard
350
6C
  0
DICTIONARY
  5
17
102
{ACAD_REACTORS
330
C
102
}
330
C
100
AcDbDictionary
281
     1
  3
Standard
350
18
  0
DICTIONARY
  5
19
102
{ACAD_REACTORS
330
C
102
}
330
C
100
AcDbDictionary
281
     1
  0
ACDBDICTIONARYWDFLT
  5
E
102
{ACAD_REACTORS
330
C
102
}
330
C
100
AcDbDictionary
281
     1
  3
Normal
350
F
100
AcDbDictionaryWithDefault
340
F
  0
DICTIONARY
  5
47
102
{ACAD_REACTORS
330
C
102
}
330
C
100
AcDbDictionary
281
     1
  3
A0
350
48
  3
A1
350
49
  3
A2
350
4A
  3
A3
350
4B
  3
A4
350
4C
  3
A5
350
4D
  3
A6
350
4E
  3
A7
350
4F
  3
A8
350
50
  3
A9
350
51
  3
B0
350
52
  3
B1
350
53
  3
B2
350
54
  3
B3
350
55
  3
B4
350
56
  3
B5
350
57
  3
B6
350
58
  3
B7
350
59
  3
B8
350
5A
  3
B9
350
5B
  3
C0
350
5C
  3
C1
350
5D
  3
C2
350
5E
  3
C3
350
5F
  3
C4
350
60
  3
C5
350
61
  3
C6
350
62
  3
C7
350
63
  3
C8
350
64
  3
C9
350
65
  3
D0
350
66
  3
D1
350
67
  3
D2
350
68
  0
DICTIONARY
  5
21F
102
{ACAD_REACTORS
330
C
102
}
330
C
100
AcDbDictionary
281
     1
  0
DICTIONARY
  5
69
102
{ACAD_REACTORS
330
C
102
}
330
C
100
AcDbDictionary
281
     1
  3
Standard
350
6A
  0
DICTIONARY
  5
2A
102
{ACAD_REACTORS
330
C
102
}
330
C
100
AcDbDictionary
281
     1
  3
2dWireframe
350
2F
  3
Basic
350
32
  3
Brighten
350
36
  3
ColorChange
350
3A
  3
Conceptual
350
34
  3
Dim
350
35
  3
EdgeColorOff
350
3D
  3
Facepattern
350
39
  3
Flat
350
2B
  3
FlatWithEdges
350
2C
  3
Gouraud
350
2D
  3
GouraudWithEdges
350
2E
  3
Hidden
350
31
  3
JitterOff
350
3B
  3
Linepattern
350
38
  3
OverhangOff
350
3C
  3
Realistic
350
33
  3
Shaded
350
42
  3
Shaded with edges
350
41
  3
Shades of Gray
350
3E
  3
Sketchy
350
3F
  3
Thicken
350
37
  3
Wireframe
350
30
  3
X-Ray
350
40
  0
XRECORD
  5
21B
102
{ACAD_REACTORS
330
C
102
}
330
C
100
AcDbXrecord
280
     1
 90
        1
330
6A
  0
DICTIONARY
  5
217
102
{ACAD_REACTORS
330
C
102
}
330
C
100
AcDbDictionary
281
     1
  3
CANNOSCALE
350
218
  3
CMLEADERSTYLE
350
21D
  3
CTABLESTYLE
350
21C
  0
LAYOUT
  5
1E
102
{ACAD_REACTORS
330
1A
102
}
330
1A
100
AcDbPlotSettings
  1

  2
none_device
  4

  6

 40
0.0
 41
0.0
 42
0.0
 43
0.0
 44
0.0
 45
0.0
 46
0.0
 47
0.0
 48
0.0
 49
0.0
140
0.0
141
0.0
142
1.0
143
1.0
 70
   688
 72
     0
 73
     0
 74
     5
  7

 75
    16
 76
     0
 77
     2
 78
   300
147
1.0
148
0.0
149
0.0
100
AcDbLayout
  1
Layout1
 70
     1
 71
     1
 10
0.0
 20
0.0
 11
12.0
 21
9.0
 12
0.0
 22
0.0
 32
0.0
 14
1.000000000000000E+20
 24
1.000000000000000E+20
 34
1.000000000000000E+20
 15
-1.000000000000000E+20
 25
-1.000000000000000E+20
 35
-1.000000000000000E+20
146
0.0
 13
0.0
 23
0.0
 33
0.0
 16
1.0
 26
0.0
 36
0.0
 17
0.0
 27
1.0
 37
0.0
 76
     0
330
1B
  0
LAYOUT
  5
26
102
{ACAD_REACTORS
330
1A
102
}
330
1A
100
AcDbPlotSettings
  1

  2
none_device
  4

  6

 40
0.0
 41
0.0
 42
0.0
 43
0.0
 44
0.0
 45
0.0
 46
0.0
 47
0.0
 48
0.0
 49
0.0
140
0.0
141
0.0
142
1.0
143
1.0
 70
   688
 72
     0
 73
     0
 74
     5
  7

 75
    16
 76
     0
 77
     2
 78
   300
147
1.0
148
0.0
149
0.0
100
AcDbLayout
  1
Layout2
 70
     1
 71
     2
 10
0.0
 20
0.0
 11
0.0
 21
0.0
 12
0.0
 22
0.0
 32
0.0
 14
0.0
 24
0.0
 34
0.0
 15
0.0
 25
0.0
 35
0.0
146
0.0
 13
0.0
 23
0.0
 33
0.0
 16
1.0
 26
0.0
 36
0.0
 17
0.0
 27
1.0
 37
0.0
 76
     0
330
23
  0
LAYOUT
  5
22
102
{ACAD_REACTORS
330
1A
102
}
330
1A
100
AcDbPlotSettings
  1

  2
none_device
  4
Letter_(8.50_x_11.00_Inches)
  6

 40
6.35
 41
6.35
 42
6.35000508
 43
6.35000508
 44
215.9
 45
279.4
 46
0.0
 47
0.0
 48
0.0
 49
0.0
140
0.0
141
0.0
142
1.0
143
1.0
 70
  1712
 72
     0
 73
     0
 74
     0
  7

 75
     0
 76
     0
 77
     2
 78
   300
147
1.0
148
0.0
149
0.0
100
AcDbLayout
  1
Model
 70
     1
 71
     0
 10
0.0
 20
0.0
 11
12.0
 21
9.0
 12
0.0
 22
0.0
 32
0.0
 14
1.000000000000000E+20
 24
1.000000000000000E+20
 34
1.000000000000000E+20
 15
-1.000000000000000E+20
 25
-1.000000000000000E+20
 35
-1.000000000000000E+20
146
0.0
 13
0.0
 23
0.0
 33
0.0
 16
1.0
 26
0.0
 36
0.0
 17
0.0
 27
1.0
 37
0.0
 76
     0
330
1F
331
29
  0
MATERIAL
  5
45
102
{ACAD_REACTORS
330
43
102
}
330
43
100
AcDbMaterial
  1
ByBlock
 72
     1
 94
      127
  0
MATERIAL
  5
44
102
{ACAD_REACTORS
330
43
102
}
330
43
100
AcDbMaterial
  1
ByLayer
 72
     1
 94
      127
  0
MATERIAL
  5
46
102
{ACAD_REACTORS
330
43
102
}
330
43
100
AcDbMaterial
  1
Global
 72
     1
 94
      127
  0
MLEADERSTYLE
  5
6C
102
{ACAD_REACTORS
330
6B
102
}
330
6B
100
AcDbMLeaderStyle
179
     2
170
     2
171
     1
172
     0
 90
        2
 40
0.0
 41
0.0
173
     1
 91
-1056964608
340
14
 92
       -2
290
     1
 42
0.09
291
     1
 43
0.36
  3
Standard
341
0
 44
0.18
300

342
11
174
     1
178
     6
175
     1
176
     0
 93
-1056964608
 45
0.18
292
     0
297
     0
 46
0.18
343
0
 94
-1056964608
 47
1.0
 49
1.0
140
1.0
293
     1
141
0.0
294
     1
177
     0
142
1.0
295
     0
296
     0
143
0.125
271
     0
272
     9
273
     9
298
     0
  0
MLINESTYLE
  5
18
102
{ACAD_REACTORS
330
17
102
}
330
17
100
AcDbMlineStyle
  2
Standard
 70
     0
  3

 62
   256
 51
90.0
 52
90.0
 71
     2
 49
0.5
 62
   256
  6
BYLAYER
 49
-0.5
 62
   256
  6
BYLAYER
  0
ACDBPLACEHOLDER
  5
F
102
{ACAD_REACTORS
330
E
102
}
330
E
  0
SCALE
  5
48
102
{ACAD_REACTORS
330
47
102
}
330
47
100
AcDbScale
 70
     0
300
1:1
140
1.0
141
1.0
290
     1
  0
SCALE
  5
49
102
{ACAD_REACTORS
330
47
102
}
330
47
100
AcDbScale
 70
     0
300
1:2
140
1.0
141
2.0
290
     0
  0
SCALE
  5
4A
102
{ACAD_REACTORS
330
47
102
}
330
47
100
AcDbScale
 70
     0
300
1:4
140
1.0
141
4.0
290
     0
  0
SCALE
  5
4B
102
{ACAD_REACTORS
330
47
102
}
330
47
100
AcDbScale
 70
     0
300
1:5
140
1.0
141
5.0
290
     0
  0
SCALE
  5
4C
102
{ACAD_REACTORS
330
47
102
}
330
47
100
AcDbScale
 70
     0
300
1:8
140
1.0
141
8.0
290
     0
  0
SCALE
  5
4D
102
{ACAD_REACTORS
330
47
102
}
330
47
100
AcDbScale
 70
     0
300
1:10
140
1.0
141
10.0
290
     0
  0
SCALE
  5
4E
102
{ACAD_REACTORS
330
47
102
}
330
47
100
AcDbScale
 70
     0
300
1:16
140
1.0
141
16.0
290
     0
  0
SCALE
  5
4F
102
{ACAD_REACTORS
330
47
102
}
330
47
100
AcDbScale
 70
     0
300
1:20
140
1.0
141
20.0
290
     0
  0
SCALE
  5
50
102
{ACAD_REACTORS
330
47
102
}
330
47
100
AcDbScale
 70
     0
300
1:30
140
1.0
141
30.0
290
     0
  0
SCALE
  5
51
102
{ACAD_REACTORS
330
47
102
}
330
47
100
AcDbScale
 70
     0
300
1:40
140
1.0
141
40.0
290
     0
  0
SCALE
  5
52
102
{ACAD_REACTORS
330
47
102
}
330
47
100
AcDbScale
 70
     0
300
1:50
140
1.0
141
50.0
290
     0
  0
SCALE
  5
53
102
{ACAD_REACTORS
330
47
102
}
330
47
100
AcDbScale
 70
     0
300
1:100
140
1.0
141
100.0
290
     0
  0
SCALE
  5
54
102
{ACAD_REACTORS
330
47
102
}
330
47
100
AcDbScale
 70
     0
300
2:1
140
2.0
141
1.0
290
     0
  0
SCALE
  5
55
102
{ACAD_REACTORS
330
47
102
}
330
47
100
AcDbScale
 70
     0
300
4:1
140
4.0
141
1.0
290
     0
  0
SCALE
  5
56
102
{ACAD_REACTORS
330
47
102
}
330
47
100
AcDbScale
 70
     0
300
8:1
140
8.0
141
1.0
290
     0
  0
SCALE
  5
57
102
{ACAD_REACTORS
330
47
102
}
330
47
100
AcDbScale
 70
     0
300
10:1
140
10.0
141
1.0
290
     0
  0
SCALE
  5
58
102
{ACAD_REACTORS
330
47
102
}
330
47
100
AcDbScale
 70
     0
300
100:1
140
100.0
141
1.0
290
     0
  0
SCALE
  5
59
102
{ACAD_REACTORS
330
47
102
}
330
47
100
AcDbScale
 70
     0
300
1/128" = 1'-0"
140
0.0078125
141
12.0
290
     0
  0
SCALE
  5
5A
102
{ACAD_REACTORS
330
47
102
}
330
47
100
AcDbScale
 70
     0
300
1/64" = 1'-0"
140
0.015625
141
12.0
290
     0
  0
SCALE
  5
5B
102
{ACAD_REACTORS
330
47
102
}
330
47
100
AcDbScale
 70
     0
300
1/32" = 1'-0"
140
0.03125
141
12.0
290
     0
  0
SCALE
  5
5C
102
{ACAD_REACTORS
330
47
102
}
330
47
100
AcDbScale
 70
     0
300
1/16" = 1'-0"
140
0.0625
141
12.0
290
     0
  0
SCALE
  5
5D
102
{ACAD_REACTORS
330
47
102
}
330
47
100
AcDbScale
 70
     0
300
3/32" = 1'-0"
140
0.09375
141
12.0
290
     0
  0
SCALE
  5
5E
102
{ACAD_REACTORS
330
47
102
}
330
47
100
AcDbScale
 70
     0
300
1/8" = 1'-0"
140
0.125
141
12.0
290
     0
  0
SCALE
  5
5F
102
{ACAD_REACTORS
330
47
102
}
330
47
100
AcDbScale
 70
     0
300
3/16" = 1'-0"
140
0.1875
141
12.0
290
     0
  0
SCALE
  5
60
102
{ACAD_REACTORS
330
47
102
}
330
47
100
AcDbScale
 70
     0
300
1/4" = 1'-0"
140
0.25
141
12.0
290
     0
  0
SCALE
  5
61
102
{ACAD_REACTORS
330
47
102
}
330
47
100
AcDbScale
 70
     0
300
3/8" = 1'-0"
140
0.375
141
12.0
290
     0
  0
SCALE
  5
62
102
{ACAD_REACTORS
330
47
102
}
330
47
100
AcDbScale
 70
     0
300
1/2" = 1'-0"
140
0.5
141
12.0
290
     0
  0
SCALE
  5
63
102
{ACAD_REACTORS
330
47
102
}
330
47
100
AcDbScale
 70
     0
300
3/4" = 1'-0"
140
0.75
141
12.0
290
     0
  0
SCALE
  5
64
102
{ACAD_REACTORS
330
47
102
}
330
47
100
AcDbScale
 70
     0
300
1" = 1'-0"
140
1.0
141
12.0
290
     0
  0
SCALE
  5
65
102
{ACAD_REACTORS
330
47
102
}
330
47
100
AcDbScale
 70
     0
300
1-1/2" = 1'-0"
140
1.5
141
12.0
290
     0
  0
SCALE
  5
66
102
{ACAD_REACTORS
330
47
102
}
330
47
100
AcDbScale
 70
     0
300
3" = 1'-0"
140
3.0
141
12.0
290
     0
  0
SCALE
  5
67
102
{ACAD_REACTORS
330
47
102
}
330
47
100
AcDbScale
 70
     0
300
6" = 1'-0"
140
6.0
141
12.0
290
     0
  0
SCALE
  5
68
102
{ACAD_REACTORS
330
47
102
}
330
47
100
AcDbScale
 70
     0
300
1'-0" = 1'-0"
140
12.0
141
12.0
290
     0
  0
TABLESTYLE
  5
6A
102
{ACAD_REACTORS
330
69
102
}
102
{ACAD_XDICTIONARY
360
219
102
}
330
69
100
AcDbTableStyle
  3
Standard
 70
     0
 71
     0
 40
0.06
 41
0.06
280
     0
281
     0
  7
Standard
140
0.18
170
     2
 62
     0
 63
   257
283
     0
 90
        4
 91
        0
  1

274
    -2
284
     1
 64
     0
275
    -2
285
     1
 65
     0
276
    -2
286
     1
 66
     0
277
    -2
287
     1
 67
     0
278
    -2
288
     1
 68
     0
279
    -2
289
     1
 69
     0
  7
Standard
140
0.25
170
     5
 62
     0
 63
   257
283
     0
 90
        4
 91
        0
  1

274
    -2
284
     1
 64
     0
275
    -2
285
     1
 65
     0
276
    -2
286
     1
 66
     0
277
    -2
287
     1
 67
     0
278
    -2
288
     1
 68
     0
279
    -2
289
     1
 69
     0
  7
Standard
140
0.18
170
     5
 62
     0
 63
   257
283
     0
 90
        4
 91
        0
  1

274
    -2
284
     1
 64
     0
275
    -2
285
     1
 65
     0
276
    -2
286
     1
 66
     0
277
    -2
287
     1
 67
     0
278
    -2
288
     1
 68
     0
279
    -2
289
     1
 69
     0
  0
VISUALSTYLE
  5
2F
102
{ACAD_REACTORS
330
2A
102
}
330
2A
100
AcDbVisualStyle
  2
2dWireframe
 70
     4
177
     3
291
     0
 70
    58
 90
        0
176
     1
 90
        2
176
     1
 90
        0
176
     1
 90
        0
176
     1
 40
0.6
176
     1
 40
30.0
176
     1
 62
     7
420
 16777215
176
     1
 90
        1
176
     1
 90
        4
176
     1
 62
     7
176
     1
 62
   257
176
     1
 90
        1
176
     1
 90
        1
176
     1
 40
1.0
176
     1
 90
        0
176
     1
 62
   257
176
     1
 40
1.0
176
     1
 90
        1
176
     1
 90
        6
176
     1
 90
        2
176
     1
 62
     7
176
     1
 90
        5
176
     1
 90
        0
176
     1
 90
        0
176
     1
290
     0
176
     1
 90
        1
176
     1
 40
0.0
176
     1
 90
        0
176
     1
290
     1
176
     1
290
     1
176
     1
290
     0
176
     1
290
     0
176
     1
290
     0
176
     1
290
     0
176
     1
290
     0
176
     1
290
     0
176
     1
290
     0
176
     1
 90
       50
176
     1
 40
0.0
176
     1
 40
1.0
176
     1
 90
        0
176
     1
 62
    18
420
        0
176
     1
 90
       50
176
     1
 90
        3
176
     1
 62
     5
420
      255
176
     1
290
     0
176
     1
 90
       50
176
     1
 90
       50
176
     1
 90
       50
176
     1
290
     0
176
     1
 90
       50
176
     1
 62
   256
176
     0
 40
1.0
176
     0
 90
        2
176
     1
  1
strokes_ogs.tif
176
     1
290
     0
176
     1
 40
1.0
176
     1
 40
1.0
176
     1
  0
VISUALSTYLE
  5
32
102
{ACAD_REACTORS
330
2A
102
}
330
2A
100
AcDbVisualStyle
  2
Basic
 70
     7
177
     3
291
     1
 70
    58
 90
        1
176
     1
 90
        0
176
     1
 90
        1
176
     1
 90
        0
176
     1
 40
0.6
176
     1
 40
30.0
176
     1
 62
     7
420
 16777215
176
     1
 90
        0
176
     1
 90
        4
176
     1
 62
     7
176
     1
 62
   257
176
     1
 90
        1
176
     1
 90
        1
176
     1
 40
1.0
176
     1
 90
        8
176
     1
 62
     7
176
     1
 40
1.0
176
     1
 90
        1
176
     1
 90
        6
176
     1
 90
        2
176
     1
 62
     7
176
     1
 90
        5
176
     1
 90
        0
176
     1
 90
        0
176
     1
290
     0
176
     1
 90
        1
176
     1
 40
0.0
176
     1
 90
        0
176
     1
290
     0
176
     1
290
     1
176
     1
290
     1
176
     1
290
     0
176
     1
290
     0
176
     1
290
     0
176
     1
290
     0
176
     1
290
     0
176
     1
290
     0
176
     1
 90
       50
176
     1
 40
0.0
176
     1
 40
1.0
176
     1
 90
        0
176
     1
 62
    18
420
        0
176
     1
 90
       50
176
     1
 90
        3
176
     1
 62
     5
420
      255
176
     1
290
     0
176
     1
 90
       50
176
     1
 90
       50
176
     1
 90
       50
176
     1
290
     0
176
     1
 90
       50
176
     1
 62
   256
176
     0
 40
1.0
176
     0
 90
        2
176
     1
  1
strokes_ogs.tif
176
     1
290
     0
176
     1
 40
1.0
176
     1
 40
1.0
176
     1
  0
VISUALSTYLE
  5
36
102
{ACAD_REACTORS
330
2A
102
}
330
2A
100
AcDbVisualStyle
  2
Brighten
 70
    12
177
     3
291
     1
 70
    58
 90
        2
176
     1
 90
        2
176
     1
 90
        0
176
     1
 90
        0
176
     1
 40
0.6
176
     1
 40
30.0
176
     1
 62
     7
420
 16777215
176
     1
 90
        1
176
     1
 90
        4
176
     1
 62
     7
176
     1
 62
   257
176
     1
 90
        1
176
     1
 90
        1
176
     1
 40
1.0
176
     1
 90
        8
176
     1
 62
     7
176
     1
 40
1.0
176
     1
 90
        1
176
     1
 90
        6
176
     1
 90
        2
176
     1
 62
     7
176
     1
 90
        5
176
     1
 90
        0
176
     1
 90
        0
176
     1
290
     0
176
     1
 90
        1
176
     1
 40
50.0
176
     1
 90
        0
176
     1
290
     0
176
     1
290
     1
176
     1
290
     1
176
     1
290
     0
176
     1
290
     0
176
     1
290
     0
176
     1
290
     0
176
     1
290
     0
176
     1
290
     0
176
     1
 90
       50
176
     1
 40
0.0
176
     1
 40
1.0
176
     1
 90
        0
176
     1
 62
    18
420
        0
176
     1
 90
       50
176
     1
 90
        3
176
     1
 62
     5
420
      255
176
     1
290
     0
176
     1
 90
       50
176
     1
 90
       50
176
     1
 90
       50
176
     1
290
     0
176
     1
 90
       50
176
     1
 62
   256
176
     0
 40
1.0
176
     0
 90
        2
176
     1
  1
strokes_ogs.tif
176
     1
290
     0
176
     1
 40
1.0
176
     1
 40
1.0
176
     1
  0
VISUALSTYLE
  5
3A
102
{ACAD_REACTORS
330
2A
102
}
330
2A
100
AcDbVisualStyle
  2
ColorChange
 70
    16
177
     3
291
     1
 70
    58
 90
        2
176
     1
 90
        2
176
     1
 90
        3
176
     1
 90
        0
176
     1
 40
0.6
176
     1
 40
30.0
176
     1
 62
     8
420
  8421504
176
     1
 90
        1
176
     1
 90
        4
176
     1
 62
     7
176
     1
 62
   257
176
     1
 90
        1
176
     1
 90
        1
176
     1
 40
1.0
176
     1
 90
        8
176
     1
 62
     8
420
  8421504
176
     1
 40
1.0
176
     1
 90
        1
176
     1
 90
        6
176
     1
 90
        2
176
     1
 62
     7
176
     1
 90
        5
176
     1
 90
        0
176
     1
 90
        0
176
     1
290
     0
176
     1
 90
        1
176
     1
 40
0.0
176
     1
 90
        0
176
     1
290
     0
176
     1
290
     1
176
     1
290
     1
176
     1
290
     0
176
     1
290
     0
176
     1
290
     0
176
     1
290
     0
176
     1
290
     0
176
     1
290
     0
176
     1
 90
       50
176
     1
 40
0.0
176
     1
 40
1.0
176
     1
 90
        0
176
     1
 62
    18
420
        0
176
     1
 90
       50
176
     1
 90
        3
176
     1
 62
     5
420
      255
176
     1
290
     0
176
     1
 90
       50
176
     1
 90
       50
176
     1
 90
       50
176
     1
290
     0
176
     1
 90
       50
176
     1
 62
   256
176
     0
 40
1.0
176
     0
 90
        2
176
     1
  1
strokes_ogs.tif
176
     1
290
     0
176
     1
 40
1.0
176
     1
 40
1.0
176
     1
  0
VISUALSTYLE
  5
34
102
{ACAD_REACTORS
330
2A
102
}
330
2A
100
AcDbVisualStyle
  2
Conceptual
 70
     9
177
     3
291
     0
 70
    58
 90
        3
176
     1
 90
        2
176
     1
 90
        0
176
     1
 90
        0
176
     1
 40
0.6
176
     1
 40
30.0
176
     1
 62
     7
420
 16777215
176
     1
 90
        2
176
     1
 90
        2
176
     1
 62
     7
176
     1
 62
   257
176
     1
 90
        1
176
     1
 90
        1
176
     1
 40
179.0
176
     1
 90
        8
176
     1
 62
     7
176
     1
 40
1.0
176
     1
 90
        1
176
     1
 90
        6
176
     1
 90
        2
176
     1
 62
     7
176
     1
 90
        3
176
     1
 90
        0
176
     1
 90
        0
176
     1
290
     0
176
     1
 90
        1
176
     1
 40
0.0
176
     1
 90
        0
176
     1
290
     0
176
     1
290
     1
176
     1
290
     1
176
     1
290
     0
176
     1
290
     0
176
     1
290
     0
176
     1
290
     0
176
     1
290
     0
176
     1
290
     0
176
     1
 90
       50
176
     1
 40
0.0
176
     1
 40
1.0
176
     1
 90
        0
176
     1
 62
    18
420
        0
176
     1
 90
       50
176
     1
 90
        3
176
     1
 62
     5
420
      255
176
     1
290
     0
176
     1
 90
       50
176
     1
 90
       50
176
     1
 90
       50
176
     1
290
     0
176
     1
 90
       50
176
     1
 62
   256
176
     0
 40
1.0
176
     0
 90
        2
176
     1
  1
strokes_ogs.tif
176
     1
290
     0
176
     1
 40
1.0
176
     1
 40
1.0
176
     1
  0
VISUALSTYLE
  5
35
102
{ACAD_REACTORS
330
2A
102
}
330
2A
100
AcDbVisualStyle
  2
Dim
 70
    11
177
     3
291
     1
 70
    58
 90
        2
176
     1
 90
        2
176
     1
 90
        0
176
     1
 90
        0
176
     1
 40
0.6
176
     1
 40
30.0
176
     1
 62
     7
420
 16777215
176
     1
 90
        1
176
     1
 90
        4
176
     1
 62
     7
176
     1
 62
   257
176
     1
 90
        1
176
     1
 90
        1
176
     1
 40
1.0
176
     1
 90
        8
176
     1
 62
     7
176
     1
 40
1.0
176
     1
 90
        1
176
     1
 90
        6
176
     1
 90
        2
176
     1
 62
     7
176
     1
 90
        5
176
     1
 90
        0
176
     1
 90
        0
176
     1
290
     0
176
     1
 90
        1
176
     1
 40
-50.0
176
     1
 90
        0
176
     1
290
     0
176
     1
290
     1
176
     1
290
     1
176
     1
290
     0
176
     1
290
     0
176
     1
290
     0
176
     1
290
     0
176
     1
290
     0
176
     1
290
     0
176
     1
 90
       50
176
     1
 40
0.0
176
     1
 40
1.0
176
     1
 90
        0
176
     1
 62
    18
420
        0
176
     1
 90
       50
176
     1
 90
        3
176
     1
 62
     5
420
      255
176
     1
290
     0
176
     1
 90
       50
176
     1
 90
       50
176
     1
 90
       50
176
     1
290
     0
176
     1
 90
       50
176
     1
 62
   256
176
     0
 40
1.0
176
     0
 90
        2
176
     1
  1
strokes_ogs.tif
176
     1
290
     0
176
     1
 40
1.0
176
     1
 40
1.0
176
     1
  0
VISUALSTYLE
  5
3D
102
{ACAD_REACTORS
330
2A
102
}
330
2A
100
AcDbVisualStyle
  2
EdgeColorOff
 70
    22
177
     3
291
     1
 70
    58
 90
        2
176
     0
 90
        2
176
     0
 90
        0
176
     0
 90
        0
176
     0
 40
0.6
176
     0
 40
30.0
176
     0
 62
     7
420
 16777215
176
     0
 90
        1
176
     0
 90
        4
176
     0
 62
     7
176
     0
 62
   257
176
     0
 90
        1
176
     0
 90
        1
176
     0
 40
1.0
176
     0
 90
        8
176
     2
 62
     7
176
     0
 40
1.0
176
     0
 90
        1
176
     0
 90
        6
176
     0
 90
        2
176
     0
 62
     7
176
     0
 90
        5
176
     0
 90
        0
176
     0
 90
        0
176
     0
290
     0
176
     0
 90
        1
176
     0
 40
0.0
176
     0
 90
        0
176
     0
290
     0
176
     0
290
     1
176
     0
290
     1
176
     0
290
     0
176
     0
290
     0
176
     0
290
     0
176
     0
290
     0
176
     0
290
     0
176
     0
290
     0
176
     0
 90
       50
176
     0
 40
0.0
176
     0
 40
1.0
176
     0
 90
        0
176
     0
 62
    18
420
        0
176
     0
 90
       50
176
     0
 90
        3
176
     0
 62
     5
420
      255
176
     0
290
     0
176
     0
 90
       50
176
     0
 90
       50
176
     0
 90
       50
176
     0
290
     0
176
     0
 90
       50
176
     0
 62
   256
176
     0
 40
1.0
176
     0
 90
        2
176
     0
  1
strokes_ogs.tif
176
     0
290
     0
176
     0
 40
1.0
176
     0
 40
1.0
176
     0
  0
VISUALSTYLE
  5
39
102
{ACAD_REACTORS
330
2A
102
}
330
2A
100
AcDbVisualStyle
  2
Facepattern
 70
    15
177
     3
291
     1
 70
    58
 90
        2
176
     1
 90
        2
176
     1
 90
        0
176
     1
 90
        0
176
     1
 40
0.6
176
     1
 40
30.0
176
     1
 62
     7
420
 16777215
176
     1
 90
        1
176
     1
 90
        4
176
     1
 62
     7
176
     1
 62
   257
176
     1
 90
        1
176
     1
 90
        1
176
     1
 40
1.0
176
     1
 90
        8
176
     1
 62
     7
176
     1
 40
1.0
176
     1
 90
        1
176
     1
 90
        6
176
     1
 90
        2
176
     1
 62
     7
176
     1
 90
        5
176
     1
 90
        0
176
     1
 90
        0
176
     1
290
     0
176
     1
 90
        1
176
     1
 40
0.0
176
     1
 90
        0
176
     1
290
     0
176
     1
290
     1
176
     1
290
     1
176
     1
290
     0
176
     1
290
     0
176
     1
290
     0
176
     1
290
     0
176
     1
290
     0
176
     1
290
     0
176
     1
 90
       50
176
     1
 40
0.0
176
     1
 40
1.0
176
     1
 90
        0
176
     1
 62
    18
420
        0
176
     1
 90
       50
176
     1
 90
        3
176
     1
 62
     5
420
      255
176
     1
290
     0
176
     1
 90
       50
176
     1
 90
       50
176
     1
 90
       50
176
     1
290
     0
176
     1
 90
       50
176
     1
 62
   256
176
     0
 40
1.0
176
     0
 90
        2
176
     1
  1
strokes_ogs.tif
176
     1
290
     0
176
     1
 40
1.0
176
     1
 40
1.0
176
     1
  0
VISUALSTYLE
  5
2B
102
{ACAD_REACTORS
330
2A
102
}
330
2A
100
AcDbVisualStyle
  2
Flat
 70
     0
177
     3
291
     1
 70
    58
 90
        2
176
     1
 90
        1
176
     1
 90
        1
176
     1
 90
        2
176
     1
 40
0.6
176
     1
 40
30.0
176
     1
 62
     7
420
 16777215
176
     1
 90
        0
176
     1
 90
        0
176
     1
 62
     7
176
     1
 62
   257
176
     1
 90
        1
176
     1
 90
        1
176
     1
 40
1.0
176
     1
 90
        8
176
     1
 62
     7
176
     1
 40
1.0
176
     1
 90
        1
176
     1
 90
        6
176
     1
 90
        2
176
     1
 62
     7
176
     1
 90
        5
176
     1
 90
        0
176
     1
 90
        0
176
     1
290
     0
176
     1
 90
       13
176
     1
 40
0.0
176
     1
 90
        0
176
     1
290
     0
176
     1
290
     1
176
     1
290
     1
176
     1
290
     0
176
     1
290
     0
176
     1
290
     0
176
     1
290
     0
176
     1
290
     0
176
     1
290
     0
176
     1
 90
       50
176
     1
 40
0.0
176
     1
 40
1.0
176
     1
 90
        0
176
     1
 62
    18
420
        0
176
     1
 90
       50
176
     1
 90
        3
176
     1
 62
     5
420
      255
176
     1
290
     0
176
     1
 90
       50
176
     1
 90
       50
176
     1
 90
       50
176
     1
290
     0
176
     1
 90
       50
176
     1
 62
   256
176
     0
 40
1.0
176
     0
 90
        2
176
     1
  1
strokes_ogs.tif
176
     1
290
     0
176
     1
 40
1.0
176
     1
 40
1.0
176
     1
  0
VISUALSTYLE
  5
2C
102
{ACAD_REACTORS
330
2A
102
}
330
2A
100
AcDbVisualStyle
  2
FlatWithEdges
 70
     1
177
     3
291
     1
 70
    58
 90
        2
176
     1
 90
        1
176
     1
 90
        1
176
     1
 90
        2
176
     1
 40
0.6
176
     1
 40
30.0
176
     1
 62
     7
420
 16777215
176
     1
 90
        1
176
     1
 90
        0
176
     1
 62
     7
176
     1
 62
   257
176
     1
 90
        1
176
     1
 90
        1
176
     1
 40
1.0
176
     1
 90
        0
176
     1
 62
   257
176
     1
 40
1.0
176
     1
 90
        1
176
     1
 90
        6
176
     1
 90
        2
176
     1
 62
     7
176
     1
 90
        5
176
     1
 90
        0
176
     1
 90
        0
176
     1
290
     0
176
     1
 90
       13
176
     1
 40
0.0
176
     1
 90
        0
176
     1
290
     0
176
     1
290
     1
176
     1
290
     1
176
     1
290
     0
176
     1
290
     0
176
     1
290
     0
176
     1
290
     0
176
     1
290
     0
176
     1
290
     0
176
     1
 90
       50
176
     1
 40
0.0
176
     1
 40
1.0
176
     1
 90
        0
176
     1
 62
    18
420
        0
176
     1
 90
       50
176
     1
 90
        3
176
     1
 62
     5
420
      255
176
     1
290
     0
176
     1
 90
       50
176
     1
 90
       50
176
     1
 90
       50
176
     1
290
     0
176
     1
 90
       50
176
     1
 62
   256
176
     0
 40
1.0
176
     0
 90
        2
176
     1
  1
strokes_ogs.tif
176
     1
290
     0
176
     1
 40
1.0
176
     1
 40
1.0
176
     1
  0
VISUALSTYLE
  5
2D
102
{ACAD_REACTORS
330
2A
102
}
330
2A
100
AcDbVisualStyle
  2
Gouraud
 70
     2
177
     3
291
     1
 70
    58
 90
        2
176
     1
 90
        2
176
     1
 90
        1
176
     1
 90
        2
176
     1
 40
0.6
176
     1
 40
30.0
176
     1
 62
     7
420
 16777215
176
     1
 90
        0
176
     1
 90
        0
176
     1
 62
     7
176
     1
 62
   257
176
     1
 90
        1
176
     1
 90
        1
176
     1
 40
1.0
176
     1
 90
        0
176
     1
 62
     7
176
     1
 40
1.0
176
     1
 90
        1
176
     1
 90
        6
176
     1
 90
        2
176
     1
 62
     7
176
     1
 90
        5
176
     1
 90
        0
176
     1
 90
        0
176
     1
290
     0
176
     1
 90
       13
176
     1
 40
0.0
176
     1
 90
        0
176
     1
290
     0
176
     1
290
     1
176
     1
290
     1
176
     1
290
     0
176
     1
290
     0
176
     1
290
     0
176
     1
290
     0
176
     1
290
     0
176
     1
290
     0
176
     1
 90
       50
176
     1
 40
0.0
176
     1
 40
1.0
176
     1
 90
        0
176
     1
 62
    18
420
        0
176
     1
 90
       50
176
     1
 90
        3
176
     1
 62
     5
420
      255
176
     1
290
     0
176
     1
 90
       50
176
     1
 90
       50
176
     1
 90
       50
176
     1
290
     0
176
     1
 90
       50
176
     1
 62
   256
176
     0
 40
1.0
176
     0
 90
        2
176
     1
  1
strokes_ogs.tif
176
     1
290
     0
176
     1
 40
1.0
176
     1
 40
1.0
176
     1
  0
VISUALSTYLE
  5
2E
102
{ACAD_REACTORS
330
2A
102
}
330
2A
100
AcDbVisualStyle
  2
GouraudWithEdges
 70
     3
177
     3
291
     1
 70
    58
 90
        2
176
     1
 90
        2
176
     1
 90
        1
176
     1
 90
        2
176
     1
 40
0.6
176
     1
 40
30.0
176
     1
 62
     7
420
 16777215
176
     1
 90
        1
176
     1
 90
        0
176
     1
 62
     7
176
     1
 62
   257
176
     1
 90
        1
176
     1
 90
        1
176
     1
 40
1.0
176
     1
 90
        0
176
     1
 62
   257
176
     1
 40
1.0
176
     1
 90
        1
176
     1
 90
        6
176
     1
 90
        2
176
     1
 62
     7
176
     1
 90
        5
176
     1
 90
        0
176
     1
 90
        0
176
     1
290
     0
176
     1
 90
       13
176
     1
 40
0.0
176
     1
 90
        0
176
     1
290
     0
176
     1
290
     1
176
     1
290
     1
176
     1
290
     0
176
     1
290
     0
176
     1
290
     0
176
     1
290
     0
176
     1
290
     0
176
     1
290
     0
176
     1
 90
       50
176
     1
 40
0.0
176
     1
 40
1.0
176
     1
 90
        0
176
     1
 62
    18
420
        0
176
     1
 90
       50
176
     1
 90
        3
176
     1
 62
     5
420
      255
176
     1
290
     0
176
     1
 90
       50
176
     1
 90
       50
176
     1
 90
       50
176
     1
290
     0
176
     1
 90
       50
176
     1
 62
   256
176
     0
 40
1.0
176
     0
 90
        2
176
     1
  1
strokes_ogs.tif
176
     1
290
     0
176
     1
 40
1.0
176
     1
 40
1.0
176
     1
  0
VISUALSTYLE
  5
31
102
{ACAD_REACTORS
330
2A
102
}
330
2A
100
AcDbVisualStyle
  2
Hidden
 70
     6
177
     3
291
     0
 70
    58
 90
        1
176
     1
 90
        2
176
     1
 90
        2
176
     1
 90
        0
176
     1
 40
0.6
176
     1
 40
30.0
176
     1
 62
     7
420
 16777215
176
     1
 90
        2
176
     1
 90
        2
176
     1
 62
     7
176
     1
 62
   257
176
     1
 90
        2
176
     1
 90
        1
176
     1
 40
40.0
176
     1
 90
        0
176
     1
 62
   257
176
     1
 40
1.0
176
     1
 90
        1
176
     1
 90
        6
176
     1
 90
        2
176
     1
 62
     7
176
     1
 90
        3
176
     1
 90
        0
176
     1
 90
        0
176
     1
290
     0
176
     1
 90
        1
176
     1
 40
0.0
176
     1
 90
        0
176
     1
290
     0
176
     1
290
     1
176
     1
290
     1
176
     1
290
     0
176
     1
290
     0
176
     1
290
     0
176
     1
290
     0
176
     1
290
     0
176
     1
290
     0
176
     1
 90
       50
176
     1
 40
0.0
176
     1
 40
1.0
176
     1
 90
        0
176
     1
 62
    18
420
        0
176
     1
 90
       50
176
     1
 90
        3
176
     1
 62
     5
420
      255
176
     1
290
     0
176
     1
 90
       50
176
     1
 90
       50
176
     1
 90
       50
176
     1
290
     0
176
     1
 90
       50
176
     1
 62
   256
176
     0
 40
1.0
176
     0
 90
        2
176
     1
  1
strokes_ogs.tif
176
     1
290
     0
176
     1
 40
1.0
176
     1
 40
1.0
176
     1
  0
VISUALSTYLE
  5
3B
102
{ACAD_REACTORS
330
2A
102
}
330
2A
100
AcDbVisualStyle
  2
JitterOff
 70
    20
177
     3
291
     1
 70
    58
 90
        2
176
     0
 90
        2
176
     0
 90
        0
176
     0
 90
        0
176
     0
 40
0.6
176
     0
 40
30.0
176
     0
 62
     7
420
 16777215
176
     0
 90
        1
176
     0
 90
        4
176
     0
 62
     7
176
     0
 62
   257
176
     0
 90
        1
176
     0
 90
        1
176
     0
 40
1.0
176
     0
 90
       10
176
     2
 62
     7
176
     0
 40
1.0
176
     0
 90
        1
176
     0
 90
        6
176
     0
 90
        2
176
     0
 62
     7
176
     0
 90
        5
176
     0
 90
        0
176
     0
 90
        0
176
     0
290
     0
176
     0
 90
        1
176
     0
 40
0.0
176
     0
 90
        0
176
     0
290
     0
176
     0
290
     1
176
     0
290
     1
176
     0
290
     0
176
     0
290
     0
176
     0
290
     0
176
     0
290
     0
176
     0
290
     0
176
     0
290
     0
176
     0
 90
       50
176
     0
 40
0.0
176
     0
 40
1.0
176
     0
 90
        0
176
     0
 62
    18
420
        0
176
     0
 90
       50
176
     0
 90
        3
176
     0
 62
     5
420
      255
176
     0
290
     0
176
     0
 90
       50
176
     0
 90
       50
176
     0
 90
       50
176
     0
290
     0
176
     0
 90
       50
176
     0
 62
   256
176
     0
 40
1.0
176
     0
 90
        2
176
     0
  1
strokes_ogs.tif
176
     0
290
     0
176
     0
 40
1.0
176
     0
 40
1.0
176
     0
  0
VISUALSTYLE
  5
38
102
{ACAD_REACTORS
330
2A
102
}
330
2A
100
AcDbVisualStyle
  2
Linepattern
 70
    14
177
     3
291
     1
 70
    58
 90
        2
176
     1
 90
        2
176
     1
 90
        0
176
     1
 90
        0
176
     1
 40
0.6
176
     1
 40
30.0
176
     1
 62
     7
420
 16777215
176
     1
 90
        1
176
     1
 90
        4
176
     1
 62
     7
176
     1
 62
   257
176
     1
 90
        7
176
     1
 90
        7
176
     1
 40
1.0
176
     1
 90
        8
176
     1
 62
     7
176
     1
 40
1.0
176
     1
 90
        1
176
     1
 90
        6
176
     1
 90
        2
176
     1
 62
     7
176
     1
 90
        5
176
     1
 90
        0
176
     1
 90
        0
176
     1
290
     0
176
     1
 90
        1
176
     1
 40
0.0
176
     1
 90
        0
176
     1
290
     0
176
     1
290
     1
176
     1
290
     1
176
     1
290
     0
176
     1
290
     0
176
     1
290
     0
176
     1
290
     0
176
     1
290
     0
176
     1
290
     0
176
     1
 90
       50
176
     1
 40
0.0
176
     1
 40
1.0
176
     1
 90
        0
176
     1
 62
    18
420
        0
176
     1
 90
       50
176
     1
 90
        3
176
     1
 62
     5
420
      255
176
     1
290
     0
176
     1
 90
       50
176
     1
 90
       50
176
     1
 90
       50
176
     1
290
     0
176
     1
 90
       50
176
     1
 62
   256
176
     0
 40
1.0
176
     0
 90
        2
176
     1
  1
strokes_ogs.tif
176
     1
290
     0
176
     1
 40
1.0
176
     1
 40
1.0
176
     1
  0
VISUALSTYLE
  5
3C
102
{ACAD_REACTORS
330
2A
102
}
330
2A
100
AcDbVisualStyle
  2
OverhangOff
 70
    21
177
     3
291
     1
 70
    58
 90
        2
176
     0
 90
        2
176
     0
 90
        0
176
     0
 90
        0
176
     0
 40
0.6
176
     0
 40
30.0
176
     0
 62
     7
420
 16777215
176
     0
 90
        1
176
     0
 90
        4
176
     0
 62
     7
176
     0
 62
   257
176
     0
 90
        1
176
     0
 90
        1
176
     0
 40
1.0
176
     0
 90
        9
176
     2
 62
     7
176
     0
 40
1.0
176
     0
 90
        1
176
     0
 90
        6
176
     0
 90
        2
176
     0
 62
     7
176
     0
 90
        5
176
     0
 90
        0
176
     0
 90
        0
176
     0
290
     0
176
     0
 90
        1
176
     0
 40
0.0
176
     0
 90
        0
176
     0
290
     0
176
     0
290
     1
176
     0
290
     1
176
     0
290
     0
176
     0
290
     0
176
     0
290
     0
176
     0
290
     0
176
     0
290
     0
176
     0
290
     0
176
     0
 90
       50
176
     0
 40
0.0
176
     0
 40
1.0
176
     0
 90
        0
176
     0
 62
    18
420
        0
176
     0
 90
       50
176
     0
 90
        3
176
     0
 62
     5
420
      255
176
     0
290
     0
176
     0
 90
       50
176
     0
 90
       50
176
     0
 90
       50
176
     0
290
     0
176
     0
 90
       50
176
     0
 62
   256
176
     0
 40
1.0
176
     0
 90
        2
176
     0
  1
strokes_ogs.tif
176
     0
290
     0
176
     0
 40
1.0
176
     0
 40
1.0
176
     0
  0
VISUALSTYLE
  5
33
102
{ACAD_REACTORS
330
2A
102
}
330
2A
100
AcDbVisualStyle
  2
Realistic
 70
     8
177
     3
291
     0
 70
    58
 90
        2
176
     1
 90
        3
176
     1
 90
        0
176
     1
 90
        2
176
     1
 40
0.6
176
     1
 40
30.0
176
     1
 62
     7
420
 16777215
176
     1
 90
        0
176
     1
 90
        0
176
     1
 62
     7
176
     1
 62
   257
176
     1
 90
        1
176
     1
 90
        1
176
     1
 40
1.0
176
     1
 90
        8
176
     1
 62
   257
176
     1
 40
1.0
176
     1
 90
        1
176
     1
 90
        6
176
     1
 90
        2
176
     1
 62
     7
176
     1
 90
        3
176
     1
 90
        0
176
     1
 90
        0
176
     1
290
     0
176
     1
 90
       13
176
     1
 40
0.0
176
     1
 90
        0
176
     1
290
     0
176
     1
290
     1
176
     1
290
     1
176
     1
290
     0
176
     1
290
     0
176
     1
290
     0
176
     1
290
     0
176
     1
290
     0
176
     1
290
     0
176
     1
 90
       50
176
     1
 40
0.0
176
     1
 40
1.0
176
     1
 90
        0
176
     1
 62
    18
420
        0
176
     1
 90
       50
176
     1
 90
        3
176
     1
 62
     5
420
      255
176
     1
290
     0
176
     1
 90
       50
176
     1
 90
       50
176
     1
 90
       50
176
     1
290
     0
176
     1
 90
       50
176
     1
 62
   256
176
     0
 40
1.0
176
     0
 90
        2
176
     1
  1
strokes_ogs.tif
176
     1
290
     0
176
     1
 40
1.0
176
     1
 40
1.0
176
     1
  0
VISUALSTYLE
  5
42
102
{ACAD_REACTORS
330
2A
102
}
330
2A
100
AcDbVisualStyle
  2
Shaded
 70
    27
177
     3
291
     0
 70
    58
 90
        2
176
     1
 90
        2
176
     1
 90
        1
176
     1
 90
        2
176
     1
 40
0.6
176
     1
 40
30.0
176
     1
 62
     7
420
 16777215
176
     1
 90
        0
176
     1
 90
        4
176
     1
 62
     7
176
     1
 62
   257
176
     1
 90
        1
176
     1
 90
        1
176
     1
 40
1.0
176
     1
 90
        8
176
     1
 62
   257
176
     1
 40
1.0
176
     1
 90
        1
176
     1
 90
        6
176
     1
 90
        2
176
     1
 62
     8
420
  7895160
176
     1
 90
        3
176
     1
 90
        0
176
     1
 90
        0
176
     1
290
     0
176
     1
 90
        5
176
     1
 40
0.0
176
     1
 90
        0
176
     1
290
     0
176
     1
290
     1
176
     1
290
     1
176
     1
290
     0
176
     1
290
     0
176
     1
290
     0
176
     1
290
     0
176
     1
290
     0
176
     1
290
     0
176
     1
 90
       50
176
     1
 40
0.0
176
     1
 40
1.0
176
     1
 90
        0
176
     1
 62
    18
420
        0
176
     1
 90
       50
176
     1
 90
        3
176
     1
 62
     5
420
      255
176
     1
290
     0
176
     1
 90
       50
176
     1
 90
       50
176
     1
 90
       50
176
     1
290
     0
176
     1
 90
       50
176
     1
 62
   256
176
     0
 40
1.0
176
     0
 90
        2
176
     1
  1
strokes_ogs.tif
176
     1
290
     0
176
     1
 40
1.0
176
     1
 40
1.0
176
     1
  0
VISUALSTYLE
  5
41
102
{ACAD_REACTORS
330
2A
102
}
330
2A
100
AcDbVisualStyle
  2
Shaded with edges
 70
    26
177
     3
291
     0
 70
    58
 90
        2
176
     1
 90
        2
176
     1
 90
        1
176
     1
 90
        2
176
     1
 40
0.6
176
     1
 40
30.0
176
     1
 62
     7
420
 16777215
176
     1
 90
        1
176
     1
 90
       10
176
     1
 62
     7
176
     1
 62
   257
176
     1
 90
        2
176
     1
 90
        1
176
     1
 40
1.0
176
     1
 90
        8
176
     1
 62
   257
176
     1
 40
1.0
176
     1
 90
        1
176
     1
 90
        6
176
     1
 90
        2
176
     1
 62
     7
176
     1
 90
        3
176
     1
 90
        0
176
     1
 90
        0
176
     1
290
     0
176
     1
 90
        5
176
     1
 40
0.0
176
     1
 90
        0
176
     1
290
     0
176
     1
290
     1
176
     1
290
     1
176
     1
290
     0
176
     1
290
     0
176
     1
290
     0
176
     1
290
     0
176
     1
290
     0
176
     1
290
     0
176
     1
 90
       50
176
     1
 40
0.0
176
     1
 40
1.0
176
     1
 90
        0
176
     1
 62
    18
420
        0
176
     1
 90
       50
176
     1
 90
        3
176
     1
 62
     5
420
      255
176
     1
290
     0
176
     1
 90
       50
176
     1
 90
       50
176
     1
 90
       50
176
     1
290
     0
176
     1
 90
       50
176
     1
 62
   256
176
     0
 40
1.0
176
     0
 90
        2
176
     1
  1
strokes_ogs.tif
176
     1
290
     0
176
     1
 40
1.0
176
     1
 40
1.0
176
     1
  0
VISUALSTYLE
  5
3E
102
{ACAD_REACTORS
330
2A
102
}
330
2A
100
AcDbVisualStyle
  2
Shades of Gray
 70
    23
177
     3
291
     0
 70
    58
 90
        2
176
     1
 90
        2
176
     1
 90
        3
176
     1
 90
        0
176
     1
 40
0.6
176
     1
 40
30.0
176
     1
 62
     7
420
 16777215
176
     1
 90
        2
176
     1
 90
        2
176
     1
 62
     7
176
     1
 62
     7
176
     1
 90
        1
176
     1
 90
        1
176
     1
 40
40.0
176
     1
 90
        8
176
     1
 62
     7
176
     1
 40
1.0
176
     1
 90
        1
176
     1
 90
        6
176
     1
 90
        2
176
     1
 62
     7
176
     1
 90
        3
176
     1
 90
        0
176
     1
 90
        0
176
     1
290
     0
176
     1
 90
        1
176
     1
 40
0.0
176
     1
 90
        0
176
     1
290
     0
176
     1
290
     1
176
     1
290
     1
176
     1
290
     0
176
     1
290
     0
176
     1
290
     0
176
     1
290
     0
176
     1
290
     0
176
     1
290
     0
176
     1
 90
       50
176
     1
 40
0.0
176
     1
 40
1.0
176
     1
 90
        0
176
     1
 62
    18
420
        0
176
     1
 90
       50
176
     1
 90
        3
176
     1
 62
     5
420
      255
176
     1
290
     0
176
     1
 90
       50
176
     1
 90
       50
176
     1
 90
       50
176
     1
290
     0
176
     1
 90
       50
176
     1
 62
   256
176
     0
 40
1.0
176
     0
 90
        2
176
     1
  1
strokes_ogs.tif
176
     1
290
     0
176
     1
 40
1.0
176
     1
 40
1.0
176
     1
  0
VISUALSTYLE
  5
3F
102
{ACAD_REACTORS
330
2A
102
}
330
2A
100
AcDbVisualStyle
  2
Sketchy
 70
    24
177
     3
291
     0
 70
    58
 90
        1
176
     1
 90
        2
176
     1
 90
        2
176
     1
 90
        0
176
     1
 40
0.6
176
     1
 40
30.0
176
     1
 62
     7
420
 16777215
176
     1
 90
        2
176
     1
 90
        2
176
     1
 62
     7
176
     1
 62
     7
176
     1
 90
        1
176
     1
 90
        1
176
     1
 40
40.0
176
     1
 90
       11
176
     1
 62
     7
176
     1
 40
1.0
176
     1
 90
        1
176
     1
 90
        6
176
     1
 90
        2
176
     1
 62
     7
176
     1
 90
        6
176
     1
 90
        0
176
     1
 90
        0
176
     1
290
     0
176
     1
 90
        1
176
     1
 40
0.0
176
     1
 90
        0
176
     1
290
     0
176
     1
290
     1
176
     1
290
     1
176
     1
290
     0
176
     1
290
     0
176
     1
290
     0
176
     1
290
     0
176
     1
290
     0
176
     1
290
     0
176
     1
 90
       50
176
     1
 40
0.0
176
     1
 40
1.0
176
     1
 90
        0
176
     1
 62
    18
420
        0
176
     1
 90
       50
176
     1
 90
        3
176
     1
 62
     5
420
      255
176
     1
290
     0
176
     1
 90
       50
176
     1
 90
       50
176
     1
 90
       50
176
     1
290
     0
176
     1
 90
       50
176
     1
 62
   256
176
     0
 40
1.0
176
     0
 90
        2
176
     1
  1
strokes_ogs.tif
176
     1
290
     0
176
     1
 40
1.0
176
     1
 40
1.0
176
     1
  0
VISUALSTYLE
  5
37
102
{ACAD_REACTORS
330
2A
102
}
330
2A
100
AcDbVisualStyle
  2
Thicken
 70
    13
177
     3
291
     1
 70
    58
 90
        2
176
     1
 90
        2
176
     1
 90
        0
176
     1
 90
        0
176
     1
 40
0.6
176
     1
 40
30.0
176
     1
 62
     7
420
 16777215
176
     1
 90
        1
176
     1
 90
        4
176
     1
 62
     7
176
     1
 62
   257
176
     1
 90
        1
176
     1
 90
        1
176
     1
 40
1.0
176
     1
 90
       12
176
     1
 62
     7
176
     1
 40
1.0
176
     1
 90
        1
176
     1
 90
        6
176
     1
 90
        2
176
     1
 62
     7
176
     1
 90
        5
176
     1
 90
        0
176
     1
 90
        0
176
     1
290
     0
176
     1
 90
        1
176
     1
 40
0.0
176
     1
 90
        0
176
     1
290
     0
176
     1
290
     1
176
     1
290
     1
176
     1
290
     0
176
     1
290
     0
176
     1
290
     0
176
     1
290
     0
176
     1
290
     0
176
     1
290
     0
176
     1
 90
       50
176
     1
 40
0.0
176
     1
 40
1.0
176
     1
 90
        0
176
     1
 62
    18
420
        0
176
     1
 90
       50
176
     1
 90
        3
176
     1
 62
     5
420
      255
176
     1
290
     0
176
     1
 90
       50
176
     1
 90
       50
176
     1
 90
       50
176
     1
290
     0
176
     1
 90
       50
176
     1
 62
   256
176
     0
 40
1.0
176
     0
 90
        2
176
     1
  1
strokes_ogs.tif
176
     1
290
     0
176
     1
 40
1.0
176
     1
 40
1.0
176
     1
  0
VISUALSTYLE
  5
30
102
{ACAD_REACTORS
330
2A
102
}
330
2A
100
AcDbVisualStyle
  2
Wireframe
 70
     5
177
     3
291
     0
 70
    58
 90
        0
176
     1
 90
        2
176
     1
 90
        0
176
     1
 90
        0
176
     1
 40
0.6
176
     1
 40
30.0
176
     1
 62
     7
420
 16777215
176
     1
 90
        1
176
     1
 90
        4
176
     1
 62
     7
176
     1
 62
   257
176
     1
 90
        1
176
     1
 90
        1
176
     1
 40
1.0
176
     1
 90
        0
176
     1
 62
   257
176
     1
 40
1.0
176
     1
 90
        1
176
     1
 90
        6
176
     1
 90
        2
176
     1
 62
     7
176
     1
 90
        3
176
     1
 90
        0
176
     1
 90
        0
176
     1
290
     0
176
     1
 90
        1
176
     1
 40
0.0
176
     1
 90
        0
176
     1
290
     0
176
     1
290
     1
176
     1
290
     1
176
     1
290
     0
176
     1
290
     0
176
     1
290
     0
176
     1
290
     0
176
     1
290
     0
176
     1
290
     0
176
     1
 90
       50
176
     1
 40
0.0
176
     1
 40
1.0
176
     1
 90
        0
176
     1
 62
    18
420
        0
176
     1
 90
       50
176
     1
 90
        3
176
     1
 62
     5
420
      255
176
     1
290
     0
176
     1
 90
       50
176
     1
 90
       50
176
     1
 90
       50
176
     1
290
     0
176
     1
 90
       50
176
     1
 62
   256
176
     0
 40
1.0
176
     0
 90
        2
176
     1
  1
strokes_ogs.tif
176
     1
290
     0
176
     1
 40
1.0
176
     1
 40
1.0
176
     1
  0
VISUALSTYLE
  5
40
102
{ACAD_REACTORS
330
2A
102
}
330
2A
100
AcDbVisualStyle
  2
X-Ray
 70
    25
177
     3
291
     0
 70
    58
 90
        2
176
     1
 90
        2
176
     1
 90
        1
176
     1
 90
        1
176
     1
 40
0.5
176
     1
 40
30.0
176
     1
 62
     7
420
 16777215
176
     1
 90
        1
176
     1
 90
        0
176
     1
 62
     7
176
     1
 62
   257
176
     1
 90
        1
176
     1
 90
        1
176
     1
 40
1.0
176
     1
 90
        8
176
     1
 62
     7
176
     1
 40
1.0
176
     1
 90
        1
176
     1
 90
        6
176
     1
 90
        2
176
     1
 62
     7
176
     1
 90
        3
176
     1
 90
        0
176
     1
 90
        0
176
     1
290
     0
176
     1
 90
       13
176
     1
 40
0.0
176
     1
 90
        0
176
     1
290
     0
176
     1
290
     1
176
     1
290
     1
176
     1
290
     0
176
     1
290
     0
176
     1
290
     0
176
     1
290
     0
176
     1
290
     0
176
     1
290
     0
176
     1
 90
       50
176
     1
 40
0.0
176
     1
 40
1.0
176
     1
 90
        0
176
     1
 62
    18
420
        0
176
     1
 90
       50
176
     1
 90
        3
176
     1
 62
     5
420
      255
176
     1
290
     0
176
     1
 90
       50
176
     1
 90
       50
176
     1
 90
       50
176
     1
290
     0
176
     1
 90
       50
176
     1
 62
   256
176
     0
 40
1.0
176
     0
 90
        2
176
     1
  1
strokes_ogs.tif
176
     1
290
     0
176
     1
 40
1.0
176
     1
 40
1.0
176
     1
  0
DICTIONARYVAR
  5
218
102
{ACAD_REACTORS
330
217
102
}
330
217
100
DictionaryVariables
280
     0
  1
1:1
  0
DICTIONARYVAR
  5
21D
102
{ACAD_REACTORS
330
217
102
}
330
217
100
DictionaryVariables
280
     0
  1
Standard
  0
DICTIONARYVAR
  5
21C
102
{ACAD_REACTORS
330
217
102
}
330
217
100
DictionaryVariables
280
     0
  1
Standard
  0
DICTIONARY
  5
219
330
6A
100
AcDbDictionary
280
     1
281
     1
  3
ACAD_ROUNDTRIP_2008_TABLESTYLE_CELLSTYLEMAP
360
21A
  0
CELLSTYLEMAP
  5
21A
102
{ACAD_REACTORS
330
219
102
}
330
219
100
AcDbCellStyleMap
 90
        3
300
CELLSTYLE
  1
TABLEFORMAT_BEGIN
 90
        5
170
     1
 91
        0
 92
    32768
 62
   257
 93
        1
300
CONTENTFORMAT
  1
CONTENTFORMAT_BEGIN
 90
        0
 91
        0
 92
        4
 93
        0
300

 40
0.0
140
1.0
 94
        5
 62
     0
340
11
144
0.25
309
CONTENTFORMAT_END
171
     1
301
MARGIN
  1
CELLMARGIN_BEGIN
 40
0.06
 40
0.06
 40
0.06
 40
0.06
 40
0.06
 40
0.06
309
CELLMARGIN_END
 94
        6
 95
        1
302
GRIDFORMAT
  1
GRIDFORMAT_BEGIN
 90
        0
 91
        1
 62
     0
 92
       -2
340
14
 93
        0
 40
0.045
309
GRIDFORMAT_END
 95
        2
302
GRIDFORMAT
  1
GRIDFORMAT_BEGIN
 90
        0
 91
        1
 62
     0
 92
       -2
340
14
 93
        0
 40
0.045
309
GRIDFORMAT_END
 95
        4
302
GRIDFORMAT
  1
GRIDFORMAT_BEGIN
 90
        0
 91
        1
 62
     0
 92
       -2
340
14
 93
        0
 40
0.045
309
GRIDFORMAT_END
 95
        8
302
GRIDFORMAT
  1
GRIDFORMAT_BEGIN
 90
        0
 91
        1
 62
     0
 92
       -2
340
14
 93
        0
 40
0.045
309
GRIDFORMAT_END
 95
       16
302
GRIDFORMAT
  1
GRIDFORMAT_BEGIN
 90
        0
 91
        1
 62
     0
 92
       -2
340
14
 93
        0
 40
0.045
309
GRIDFORMAT_END
 95
       32
302
GRIDFORMAT
  1
GRIDFORMAT_BEGIN
 90
        0
 91
        1
 62
     0
 92
       -2
340
14
 93
        0
 40
0.045
309
GRIDFORMAT_END
309
TABLEFORMAT_END
  1
CELLSTYLE_BEGIN
 90
        1
 91
        1
300
_TITLE
309
CELLSTYLE_END
300
CELLSTYLE
  1
TABLEFORMAT_BEGIN
 90
        5
170
     1
 91
        0
 92
        0
 62
   257
 93
        1
300
CONTENTFORMAT
  1
CONTENTFORMAT_BEGIN
 90
        0
 91
        0
 92
        4
 93
        0
300

 40
0.0
140
1.0
 94
        5
 62
     0
340
11
144
0.18
309
CONTENTFORMAT_END
171
     1
301
MARGIN
  1
CELLMARGIN_BEGIN
 40
0.06
 40
0.06
 40
0.06
 40
0.06
 40
0.06
 40
0.06
309
CELLMARGIN_END
 94
        6
 95
        1
302
GRIDFORMAT
  1
GRIDFORMAT_BEGIN
 90
        0
 91
        1
 62
     0
 92
       -2
340
14
 93
        0
 40
0.045
309
GRIDFORMAT_END
 95
        2
302
GRIDFORMAT
  1
GRIDFORMAT_BEGIN
 90
        0
 91
        1
 62
     0
 92
       -2
340
14
 93
        0
 40
0.045
309
GRIDFORMAT_END
 95
        4
302
GRIDFORMAT
  1
GRIDFORMAT_BEGIN
 90
        0
 91
        1
 62
     0
 92
       -2
340
14
 93
        0
 40
0.045
309
GRIDFORMAT_END
 95
        8
302
GRIDFORMAT
  1
GRIDFORMAT_BEGIN
 90
        0
 91
        1
 62
     0
 92
       -2
340
14
 93
        0
 40
0.045
309
GRIDFORMAT_END
 95
       16
302
GRIDFORMAT
  1
GRIDFORMAT_BEGIN
 90
        0
 91
        1
 62
     0
 92
       -2
340
14
 93
        0
 40
0.045
309
GRIDFORMAT_END
 95
       32
302
GRIDFORMAT
  1
GRIDFORMAT_BEGIN
 90
        0
 91
        1
 62
     0
 92
       -2
340
14
 93
        0
 40
0.045
309
GRIDFORMAT_END
309
TABLEFORMAT_END
  1
CELLSTYLE_BEGIN
 90
        2
 91
        1
300
_HEADER
309
CELLSTYLE_END
300
CELLSTYLE
  1
TABLEFORMAT_BEGIN
 90
        5
170
     1
 91
        0
 92
        0
 62
   257
 93
        1
300
CONTENTFORMAT
  1
CONTENTFORMAT_BEGIN
 90
        0
 91
        0
 92
        4
 93
        0
300

 40
0.0
140
1.0
 94
        2
 62
     0
340
11
144
0.18
309
CONTENTFORMAT_END
171
     1
301
MARGIN
  1
CELLMARGIN_BEGIN
 40
0.06
 40
0.06
 40
0.06
 40
0.06
 40
0.06
 40
0.06
309
CELLMARGIN_END
 94
        6
 95
        1
302
GRIDFORMAT
  1
GRIDFORMAT_BEGIN
 90
        0
 91
        1
 62
     0
 92
       -2
340
14
 93
        0
 40
0.045
309
GRIDFORMAT_END
 95
        2
302
GRIDFORMAT
  1
GRIDFORMAT_BEGIN
 90
        0
 91
        1
 62
     0
 92
       -2
340
14
 93
        0
 40
0.045
309
GRIDFORMAT_END
 95
        4
302
GRIDFORMAT
  1
GRIDFORMAT_BEGIN
 90
        0
 91
        1
 62
     0
 92
       -2
340
14
 93
        0
 40
0.045
309
GRIDFORMAT_END
 95
        8
302
GRIDFORMAT
  1
GRIDFORMAT_BEGIN
 90
        0
 91
        1
 62
     0
 92
       -2
340
14
 93
        0
 40
0.045
309
GRIDFORMAT_END
 95
       16
302
GRIDFORMAT
  1
GRIDFORMAT_BEGIN
 90
        0
 91
        1
 62
     0
 92
       -2
340
14
 93
        0
 40
0.045
309
GRIDFORMAT_END
 95
       32
302
GRIDFORMAT
  1
GRIDFORMAT_BEGIN
 90
        0
 91
        1
 62
     0
 92
       -2
340
14
 93
        0
 40
0.045
309
GRIDFORMAT_END
309
TABLEFORMAT_END
  1
CELLSTYLE_BEGIN
 90
        3
 91
        2
300
_DATA
309
CELLSTYLE_END
  0
ENDSEC
  0
EOF