0
SECTION
  2
HEADER
  9
$ACADVER
  1
AC1027
  9
$ACADMAINTVER
 70
     8
  9
$DWGCODEPAGE
  3
ANSI_1252
  9
$REQUIREDVERSIONS
160
                 0
  9
$COMMENTS
  1
File was created by Cadenas
  9
$CUSTOMPROPERTYTAG
  1
NN
  9
$CUSTOMPROPERTY
  1
Steel Imperial-HD Flange 4 Bolt with Type E Dimensions Non-Expansion 207-408
  9
$CUSTOMPROPERTYTAG
  1
NT
  9
$CUSTOMPROPERTY
  1
Steel Imperial/E 4 Bolt Flange Bearing-Inch-207-408
  9
$CUSTOMPROPERTYTAG
  1
NB
  9
$CUSTOMPROPERTY
  1
072238
  9
$CUSTOMPROPERTYTAG
  1
NBSYN
  9
$CUSTOMPROPERTY
  1
$PN.
  9
$CUSTOMPROPERTYTAG
  1
LINA
  9
$CUSTOMPROPERTY
  1
072238
  9
$CUSTOMPROPERTYTAG
  1
SS
  9
$CUSTOMPROPERTY
  1
2-1/2
  9
$CUSTOMPROPERTYTAG
  1
DESCRIPTION
  9
$CUSTOMPROPERTY
  1
SEF4B-IP-208R
  9
$CUSTOMPROPERTYTAG
  1
TYPE
  9
$CUSTOMPROPERTY
  1
Non-Expansion
  9
$CUSTOMPROPERTYTAG
  1
PN
  9
$CUSTOMPROPERTY
  1
072238
  9
$CUSTOMPROPERTYTAG
  1
EF
  9
$CUSTOMPROPERTY
  1
Non-Expansion
  9
$CUSTOMPROPERTYTAG
  1
ST
  9
$CUSTOMPROPERTY
  1
Contact Seal
  9
$CUSTOMPROPERTYTAG
  1
A
  9
$CUSTOMPROPERTY
  1
3,42
  9
$CUSTOMPROPERTYTAG
  1
B
  9
$CUSTOMPROPERTY
  1
6.62
  9
$CUSTOMPROPERTYTAG
  1
C
  9
$CUSTOMPROPERTY
  1
3.57
  9
$CUSTOMPROPERTYTAG
  1
D
  9
$CUSTOMPROPERTY
  1
5.37
  9
$CUSTOMPROPERTYTAG
  1
DD
  9
$CUSTOMPROPERTY
  1
7.60
  9
$CUSTOMPROPERTYTAG
  1
F
  9
$CUSTOMPROPERTY
  1
5/8
  9
$CUSTOMPROPERTYTAG
  1
G
  9
$CUSTOMPROPERTY
  1
0.95
  9
$CUSTOMPROPERTYTAG
  1
H
  9
$CUSTOMPROPERTY
  1
1.00
  9
$CUSTOMPROPERTYTAG
  1
J
  9
$CUSTOMPROPERTY
  1
5.63
  9
$CUSTOMPROPERTYTAG
  1
L
  9
$CUSTOMPROPERTY
  1
3.80
  9
$CUSTOMPROPERTYTAG
  1
N
  9
$CUSTOMPROPERTY
  1
3.23
  9
$CUSTOMPROPERTYTAG
  1
P
  9
$CUSTOMPROPERTY
  1
0.15
  9
$CUSTOMPROPERTYTAG
  1
X
  9
$CUSTOMPROPERTY
  1
0.25
  9
$CUSTOMPROPERTYTAG
  1
Y
  9
$CUSTOMPROPERTY
  1
0.025
  9
$CUSTOMPROPERTYTAG
  1
Z
  9
$CUSTOMPROPERTY
  1
2.95
  9
$CUSTOMPROPERTYTAG
  1
COMPANY
  9
$CUSTOMPROPERTY
  1
baldor
  9
$INSBASE
 10
0.0
 20
0.0
 30
0.0
  9
$EXTMIN
 10
1.000000000000000E+20
 20
1.000000000000000E+20
 30
1.000000000000000E+20
  9
$EXTMAX
 10
-1.000000000000000E+20
 20
-1.000000000000000E+20
 30
-1.000000000000000E+20
  9
$LIMMIN
 10
0.0
 20
0.0
  9
$LIMMAX
 10
12.0
 20
9.0
  9
$ORTHOMODE
 70
     0
  9
$REGENMODE
 70
     1
  9
$FILLMODE
 70
     1
  9
$QTEXTMODE
 70
     0
  9
$MIRRTEXT
 70
     1
  9
$LTSCALE
 40
1.0
  9
$ATTMODE
 70
     1
  9
$TEXTSIZE
 40
0.2
  9
$TRACEWID
 40
0.05
  9
$TEXTSTYLE
  7
Standard
  9
$CLAYER
  8
0
  9
$CELTYPE
  6
ByLayer
  9
$CECOLOR
 62
   256
  9
$CELTSCALE
 40
1.0
  9
$DISPSILH
 70
     0
  9
$DIMSCALE
 40
1.0
  9
$DIMASZ
 40
0.18
  9
$DIMEXO
 40
0.0625
  9
$DIMDLI
 40
0.38
  9
$DIMRND
 40
0.0
  9
$DIMDLE
 40
0.0
  9
$DIMEXE
 40
0.18
  9
$DIMTP
 40
0.0
  9
$DIMTM
 40
0.0
  9
$DIMTXT
 40
0.18
  9
$DIMCEN
 40
0.09
  9
$DIMTSZ
 40
0.0
  9
$DIMTOL
 70
     0
  9
$DIMLIM
 70
     0
  9
$DIMTIH
 70
     1
  9
$DIMTOH
 70
     1
  9
$DIMSE1
 70
     0
  9
$DIMSE2
 70
     0
  9
$DIMTAD
 70
     0
  9
$DIMZIN
 70
     0
  9
$DIMBLK
  1

  9
$DIMASO
 70
     1
  9
$DIMSHO
 70
     1
  9
$DIMPOST
  1

  9
$DIMAPOST
  1

  9
$DIMALT
 70
     0
  9
$DIMALTD
 70
     2
  9
$DIMALTF
 40
25.4
  9
$DIMLFAC
 40
1.0
  9
$DIMTOFL
 70
     0
  9
$DIMTVP
 40
0.0
  9
$DIMTIX
 70
     0
  9
$DIMSOXD
 70
     0
  9
$DIMSAH
 70
     0
  9
$DIMBLK1
  1

  9
$DIMBLK2
  1

  9
$DIMSTYLE
  2
Standard
  9
$DIMCLRD
 70
     0
  9
$DIMCLRE
 70
     0
  9
$DIMCLRT
 70
     0
  9
$DIMTFAC
 40
1.0
  9
$DIMGAP
 40
0.09
  9
$DIMJUST
 70
     0
  9
$DIMSD1
 70
     0
  9
$DIMSD2
 70
     0
  9
$DIMTOLJ
 70
     1
  9
$DIMTZIN
 70
     0
  9
$DIMALTZ
 70
     0
  9
$DIMALTTZ
 70
     0
  9
$DIMUPT
 70
     0
  9
$DIMDEC
 70
     4
  9
$DIMTDEC
 70
     4
  9
$DIMALTU
 70
     2
  9
$DIMALTTD
 70
     2
  9
$DIMTXSTY
  7
Standard
  9
$DIMAUNIT
 70
     0
  9
$DIMADEC
 70
     0
  9
$DIMALTRND
 40
0.0
  9
$DIMAZIN
 70
     0
  9
$DIMDSEP
 70
    46
  9
$DIMATFIT
 70
     3
  9
$DIMFRAC
 70
     0
  9
$DIMLDRBLK
  1

  9
$DIMLUNIT
 70
     2
  9
$DIMLWD
 70
    -2
  9
$DIMLWE
 70
    -2
  9
$DIMTMOVE
 70
     0
  9
$DIMFXL
 40
1.0
  9
$DIMFXLON
 70
     0
  9
$DIMJOGANG
 40
0.7853981633974483
  9
$DIMTFILL
 70
     0
  9
$DIMTFILLCLR
 70
     0
  9
$DIMARCSYM
 70
     0
  9
$DIMLTYPE
  6

  9
$DIMLTEX1
  6

  9
$DIMLTEX2
  6

  9
$DIMTXTDIRECTION
 70
     0
  9
$LUNITS
 70
     2
  9
$LUPREC
 70
     4
  9
$SKETCHINC
 40
0.1
  9
$FILLETRAD
 40
0.5
  9
$AUNITS
 70
     0
  9
$AUPREC
 70
     0
  9
$MENU
  1
.
  9
$ELEVATION
 40
0.0
  9
$PELEVATION
 40
0.0
  9
$THICKNESS
 40
0.0
  9
$LIMCHECK
 70
     0
  9
$CHAMFERA
 40
0.0
  9
$CHAMFERB
 40
0.0
  9
$CHAMFERC
 40
0.0
  9
$CHAMFERD
 40
0.0
  9
$SKPOLY
 70
     0
  9
$TDCREATE
 40
2458168.898273356
  9
$TDUCREATE
 40
2458168.85660669
  9
$TDUPDATE
 40
2458168.898273542
  9
$TDUUPDATE
 40
2458168.856606875
  9
$TDINDWG
 40
0.0000000116
  9
$TDUSRTIMER
 40
0.0000000116
  9
$USRTIMER
 70
     1
  9
$ANGBASE
 50
0.0
  9
$ANGDIR
 70
     0
  9
$PDMODE
 70
     0
  9
$PDSIZE
 40
0.0
  9
$PLINEWID
 40
0.0
  9
$SPLFRAME
 70
     0
  9
$SPLINETYPE
 70
     6
  9
$SPLINESEGS
 70
     8
  9
$HANDSEED
  5
296
  9
$SURFTAB1
 70
     6
  9
$SURFTAB2
 70
     6
  9
$SURFTYPE
 70
     6
  9
$SURFU
 70
     6
  9
$SURFV
 70
     6
  9
$UCSBASE
  2

  9
$UCSNAME
  2

  9
$UCSORG
 10
0.0
 20
0.0
 30
0.0
  9
$UCSXDIR
 10
1.0
 20
0.0
 30
0.0
  9
$UCSYDIR
 10
0.0
 20
1.0
 30
0.0
  9
$UCSORTHOREF
  2

  9
$UCSORTHOVIEW
 70
     0
  9
$UCSORGTOP
 10
0.0
 20
0.0
 30
0.0
  9
$UCSORGBOTTOM
 10
0.0
 20
0.0
 30
0.0
  9
$UCSORGLEFT
 10
0.0
 20
0.0
 30
0.0
  9
$UCSORGRIGHT
 10
0.0
 20
0.0
 30
0.0
  9
$UCSORGFRONT
 10
0.0
 20
0.0
 30
0.0
  9
$UCSORGBACK
 10
0.0
 20
0.0
 30
0.0
  9
$PUCSBASE
  2

  9
$PUCSNAME
  2

  9
$PUCSORG
 10
0.0
 20
0.0
 30
0.0
  9
$PUCSXDIR
 10
1.0
 20
0.0
 30
0.0
  9
$PUCSYDIR
 10
0.0
 20
1.0
 30
0.0
  9
$PUCSORTHOREF
  2

  9
$PUCSORTHOVIEW
 70
     0
  9
$PUCSORGTOP
 10
0.0
 20
0.0
 30
0.0
  9
$PUCSORGBOTTOM
 10
0.0
 20
0.0
 30
0.0
  9
$PUCSORGLEFT
 10
0.0
 20
0.0
 30
0.0
  9
$PUCSORGRIGHT
 10
0.0
 20
0.0
 30
0.0
  9
$PUCSORGFRONT
 10
0.0
 20
0.0
 30
0.0
  9
$PUCSORGBACK
 10
0.0
 20
0.0
 30
0.0
  9
$USERI1
 70
     0
  9
$USERI2
 70
     0
  9
$USERI3
 70
     0
  9
$USERI4
 70
     0
  9
$USERI5
 70
     0
  9
$USERR1
 40
0.0
  9
$USERR2
 40
0.0
  9
$USERR3
 40
0.0
  9
$USERR4
 40
0.0
  9
$USERR5
 40
0.0
  9
$WORLDVIEW
 70
     1
  9
$SHADEDGE
 70
     3
  9
$SHADEDIF
 70
    70
  9
$TILEMODE
 70
     1
  9
$MAXACTVP
 70
    64
  9
$PINSBASE
 10
0.0
 20
0.0
 30
0.0
  9
$PLIMCHECK
 70
     0
  9
$PEXTMIN
 10
1.000000000000000E+20
 20
1.000000000000000E+20
 30
1.000000000000000E+20
  9
$PEXTMAX
 10
-1.000000000000000E+20
 20
-1.000000000000000E+20
 30
-1.000000000000000E+20
  9
$PLIMMIN
 10
0.0
 20
0.0
  9
$PLIMMAX
 10
12.0
 20
9.0
  9
$UNITMODE
 70
     0
  9
$VISRETAIN
 70
     1
  9
$PLINEGEN
 70
     0
  9
$PSLTSCALE
 70
     1
  9
$TREEDEPTH
 70
  3020
  9
$CMLSTYLE
  2
Standard
  9
$CMLJUST
 70
     0
  9
$CMLSCALE
 40
1.0
  9
$PROXYGRAPHICS
 70
     1
  9
$MEASUREMENT
 70
     0
  9
$CELWEIGHT
370
    -1
  9
$ENDCAPS
280
     0
  9
$JOINSTYLE
280
     0
  9
$LWDISPLAY
290
     0
  9
$INSUNITS
 70
     1
  9
$HYPERLINKBASE
  1

  9
$STYLESHEET
  1

  9
$XEDIT
290
     1
  9
$CEPSNTYPE
380
     0
  9
$PSTYLEMODE
290
     1
  9
$FINGERPRINTGUID
  2
{08AEBAA7-7874-4375-B5B5-02CE6FEAEC38}
  9
$VERSIONGUID
  2
{FAEB1C32-E019-11D5-929B-00C0DF256EC4}
  9
$EXTNAMES
290
     1
  9
$PSVPSCALE
 40
0.0
  9
$OLESTARTUP
290
     0
  9
$SORTENTS
280
   127
  9
$INDEXCTL
280
     0
  9
$HIDETEXT
280
     1
  9
$XCLIPFRAME
280
     2
  9
$HALOGAP
280
     0
  9
$OBSCOLOR
 70
   257
  9
$OBSLTYPE
280
     0
  9
$INTERSECTIONDISPLAY
280
     0
  9
$INTERSECTIONCOLOR
 70
   257
  9
$DIMASSOC
280
     2
  9
$PROJECTNAME
  1

  9
$CAMERADISPLAY
290
     0
  9
$LENSLENGTH
 40
50.0
  9
$CAMERAHEIGHT
 40
0.0
  9
$STEPSPERSEC
 40
2.0
  9
$STEPSIZE
 40
6.0
  9
$3DDWFPREC
 40
2.0
  9
$PSOLWIDTH
 40
0.25
  9
$PSOLHEIGHT
 40
4.0
  9
$LOFTANG1
 40
1.570796326794897
  9
$LOFTANG2
 40
1.570796326794897
  9
$LOFTMAG1
 40
0.0
  9
$LOFTMAG2
 40
0.0
  9
$LOFTPARAM
 70
     7
  9
$LOFTNORMALS
280
     1
  9
$LATITUDE
 40
37.795
  9
$LONGITUDE
 40
-122.394
  9
$NORTHDIRECTION
 40
0.0
  9
$TIMEZONE
 70
 -8000
  9
$LIGHTGLYPHDISPLAY
280
     1
  9
$TILEMODELIGHTSYNCH
280
     1
  9
$CMATERIAL
347
44
  9
$SOLIDHIST
280
     0
  9
$SHOWHIST
280
     1
  9
$DWFFRAME
280
     2
  9
$DGNFRAME
280
     2
  9
$REALWORLDSCALE
290
     1
  9
$INTERFERECOLOR
 62
   256
  9
$CSHADOW
280
     0
  9
$SHADOWPLANELOCATION
 40
0.0
  0
ENDSEC
  0
SECTION
  2
CLASSES
  0
CLASS
  1
ACDBDICTIONARYWDFLT
  2
AcDbDictionaryWithDefault
  3
ObjectDBX Classes
 90
        0
 91
        4
280
     0
281
     0
  0
CLASS
  1
VISUALSTYLE
  2
AcDbVisualStyle
  3
ObjectDBX Classes
 90
     4095
 91
        4
280
     0
281
     0
  0
CLASS
  1
MATERIAL
  2
AcDbMaterial
  3
ObjectDBX Classes
 90
     1153
 91
        4
280
     0
281
     0
  0
CLASS
  1
SCALE
  2
AcDbScale
  3
ObjectDBX Classes
 90
     1153
 91
        4
280
     0
281
     0
  0
CLASS
  1
TABLESTYLE
  2
AcDbTableStyle
  3
ObjectDBX Classes
 90
     4095
 91
        4
280
     0
281
     0
  0
CLASS
  1
MLEADERSTYLE
  2
AcDbMLeaderStyle
  3
ACDB_MLEADERSTYLE_CLASS
 90
     4095
 91
        4
280
     0
281
     0
  0
CLASS
  1
SUN
  2
AcDbSun
  3
SCENEOE
 90
     1153
 91
        4
280
     0
281
     0
  0
CLASS
  1
DICTIONARYVAR
  2
AcDbDictionaryVar
  3
ObjectDBX Classes
 90
        0
 91
        4
280
     0
281
     0
  0
CLASS
  1
CELLSTYLEMAP
  2
AcDbCellStyleMap
  3
ObjectDBX Classes
 90
     1152
 91
        4
280
     0
281
     0
  0
ENDSEC
  0
SECTION
  2
TABLES
  0
TABLE
  2
VPORT
  5
8
330
0
100
AcDbSymbolTable
 70
     1
  0
VPORT
  5
29
330
8
100
AcDbSymbolTableRecord
100
AcDbViewportTableRecord
  2
*Active
 70
     0
 10
0.0
 20
0.0
 11
1.0
 21
1.0
 12
-1.810073333318996
 22
0.0
 13
0.0
 23
0.0
 14
0.5
 24
0.5
 15
0.5
 25
0.5
 16
0.0
 26
0.0
 36
1.0
 17
0.0
 27
0.0
 37
0.0
 40
6.752400000000002
 41
0.5918197381715014
 42
50.0
 43
0.0
 44
0.0
 50
0.0
 51
0.0
 71
     0
 72
   100
 73
     1
 74
     3
 75
     0
 76
     0
 77
     0
 78
     0
281
     0
 65
     1
110
0.0
120
0.0
130
0.0
111
1.0
121
0.0
131
0.0
112
0.0
122
1.0
132
0.0
 79
     0
146
0.0
348
2F
 60
     3
 61
     5
292
     1
282
     1
141
0.0
142
0.0
 63
   250
361
6D
  0
ENDTAB
  0
TABLE
  2
LTYPE
  5
5
330
0
100
AcDbSymbolTable
 70
     3
  0
LTYPE
  5
14
330
5
100
AcDbSymbolTableRecord
100
AcDbLinetypeTableRecord
  2
ByBlock
 70
     0
  3

 72
    65
 73
     0
 40
0.0
  0
LTYPE
  5
15
330
5
100
AcDbSymbolTableRecord
100
AcDbLinetypeTableRecord
  2
ByLayer
 70
     0
  3

 72
    65
 73
     0
 40
0.0
  0
LTYPE
  5
16
330
5
100
AcDbSymbolTableRecord
100
AcDbLinetypeTableRecord
  2
Continuous
 70
     0
  3
Solid line
 72
    65
 73
     0
 40
0.0
  0
LTYPE
  5
9A
330
5
100
AcDbSymbolTableRecord
100
AcDbLinetypeTableRecord
  2
Dashed
 70
     0
  3

 72
    65
 73
     2
 40
2.0
 49
1.0
 74
     0
 49
-1.0
 74
     0
  0
LTYPE
  5
A8
330
5
100
AcDbSymbolTableRecord
100
AcDbLinetypeTableRecord
  2
Center
 70
     0
  3

 72
    65
 73
     4
 40
1.5
 49
0.45
 74
     0
 49
-0.5
 74
     0
 49
0.05
 74
     0
 49
-0.5
 74
     0
  0
ENDTAB
  0
TABLE
  2
LAYER
  5
2
330
0
100
AcDbSymbolTable
 70
     7
  0
LAYER
  5
10
330
2
100
AcDbSymbolTableRecord
100
AcDbLayerTableRecord
  2
0
 70
     0
 62
     7
  6
Continuous
370
    -3
390
F
347
46
348
0
  0
LAYER
  5
72
330
2
100
AcDbSymbolTableRecord
100
AcDbLayerTableRecord
  2
AM_6
 70
     0
 62
    -2
  6
Continuous
370
    35
390
F
347
46
348
0
  0
LAYER
  5
9B
330
2
100
AcDbSymbolTableRecord
100
AcDbLayerTableRecord
  2
AM_9
 70
     0
 62
     6
  6
Dashed
370
    25
390
F
347
46
348
0
  0
LAYER
  5
A2
330
2
100
AcDbSymbolTableRecord
100
AcDbLayerTableRecord
  2
AM_5
 70
     0
 62
     3
  6
Continuous
370
    25
390
F
347
46
348
0
  0
LAYER
  5
A9
330
2
100
AcDbSymbolTableRecord
100
AcDbLayerTableRecord
  2
AM_7
 70
     0
 62
     7
  6
Center
370
    25
390
F
347
46
348
0
  0
LAYER
  5
AB
330
2
100
AcDbSymbolTableRecord
100
AcDbLayerTableRecord
  2
AM_4
 70
     0
 62
     7
  6
Continuous
370
    50
390
F
347
46
348
0
  0
LAYER
  5
27F
330
2
100
AcDbSymbolTableRecord
100
AcDbLayerTableRecord
  2
ConnectionPoints
 70
     0
 62
     7
  6
Continuous
370
    50
390
F
347
46
348
0
  0
ENDTAB
  0
TABLE
  2
STYLE
  5
3
330
0
100
AcDbSymbolTable
 70
     1
  0
STYLE
  5
11
330
3
100
AcDbSymbolTableRecord
100
AcDbTextStyleTableRecord
  2
Standard
 70
     0
 40
0.0
 41
1.0
 50
0.0
 71
     0
 42
0.2
  3
txt
  4

  0
ENDTAB
  0
TABLE
  2
VIEW
  5
6
330
0
100
AcDbSymbolTable
 70
     0
  0
ENDTAB
  0
TABLE
  2
UCS
  5
7
330
0
100
AcDbSymbolTable
 70
     0
  0
ENDTAB
  0
TABLE
  2
APPID
  5
9
330
0
100
AcDbSymbolTable
 70
     1
  0
APPID
  5
12
330
9
100
AcDbSymbolTableRecord
100
AcDbRegAppTableRecord
  2
ACAD
 70
     0
  0
ENDTAB
  0
TABLE
  2
DIMSTYLE
  5
A
330
0
100
AcDbSymbolTable
 70
     1
100
AcDbDimStyleTable
  0
DIMSTYLE
105
27
330
A
100
AcDbSymbolTableRecord
100
AcDbDimStyleTableRecord
  2
Standard
 70
     0
178
     0
340
11
  0
ENDTAB
  0
TABLE
  2
BLOCK_RECORD
  5
1
330
0
100
AcDbSymbolTable
 70
     9
  0
BLOCK_RECORD
  5
1F
330
1
100
AcDbSymbolTableRecord
100
AcDbBlockTableRecord
  2
*Model_Space
340
22
 70
     0
280
     1
281
     0
  0
BLOCK_RECORD
  5
1B
330
1
100
AcDbSymbolTableRecord
100
AcDbBlockTableRecord
  2
*Paper_Space
340
1E
 70
     0
280
     1
281
     0
  0
BLOCK_RECORD
  5
23
330
1
100
AcDbSymbolTableRecord
100
AcDbBlockTableRecord
  2
*Paper_Space0
340
26
 70
     0
280
     1
281
     0
  0
BLOCK_RECORD
  5
6E
330
1
100
AcDbSymbolTableRecord
100
AcDbBlockTableRecord
  2
1_072238_2
340
0
102
{BLKREFS
331
6F
102
}
 70
     0
280
     1
281
     0
  0
BLOCK_RECORD
  5
8E
330
1
100
AcDbSymbolTableRecord
100
AcDbBlockTableRecord
  2
2_405015E_Inch_1_0_in_072238_2
340
0
102
{BLKREFS
331
8F
102
}
 70
     0
280
     1
281
     0
  0
BLOCK_RECORD
  5
D3
330
1
100
AcDbSymbolTableRecord
100
AcDbBlockTableRecord
  2
3_ASME_B18_3_10_1_0_in_072238_2
340
0
102
{BLKREFS
331
D4
102
}
 70
     0
280
     1
281
     0
  0
BLOCK_RECORD
  5
FC
330
1
100
AcDbSymbolTableRecord
100
AcDbBlockTableRecord
  2
4_ASME_B18_3_10_2_0_in_072238_2
340
0
102
{BLKREFS
331
FD
102
}
 70
     0
280
     1
281
     0
  0
BLOCK_RECORD
  5
125
330
1
100
AcDbSymbolTableRecord
100
AcDbBlockTableRecord
  2
5_070896LWE_0_in_072238_2
340
0
102
{BLKREFS
331
126
102
}
 70
     0
280
     1
281
     0
  0
BLOCK_RECORD
  5
15E
330
1
100
AcDbSymbolTableRecord
100
AcDbBlockTableRecord
  2
6_070896E_0_in_072238_2
340
0
102
{BLKREFS
331
15F
102
}
 70
     0
280
     1
281
     0
  0
BLOCK_RECORD
  5
1E7
330
1
100
AcDbSymbolTableRecord
100
AcDbBlockTableRecord
  2
7_405015E_Inch_2_0_in_072238_2
340
0
102
{BLKREFS
331
1E8
102
}
 70
     0
280
     1
281
     0
  0
BLOCK_RECORD
  5
226
330
1
100
AcDbSymbolTableRecord
100
AcDbBlockTableRecord
  2
8_072238DUMMY_0_in_072238_2
340
0
102
{BLKREFS
331
227
102
}
 70
     0
280
     1
281
     0
  0
ENDTAB
  0
ENDSEC
  0
SECTION
  2
BLOCKS
  0
BLOCK
  5
20
330
1F
100
AcDbEntity
  8
0
100
AcDbBlockBegin
  2
*Model_Space
 70
     0
 10
0.0
 20
0.0
 30
0.0
  3
*Model_Space
  1

  0
ENDBLK
  5
21
330
1F
100
AcDbEntity
  8
0
100
AcDbBlockEnd
  0
BLOCK
  5
1C
330
1B
100
AcDbEntity
 67
     1
  8
0
100
AcDbBlockBegin
  2
*Paper_Space
 70
     0
 10
0.0
 20
0.0
 30
0.0
  3
*Paper_Space
  1

  0
ENDBLK
  5
1D
330
1B
100
AcDbEntity
 67
     1
  8
0
100
AcDbBlockEnd
  0
BLOCK
  5
24
330
23
100
AcDbEntity
  8
0
100
AcDbBlockBegin
  2
*Paper_Space0
 70
     0
 10
0.0
 20
0.0
 30
0.0
  3
*Paper_Space0
  1

  0
ENDBLK
  5
25
330
23
100
AcDbEntity
  8
0
100
AcDbBlockEnd
  0
BLOCK
  5
70
330
6E
100
AcDbEntity
  8
0
100
AcDbBlockBegin
  2
1_072238_2
 70
     2
 10
0.0
 20
0.0
 30
0.0
  3
1_072238_2
  1

  0
ATTDEF
  5
73
330
6E
100
AcDbEntity
  8
AM_6
100
AcDbText
 10
5.148850000028673
 20
3.31
 30
0.0
 40
0.5
  1
Steel Imperial-HD Flange 4 Bolt with Type E Dimensions Non-Expansion 207-408
100
AcDbAttributeDefinition
  3

  2
NN
 70
     8
280
     0
  0
ATTDEF
  5
74
330
6E
100
AcDbEntity
  8
AM_6
100
AcDbText
 10
5.148850000028673
 20
2.81
 30
0.0
 40
0.5
  1
Steel Imperial/E 4 Bolt Flange Bearing-Inch-207-408
100
AcDbAttributeDefinition
  3

  2
NT
 70
     8
280
     0
  0
ATTDEF
  5
75
330
6E
100
AcDbEntity
  8
AM_6
100
AcDbText
 10
5.148850000028673
 20
2.31
 30
0.0
 40
0.5
  1
072238
100
AcDbAttributeDefinition
  3

  2
NB
 70
     8
280
     0
  0
ATTDEF
  5
76
330
6E
100
AcDbEntity
  8
AM_6
100
AcDbText
 10
5.148850000028673
 20
1.81
 30
0.0
 40
0.5
  1
$PN.
100
AcDbAttributeDefinition
  3

  2
NBSYN
 70
     8
280
     0
  0
ATTDEF
  5
77
330
6E
100
AcDbEntity
  8
AM_6
100
AcDbText
 10
5.148850000028673
 20
1.31
 30
0.0
 40
0.5
  1
072238
100
AcDbAttributeDefinition
  3

  2
LINA
 70
     8
280
     0
  0
ATTDEF
  5
78
330
6E
100
AcDbEntity
  8
AM_6
100
AcDbText
 10
5.148850000028673
 20
0.81
 30
0.0
 40
0.5
  1
2-1/2
100
AcDbAttributeDefinition
  3

  2
SS
 70
     8
280
     0
  0
ATTDEF
  5
79
330
6E
100
AcDbEntity
  8
AM_6
100
AcDbText
 10
5.148850000028673
 20
0.3100000000000001
 30
0.0
 40
0.5
  1
SEF4B-IP-208R
100
AcDbAttributeDefinition
  3

  2
DESCRIPTION
 70
     8
280
     0
  0
ATTDEF
  5
7A
330
6E
100
AcDbEntity
  8
AM_6
100
AcDbText
 10
5.148850000028673
 20
-0.1899999999999999
 30
0.0
 40
0.5
  1
Non-Expansion
100
AcDbAttributeDefinition
  3

  2
TYPE
 70
     8
280
     0
  0
ATTDEF
  5
7B
330
6E
100
AcDbEntity
  8
AM_6
100
AcDbText
 10
5.148850000028673
 20
-0.69
 30
0.0
 40
0.5
  1
072238
100
AcDbAttributeDefinition
  3

  2
PN
 70
     8
280
     0
  0
ATTDEF
  5
7C
330
6E
100
AcDbEntity
  8
AM_6
100
AcDbText
 10
5.148850000028673
 20
-1.19
 30
0.0
 40
0.5
  1
Non-Expansion
100
AcDbAttributeDefinition
  3

  2
EF
 70
     8
280
     0
  0
ATTDEF
  5
7D
330
6E
100
AcDbEntity
  8
AM_6
100
AcDbText
 10
5.148850000028673
 20
-1.69
 30
0.0
 40
0.5
  1
Contact Seal
100
AcDbAttributeDefinition
  3

  2
ST
 70
     8
280
     0
  0
ATTDEF
  5
7E
330
6E
100
AcDbEntity
  8
AM_6
100
AcDbText
 10
5.148850000028673
 20
-2.19
 30
0.0
 40
0.5
  1
3,42
100
AcDbAttributeDefinition
  3

  2
A
 70
     8
280
     0
  0
ATTDEF
  5
7F
330
6E
100
AcDbEntity
  8
AM_6
100
AcDbText
 10
5.148850000028673
 20
-2.69
 30
0.0
 40
0.5
  1
6.62
100
AcDbAttributeDefinition
  3

  2
B
 70
     8
280
     0
  0
ATTDEF
  5
80
330
6E
100
AcDbEntity
  8
AM_6
100
AcDbText
 10
5.148850000028673
 20
-3.19
 30
0.0
 40
0.5
  1
3.57
100
AcDbAttributeDefinition
  3

  2
C
 70
     8
280
     0
  0
ATTDEF
  5
81
330
6E
100
AcDbEntity
  8
AM_6
100
AcDbText
 10
5.148850000028673
 20
-3.69
 30
0.0
 40
0.5
  1
5.37
100
AcDbAttributeDefinition
  3

  2
D
 70
     8
280
     0
  0
ATTDEF
  5
82
330
6E
100
AcDbEntity
  8
AM_6
100
AcDbText
 10
5.148850000028673
 20
-4.19
 30
0.0
 40
0.5
  1
7.60
100
AcDbAttributeDefinition
  3

  2
DD
 70
     8
280
     0
  0
ATTDEF
  5
83
330
6E
100
AcDbEntity
  8
AM_6
100
AcDbText
 10
5.148850000028673
 20
-4.69
 30
0.0
 40
0.5
  1
5/8
100
AcDbAttributeDefinition
  3

  2
F
 70
     8
280
     0
  0
ATTDEF
  5
84
330
6E
100
AcDbEntity
  8
AM_6
100
AcDbText
 10
5.148850000028673
 20
-5.19
 30
0.0
 40
0.5
  1
0.95
100
AcDbAttributeDefinition
  3

  2
G
 70
     8
280
     0
  0
ATTDEF
  5
85
330
6E
100
AcDbEntity
  8
AM_6
100
AcDbText
 10
5.148850000028673
 20
-5.69
 30
0.0
 40
0.5
  1
1.00
100
AcDbAttributeDefinition
  3

  2
H
 70
     8
280
     0
  0
ATTDEF
  5
86
330
6E
100
AcDbEntity
  8
AM_6
100
AcDbText
 10
5.148850000028673
 20
-6.19
 30
0.0
 40
0.5
  1
5.63
100
AcDbAttributeDefinition
  3

  2
J
 70
     8
280
     0
  0
ATTDEF
  5
87
330
6E
100
AcDbEntity
  8
AM_6
100
AcDbText
 10
5.148850000028673
 20
-6.69
 30
0.0
 40
0.5
  1
3.80
100
AcDbAttributeDefinition
  3

  2
L
 70
     8
280
     0
  0
ATTDEF
  5
88
330
6E
100
AcDbEntity
  8
AM_6
100
AcDbText
 10
5.148850000028673
 20
-7.19
 30
0.0
 40
0.5
  1
3.23
100
AcDbAttributeDefinition
  3

  2
N
 70
     8
280
     0
  0
ATTDEF
  5
89
330
6E
100
AcDbEntity
  8
AM_6
100
AcDbText
 10
5.148850000028673
 20
-7.69
 30
0.0
 40
0.5
  1
0.15
100
AcDbAttributeDefinition
  3

  2
P
 70
     8
280
     0
  0
ATTDEF
  5
8A
330
6E
100
AcDbEntity
  8
AM_6
100
AcDbText
 10
5.148850000028673
 20
-8.19
 30
0.0
 40
0.5
  1
0.25
100
AcDbAttributeDefinition
  3

  2
X
 70
     8
280
     0
  0
ATTDEF
  5
8B
330
6E
100
AcDbEntity
  8
AM_6
100
AcDbText
 10
5.148850000028673
 20
-8.69
 30
0.0
 40
0.5
  1
0.025
100
AcDbAttributeDefinition
  3

  2
Y
 70
     8
280
     0
  0
ATTDEF
  5
8C
330
6E
100
AcDbEntity
  8
AM_6
100
AcDbText
 10
5.148850000028673
 20
-9.19
 30
0.0
 40
0.5
  1
2.95
100
AcDbAttributeDefinition
  3

  2
Z
 70
     8
280
     0
  0
ATTDEF
  5
8D
330
6E
100
AcDbEntity
  8
AM_6
100
AcDbText
 10
5.148850000028673
 20
-9.69
 30
0.0
 40
0.5
  1
baldor
100
AcDbAttributeDefinition
  3

  2
COMPANY
 70
     8
280
     0
  0
INSERT
  5
8F
330
6E
100
AcDbEntity
  8
0
100
AcDbBlockReference
  2
2_405015E_Inch_1_0_in_072238_2
 10
0.0
 20
0.0
 30
0.0
  0
INSERT
  5
D4
330
6E
100
AcDbEntity
  8
0
100
AcDbBlockReference
  2
3_ASME_B18_3_10_1_0_in_072238_2
 10
0.0
 20
0.0
 30
0.0
  0
INSERT
  5
FD
330
6E
100
AcDbEntity
  8
0
100
AcDbBlockReference
  2
4_ASME_B18_3_10_2_0_in_072238_2
 10
0.0
 20
0.0
 30
0.0
  0
INSERT
  5
126
330
6E
100
AcDbEntity
  8
0
100
AcDbBlockReference
  2
5_070896LWE_0_in_072238_2
 10
0.0
 20
0.0
 30
0.0
  0
INSERT
  5
15F
330
6E
100
AcDbEntity
  8
0
100
AcDbBlockReference
  2
6_070896E_0_in_072238_2
 10
0.0
 20
0.0
 30
0.0
  0
INSERT
  5
1E8
330
6E
100
AcDbEntity
  8
0
100
AcDbBlockReference
  2
7_405015E_Inch_2_0_in_072238_2
 10
0.0
 20
0.0
 30
0.0
  0
INSERT
  5
227
330
6E
100
AcDbEntity
  8
0
100
AcDbBlockReference
  2
8_072238DUMMY_0_in_072238_2
 10
0.0
 20
0.0
 30
0.0
  0
ENDBLK
  5
71
330
6E
100
AcDbEntity
  8
0
100
AcDbBlockEnd
  0
BLOCK
  5
90
330
8E
100
AcDbEntity
  8
0
100
AcDbBlockBegin
  2
2_405015E_Inch_1_0_in_072238_2
 70
     2
 10
0.0
 20
0.0
 30
0.0
  3
2_405015E_Inch_1_0_in_072238_2
  1

  0
ATTDEF
  5
92
330
8E
100
AcDbEntity
  8
AM_6
100
AcDbText
 10
3.442590742770461
 20
-2.558
 30
0.0
 40
0.5
  1
405015E -Inch
100
AcDbAttributeDefinition
  3

  2
NN
 70
     8
280
     0
  0
ATTDEF
  5
93
330
8E
100
AcDbEntity
  8
AM_6
100
AcDbText
 10
3.442590742770461
 20
-3.058
 30
0.0
 40
0.5
  1
Grease Fitting
100
AcDbAttributeDefinition
  3

  2
NT
 70
     8
280
     0
  0
ATTDEF
  5
94
330
8E
100
AcDbEntity
  8
AM_6
100
AcDbText
 10
3.442590742770461
 20
-3.558
 30
0.0
 40
0.5
  1
405015E-Inch
100
AcDbAttributeDefinition
  3

  2
NB
 70
     8
280
     0
  0
ATTDEF
  5
95
330
8E
100
AcDbEntity
  8
AM_6
100
AcDbText
 10
3.442590742770461
 20
-4.058
 30
0.0
 40
0.5
  1
$MN.-Inch
100
AcDbAttributeDefinition
  3

  2
NBSYN
 70
     8
280
     0
  0
ATTDEF
  5
96
330
8E
100
AcDbEntity
  8
AM_6
100
AcDbText
 10
3.442590742770461
 20
-4.558
 30
0.0
 40
0.5
  1
405015E
100
AcDbAttributeDefinition
  3

  2
LINA
 70
     8
280
     0
  0
ATTDEF
  5
97
330
8E
100
AcDbEntity
  8
AM_6
100
AcDbText
 10
3.442590742770461
 20
-5.058
 30
0.0
 40
0.5
  1
405015E
100
AcDbAttributeDefinition
  3

  2
MN
 70
     8
280
     0
  0
ATTDEF
  5
98
330
8E
100
AcDbEntity
  8
AM_6
100
AcDbText
 10
3.442590742770461
 20
-5.558
 30
0.0
 40
0.5
  1
1/8 x 27PTF
100
AcDbAttributeDefinition
  3

  2
T
 70
     8
280
     0
  0
ATTDEF
  5
99
330
8E
100
AcDbEntity
  8
AM_6
100
AcDbText
 10
3.442590742770461
 20
-6.058
 30
0.0
 40
0.5
  1
baldor
100
AcDbAttributeDefinition
  3

  2
COMPANY
 70
     8
280
     0
  0
LINE
  5
9C
330
8E
100
AcDbEntity
  8
AM_9
100
AcDbLine
 10
-1.648097127527731
 20
-2.59
 30
0.0
 11
-1.971902872472269
 21
-2.59
 31
0.0
  0
LINE
  5
9D
330
8E
100
AcDbEntity
  8
AM_9
100
AcDbLine
 10
-1.971902872472269
 20
-2.59
 30
0.0
 11
-2.008617626781215
 21
-2.626714754308947
 31
0.0
  0
LINE
  5
9E
330
8E
100
AcDbEntity
  8
AM_9
100
AcDbLine
 10
-1.611382373218785
 20
-2.626714754308947
 30
0.0
 11
-1.648097127527731
 21
-2.59
 31
0.0
  0
LINE
  5
9F
330
8E
100
AcDbEntity
  8
AM_9
100
AcDbLine
 10
-1.611382373218785
 20
-2.626714754308947
 30
0.0
 11
-2.008617626781215
 21
-2.626714754308947
 31
0.0
  0
LINE
  5
A0
330
8E
100
AcDbEntity
  8
AM_9
100
AcDbLine
 10
-2.008617626781215
 20
-2.626714754308947
 30
0.0
 11
-2.01575189722307
 21
-2.855
 31
0.0
  0
LINE
  5
A1
330
8E
100
AcDbEntity
  8
AM_9
100
AcDbLine
 10
-1.60424810277693
 20
-2.855
 30
0.0
 11
-1.611382373218785
 21
-2.626714754308947
 31
0.0
  0
LINE
  5
A3
330
8E
100
AcDbEntity
  8
AM_5
100
AcDbLine
 10
-1.978149124852348
 20
-2.789870087748463
 30
0.0
 11
-1.971902872472269
 21
-2.59
 31
0.0
  0
LINE
  5
A4
330
8E
100
AcDbEntity
  8
AM_5
100
AcDbLine
 10
-2.01575189722307
 20
-2.855
 30
0.0
 11
-1.978149124852348
 21
-2.789870087748463
 31
0.0
  0
LINE
  5
A5
330
8E
100
AcDbEntity
  8
AM_5
100
AcDbLine
 10
-1.606283514248443
 20
-2.789870087748463
 30
0.0
 11
-2.013716485751557
 21
-2.789870087748463
 31
0.0
  0
LINE
  5
A6
330
8E
100
AcDbEntity
  8
AM_5
100
AcDbLine
 10
-1.641850875147652
 20
-2.789870087748463
 30
0.0
 11
-1.648097127527731
 21
-2.59
 31
0.0
  0
LINE
  5
A7
330
8E
100
AcDbEntity
  8
AM_5
100
AcDbLine
 10
-1.60424810277693
 20
-2.855
 30
0.0
 11
-1.641850875147652
 21
-2.789870087748463
 31
0.0
  0
LINE
  5
AA
330
8E
100
AcDbEntity
  8
AM_7
100
AcDbLine
 10
-1.81
 20
-3.262
 30
0.0
 11
-1.81
 21
-2.558
 31
0.0
  0
LINE
  5
AC
330
8E
100
AcDbEntity
  8
AM_4
100
AcDbLine
 10
-1.915
 20
-3.06
 30
0.0
 11
-1.915
 21
-3.09
 31
0.0
  0
LINE
  5
AD
330
8E
100
AcDbEntity
  8
AM_4
100
AcDbLine
 10
-1.705
 20
-3.09
 30
0.0
 11
-1.705
 21
-3.06
 31
0.0
  0
LINE
  5
AE
330
8E
100
AcDbEntity
  8
AM_4
100
AcDbLine
 10
-1.59125
 20
-2.955
 30
0.0
 11
-1.557409257229539
 21
-2.945932400303386
 31
0.0
  0
LINE
  5
AF
330
8E
100
AcDbEntity
  8
AM_4
100
AcDbLine
 10
-1.59125
 20
-2.955
 30
0.0
 11
-2.02875
 21
-2.955
 31
0.0
  0
LINE
  5
B0
330
8E
100
AcDbEntity
  8
AM_4
100
AcDbLine
 10
-2.062590742770461
 20
-2.945932400303386
 30
0.0
 11
-2.02875
 21
-2.955
 31
0.0
  0
LINE
  5
B1
330
8E
100
AcDbEntity
  8
AM_4
100
AcDbLine
 10
-1.557409257229539
 20
-2.864067599696615
 30
0.0
 11
-1.59125
 21
-2.855
 31
0.0
  0
LINE
  5
B2
330
8E
100
AcDbEntity
  8
AM_4
100
AcDbLine
 10
-2.02875
 20
-2.855
 30
0.0
 11
-2.062590742770461
 21
-2.864067599696615
 31
0.0
  0
LINE
  5
B3
330
8E
100
AcDbEntity
  8
AM_4
100
AcDbLine
 10
-1.705
 20
-3.06
 30
0.0
 11
-1.915
 21
-3.06
 31
0.0
  0
LINE
  5
B4
330
8E
100
AcDbEntity
  8
AM_4
100
AcDbLine
 10
-1.705
 20
-3.06
 30
0.0
 11
-1.691179909265103
 21
-3.027753121618573
 31
0.0
  0
LINE
  5
B5
330
8E
100
AcDbEntity
  8
AM_4
100
AcDbLine
 10
-1.928820090734898
 20
-3.027753121618573
 30
0.0
 11
-1.915
 21
-3.06
 31
0.0
  0
LINE
  5
B6
330
8E
100
AcDbEntity
  8
AM_4
100
AcDbLine
 10
-1.707322098066813
 20
-3.23
 30
0.0
 11
-1.912677901933187
 21
-3.23
 31
0.0
  0
LINE
  5
B7
330
8E
100
AcDbEntity
  8
AM_4
100
AcDbLine
 10
-1.707322098066813
 20
-3.23
 30
0.0
 11
-1.675
 21
-3.15
 31
0.0
  0
LINE
  5
B8
330
8E
100
AcDbEntity
  8
AM_4
100
AcDbLine
 10
-1.945
 20
-3.15
 30
0.0
 11
-1.912677901933187
 21
-3.23
 31
0.0
  0
LINE
  5
B9
330
8E
100
AcDbEntity
  8
AM_4
100
AcDbLine
 10
-1.675
 20
-3.15
 30
0.0
 11
-1.945
 21
-3.15
 31
0.0
  0
LINE
  5
BA
330
8E
100
AcDbEntity
  8
AM_4
100
AcDbLine
 10
-1.705
 20
-3.09
 30
0.0
 11
-1.915
 21
-3.09
 31
0.0
  0
LINE
  5
BB
330
8E
100
AcDbEntity
  8
AM_4
100
AcDbLine
 10
-1.915
 20
-3.09
 30
0.0
 11
-1.945
 21
-3.15
 31
0.0
  0
LINE
  5
BC
330
8E
100
AcDbEntity
  8
AM_4
100
AcDbLine
 10
-1.675
 20
-3.15
 30
0.0
 11
-1.705
 21
-3.09
 31
0.0
  0
LINE
  5
BD
330
8E
100
AcDbEntity
  8
AM_4
100
AcDbLine
 10
-1.691179909265103
 20
-3.027753121618573
 30
0.0
 11
-1.928820090734898
 21
-3.027753121618573
 31
0.0
  0
LINE
  5
BE
330
8E
100
AcDbEntity
  8
AM_4
100
AcDbLine
 10
-1.691179909265103
 20
-3.027753121618573
 30
0.0
 11
-1.637465946716985
 21
-2.973318198540882
 31
0.0
  0
LINE
  5
BF
330
8E
100
AcDbEntity
  8
AM_4
100
AcDbLine
 10
-1.982534053283015
 20
-2.973318198540882
 30
0.0
 11
-1.928820090734898
 21
-3.027753121618573
 31
0.0
  0
LINE
  5
C0
330
8E
100
AcDbEntity
  8
AM_4
100
AcDbLine
 10
-1.637465946716985
 20
-2.973318198540882
 30
0.0
 11
-1.982534053283015
 21
-2.973318198540882
 31
0.0
  0
LINE
  5
C1
330
8E
100
AcDbEntity
  8
AM_4
100
AcDbLine
 10
-1.637465946716985
 20
-2.973318198540882
 30
0.0
 11
-1.59625
 21
-2.955
 31
0.0
  0
LINE
  5
C2
330
8E
100
AcDbEntity
  8
AM_4
100
AcDbLine
 10
-2.02375
 20
-2.955
 30
0.0
 11
-1.982534053283015
 21
-2.973318198540882
 31
0.0
  0
LWPOLYLINE
  5
C3
330
8E
100
AcDbEntity
  8
AM_4
100
AcDbPolyline
 90
        4
 70
     0
 43
0.0
 10
-1.620556942922154
 20
-2.955
 10
-1.636343864345308
 20
-2.954392585996001
 10
-1.652130785768462
 20
-2.952606619214965
 10
-1.683704628614769
 20
-2.945932400303386
  0
LWPOLYLINE
  5
C4
330
8E
100
AcDbEntity
  8
AM_4
100
AcDbPolyline
 90
        4
 70
     0
 43
0.0
 10
-1.557409257229539
 20
-2.945932400303386
 10
-1.588841135576436
 20
-2.95258547505038
 10
-1.604676924397847
 20
-2.954385438185772
 10
-1.620556942922154
 20
-2.955
  0
LINE
  5
C5
330
8E
100
AcDbEntity
  8
AM_4
100
AcDbLine
 10
-1.557409257229539
 20
-2.945932400303386
 30
0.0
 11
-1.557409257229539
 21
-2.864067599696615
 31
0.0
  0
LWPOLYLINE
  5
C6
330
8E
100
AcDbEntity
  8
AM_4
100
AcDbPolyline
 90
        4
 70
     0
 43
0.0
 10
-1.620556942922154
 20
-2.855
 10
-1.604770021499
 20
-2.855607414003999
 10
-1.588983100075847
 20
-2.857393380785035
 10
-1.557409257229539
 20
-2.864067599696615
  0
LWPOLYLINE
  5
C7
330
8E
100
AcDbEntity
  8
AM_4
100
AcDbPolyline
 90
        4
 70
     0
 43
0.0
 10
-1.683704628614769
 20
-2.864067599696615
 10
-1.652272750267872
 20
-2.85741452494962
 10
-1.636436961446461
 20
-2.855614561814227
 10
-1.620556942922154
 20
-2.855
  0
LINE
  5
C8
330
8E
100
AcDbEntity
  8
AM_4
100
AcDbLine
 10
-2.062590742770461
 20
-2.945932400303386
 30
0.0
 11
-2.062590742770461
 21
-2.864067599696615
 31
0.0
  0
LWPOLYLINE
  5
C9
330
8E
100
AcDbEntity
  8
AM_4
100
AcDbPolyline
 90
        4
 70
     0
 43
0.0
 10
-1.999443057077846
 20
-2.955
 10
-2.015229978501
 20
-2.954392585996001
 10
-2.031016899924154
 20
-2.952606619214965
 10
-2.062590742770461
 20
-2.945932400303386
  0
LWPOLYLINE
  5
CA
330
8E
100
AcDbEntity
  8
AM_4
100
AcDbPolyline
 90
        4
 70
     0
 43
0.0
 10
-1.936295371385231
 20
-2.945932400303386
 10
-1.967727249732128
 20
-2.95258547505038
 10
-1.983563038553539
 20
-2.954385438185772
 10
-1.999443057077846
 20
-2.955
  0
LWPOLYLINE
  5
CB
330
8E
100
AcDbEntity
  8
AM_4
100
AcDbPolyline
 90
        4
 70
     0
 43
0.0
 10
-1.999443057077846
 20
-2.855
 10
-1.983656135654692
 20
-2.855607414003999
 10
-1.967869214231538
 20
-2.857393380785035
 10
-1.936295371385231
 20
-2.864067599696615
  0
LWPOLYLINE
  5
CC
330
8E
100
AcDbEntity
  8
AM_4
100
AcDbPolyline
 90
        4
 70
     0
 43
0.0
 10
-2.062590742770461
 20
-2.864067599696615
 10
-2.031158864423564
 20
-2.85741452494962
 10
-2.015323075602153
 20
-2.855614561814227
 10
-1.999443057077846
 20
-2.855
  0
LINE
  5
CD
330
8E
100
AcDbEntity
  8
AM_4
100
AcDbLine
 10
-1.936295371385231
 20
-2.945932400303386
 30
0.0
 11
-1.936295371385231
 21
-2.864067599696615
 31
0.0
  0
LWPOLYLINE
  5
CE
330
8E
100
AcDbEntity
  8
AM_4
100
AcDbPolyline
 90
        4
 70
     0
 43
0.0
 10
-1.81
 20
-2.955
 10
-1.858399816055899
 20
-2.953582439282862
 10
-1.906799632111798
 20
-2.949517587482156
 10
-1.936295371385231
 20
-2.945932400303386
  0
LWPOLYLINE
  5
CF
330
8E
100
AcDbEntity
  8
AM_4
100
AcDbPolyline
 90
        4
 70
     0
 43
0.0
 10
-1.683704628614769
 20
-2.945932400303386
 10
-1.746568385308563
 20
-2.95258547505038
 10
-1.778239962951386
 20
-2.954385438185772
 10
-1.81
 20
-2.955
  0
LINE
  5
D0
330
8E
100
AcDbEntity
  8
AM_4
100
AcDbLine
 10
-1.683704628614769
 20
-2.945932400303386
 30
0.0
 11
-1.683704628614769
 21
-2.864067599696615
 31
0.0
  0
LWPOLYLINE
  5
D1
330
8E
100
AcDbEntity
  8
AM_4
100
AcDbPolyline
 90
        4
 70
     0
 43
0.0
 10
-1.81
 20
-2.855
 10
-1.778426157153692
 20
-2.855607414003999
 10
-1.746852314307385
 20
-2.857393380785035
 10
-1.683704628614769
 20
-2.864067599696615
  0
LWPOLYLINE
  5
D2
330
8E
100
AcDbEntity
  8
AM_4
100
AcDbPolyline
 90
        4
 70
     0
 43
0.0
 10
-1.936295371385231
 20
-2.864067599696615
 10
-1.906799632111798
 20
-2.860482412517844
 10
-1.858542441247754
 20
-2.856425828243072
 10
-1.81
 20
-2.855
  0
ENDBLK
  5
91
330
8E
100
AcDbEntity
  8
0
100
AcDbBlockEnd
  0
BLOCK
  5
D5
330
D3
100
AcDbEntity
  8
0
100
AcDbBlockBegin
  2
3_ASME_B18_3_10_1_0_in_072238_2
 70
     2
 10
0.0
 20
0.0
 30
0.0
  3
3_ASME_B18_3_10_1_0_in_072238_2
  1

  0
ATTDEF
  5
D7
330
D3
100
AcDbEntity
  8
AM_6
100
AcDbText
 10
2.331003333333334
 20
-1.482694444444445
 30
0.0
 40
0.5
  1
ANSI/ASME-B18.3-1998
100
AcDbAttributeDefinition
  3

  2
NN
 70
     8
280
     0
  0
ATTDEF
  5
D8
330
D3
100
AcDbEntity
  8
AM_6
100
AcDbText
 10
2.331003333333334
 20
-1.982694444444445
 30
0.0
 40
0.5
  1
Socket Button Head Cap Screws
100
AcDbAttributeDefinition
  3

  2
NT
 70
     8
280
     0
  0
ATTDEF
  5
D9
330
D3
100
AcDbEntity
  8
AM_6
100
AcDbText
 10
2.331003333333334
 20
-2.482694444444444
 30
0.0
 40
0.5
  1
ASME-B18.3-10
100
AcDbAttributeDefinition
  3

  2
NB
 70
     8
280
     0
  0
ATTDEF
  5
DA
330
D3
100
AcDbEntity
  8
AM_6
100
AcDbText
 10
2.331003333333334
 20
-2.982694444444444
 30
0.0
 40
0.5
  1
ASME-B18.3-$NS.
100
AcDbAttributeDefinition
  3

  2
NBSYN
 70
     8
280
     0
  0
ATTDEF
  5
DB
330
D3
100
AcDbEntity
  8
AM_6
100
AcDbText
 10
2.331003333333334
 20
-3.482694444444444
 30
0.0
 40
0.5
  1
ASME-B18.3-10
100
AcDbAttributeDefinition
  3

  2
LINA
 70
     8
280
     0
  0
ATTDEF
  5
DC
330
D3
100
AcDbEntity
  8
AM_6
100
AcDbText
 10
2.331003333333334
 20
-3.982694444444444
 30
0.0
 40
0.5
  1
10
100
AcDbAttributeDefinition
  3

  2
NS
 70
     8
280
     0
  0
ATTDEF
  5
DD
330
D3
100
AcDbEntity
  8
AM_6
100
AcDbText
 10
2.331003333333334
 20
-4.482694444444444
 30
0.0
 40
0.5
  1
0.361
100
AcDbAttributeDefinition
  3

  2
A
 70
     8
280
     0
  0
ATTDEF
  5
DE
330
D3
100
AcDbEntity
  8
AM_6
100
AcDbText
 10
2.331003333333334
 20
-4.982694444444444
 30
0.0
 40
0.5
  1
0.101
100
AcDbAttributeDefinition
  3

  2
H
 70
     8
280
     0
  0
ATTDEF
  5
DF
330
D3
100
AcDbEntity
  8
AM_6
100
AcDbText
 10
2.331003333333334
 20
-5.482694444444444
 30
0.0
 40
0.5
  1
0.800
100
AcDbAttributeDefinition
  3

  2
L
 70
     8
280
     0
  0
ATTDEF
  5
E0
330
D3
100
AcDbEntity
  8
AM_6
100
AcDbText
 10
2.331003333333334
 20
-5.982694444444444
 30
0.0
 40
0.5
  1
0.020
100
AcDbAttributeDefinition
  3

  2
S
 70
     8
280
     0
  0
ATTDEF
  5
E1
330
D3
100
AcDbEntity
  8
AM_6
100
AcDbText
 10
2.331003333333334
 20
-6.482694444444444
 30
0.0
 40
0.5
  1
0.125000
100
AcDbAttributeDefinition
  3

  2
J
 70
     8
280
     0
  0
ATTDEF
  5
E2
330
D3
100
AcDbEntity
  8
AM_6
100
AcDbText
 10
2.331003333333334
 20
-6.982694444444444
 30
0.0
 40
0.5
  1
baldor
100
AcDbAttributeDefinition
  3

  2
COMPANY
 70
     8
280
     0
  0
LINE
  5
E3
330
D3
100
AcDbEntity
  8
AM_9
100
AcDbLine
 10
-3.508996666666667
 20
-1.591025660795741
 30
0.0
 11
-3.569996666666666
 21
-1.591025660795741
 31
0.0
  0
LINE
  5
E4
330
D3
100
AcDbEntity
  8
AM_9
100
AcDbLine
 10
-3.508996666666667
 20
-1.735363228093148
 30
0.0
 11
-3.569996666666666
 21
-1.735363228093148
 31
0.0
  0
LINE
  5
E5
330
D3
100
AcDbEntity
  8
AM_9
100
AcDbLine
 10
-3.508996666666667
 20
-1.591025660795741
 30
0.0
 11
-3.508996666666667
 21
-1.735363228093148
 31
0.0
  0
LINE
  5
E6
330
D3
100
AcDbEntity
  8
AM_9
100
AcDbLine
 10
-3.508996666666667
 20
-1.627110052620093
 30
0.0
 11
-3.569996666666666
 21
-1.627110052620093
 31
0.0
  0
LINE
  5
E7
330
D3
100
AcDbEntity
  8
AM_9
100
AcDbLine
 10
-3.508996666666667
 20
-1.699278836268796
 30
0.0
 11
-3.569996666666666
 21
-1.699278836268796
 31
0.0
  0
LINE
  5
E8
330
D3
100
AcDbEntity
  8
AM_9
100
AcDbLine
 10
-2.668996666666666
 20
-1.592994444444444
 30
0.0
 11
-2.668996666666666
 21
-1.733394444444444
 31
0.0
  0
LINE
  5
E9
330
D3
100
AcDbEntity
  8
AM_9
100
AcDbLine
 10
-2.668996666666666
 20
-1.592994444444444
 30
0.0
 11
-2.693796666666666
 21
-1.568194444444444
 31
0.0
  0
LINE
  5
EA
330
D3
100
AcDbEntity
  8
AM_9
100
AcDbLine
 10
-2.693796666666666
 20
-1.758194444444444
 30
0.0
 11
-2.668996666666666
 21
-1.733394444444444
 31
0.0
  0
LINE
  5
EB
330
D3
100
AcDbEntity
  8
AM_9
100
AcDbLine
 10
-2.693796666666666
 20
-1.568194444444444
 30
0.0
 11
-2.693796666666666
 21
-1.758194444444444
 31
0.0
  0
LINE
  5
EC
330
D3
100
AcDbEntity
  8
AM_9
100
AcDbLine
 10
-3.368666666666666
 20
-1.758194444444444
 30
0.0
 11
-2.693796666666666
 21
-1.758194444444444
 31
0.0
  0
LINE
  5
ED
330
D3
100
AcDbEntity
  8
AM_9
100
AcDbLine
 10
-2.693796666666666
 20
-1.568194444444444
 30
0.0
 11
-3.368666666666666
 21
-1.568194444444444
 31
0.0
  0
LINE
  5
EE
330
D3
100
AcDbEntity
  8
AM_5
100
AcDbLine
 10
-2.668996666666666
 20
-1.733394444444444
 30
0.0
 11
-3.368666666666666
 21
-1.733394444444444
 31
0.0
  0
LINE
  5
EF
330
D3
100
AcDbEntity
  8
AM_5
100
AcDbLine
 10
-2.668996666666666
 20
-1.592994444444444
 30
0.0
 11
-3.368666666666666
 21
-1.592994444444444
 31
0.0
  0
LINE
  5
F0
330
D3
100
AcDbEntity
  8
AM_4
100
AcDbLine
 10
-3.468996666666667
 20
-1.758194444444444
 30
0.0
 11
-3.368666666666666
 21
-1.758194444444444
 31
0.0
  0
LINE
  5
F1
330
D3
100
AcDbEntity
  8
AM_4
100
AcDbLine
 10
-3.368666666666666
 20
-1.568194444444444
 30
0.0
 11
-3.468996666666667
 21
-1.568194444444444
 31
0.0
  0
LINE
  5
F2
330
D3
100
AcDbEntity
  8
AM_4
100
AcDbLine
 10
-3.569996666666666
 20
-1.563694444444444
 30
0.0
 11
-3.569996666666666
 21
-1.762694444444445
 31
0.0
  0
ARC
  5
F3
330
D3
100
AcDbEntity
  8
AM_4
100
AcDbCircle
 10
-3.488996666666667
 20
-1.762694444444445
 30
0.0
 40
0.0809999999999995
100
AcDbArc
 50
180.0
 51
270.0
  0
ARC
  5
F4
330
D3
100
AcDbEntity
  8
AM_4
100
AcDbCircle
 10
-3.488996666666667
 20
-1.563694444444444
 30
0.0
 40
0.0809999999999997
100
AcDbArc
 50
90.0
 51
180.0
  0
LINE
  5
F5
330
D3
100
AcDbEntity
  8
AM_4
100
AcDbLine
 10
-3.468996666666667
 20
-1.482694444444445
 30
0.0
 11
-3.468996666666667
 21
-1.843694444444444
 31
0.0
  0
LINE
  5
F6
330
D3
100
AcDbEntity
  8
AM_4
100
AcDbLine
 10
-3.488996666666666
 20
-1.482694444444445
 30
0.0
 11
-3.488996666666666
 21
-1.843694444444444
 31
0.0
  0
LINE
  5
F7
330
D3
100
AcDbEntity
  8
AM_4
100
AcDbLine
 10
-3.488996666666666
 20
-1.843694444444444
 30
0.0
 11
-3.468996666666667
 21
-1.843694444444444
 31
0.0
  0
LINE
  5
F8
330
D3
100
AcDbEntity
  8
AM_4
100
AcDbLine
 10
-3.468996666666667
 20
-1.482694444444445
 30
0.0
 11
-3.488996666666666
 21
-1.482694444444445
 31
0.0
  0
LINE
  5
F9
330
D3
100
AcDbEntity
  8
AM_5
100
AcDbLine
 10
-3.368666666666666
 20
-1.733394444444444
 30
0.0
 11
-3.508996666666667
 21
-1.733394444444444
 31
0.0
  0
LINE
  5
FA
330
D3
100
AcDbEntity
  8
AM_5
100
AcDbLine
 10
-3.768996666666666
 20
-1.758194444444444
 30
0.0
 11
-3.768996666666666
 21
-1.568194444444444
 31
0.0
  0
LINE
  5
FB
330
D3
100
AcDbEntity
  8
AM_5
100
AcDbLine
 10
-3.368666666666666
 20
-1.592994444444444
 30
0.0
 11
-3.508996666666667
 21
-1.592994444444444
 31
0.0
  0
ENDBLK
  5
D6
330
D3
100
AcDbEntity
  8
0
100
AcDbBlockEnd
  0
BLOCK
  5
FE
330
FC
100
AcDbEntity
  8
0
100
AcDbBlockBegin
  2
4_ASME_B18_3_10_2_0_in_072238_2
 70
     2
 10
0.0
 20
0.0
 30
0.0
  3
4_ASME_B18_3_10_2_0_in_072238_2
  1

  0
ATTDEF
  5
100
330
FC
100
AcDbEntity
  8
AM_6
100
AcDbText
 10
2.331003333333334
 20
1.843694444444444
 30
0.0
 40
0.5
  1
ANSI/ASME-B18.3-1998
100
AcDbAttributeDefinition
  3

  2
NN
 70
     8
280
     0
  0
ATTDEF
  5
101
330
FC
100
AcDbEntity
  8
AM_6
100
AcDbText
 10
2.331003333333334
 20
1.343694444444444
 30
0.0
 40
0.5
  1
Socket Button Head Cap Screws
100
AcDbAttributeDefinition
  3

  2
NT
 70
     8
280
     0
  0
ATTDEF
  5
102
330
FC
100
AcDbEntity
  8
AM_6
100
AcDbText
 10
2.331003333333334
 20
0.8436944444444443
 30
0.0
 40
0.5
  1
ASME-B18.3-10
100
AcDbAttributeDefinition
  3

  2
NB
 70
     8
280
     0
  0
ATTDEF
  5
103
330
FC
100
AcDbEntity
  8
AM_6
100
AcDbText
 10
2.331003333333334
 20
0.3436944444444443
 30
0.0
 40
0.5
  1
ASME-B18.3-$NS.
100
AcDbAttributeDefinition
  3

  2
NBSYN
 70
     8
280
     0
  0
ATTDEF
  5
104
330
FC
100
AcDbEntity
  8
AM_6
100
AcDbText
 10
2.331003333333334
 20
-0.1563055555555557
 30
0.0
 40
0.5
  1
ASME-B18.3-10
100
AcDbAttributeDefinition
  3

  2
LINA
 70
     8
280
     0
  0
ATTDEF
  5
105
330
FC
100
AcDbEntity
  8
AM_6
100
AcDbText
 10
2.331003333333334
 20
-0.6563055555555557
 30
0.0
 40
0.5
  1
10
100
AcDbAttributeDefinition
  3

  2
NS
 70
     8
280
     0
  0
ATTDEF
  5
106
330
FC
100
AcDbEntity
  8
AM_6
100
AcDbText
 10
2.331003333333334
 20
-1.156305555555556
 30
0.0
 40
0.5
  1
0.361
100
AcDbAttributeDefinition
  3

  2
A
 70
     8
280
     0
  0
ATTDEF
  5
107
330
FC
100
AcDbEntity
  8
AM_6
100
AcDbText
 10
2.331003333333334
 20
-1.656305555555556
 30
0.0
 40
0.5
  1
0.101
100
AcDbAttributeDefinition
  3

  2
H
 70
     8
280
     0
  0
ATTDEF
  5
108
330
FC
100
AcDbEntity
  8
AM_6
100
AcDbText
 10
2.331003333333334
 20
-2.156305555555556
 30
0.0
 40
0.5
  1
0.800
100
AcDbAttributeDefinition
  3

  2
L
 70
     8
280
     0
  0
ATTDEF
  5
109
330
FC
100
AcDbEntity
  8
AM_6
100
AcDbText
 10
2.331003333333334
 20
-2.656305555555556
 30
0.0
 40
0.5
  1
0.020
100
AcDbAttributeDefinition
  3

  2
S
 70
     8
280
     0
  0
ATTDEF
  5
10A
330
FC
100
AcDbEntity
  8
AM_6
100
AcDbText
 10
2.331003333333334
 20
-3.156305555555556
 30
0.0
 40
0.5
  1
0.125000
100
AcDbAttributeDefinition
  3

  2
J
 70
     8
280
     0
  0
ATTDEF
  5
10B
330
FC
100
AcDbEntity
  8
AM_6
100
AcDbText
 10
2.331003333333334
 20
-3.656305555555556
 30
0.0
 40
0.5
  1
baldor
100
AcDbAttributeDefinition
  3

  2
COMPANY
 70
     8
280
     0
  0
LINE
  5
10C
330
FC
100
AcDbEntity
  8
AM_9
100
AcDbLine
 10
-3.508996666666667
 20
1.735363228093148
 30
0.0
 11
-3.569996666666666
 21
1.735363228093148
 31
0.0
  0
LINE
  5
10D
330
FC
100
AcDbEntity
  8
AM_9
100
AcDbLine
 10
-3.508996666666667
 20
1.591025660795741
 30
0.0
 11
-3.569996666666666
 21
1.591025660795741
 31
0.0
  0
LINE
  5
10E
330
FC
100
AcDbEntity
  8
AM_9
100
AcDbLine
 10
-3.508996666666667
 20
1.735363228093148
 30
0.0
 11
-3.508996666666667
 21
1.591025660795741
 31
0.0
  0
LINE
  5
10F
330
FC
100
AcDbEntity
  8
AM_9
100
AcDbLine
 10
-3.508996666666667
 20
1.699278836268796
 30
0.0
 11
-3.569996666666666
 21
1.699278836268796
 31
0.0
  0
LINE
  5
110
330
FC
100
AcDbEntity
  8
AM_9
100
AcDbLine
 10
-3.508996666666667
 20
1.627110052620093
 30
0.0
 11
-3.569996666666666
 21
1.627110052620093
 31
0.0
  0
LINE
  5
111
330
FC
100
AcDbEntity
  8
AM_9
100
AcDbLine
 10
-2.668996666666666
 20
1.733394444444444
 30
0.0
 11
-2.668996666666666
 21
1.592994444444444
 31
0.0
  0
LINE
  5
112
330
FC
100
AcDbEntity
  8
AM_9
100
AcDbLine
 10
-2.668996666666666
 20
1.733394444444444
 30
0.0
 11
-2.693796666666666
 21
1.758194444444444
 31
0.0
  0
LINE
  5
113
330
FC
100
AcDbEntity
  8
AM_9
100
AcDbLine
 10
-2.693796666666666
 20
1.568194444444444
 30
0.0
 11
-2.668996666666666
 21
1.592994444444444
 31
0.0
  0
LINE
  5
114
330
FC
100
AcDbEntity
  8
AM_9
100
AcDbLine
 10
-2.693796666666666
 20
1.758194444444444
 30
0.0
 11
-2.693796666666666
 21
1.568194444444444
 31
0.0
  0
LINE
  5
115
330
FC
100
AcDbEntity
  8
AM_9
100
AcDbLine
 10
-3.368666666666666
 20
1.568194444444444
 30
0.0
 11
-2.693796666666666
 21
1.568194444444444
 31
0.0
  0
LINE
  5
116
330
FC
100
AcDbEntity
  8
AM_9
100
AcDbLine
 10
-2.693796666666666
 20
1.758194444444444
 30
0.0
 11
-3.368666666666666
 21
1.758194444444444
 31
0.0
  0
LINE
  5
117
330
FC
100
AcDbEntity
  8
AM_5
100
AcDbLine
 10
-2.668996666666666
 20
1.592994444444444
 30
0.0
 11
-3.368666666666666
 21
1.592994444444444
 31
0.0
  0
LINE
  5
118
330
FC
100
AcDbEntity
  8
AM_5
100
AcDbLine
 10
-2.668996666666666
 20
1.733394444444444
 30
0.0
 11
-3.368666666666666
 21
1.733394444444444
 31
0.0
  0
LINE
  5
119
330
FC
100
AcDbEntity
  8
AM_4
100
AcDbLine
 10
-3.468996666666667
 20
1.568194444444444
 30
0.0
 11
-3.368666666666666
 21
1.568194444444444
 31
0.0
  0
LINE
  5
11A
330
FC
100
AcDbEntity
  8
AM_4
100
AcDbLine
 10
-3.368666666666666
 20
1.758194444444444
 30
0.0
 11
-3.468996666666667
 21
1.758194444444444
 31
0.0
  0
LINE
  5
11B
330
FC
100
AcDbEntity
  8
AM_4
100
AcDbLine
 10
-3.569996666666666
 20
1.762694444444445
 30
0.0
 11
-3.569996666666666
 21
1.563694444444444
 31
0.0
  0
ARC
  5
11C
330
FC
100
AcDbEntity
  8
AM_4
100
AcDbCircle
 10
-3.488996666666667
 20
1.563694444444444
 30
0.0
 40
0.0809999999999995
100
AcDbArc
 50
180.0
 51
270.0
  0
ARC
  5
11D
330
FC
100
AcDbEntity
  8
AM_4
100
AcDbCircle
 10
-3.488996666666667
 20
1.762694444444445
 30
0.0
 40
0.0809999999999997
100
AcDbArc
 50
90.0
 51
180.0
  0
LINE
  5
11E
330
FC
100
AcDbEntity
  8
AM_4
100
AcDbLine
 10
-3.468996666666667
 20
1.843694444444444
 30
0.0
 11
-3.468996666666667
 21
1.482694444444445
 31
0.0
  0
LINE
  5
11F
330
FC
100
AcDbEntity
  8
AM_4
100
AcDbLine
 10
-3.488996666666666
 20
1.843694444444444
 30
0.0
 11
-3.488996666666666
 21
1.482694444444445
 31
0.0
  0
LINE
  5
120
330
FC
100
AcDbEntity
  8
AM_4
100
AcDbLine
 10
-3.488996666666666
 20
1.482694444444445
 30
0.0
 11
-3.468996666666667
 21
1.482694444444445
 31
0.0
  0
LINE
  5
121
330
FC
100
AcDbEntity
  8
AM_4
100
AcDbLine
 10
-3.468996666666667
 20
1.843694444444444
 30
0.0
 11
-3.488996666666666
 21
1.843694444444444
 31
0.0
  0
LINE
  5
122
330
FC
100
AcDbEntity
  8
AM_5
100
AcDbLine
 10
-3.368666666666666
 20
1.592994444444444
 30
0.0
 11
-3.508996666666667
 21
1.592994444444444
 31
0.0
  0
LINE
  5
123
330
FC
100
AcDbEntity
  8
AM_5
100
AcDbLine
 10
-3.768996666666666
 20
1.568194444444444
 30
0.0
 11
-3.768996666666666
 21
1.758194444444444
 31
0.0
  0
LINE
  5
124
330
FC
100
AcDbEntity
  8
AM_5
100
AcDbLine
 10
-3.368666666666666
 20
1.733394444444444
 30
0.0
 11
-3.508996666666667
 21
1.733394444444444
 31
0.0
  0
ENDBLK
  5
FF
330
FC
100
AcDbEntity
  8
0
100
AcDbBlockEnd
  0
BLOCK
  5
127
330
125
100
AcDbEntity
  8
0
100
AcDbBlockBegin
  2
5_070896LWE_0_in_072238_2
 70
     2
 10
0.0
 20
0.0
 30
0.0
  3
5_070896LWE_0_in_072238_2
  1

  0
ATTDEF
  5
129
330
125
100
AcDbEntity
  8
AM_6
100
AcDbText
 10
2.071333333333333
 20
1.94
 30
0.0
 40
0.5
  1
Imperial/E Insert Lockwasher -Inch
100
AcDbAttributeDefinition
  3

  2
NN
 70
     8
280
     0
  0
ATTDEF
  5
12A
330
125
100
AcDbEntity
  8
AM_6
100
AcDbText
 10
2.071333333333333
 20
1.44
 30
0.0
 40
0.5
  1
Imperial/E Bearings
100
AcDbAttributeDefinition
  3

  2
NT
 70
     8
280
     0
  0
ATTDEF
  5
12B
330
125
100
AcDbEntity
  8
AM_6
100
AcDbText
 10
2.071333333333333
 20
0.9400000000000002
 30
0.0
 40
0.5
  1
070896LWE
100
AcDbAttributeDefinition
  3

  2
NB
 70
     8
280
     0
  0
ATTDEF
  5
12C
330
125
100
AcDbEntity
  8
AM_6
100
AcDbText
 10
2.071333333333333
 20
0.4400000000000002
 30
0.0
 40
0.5
  1
$PN.LWE
100
AcDbAttributeDefinition
  3

  2
NBSYN
 70
     8
280
     0
  0
ATTDEF
  5
12D
330
125
100
AcDbEntity
  8
AM_6
100
AcDbText
 10
2.071333333333333
 20
-0.0599999999999998
 30
0.0
 40
0.5
  1
070896
100
AcDbAttributeDefinition
  3

  2
LINA
 70
     8
280
     0
  0
ATTDEF
  5
12E
330
125
100
AcDbEntity
  8
AM_6
100
AcDbText
 10
2.071333333333333
 20
-0.5599999999999998
 30
0.0
 40
0.5
  1
2-1/2
100
AcDbAttributeDefinition
  3

  2
SS
 70
     8
280
     0
  0
ATTDEF
  5
12F
330
125
100
AcDbEntity
  8
AM_6
100
AcDbText
 10
2.071333333333333
 20
-1.06
 30
0.0
 40
0.5
  1
3.880000
100
AcDbAttributeDefinition
  3

  2
E1
 70
     8
280
     0
  0
ATTDEF
  5
130
330
125
100
AcDbEntity
  8
AM_6
100
AcDbText
 10
2.071333333333333
 20
-1.56
 30
0.0
 40
0.5
  1
2.500000
100
AcDbAttributeDefinition
  3

  2
SS1
 70
     8
280
     0
  0
ATTDEF
  5
131
330
125
100
AcDbEntity
  8
AM_6
100
AcDbText
 10
2.071333333333333
 20
-2.06
 30
0.0
 40
0.5
  1
070896
100
AcDbAttributeDefinition
  3

  2
PN
 70
     8
280
     0
  0
ATTDEF
  5
132
330
125
100
AcDbEntity
  8
AM_6
100
AcDbText
 10
2.071333333333333
 20
-2.56
 30
0.0
 40
0.5
  1
INS-IP-208R
100
AcDbAttributeDefinition
  3

  2
DESCRIPTION
 70
     8
280
     0
  0
ATTDEF
  5
133
330
125
100
AcDbEntity
  8
AM_6
100
AcDbText
 10
2.071333333333333
 20
-3.06
 30
0.0
 40
0.5
  1
4.7241
100
AcDbAttributeDefinition
  3

  2
A
 70
     8
280
     0
  0
ATTDEF
  5
134
330
125
100
AcDbEntity
  8
AM_6
100
AcDbText
 10
2.071333333333333
 20
-3.56
 30
0.0
 40
0.5
  1
1-9/32
100
AcDbAttributeDefinition
  3

  2
B
 70
     8
280
     0
  0
ATTDEF
  5
135
330
125
100
AcDbEntity
  8
AM_6
100
AcDbText
 10
2.071333333333333
 20
-4.06
 30
0.0
 40
0.5
  1
1.281250
100
AcDbAttributeDefinition
  3

  2
B1
 70
     8
280
     0
  0
ATTDEF
  5
136
330
125
100
AcDbEntity
  8
AM_6
100
AcDbText
 10
2.071333333333333
 20
-4.56
 30
0.0
 40
0.5
  1
3-27/64
100
AcDbAttributeDefinition
  3

  2
C
 70
     8
280
     0
  0
ATTDEF
  5
137
330
125
100
AcDbEntity
  8
AM_6
100
AcDbText
 10
2.071333333333333
 20
-5.06
 30
0.0
 40
0.5
  1
3.421875
100
AcDbAttributeDefinition
  3

  2
C1
 70
     8
280
     0
  0
ATTDEF
  5
138
330
125
100
AcDbEntity
  8
AM_6
100
AcDbText
 10
2.071333333333333
 20
-5.56
 30
0.0
 40
0.5
  1
1.208
100
AcDbAttributeDefinition
  3

  2
D
 70
     8
280
     0
  0
ATTDEF
  5
139
330
125
100
AcDbEntity
  8
AM_6
100
AcDbText
 10
2.071333333333333
 20
-6.06
 30
0.0
 40
0.5
  1
3-7/8
100
AcDbAttributeDefinition
  3

  2
E
 70
     8
280
     0
  0
ATTDEF
  5
13A
330
125
100
AcDbEntity
  8
AM_6
100
AcDbText
 10
2.071333333333333
 20
-6.56
 30
0.0
 40
0.5
  1
0.1900
100
AcDbAttributeDefinition
  3

  2
NDM
 70
     8
280
     0
  0
ATTDEF
  5
13B
330
125
100
AcDbEntity
  8
AM_6
100
AcDbText
 10
2.071333333333333
 20
-7.06
 30
0.0
 40
0.5
  1
0.1450
100
AcDbAttributeDefinition
  3

  2
KDM
 70
     8
280
     0
  0
ATTDEF
  5
13C
330
125
100
AcDbEntity
  8
AM_6
100
AcDbText
 10
2.071333333333333
 20
-7.56
 30
0.0
 40
0.5
  1
3.35
100
AcDbAttributeDefinition
  3

  2
AL
 70
     8
280
     0
  0
ATTDEF
  5
13D
330
125
100
AcDbEntity
  8
AM_6
100
AcDbText
 10
2.071333333333333
 20
-8.059999999999999
 30
0.0
 40
0.5
  1
0.50
100
AcDbAttributeDefinition
  3

  2
BL
 70
     8
280
     0
  0
ATTDEF
  5
13E
330
125
100
AcDbEntity
  8
AM_6
100
AcDbText
 10
2.071333333333333
 20
-8.559999999999999
 30
0.0
 40
0.5
  1
0.07
100
AcDbAttributeDefinition
  3

  2
CL
 70
     8
280
     0
  0
ATTDEF
  5
13F
330
125
100
AcDbEntity
  8
AM_6
100
AcDbText
 10
2.071333333333333
 20
-9.059999999999999
 30
0.0
 40
0.5
  1
0.44
100
AcDbAttributeDefinition
  3

  2
DL
 70
     8
280
     0
  0
ATTDEF
  5
140
330
125
100
AcDbEntity
  8
AM_6
100
AcDbText
 10
2.071333333333333
 20
-9.559999999999999
 30
0.0
 40
0.5
  1
baldor
100
AcDbAttributeDefinition
  3

  2
COMPANY
 70
     8
280
     0
  0
LINE
  5
141
330
125
100
AcDbEntity
  8
AM_9
100
AcDbLine
 10
-3.298666666666666
 20
1.195297772896251
 30
0.0
 11
-3.368666666666666
 21
1.195297772896251
 31
0.0
  0
LINE
  5
142
330
125
100
AcDbEntity
  8
AM_9
100
AcDbLine
 10
-2.928666666666667
 20
1.162297567155935
 30
0.0
 11
-3.298666666666666
 21
1.162297567155935
 31
0.0
  0
LINE
  5
143
330
125
100
AcDbEntity
  8
AM_9
100
AcDbLine
 10
-2.928666666666667
 20
1.101225231265198
 30
0.0
 11
-3.368666666666666
 21
1.101225231265198
 31
0.0
  0
LINE
  5
144
330
125
100
AcDbEntity
  8
AM_9
100
AcDbLine
 10
-3.298666666666666
 20
1.257968425247208
 30
0.0
 11
-2.928666666666667
 21
1.257968425247208
 31
0.0
  0
LINE
  5
145
330
125
100
AcDbEntity
  8
AM_9
100
AcDbLine
 10
-2.928666666666667
 20
1.19689608935647
 30
0.0
 11
-3.368666666666666
 21
1.19689608935647
 31
0.0
  0
LINE
  5
146
330
125
100
AcDbEntity
  8
AM_9
100
AcDbLine
 10
-2.928666666666667
 20
1.101225231265198
 30
0.0
 11
-2.928666666666667
 21
1.257968425247208
 31
0.0
  0
LINE
  5
147
330
125
100
AcDbEntity
  8
AM_9
100
AcDbLine
 10
-3.298666666666666
 20
1.290968630987523
 30
0.0
 11
-3.368666666666666
 21
1.290968630987523
 31
0.0
  0
LINE
  5
148
330
125
100
AcDbEntity
  8
AM_9
100
AcDbLine
 10
-3.298666666666666
 20
-1.664444444444445
 30
0.0
 11
-3.368666666666666
 21
-1.664444444444445
 31
0.0
  0
LINE
  5
149
330
125
100
AcDbEntity
  8
AM_9
100
AcDbLine
 10
-3.368666666666666
 20
-1.759483184651849
 30
0.0
 11
-3.298666666666666
 21
-1.759483184651849
 31
0.0
  0
LINE
  5
14A
330
125
100
AcDbEntity
  8
AM_9
100
AcDbLine
 10
-3.298666666666666
 20
1.664444444444445
 30
0.0
 11
-3.368666666666666
 21
1.664444444444445
 31
0.0
  0
LINE
  5
14B
330
125
100
AcDbEntity
  8
AM_9
100
AcDbLine
 10
-3.298666666666666
 20
1.759483184651849
 30
0.0
 11
-3.368666666666666
 21
1.759483184651849
 31
0.0
  0
LINE
  5
14C
330
125
100
AcDbEntity
  8
AM_9
100
AcDbLine
 10
-3.298666666666666
 20
1.348007965406408
 30
0.0
 11
-3.368666666666666
 21
1.348007965406408
 31
0.0
  0
LINE
  5
14D
330
125
100
AcDbEntity
  8
AM_9
100
AcDbLine
 10
-3.298666666666666
 20
-1.348007965406408
 30
0.0
 11
-3.368666666666666
 21
-1.348007965406408
 31
0.0
  0
LINE
  5
14E
330
125
100
AcDbEntity
  8
AM_9
100
AcDbLine
 10
-3.298666666666666
 20
-1.020360717645074
 30
0.0
 11
-3.368666666666666
 21
-1.020360717645074
 31
0.0
  0
LINE
  5
14F
330
125
100
AcDbEntity
  8
AM_9
100
AcDbLine
 10
-3.298666666666666
 20
1.020360717645074
 30
0.0
 11
-3.368666666666666
 21
1.020360717645073
 31
0.0
  0
LINE
  5
150
330
125
100
AcDbEntity
  8
AM_9
100
AcDbLine
 10
-3.298666666666666
 20
0.88601042921963
 30
0.0
 11
-3.368666666666666
 21
0.88601042921963
 31
0.0
  0
LINE
  5
151
330
125
100
AcDbEntity
  8
AM_9
100
AcDbLine
 10
-3.298666666666666
 20
-0.8860104292196298
 30
0.0
 11
-3.368666666666666
 21
-0.8860104292196298
 31
0.0
  0
LINE
  5
152
330
125
100
AcDbEntity
  8
AM_9
100
AcDbLine
 10
-3.298666666666666
 20
1.244115097787664
 30
0.0
 11
-3.368666666666666
 21
1.244115097787664
 31
0.0
  0
LINE
  5
153
330
125
100
AcDbEntity
  8
AM_9
100
AcDbLine
 10
-3.298666666666666
 20
1.10976480936222
 30
0.0
 11
-3.368666666666666
 21
1.10976480936222
 31
0.0
  0
LINE
  5
154
330
125
100
AcDbEntity
  8
AM_9
100
AcDbLine
 10
-3.298666666666666
 20
1.271967349350914
 30
0.0
 11
-3.368666666666666
 21
1.271967349350914
 31
0.0
  0
LINE
  5
155
330
125
100
AcDbEntity
  8
AM_9
100
AcDbLine
 10
-3.298666666666666
 20
-1.10976480936222
 30
0.0
 11
-3.368666666666666
 21
-1.10976480936222
 31
0.0
  0
LINE
  5
156
330
125
100
AcDbEntity
  8
AM_9
100
AcDbLine
 10
-3.298666666666666
 20
-1.24411509778765
 30
0.0
 11
-3.368666666666666
 21
-1.24411509778765
 31
0.0
  0
LINE
  5
157
330
125
100
AcDbEntity
  8
AM_9
100
AcDbLine
 10
-3.368666666666666
 20
-1.271967349350913
 30
0.0
 11
-3.298666666666666
 21
-1.271967349350913
 31
0.0
  0
LINE
  5
158
330
125
100
AcDbEntity
  8
AM_9
100
AcDbLine
 10
-3.298666666666666
 20
0.0950000000000001
 30
0.0
 11
-3.368666666666666
 21
0.0950000000000001
 31
0.0
  0
LINE
  5
159
330
125
100
AcDbEntity
  8
AM_9
100
AcDbLine
 10
-3.298666666666666
 20
-0.0949999999999998
 30
0.0
 11
-3.368666666666666
 21
-0.0949999999999998
 31
0.0
  0
LINE
  5
15A
330
125
100
AcDbEntity
  8
AM_4
100
AcDbLine
 10
-3.298666666666666
 20
1.94
 30
0.0
 11
-3.368666666666666
 21
1.94
 31
0.0
  0
LINE
  5
15B
330
125
100
AcDbEntity
  8
AM_4
100
AcDbLine
 10
-3.368666666666666
 20
-1.94
 30
0.0
 11
-3.298666666666666
 21
-1.94
 31
0.0
  0
LINE
  5
15C
330
125
100
AcDbEntity
  8
AM_4
100
AcDbLine
 10
-3.368666666666666
 20
1.94
 30
0.0
 11
-3.368666666666666
 21
-1.94
 31
0.0
  0
LINE
  5
15D
330
125
100
AcDbEntity
  8
AM_4
100
AcDbLine
 10
-3.298666666666666
 20
1.94
 30
0.0
 11
-3.298666666666666
 21
-1.94
 31
0.0
  0
ENDBLK
  5
128
330
125
100
AcDbEntity
  8
0
100
AcDbBlockEnd
  0
BLOCK
  5
160
330
15E
100
AcDbEntity
  8
0
100
AcDbBlockBegin
  2
6_070896E_0_in_072238_2
 70
     2
 10
0.0
 20
0.0
 30
0.0
  3
6_070896E_0_in_072238_2
  1

  0
ATTDEF
  5
162
330
15E
100
AcDbEntity
  8
AM_6
100
AcDbText
 10
4.875
 20
2.36205
 30
0.0
 40
0.5
  1
Imperial/E Insert -Inch
100
AcDbAttributeDefinition
  3

  2
NN
 70
     8
280
     0
  0
ATTDEF
  5
163
330
15E
100
AcDbEntity
  8
AM_6
100
AcDbText
 10
4.875
 20
1.86205
 30
0.0
 40
0.5
  1
Imperial Bearings
100
AcDbAttributeDefinition
  3

  2
NT
 70
     8
280
     0
  0
ATTDEF
  5
164
330
15E
100
AcDbEntity
  8
AM_6
100
AcDbText
 10
4.875
 20
1.36205
 30
0.0
 40
0.5
  1
070896E
100
AcDbAttributeDefinition
  3

  2
NB
 70
     8
280
     0
  0
ATTDEF
  5
165
330
15E
100
AcDbEntity
  8
AM_6
100
AcDbText
 10
4.875
 20
0.86205
 30
0.0
 40
0.5
  1
$PN.
100
AcDbAttributeDefinition
  3

  2
NBSYN
 70
     8
280
     0
  0
ATTDEF
  5
166
330
15E
100
AcDbEntity
  8
AM_6
100
AcDbText
 10
4.875
 20
0.36205
 30
0.0
 40
0.5
  1
070896E
100
AcDbAttributeDefinition
  3

  2
LINA
 70
     8
280
     0
  0
ATTDEF
  5
167
330
15E
100
AcDbEntity
  8
AM_6
100
AcDbText
 10
4.875
 20
-0.13795
 30
0.0
 40
0.5
  1
2-1/2
100
AcDbAttributeDefinition
  3

  2
SS
 70
     8
280
     0
  0
ATTDEF
  5
168
330
15E
100
AcDbEntity
  8
AM_6
100
AcDbText
 10
4.875
 20
-0.63795
 30
0.0
 40
0.5
  1
2.500000
100
AcDbAttributeDefinition
  3

  2
SS1
 70
     8
280
     0
  0
ATTDEF
  5
169
330
15E
100
AcDbEntity
  8
AM_6
100
AcDbText
 10
4.875
 20
-1.13795
 30
0.0
 40
0.5
  1
070896E
100
AcDbAttributeDefinition
  3

  2
PN
 70
     8
280
     0
  0
ATTDEF
  5
16A
330
15E
100
AcDbEntity
  8
AM_6
100
AcDbText
 10
4.875
 20
-1.63795
 30
0.0
 40
0.5
  1
INS-IP-208R
100
AcDbAttributeDefinition
  3

  2
DESCRIPTION
 70
     8
280
     0
  0
ATTDEF
  5
16B
330
15E
100
AcDbEntity
  8
AM_6
100
AcDbText
 10
4.875
 20
-2.13795
 30
0.0
 40
0.5
  1
Contact Seal
100
AcDbAttributeDefinition
  3

  2
ST
 70
     8
280
     0
  0
ATTDEF
  5
16C
330
15E
100
AcDbEntity
  8
AM_6
100
AcDbText
 10
4.875
 20
-2.63795
 30
0.0
 40
0.5
  1
1
100
AcDbAttributeDefinition
  3

  2
ST1
 70
     8
280
     0
  0
ATTDEF
  5
16D
330
15E
100
AcDbEntity
  8
AM_6
100
AcDbText
 10
4.875
 20
-3.13795
 30
0.0
 40
0.5
  1
4.7241
100
AcDbAttributeDefinition
  3

  2
A
 70
     8
280
     0
  0
ATTDEF
  5
16E
330
15E
100
AcDbEntity
  8
AM_6
100
AcDbText
 10
4.875
 20
-3.63795
 30
0.0
 40
0.5
  1
1-9/32
100
AcDbAttributeDefinition
  3

  2
B
 70
     8
280
     0
  0
ATTDEF
  5
16F
330
15E
100
AcDbEntity
  8
AM_6
100
AcDbText
 10
4.875
 20
-4.13795
 30
0.0
 40
0.5
  1
1.281250
100
AcDbAttributeDefinition
  3

  2
B1
 70
     8
280
     0
  0
ATTDEF
  5
170
330
15E
100
AcDbEntity
  8
AM_6
100
AcDbText
 10
4.875
 20
-4.63795
 30
0.0
 40
0.5
  1
3-27/64
100
AcDbAttributeDefinition
  3

  2
C
 70
     8
280
     0
  0
ATTDEF
  5
171
330
15E
100
AcDbEntity
  8
AM_6
100
AcDbText
 10
4.875
 20
-5.13795
 30
0.0
 40
0.5
  1
3.420000
100
AcDbAttributeDefinition
  3

  2
C1
 70
     8
280
     0
  0
ATTDEF
  5
172
330
15E
100
AcDbEntity
  8
AM_6
100
AcDbText
 10
4.875
 20
-5.63795
 30
0.0
 40
0.5
  1
4.41000
100
AcDbAttributeDefinition
  3

  2
CR
 70
     8
280
     0
  0
ATTDEF
  5
173
330
15E
100
AcDbEntity
  8
AM_6
100
AcDbText
 10
4.875
 20
-6.13795
 30
0.0
 40
0.5
  1
1.208
100
AcDbAttributeDefinition
  3

  2
D
 70
     8
280
     0
  0
ATTDEF
  5
174
330
15E
100
AcDbEntity
  8
AM_6
100
AcDbText
 10
4.875
 20
-6.63795
 30
0.0
 40
0.5
  1
3-7/8
100
AcDbAttributeDefinition
  3

  2
E
 70
     8
280
     0
  0
ATTDEF
  5
175
330
15E
100
AcDbEntity
  8
AM_6
100
AcDbText
 10
4.875
 20
-7.13795
 30
0.0
 40
0.5
  1
3.875000
100
AcDbAttributeDefinition
  3

  2
E1
 70
     8
280
     0
  0
ATTDEF
  5
176
330
15E
100
AcDbEntity
  8
AM_6
100
AcDbText
 10
4.875
 20
-7.63795
 30
0.0
 40
0.5
  1
0.1900
100
AcDbAttributeDefinition
  3

  2
NDM
 70
     8
280
     0
  0
ATTDEF
  5
177
330
15E
100
AcDbEntity
  8
AM_6
100
AcDbText
 10
4.875
 20
-8.13795
 30
0.0
 40
0.5
  1
0.1450
100
AcDbAttributeDefinition
  3

  2
KDM
 70
     8
280
     0
  0
ATTDEF
  5
178
330
15E
100
AcDbEntity
  8
AM_6
100
AcDbText
 10
4.875
 20
-8.63795
 30
0.0
 40
0.5
  1
3.35
100
AcDbAttributeDefinition
  3

  2
AL
 70
     8
280
     0
  0
ATTDEF
  5
179
330
15E
100
AcDbEntity
  8
AM_6
100
AcDbText
 10
4.875
 20
-9.13795
 30
0.0
 40
0.5
  1
0.50
100
AcDbAttributeDefinition
  3

  2
BL
 70
     8
280
     0
  0
ATTDEF
  5
17A
330
15E
100
AcDbEntity
  8
AM_6
100
AcDbText
 10
4.875
 20
-9.63795
 30
0.0
 40
0.5
  1
0.07
100
AcDbAttributeDefinition
  3

  2
CL
 70
     8
280
     0
  0
ATTDEF
  5
17B
330
15E
100
AcDbEntity
  8
AM_6
100
AcDbText
 10
4.875
 20
-10.13795
 30
0.0
 40
0.5
  1
0.44
100
AcDbAttributeDefinition
  3

  2
DL
 70
     8
280
     0
  0
ATTDEF
  5
17C
330
15E
100
AcDbEntity
  8
AM_6
100
AcDbText
 10
4.875
 20
-10.63795
 30
0.0
 40
0.5
  1
0.8000
100
AcDbAttributeDefinition
  3

  2
LL
 70
     8
280
     0
  0
ATTDEF
  5
17D
330
15E
100
AcDbEntity
  8
AM_6
100
AcDbText
 10
4.875
 20
-11.13795
 30
0.0
 40
0.5
  1
0.025
100
AcDbAttributeDefinition
  3

  2
Y
 70
     8
280
     0
  0
ATTDEF
  5
17E
330
15E
100
AcDbEntity
  8
AM_6
100
AcDbText
 10
4.875
 20
-11.63795
 30
0.0
 40
0.5
  1
0.025000
100
AcDbAttributeDefinition
  3

  2
Y1
 70
     8
280
     0
  0
ATTDEF
  5
17F
330
15E
100
AcDbEntity
  8
AM_6
100
AcDbText
 10
4.875
 20
-12.13795
 30
0.0
 40
0.5
  1
2-15/16
100
AcDbAttributeDefinition
  3

  2
Z
 70
     8
280
     0
  0
ATTDEF
  5
180
330
15E
100
AcDbEntity
  8
AM_6
100
AcDbText
 10
4.875
 20
-12.63795
 30
0.0
 40
0.5
  1
2.937500
100
AcDbAttributeDefinition
  3

  2
Z1
 70
     8
280
     0
  0
ATTDEF
  5
181
330
15E
100
AcDbEntity
  8
AM_6
100
AcDbText
 10
4.875
 20
-13.13795
 30
0.0
 40
0.5
  1
0.99000
100
AcDbAttributeDefinition
  3

  2
P1
 70
     8
280
     0
  0
ATTDEF
  5
182
330
15E
100
AcDbEntity
  8
AM_6
100
AcDbText
 10
4.875
 20
-13.63795
 30
0.0
 40
0.5
  1
1.50000
100
AcDbAttributeDefinition
  3

  2
H1
 70
     8
280
     0
  0
ATTDEF
  5
183
330
15E
100
AcDbEntity
  8
AM_6
100
AcDbText
 10
4.875
 20
-14.13795
 30
0.0
 40
0.5
  1
1.04000
100
AcDbAttributeDefinition
  3

  2
G1
 70
     8
280
     0
  0
ATTDEF
  5
184
330
15E
100
AcDbEntity
  8
AM_6
100
AcDbText
 10
4.875
 20
-14.63795
 30
0.0
 40
0.5
  1
0.10100
100
AcDbAttributeDefinition
  3

  2
CW
 70
     8
280
     0
  0
ATTDEF
  5
185
330
15E
100
AcDbEntity
  8
AM_6
100
AcDbText
 10
4.875
 20
-15.13795
 30
0.0
 40
0.5
  1
3.88000
100
AcDbAttributeDefinition
  3

  2
L1
 70
     8
280
     0
  0
ATTDEF
  5
186
330
15E
100
AcDbEntity
  8
AM_6
100
AcDbText
 10
4.875
 20
-15.63795
 30
0.0
 40
0.5
  1
baldor
100
AcDbAttributeDefinition
  3

  2
COMPANY
 70
     8
280
     0
  0
LINE
  5
187
330
15E
100
AcDbEntity
  8
AM_9
100
AcDbLine
 10
-0.7173750000000004
 20
1.261190428617456
 30
0.0
 11
-3.298666666666666
 21
1.261190428617456
 31
0.0
  0
LINE
  5
188
330
15E
100
AcDbEntity
  8
AM_9
100
AcDbLine
 10
-0.7173750000000004
 20
1.165519570526183
 30
0.0
 11
-3.298666666666666
 21
1.165519570526183
 31
0.0
  0
LINE
  5
189
330
15E
100
AcDbEntity
  8
AM_9
100
AcDbLine
 10
-2.458666666666672
 20
-1.663194444444444
 30
0.0
 11
-2.500495693669451
 21
-1.590744444444445
 31
0.0
  0
LINE
  5
18A
330
15E
100
AcDbEntity
  8
AM_9
100
AcDbLine
 10
-2.500495693669451
 20
-1.735644444444444
 30
0.0
 11
-2.458666666666672
 21
-1.663194444444444
 31
0.0
  0
LINE
  5
18B
330
15E
100
AcDbEntity
  8
AM_9
100
AcDbLine
 10
-2.458666666666666
 20
1.663194444444444
 30
0.0
 11
-2.500495693669454
 21
1.735644444444444
 31
0.0
  0
LINE
  5
18C
330
15E
100
AcDbEntity
  8
AM_9
100
AcDbLine
 10
-2.500495693669454
 20
1.590744444444445
 30
0.0
 11
-2.458666666666666
 21
1.663194444444444
 31
0.0
  0
LINE
  5
18D
330
15E
100
AcDbEntity
  8
AM_9
100
AcDbLine
 10
-3.27611666666666
 20
-1.735644444444444
 30
0.0
 11
-2.500495693669451
 21
-1.735644444444444
 31
0.0
  0
LINE
  5
18E
330
15E
100
AcDbEntity
  8
AM_9
100
AcDbLine
 10
-2.500495693669451
 20
-1.590744444444445
 30
0.0
 11
-3.27611666666666
 21
-1.590744444444445
 31
0.0
  0
LINE
  5
18F
330
15E
100
AcDbEntity
  8
AM_9
100
AcDbLine
 10
-2.500495693669451
 20
-1.590744444444445
 30
0.0
 11
-2.500495693669451
 21
-1.735644444444444
 31
0.0
  0
LINE
  5
190
330
15E
100
AcDbEntity
  8
AM_9
100
AcDbLine
 10
-2.500495693669454
 20
1.590744444444445
 30
0.0
 11
-2.500495693669454
 21
1.735644444444444
 31
0.0
  0
LINE
  5
191
330
15E
100
AcDbEntity
  8
AM_9
100
AcDbLine
 10
-2.500495693669454
 20
1.735644444444444
 30
0.0
 11
-3.276116666666666
 21
1.735644444444444
 31
0.0
  0
LINE
  5
192
330
15E
100
AcDbEntity
  8
AM_9
100
AcDbLine
 10
-3.276116666666666
 20
1.590744444444445
 30
0.0
 11
-2.500495693669454
 21
1.590744444444445
 31
0.0
  0
LINE
  5
193
330
15E
100
AcDbEntity
  8
AM_9
100
AcDbLine
 10
-3.276116666666666
 20
1.590744444444445
 30
0.0
 11
-3.276116666666666
 21
1.735644444444444
 31
0.0
  0
LINE
  5
194
330
15E
100
AcDbEntity
  8
AM_9
100
AcDbLine
 10
-3.276116666666666
 20
1.735644444444444
 30
0.0
 11
-3.298666666666666
 21
1.758194444444444
 31
0.0
  0
LINE
  5
195
330
15E
100
AcDbEntity
  8
AM_9
100
AcDbLine
 10
-3.298666666666666
 20
1.568194444444444
 30
0.0
 11
-3.276116666666666
 21
1.590744444444445
 31
0.0
  0
LINE
  5
196
330
15E
100
AcDbEntity
  8
AM_9
100
AcDbLine
 10
-3.27611666666666
 20
-1.590744444444445
 30
0.0
 11
-3.298666666666664
 21
-1.568194444444444
 31
0.0
  0
LINE
  5
197
330
15E
100
AcDbEntity
  8
AM_9
100
AcDbLine
 10
-3.298666666666664
 20
-1.758194444444444
 30
0.0
 11
-3.27611666666666
 21
-1.735644444444444
 31
0.0
  0
LINE
  5
198
330
15E
100
AcDbEntity
  8
AM_9
100
AcDbLine
 10
-3.27611666666666
 20
-1.590744444444445
 30
0.0
 11
-3.27611666666666
 21
-1.735644444444444
 31
0.0
  0
LINE
  5
199
330
15E
100
AcDbEntity
  8
AM_9
100
AcDbLine
 10
-0.7173750000000004
 20
1.19689608935647
 30
0.0
 11
-3.57
 21
1.19689608935647
 31
0.0
  0
LINE
  5
19A
330
15E
100
AcDbEntity
  8
AM_9
100
AcDbLine
 10
-3.57
 20
1.101225231265198
 30
0.0
 11
-0.7173750000000004
 21
1.101225231265198
 31
0.0
  0
LINE
  5
19B
330
15E
100
AcDbEntity
  8
AM_9
100
AcDbLine
 10
-0.7173749999999999
 20
1.25
 30
0.0
 11
-3.57
 21
1.25
 31
0.0
  0
LINE
  5
19C
330
15E
100
AcDbEntity
  8
AM_9
100
AcDbLine
 10
-3.57
 20
-1.25
 30
0.0
 11
-0.7173749999999999
 21
-1.25
 31
0.0
  0
LINE
  5
19D
330
15E
100
AcDbEntity
  8
AM_9
100
AcDbLine
 10
-0.1499999999999998
 20
1.315789473684211
 30
0.0
 11
-0.7173749999999999
 21
1.315789473684211
 31
0.0
  0
LINE
  5
19E
330
15E
100
AcDbEntity
  8
AM_9
100
AcDbLine
 10
-0.7173749999999999
 20
-1.315789473684211
 30
0.0
 11
-0.1499999999999998
 21
-1.315789473684211
 31
0.0
  0
LINE
  5
19F
330
15E
100
AcDbEntity
  8
AM_9
100
AcDbLine
 10
-3.57
 20
1.257968425247207
 30
0.0
 11
-3.298666666666666
 21
1.257968425247208
 31
0.0
  0
LINE
  5
1A0
330
15E
100
AcDbEntity
  8
AM_9
100
AcDbLine
 10
-3.298666666666666
 20
1.162297567155935
 30
0.0
 11
-3.57
 21
1.162297567155935
 31
0.0
  0
LINE
  5
1A1
330
15E
100
AcDbEntity
  8
AM_9
100
AcDbLine
 10
-3.298666666666666
 20
1.315789473684211
 30
0.0
 11
-3.368666666666666
 21
1.315789473684211
 31
0.0
  0
LINE
  5
1A2
330
15E
100
AcDbEntity
  8
AM_9
100
AcDbLine
 10
-3.368666666666666
 20
-1.315789473684211
 30
0.0
 11
-3.298666666666666
 21
-1.315789473684211
 31
0.0
  0
LINE
  5
1A3
330
15E
100
AcDbEntity
  8
AM_9
100
AcDbLine
 10
-2.858666666666667
 20
-1.00762716319083
 30
0.0
 11
-3.298666666666666
 21
-1.00762716319083
 31
0.0
  0
LINE
  5
1A4
330
15E
100
AcDbEntity
  8
AM_9
100
AcDbLine
 10
-2.858666666666667
 20
1.00762716319083
 30
0.0
 11
-3.298666666666666
 21
1.00762716319083
 31
0.0
  0
LINE
  5
1A5
330
15E
100
AcDbEntity
  8
AM_9
100
AcDbLine
 10
-0.1499999999999998
 20
-1.46875
 30
0.0
 11
-0.1499999999999998
 21
1.46875
 31
0.0
  0
LINE
  5
1A6
330
15E
100
AcDbEntity
  8
AM_9
100
AcDbLine
 10
-0.1249999999999999
 20
1.46875
 30
0.0
 11
-0.1499999999999998
 21
1.46875
 31
0.0
  0
LINE
  5
1A7
330
15E
100
AcDbEntity
  8
AM_9
100
AcDbLine
 10
-0.1499999999999998
 20
-1.46875
 30
0.0
 11
-0.1249999999999999
 21
-1.46875
 31
0.0
  0
LINE
  5
1A8
330
15E
100
AcDbEntity
  8
AM_9
100
AcDbLine
 10
-2.858666666666667
 20
-1.00762716319083
 30
0.0
 11
-2.858666666666667
 21
-1.187266214881315
 31
0.0
  0
LINE
  5
1A9
330
15E
100
AcDbEntity
  8
AM_9
100
AcDbLine
 10
-2.858666666666667
 20
1.187266214881315
 30
0.0
 11
-2.858666666666667
 21
1.00762716319083
 31
0.0
  0
LINE
  5
1AA
330
15E
100
AcDbEntity
  8
AM_9
100
AcDbLine
 10
-0.1249999999999998
 20
1.727272727272727
 30
0.0
 11
-0.1249999999999999
 21
1.958333333333333
 31
0.0
  0
LINE
  5
1AB
330
15E
100
AcDbEntity
  8
AM_9
100
AcDbLine
 10
-0.4611250000000001
 20
1.727272727272727
 30
0.0
 11
-0.4611250000000001
 21
1.958333333333333
 31
0.0
  0
LINE
  5
1AC
330
15E
100
AcDbEntity
  8
AM_9
100
AcDbLine
 10
-0.1249999999999999
 20
1.958333333333333
 30
0.0
 11
-0.4611250000000001
 21
1.958333333333333
 31
0.0
  0
LINE
  5
1AD
330
15E
100
AcDbEntity
  8
AM_9
100
AcDbLine
 10
-0.4611250000000001
 20
-1.958333333333333
 30
0.0
 11
-0.1249999999999999
 21
-1.958333333333333
 31
0.0
  0
LINE
  5
1AE
330
15E
100
AcDbEntity
  8
AM_9
100
AcDbLine
 10
-0.1249999999999999
 20
-1.958333333333333
 30
0.0
 11
-0.1249999999999998
 21
-1.727272727272727
 31
0.0
  0
LINE
  5
1AF
330
15E
100
AcDbEntity
  8
AM_9
100
AcDbLine
 10
-0.4611250000000001
 20
-1.958333333333333
 30
0.0
 11
-0.4611250000000001
 21
-1.727272727272727
 31
0.0
  0
LINE
  5
1B0
330
15E
100
AcDbEntity
  8
AM_9
100
AcDbLine
 10
-2.62
 20
-1.949346170731283
 30
0.0
 11
-2.047752379678136
 21
-1.959334790099019
 31
0.0
  0
LINE
  5
1B1
330
15E
100
AcDbEntity
  8
AM_9
100
AcDbLine
 10
-2.047752379678136
 20
1.959334790099019
 30
0.0
 11
-2.62
 21
1.949346170731283
 31
0.0
  0
LINE
  5
1B2
330
15E
100
AcDbEntity
  8
AM_9
100
AcDbLine
 10
-2.047752379678136
 20
-1.959334790099019
 30
0.0
 11
-2.047752379678136
 21
1.959334790099019
 31
0.0
  0
ARC
  5
1B3
330
15E
100
AcDbEntity
  8
AM_9
100
AcDbCircle
 10
-2.048625
 20
2.009327174856839
 30
0.0
 40
0.0500000000000005
100
AcDbArc
 50
271.0000000000006
 51
0.0
  0
ARC
  5
1B4
330
15E
100
AcDbEntity
  8
AM_9
100
AcDbCircle
 10
-2.048625
 20
-2.00932717485684
 30
0.0
 40
0.0500000000000003
100
AcDbArc
 50
0.0
 51
88.99999999999936
  0
ARC
  5
1B5
330
15E
100
AcDbEntity
  8
AM_9
100
AcDbCircle
 10
-0.5611250000000028
 20
1.956368966601194
 30
0.0
 40
0.1000000000000026
100
AcDbArc
 50
0.0
 51
59.99999999999939
  0
ARC
  5
1B6
330
15E
100
AcDbEntity
  8
AM_9
100
AcDbCircle
 10
-0.5611250000000034
 20
-1.956368966601194
 30
0.0
 40
0.1000000000000032
100
AcDbArc
 50
300.0000000000009
 51
0.0
  0
LINE
  5
1B7
330
15E
100
AcDbEntity
  8
AM_9
100
AcDbLine
 10
-0.5111250000000004
 20
1.727272727272727
 30
0.0
 11
-0.5111250000000004
 21
2.042971506979639
 31
0.0
  0
LINE
  5
1B8
330
15E
100
AcDbEntity
  8
AM_9
100
AcDbLine
 10
-0.5111250000000004
 20
2.042971506979639
 30
0.0
 11
-0.7173749999999999
 21
2.16205
 31
0.0
  0
LINE
  5
1B9
330
15E
100
AcDbEntity
  8
AM_9
100
AcDbLine
 10
-0.7173749999999999
 20
-2.16205
 30
0.0
 11
-0.5111250000000004
 21
-2.042971506979639
 31
0.0
  0
LINE
  5
1BA
330
15E
100
AcDbEntity
  8
AM_9
100
AcDbLine
 10
-0.5111250000000004
 20
-2.042971506979639
 30
0.0
 11
-0.5111250000000004
 21
-1.727272727272727
 31
0.0
  0
LINE
  5
1BB
330
15E
100
AcDbEntity
  8
AM_9
100
AcDbLine
 10
-1.34101349838004
 20
2.2979875
 30
0.0
 11
-1.414986501619961
 21
2.2979875
 31
0.0
  0
LINE
  5
1BC
330
15E
100
AcDbEntity
  8
AM_9
100
AcDbLine
 10
-1.414986501619961
 20
-2.2979875
 30
0.0
 11
-1.34101349838004
 21
-2.2979875
 31
0.0
  0
LINE
  5
1BD
330
15E
100
AcDbEntity
  8
AM_9
100
AcDbLine
 10
-1.998625
 20
-2.35205
 30
0.0
 11
-1.998625
 21
2.35205
 31
0.0
  0
ARC
  5
1BE
330
15E
100
AcDbEntity
  8
AM_9
100
AcDbCircle
 10
-1.988625000000001
 20
2.352050000000001
 30
0.0
 40
0.0099999999999993
100
AcDbArc
 50
90.0
 51
180.0
  0
ARC
  5
1BF
330
15E
100
AcDbEntity
  8
AM_9
100
AcDbCircle
 10
-1.988625000000001
 20
-2.352050000000001
 30
0.0
 40
0.0099999999999991
100
AcDbArc
 50
180.0
 51
270.0
  0
LINE
  5
1C0
330
15E
100
AcDbEntity
  8
AM_9
100
AcDbLine
 10
-1.34101349838004
 20
-2.2979875
 30
0.0
 11
-1.34101349838004
 21
2.2979875
 31
0.0
  0
LINE
  5
1C1
330
15E
100
AcDbEntity
  8
AM_9
100
AcDbLine
 10
-1.34101349838004
 20
-2.2979875
 30
0.0
 11
-1.304026996760079
 21
-2.36205
 31
0.0
  0
LINE
  5
1C2
330
15E
100
AcDbEntity
  8
AM_9
100
AcDbLine
 10
-1.304026996760079
 20
2.36205
 30
0.0
 11
-1.34101349838004
 21
2.2979875
 31
0.0
  0
LINE
  5
1C3
330
15E
100
AcDbEntity
  8
AM_9
100
AcDbLine
 10
-1.304026996760079
 20
-2.36205
 30
0.0
 11
-1.304026996760079
 21
2.36205
 31
0.0
  0
LINE
  5
1C4
330
15E
100
AcDbEntity
  8
AM_9
100
AcDbLine
 10
-0.7673750000000001
 20
2.36205
 30
0.0
 11
-1.304026996760079
 21
2.36205
 31
0.0
  0
LINE
  5
1C5
330
15E
100
AcDbEntity
  8
AM_9
100
AcDbLine
 10
-1.304026996760079
 20
-2.36205
 30
0.0
 11
-0.7673750000000001
 21
-2.36205
 31
0.0
  0
LINE
  5
1C6
330
15E
100
AcDbEntity
  8
AM_9
100
AcDbLine
 10
-1.988625000000001
 20
-2.36205
 30
0.0
 11
-1.988625000000001
 21
2.36205
 31
0.0
  0
LINE
  5
1C7
330
15E
100
AcDbEntity
  8
AM_9
100
AcDbLine
 10
-1.451973003239921
 20
2.36205
 30
0.0
 11
-1.988625000000001
 21
2.36205
 31
0.0
  0
LINE
  5
1C8
330
15E
100
AcDbEntity
  8
AM_9
100
AcDbLine
 10
-1.988625000000001
 20
-2.36205
 30
0.0
 11
-1.451973003239921
 21
-2.36205
 31
0.0
  0
LINE
  5
1C9
330
15E
100
AcDbEntity
  8
AM_9
100
AcDbLine
 10
-1.414986501619961
 20
-2.2979875
 30
0.0
 11
-1.414986501619961
 21
2.2979875
 31
0.0
  0
LINE
  5
1CA
330
15E
100
AcDbEntity
  8
AM_9
100
AcDbLine
 10
-1.451973003239921
 20
-2.36205
 30
0.0
 11
-1.451973003239921
 21
2.36205
 31
0.0
  0
LINE
  5
1CB
330
15E
100
AcDbEntity
  8
AM_9
100
AcDbLine
 10
-1.414986501619961
 20
2.2979875
 30
0.0
 11
-1.451973003239921
 21
2.36205
 31
0.0
  0
LINE
  5
1CC
330
15E
100
AcDbEntity
  8
AM_9
100
AcDbLine
 10
-1.451973003239921
 20
-2.36205
 30
0.0
 11
-1.414986501619961
 21
-2.2979875
 31
0.0
  0
LINE
  5
1CD
330
15E
100
AcDbEntity
  8
AM_9
100
AcDbLine
 10
-0.7173749999999999
 20
-2.31205
 30
0.0
 11
-0.7173749999999999
 21
2.31205
 31
0.0
  0
LINE
  5
1CE
330
15E
100
AcDbEntity
  8
AM_9
100
AcDbLine
 10
-0.7673750000000001
 20
-2.36205
 30
0.0
 11
-0.7673750000000001
 21
2.36205
 31
0.0
  0
ARC
  5
1CF
330
15E
100
AcDbEntity
  8
AM_9
100
AcDbCircle
 10
-0.7673750000000003
 20
2.31205
 30
0.0
 40
0.0500000000000003
100
AcDbArc
 50
0.0
 51
90.0
  0
ARC
  5
1D0
330
15E
100
AcDbEntity
  8
AM_9
100
AcDbCircle
 10
-0.7673750000000003
 20
-2.31205
 30
0.0
 40
0.0500000000000003
100
AcDbArc
 50
270.0
 51
0.0
  0
LINE
  5
1D1
330
15E
100
AcDbEntity
  8
AM_5
100
AcDbLine
 10
-2.598666666666666
 20
1.758194444444444
 30
0.0
 11
-2.559608920955988
 21
1.735644444444444
 31
0.0
  0
LINE
  5
1D2
330
15E
100
AcDbEntity
  8
AM_5
100
AcDbLine
 10
-2.598666666666666
 20
1.568194444444444
 30
0.0
 11
-2.559608920955988
 21
1.590744444444445
 31
0.0
  0
LINE
  5
1D3
330
15E
100
AcDbEntity
  8
AM_5
100
AcDbLine
 10
-2.598666666666673
 20
-1.758194444444444
 30
0.0
 11
-2.559608920955979
 21
-1.735644444444444
 31
0.0
  0
LINE
  5
1D4
330
15E
100
AcDbEntity
  8
AM_5
100
AcDbLine
 10
-2.598666666666673
 20
-1.568194444444444
 30
0.0
 11
-2.559608920955979
 21
-1.590744444444445
 31
0.0
  0
LINE
  5
1D5
330
15E
100
AcDbEntity
  8
AM_7
100
AcDbLine
 10
-2.416666666666667
 20
1.663194444444444
 30
0.0
 11
-3.615046666666666
 21
1.663194444444444
 31
0.0
  0
LINE
  5
1D6
330
15E
100
AcDbEntity
  8
AM_7
100
AcDbLine
 10
-2.416666666666672
 20
-1.663194444444444
 30
0.0
 11
-3.615046666666666
 21
-1.663194444444444
 31
0.0
  0
LINE
  5
1D7
330
15E
100
AcDbEntity
  8
AM_4
100
AcDbLine
 10
-3.368666666666666
 20
1.315789473684211
 30
0.0
 11
-3.57
 21
1.315789473684211
 31
0.0
  0
LINE
  5
1D8
330
15E
100
AcDbEntity
  8
AM_4
100
AcDbLine
 10
-3.57
 20
-1.315789473684211
 30
0.0
 11
-3.368666666666666
 21
-1.315789473684211
 31
0.0
  0
LINE
  5
1D9
330
15E
100
AcDbEntity
  8
AM_4
100
AcDbLine
 10
-3.57
 20
-1.315789473684211
 30
0.0
 11
-3.57
 21
1.315789473684211
 31
0.0
  0
LINE
  5
1DA
330
15E
100
AcDbEntity
  8
AM_4
100
AcDbLine
 10
-2.858666666666667
 20
-1.361180553784104
 30
0.0
 11
-3.298666666666666
 21
-1.361180553784104
 31
0.0
  0
LINE
  5
1DB
330
15E
100
AcDbEntity
  8
AM_4
100
AcDbLine
 10
-2.858666666666667
 20
1.361180553784104
 30
0.0
 11
-3.298666666666666
 21
1.361180553784104
 31
0.0
  0
LINE
  5
1DC
330
15E
100
AcDbEntity
  8
AM_4
100
AcDbLine
 10
-0.1249999999999998
 20
-1.727272727272727
 30
0.0
 11
-0.1249999999999998
 21
1.727272727272727
 31
0.0
  0
LINE
  5
1DD
330
15E
100
AcDbEntity
  8
AM_4
100
AcDbLine
 10
-0.4611250000000001
 20
-1.727272727272727
 30
0.0
 11
-0.4611250000000001
 21
1.727272727272727
 31
0.0
  0
LINE
  5
1DE
330
15E
100
AcDbEntity
  8
AM_4
100
AcDbLine
 10
-3.298666666666666
 20
-1.181789874658622
 30
0.0
 11
-2.858666666666667
 21
-1.187266214881315
 31
0.0
  0
LINE
  5
1DF
330
15E
100
AcDbEntity
  8
AM_4
100
AcDbLine
 10
-2.858666666666667
 20
-1.187266214881315
 30
0.0
 11
-2.858666666666667
 21
-1.540819605474589
 31
0.0
  0
LINE
  5
1E0
330
15E
100
AcDbEntity
  8
AM_4
100
AcDbLine
 10
-2.858666666666667
 20
-1.540819605474589
 30
0.0
 11
-3.298666666666666
 21
-1.535343265251896
 31
0.0
  0
LINE
  5
1E1
330
15E
100
AcDbEntity
  8
AM_4
100
AcDbLine
 10
-3.298666666666666
 20
1.535343265251897
 30
0.0
 11
-2.858666666666667
 21
1.540819605474589
 31
0.0
  0
LINE
  5
1E2
330
15E
100
AcDbEntity
  8
AM_4
100
AcDbLine
 10
-2.858666666666667
 20
1.540819605474589
 30
0.0
 11
-2.858666666666667
 21
1.187266214881315
 31
0.0
  0
LINE
  5
1E3
330
15E
100
AcDbEntity
  8
AM_4
100
AcDbLine
 10
-2.858666666666667
 20
1.187266214881315
 30
0.0
 11
-3.298666666666666
 21
1.181789874658622
 31
0.0
  0
LINE
  5
1E4
330
15E
100
AcDbEntity
  8
AM_4
100
AcDbLine
 10
-3.298666666666666
 20
-1.937499999999999
 30
0.0
 11
-2.62
 21
-1.949346170731283
 31
0.0
  0
LINE
  5
1E5
330
15E
100
AcDbEntity
  8
AM_4
100
AcDbLine
 10
-2.62
 20
1.949346170731283
 30
0.0
 11
-3.298666666666666
 21
1.937499999999999
 31
0.0
  0
LINE
  5
1E6
330
15E
100
AcDbEntity
  8
AM_4
100
AcDbLine
 10
-0.5111250000000004
 20
-1.727272727272727
 30
0.0
 11
-0.5111250000000004
 21
1.727272727272727
 31
0.0
  0
ENDBLK
  5
161
330
15E
100
AcDbEntity
  8
0
100
AcDbBlockEnd
  0
BLOCK
  5
1E9
330
1E7
100
AcDbEntity
  8
0
100
AcDbBlockBegin
  2
7_405015E_Inch_2_0_in_072238_2
 70
     2
 10
0.0
 20
0.0
 30
0.0
  3
7_405015E_Inch_2_0_in_072238_2
  1

  0
ATTDEF
  5
1EB
330
1E7
100
AcDbEntity
  8
AM_6
100
AcDbText
 10
3.442590742770461
 20
3.262
 30
0.0
 40
0.5
  1
405015E -Inch
100
AcDbAttributeDefinition
  3

  2
NN
 70
     8
280
     0
  0
ATTDEF
  5
1EC
330
1E7
100
AcDbEntity
  8
AM_6
100
AcDbText
 10
3.442590742770461
 20
2.762
 30
0.0
 40
0.5
  1
Grease Fitting
100
AcDbAttributeDefinition
  3

  2
NT
 70
     8
280
     0
  0
ATTDEF
  5
1ED
330
1E7
100
AcDbEntity
  8
AM_6
100
AcDbText
 10
3.442590742770461
 20
2.262
 30
0.0
 40
0.5
  1
405015E-Inch
100
AcDbAttributeDefinition
  3

  2
NB
 70
     8
280
     0
  0
ATTDEF
  5
1EE
330
1E7
100
AcDbEntity
  8
AM_6
100
AcDbText
 10
3.442590742770461
 20
1.762
 30
0.0
 40
0.5
  1
$MN.-Inch
100
AcDbAttributeDefinition
  3

  2
NBSYN
 70
     8
280
     0
  0
ATTDEF
  5
1EF
330
1E7
100
AcDbEntity
  8
AM_6
100
AcDbText
 10
3.442590742770461
 20
1.262
 30
0.0
 40
0.5
  1
405015E
100
AcDbAttributeDefinition
  3

  2
LINA
 70
     8
280
     0
  0
ATTDEF
  5
1F0
330
1E7
100
AcDbEntity
  8
AM_6
100
AcDbText
 10
3.442590742770461
 20
0.7619999999999996
 30
0.0
 40
0.5
  1
405015E
100
AcDbAttributeDefinition
  3

  2
MN
 70
     8
280
     0
  0
ATTDEF
  5
1F1
330
1E7
100
AcDbEntity
  8
AM_6
100
AcDbText
 10
3.442590742770461
 20
0.2619999999999996
 30
0.0
 40
0.5
  1
1/8 x 27PTF
100
AcDbAttributeDefinition
  3

  2
T
 70
     8
280
     0
  0
ATTDEF
  5
1F2
330
1E7
100
AcDbEntity
  8
AM_6
100
AcDbText
 10
3.442590742770461
 20
-0.2380000000000004
 30
0.0
 40
0.5
  1
baldor
100
AcDbAttributeDefinition
  3

  2
COMPANY
 70
     8
280
     0
  0
LINE
  5
1F3
330
1E7
100
AcDbEntity
  8
AM_9
100
AcDbLine
 10
-1.971902872472269
 20
2.59
 30
0.0
 11
-1.648097127527731
 21
2.59
 31
0.0
  0
LINE
  5
1F4
330
1E7
100
AcDbEntity
  8
AM_9
100
AcDbLine
 10
-1.648097127527731
 20
2.59
 30
0.0
 11
-1.611382373218785
 21
2.626714754308947
 31
0.0
  0
LINE
  5
1F5
330
1E7
100
AcDbEntity
  8
AM_9
100
AcDbLine
 10
-2.008617626781215
 20
2.626714754308947
 30
0.0
 11
-1.971902872472269
 21
2.59
 31
0.0
  0
LINE
  5
1F6
330
1E7
100
AcDbEntity
  8
AM_9
100
AcDbLine
 10
-2.008617626781215
 20
2.626714754308947
 30
0.0
 11
-1.611382373218785
 21
2.626714754308947
 31
0.0
  0
LINE
  5
1F7
330
1E7
100
AcDbEntity
  8
AM_9
100
AcDbLine
 10
-1.611382373218785
 20
2.626714754308947
 30
0.0
 11
-1.60424810277693
 21
2.855
 31
0.0
  0
LINE
  5
1F8
330
1E7
100
AcDbEntity
  8
AM_9
100
AcDbLine
 10
-2.01575189722307
 20
2.855
 30
0.0
 11
-2.008617626781215
 21
2.626714754308947
 31
0.0
  0
LINE
  5
1F9
330
1E7
100
AcDbEntity
  8
AM_5
100
AcDbLine
 10
-1.641850875147652
 20
2.789870087748463
 30
0.0
 11
-1.648097127527731
 21
2.59
 31
0.0
  0
LINE
  5
1FA
330
1E7
100
AcDbEntity
  8
AM_5
100
AcDbLine
 10
-1.60424810277693
 20
2.855
 30
0.0
 11
-1.641850875147652
 21
2.789870087748463
 31
0.0
  0
LINE
  5
1FB
330
1E7
100
AcDbEntity
  8
AM_5
100
AcDbLine
 10
-2.013716485751557
 20
2.789870087748463
 30
0.0
 11
-1.606283514248443
 21
2.789870087748463
 31
0.0
  0
LINE
  5
1FC
330
1E7
100
AcDbEntity
  8
AM_5
100
AcDbLine
 10
-1.978149124852348
 20
2.789870087748463
 30
0.0
 11
-1.971902872472269
 21
2.59
 31
0.0
  0
LINE
  5
1FD
330
1E7
100
AcDbEntity
  8
AM_5
100
AcDbLine
 10
-2.01575189722307
 20
2.855
 30
0.0
 11
-1.978149124852348
 21
2.789870087748463
 31
0.0
  0
LINE
  5
1FE
330
1E7
100
AcDbEntity
  8
AM_7
100
AcDbLine
 10
-1.81
 20
3.262
 30
0.0
 11
-1.81
 21
2.558
 31
0.0
  0
LINE
  5
1FF
330
1E7
100
AcDbEntity
  8
AM_4
100
AcDbLine
 10
-1.705
 20
3.06
 30
0.0
 11
-1.705
 21
3.09
 31
0.0
  0
LINE
  5
200
330
1E7
100
AcDbEntity
  8
AM_4
100
AcDbLine
 10
-1.915
 20
3.09
 30
0.0
 11
-1.915
 21
3.06
 31
0.0
  0
LINE
  5
201
330
1E7
100
AcDbEntity
  8
AM_4
100
AcDbLine
 10
-2.02875
 20
2.955
 30
0.0
 11
-1.59125
 21
2.955
 31
0.0
  0
LINE
  5
202
330
1E7
100
AcDbEntity
  8
AM_4
100
AcDbLine
 10
-1.557409257229539
 20
2.945932400303386
 30
0.0
 11
-1.59125
 21
2.955
 31
0.0
  0
LINE
  5
203
330
1E7
100
AcDbEntity
  8
AM_4
100
AcDbLine
 10
-2.02875
 20
2.955
 30
0.0
 11
-2.062590742770461
 21
2.945932400303386
 31
0.0
  0
LINE
  5
204
330
1E7
100
AcDbEntity
  8
AM_4
100
AcDbLine
 10
-1.59125
 20
2.855
 30
0.0
 11
-1.557409257229539
 21
2.864067599696615
 31
0.0
  0
LINE
  5
205
330
1E7
100
AcDbEntity
  8
AM_4
100
AcDbLine
 10
-2.062590742770461
 20
2.864067599696615
 30
0.0
 11
-2.02875
 21
2.855
 31
0.0
  0
LINE
  5
206
330
1E7
100
AcDbEntity
  8
AM_4
100
AcDbLine
 10
-1.915
 20
3.06
 30
0.0
 11
-1.705
 21
3.06
 31
0.0
  0
LINE
  5
207
330
1E7
100
AcDbEntity
  8
AM_4
100
AcDbLine
 10
-1.915
 20
3.06
 30
0.0
 11
-1.928820090734898
 21
3.027753121618573
 31
0.0
  0
LINE
  5
208
330
1E7
100
AcDbEntity
  8
AM_4
100
AcDbLine
 10
-1.691179909265103
 20
3.027753121618573
 30
0.0
 11
-1.705
 21
3.06
 31
0.0
  0
LINE
  5
209
330
1E7
100
AcDbEntity
  8
AM_4
100
AcDbLine
 10
-1.915
 20
3.09
 30
0.0
 11
-1.705
 21
3.09
 31
0.0
  0
LINE
  5
20A
330
1E7
100
AcDbEntity
  8
AM_4
100
AcDbLine
 10
-1.705
 20
3.09
 30
0.0
 11
-1.675
 21
3.15
 31
0.0
  0
LINE
  5
20B
330
1E7
100
AcDbEntity
  8
AM_4
100
AcDbLine
 10
-1.945
 20
3.15
 30
0.0
 11
-1.915
 21
3.09
 31
0.0
  0
LINE
  5
20C
330
1E7
100
AcDbEntity
  8
AM_4
100
AcDbLine
 10
-1.912677901933187
 20
3.23
 30
0.0
 11
-1.707322098066813
 21
3.23
 31
0.0
  0
LINE
  5
20D
330
1E7
100
AcDbEntity
  8
AM_4
100
AcDbLine
 10
-1.945
 20
3.15
 30
0.0
 11
-1.675
 21
3.15
 31
0.0
  0
LINE
  5
20E
330
1E7
100
AcDbEntity
  8
AM_4
100
AcDbLine
 10
-1.912677901933187
 20
3.23
 30
0.0
 11
-1.945
 21
3.15
 31
0.0
  0
LINE
  5
20F
330
1E7
100
AcDbEntity
  8
AM_4
100
AcDbLine
 10
-1.675
 20
3.15
 30
0.0
 11
-1.707322098066813
 21
3.23
 31
0.0
  0
LINE
  5
210
330
1E7
100
AcDbEntity
  8
AM_4
100
AcDbLine
 10
-1.928820090734898
 20
3.027753121618573
 30
0.0
 11
-1.691179909265103
 21
3.027753121618573
 31
0.0
  0
LINE
  5
211
330
1E7
100
AcDbEntity
  8
AM_4
100
AcDbLine
 10
-1.928820090734898
 20
3.027753121618573
 30
0.0
 11
-1.982534053283015
 21
2.973318198540882
 31
0.0
  0
LINE
  5
212
330
1E7
100
AcDbEntity
  8
AM_4
100
AcDbLine
 10
-1.637465946716985
 20
2.973318198540882
 30
0.0
 11
-1.691179909265103
 21
3.027753121618573
 31
0.0
  0
LINE
  5
213
330
1E7
100
AcDbEntity
  8
AM_4
100
AcDbLine
 10
-1.982534053283015
 20
2.973318198540882
 30
0.0
 11
-1.637465946716985
 21
2.973318198540882
 31
0.0
  0
LINE
  5
214
330
1E7
100
AcDbEntity
  8
AM_4
100
AcDbLine
 10
-1.982534053283015
 20
2.973318198540882
 30
0.0
 11
-2.02375
 21
2.955
 31
0.0
  0
LINE
  5
215
330
1E7
100
AcDbEntity
  8
AM_4
100
AcDbLine
 10
-1.59625
 20
2.955
 30
0.0
 11
-1.637465946716985
 21
2.973318198540882
 31
0.0
  0
LWPOLYLINE
  5
216
330
1E7
100
AcDbEntity
  8
AM_4
100
AcDbPolyline
 90
        4
 70
     0
 43
0.0
 10
-2.062590742770461
 20
2.945932400303386
 10
-2.031158864423564
 20
2.95258547505038
 10
-2.015323075602153
 20
2.954385438185772
 10
-1.999443057077846
 20
2.955
  0
LINE
  5
217
330
1E7
100
AcDbEntity
  8
AM_4
100
AcDbLine
 10
-2.062590742770461
 20
2.945932400303386
 30
0.0
 11
-2.062590742770461
 21
2.864067599696615
 31
0.0
  0
LWPOLYLINE
  5
218
330
1E7
100
AcDbEntity
  8
AM_4
100
AcDbPolyline
 90
        4
 70
     0
 43
0.0
 10
-1.999443057077846
 20
2.855
 10
-2.015229978501
 20
2.855607414003999
 10
-2.031016899924154
 20
2.857393380785035
 10
-2.062590742770461
 20
2.864067599696615
  0
LWPOLYLINE
  5
219
330
1E7
100
AcDbEntity
  8
AM_4
100
AcDbPolyline
 90
        4
 70
     0
 43
0.0
 10
-1.936295371385231
 20
2.864067599696615
 10
-1.967727249732128
 20
2.85741452494962
 10
-1.983563038553539
 20
2.855614561814227
 10
-1.999443057077846
 20
2.855
  0
LWPOLYLINE
  5
21A
330
1E7
100
AcDbEntity
  8
AM_4
100
AcDbPolyline
 90
        4
 70
     0
 43
0.0
 10
-1.81
 20
2.955
 10
-1.761600183944101
 20
2.953582439282862
 10
-1.713200367888202
 20
2.949517587482156
 10
-1.683704628614769
 20
2.945932400303386
  0
LINE
  5
21B
330
1E7
100
AcDbEntity
  8
AM_4
100
AcDbLine
 10
-1.936295371385231
 20
2.945932400303386
 30
0.0
 11
-1.936295371385231
 21
2.864067599696615
 31
0.0
  0
LWPOLYLINE
  5
21C
330
1E7
100
AcDbEntity
  8
AM_4
100
AcDbPolyline
 90
        4
 70
     0
 43
0.0
 10
-1.81
 20
2.855
 10
-1.841573842846308
 20
2.855607414003999
 10
-1.873147685692615
 20
2.857393380785035
 10
-1.936295371385231
 20
2.864067599696615
  0
LWPOLYLINE
  5
21D
330
1E7
100
AcDbEntity
  8
AM_4
100
AcDbPolyline
 90
        4
 70
     0
 43
0.0
 10
-1.683704628614769
 20
2.864067599696615
 10
-1.713200367888202
 20
2.860482412517844
 10
-1.761457558752246
 20
2.856425828243072
 10
-1.81
 20
2.855
  0
LWPOLYLINE
  5
21E
330
1E7
100
AcDbEntity
  8
AM_4
100
AcDbPolyline
 90
        4
 70
     0
 43
0.0
 10
-1.999443057077846
 20
2.955
 10
-1.983656135654692
 20
2.954392585996001
 10
-1.967869214231539
 20
2.952606619214965
 10
-1.936295371385231
 20
2.945932400303386
  0
LWPOLYLINE
  5
21F
330
1E7
100
AcDbEntity
  8
AM_4
100
AcDbPolyline
 90
        4
 70
     0
 43
0.0
 10
-1.936295371385231
 20
2.945932400303386
 10
-1.873431614691437
 20
2.95258547505038
 10
-1.841760037048614
 20
2.954385438185772
 10
-1.81
 20
2.955
  0
LINE
  5
220
330
1E7
100
AcDbEntity
  8
AM_4
100
AcDbLine
 10
-1.557409257229539
 20
2.945932400303386
 30
0.0
 11
-1.557409257229539
 21
2.864067599696615
 31
0.0
  0
LWPOLYLINE
  5
221
330
1E7
100
AcDbEntity
  8
AM_4
100
AcDbPolyline
 90
        4
 70
     0
 43
0.0
 10
-1.620556942922154
 20
2.955
 10
-1.604770021499
 20
2.954392585996001
 10
-1.588983100075847
 20
2.952606619214965
 10
-1.557409257229539
 20
2.945932400303386
  0
LWPOLYLINE
  5
222
330
1E7
100
AcDbEntity
  8
AM_4
100
AcDbPolyline
 90
        4
 70
     0
 43
0.0
 10
-1.683704628614769
 20
2.945932400303386
 10
-1.652272750267872
 20
2.95258547505038
 10
-1.636436961446461
 20
2.954385438185772
 10
-1.620556942922154
 20
2.955
  0
LINE
  5
223
330
1E7
100
AcDbEntity
  8
AM_4
100
AcDbLine
 10
-1.683704628614769
 20
2.945932400303386
 30
0.0
 11
-1.683704628614769
 21
2.864067599696615
 31
0.0
  0
LWPOLYLINE
  5
224
330
1E7
100
AcDbEntity
  8
AM_4
100
AcDbPolyline
 90
        4
 70
     0
 43
0.0
 10
-1.620556942922154
 20
2.855
 10
-1.636343864345308
 20
2.855607414003999
 10
-1.652130785768462
 20
2.857393380785035
 10
-1.683704628614769
 20
2.864067599696615
  0
LWPOLYLINE
  5
225
330
1E7
100
AcDbEntity
  8
AM_4
100
AcDbPolyline
 90
        4
 70
     0
 43
0.0
 10
-1.557409257229539
 20
2.864067599696615
 10
-1.588841135576436
 20
2.85741452494962
 10
-1.604676924397847
 20
2.855614561814227
 10
-1.620556942922154
 20
2.855
  0
ENDBLK
  5
1EA
330
1E7
100
AcDbEntity
  8
0
100
AcDbBlockEnd
  0
BLOCK
  5
228
330
226
100
AcDbEntity
  8
0
100
AcDbBlockBegin
  2
8_072238DUMMY_0_in_072238_2
 70
     2
 10
0.0
 20
0.0
 30
0.0
  3
8_072238DUMMY_0_in_072238_2
  1

  0
ATTDEF
  5
22A
330
226
100
AcDbEntity
  8
AM_6
100
AcDbText
 10
5.148850000028673
 20
3.31
 30
0.0
 40
0.5
  1
SEF4B-IP-207-408-(Contact Seal) Housing
100
AcDbAttributeDefinition
  3

  2
NN
 70
     8
280
     0
  0
ATTDEF
  5
22B
330
226
100
AcDbEntity
  8
AM_6
100
AcDbText
 10
5.148850000028673
 20
2.81
 30
0.0
 40
0.5
  1
Steel Imperial/E 4 Bolt Flange Bearing-Inch-207-408
100
AcDbAttributeDefinition
  3

  2
NT
 70
     8
280
     0
  0
ATTDEF
  5
22C
330
226
100
AcDbEntity
  8
AM_6
100
AcDbText
 10
5.148850000028673
 20
2.31
 30
0.0
 40
0.5
  1
072238DUMMY
100
AcDbAttributeDefinition
  3

  2
NB
 70
     8
280
     0
  0
ATTDEF
  5
22D
330
226
100
AcDbEntity
  8
AM_6
100
AcDbText
 10
5.148850000028673
 20
1.81
 30
0.0
 40
0.5
  1
$PN.
100
AcDbAttributeDefinition
  3

  2
NBSYN
 70
     8
280
     0
  0
ATTDEF
  5
22E
330
226
100
AcDbEntity
  8
AM_6
100
AcDbText
 10
5.148850000028673
 20
1.31
 30
0.0
 40
0.5
  1
072238DUMMY
100
AcDbAttributeDefinition
  3

  2
LINA
 70
     8
280
     0
  0
ATTDEF
  5
22F
330
226
100
AcDbEntity
  8
AM_6
100
AcDbText
 10
5.148850000028673
 20
0.81
 30
0.0
 40
0.5
  1
2-1/2
100
AcDbAttributeDefinition
  3

  2
SS
 70
     8
280
     0
  0
ATTDEF
  5
230
330
226
100
AcDbEntity
  8
AM_6
100
AcDbText
 10
5.148850000028673
 20
0.3100000000000001
 30
0.0
 40
0.5
  1
1.5000
100
AcDbAttributeDefinition
  3

  2
SS1
 70
     8
280
     0
  0
ATTDEF
  5
231
330
226
100
AcDbEntity
  8
AM_6
100
AcDbText
 10
5.148850000028673
 20
-0.1899999999999999
 30
0.0
 40
0.5
  1
4.7241
100
AcDbAttributeDefinition
  3

  2
BORE
 70
     8
280
     0
  0
ATTDEF
  5
232
330
226
100
AcDbEntity
  8
AM_6
100
AcDbText
 10
5.148850000028673
 20
-0.69
 30
0.0
 40
0.5
  1
Non-Expansion
100
AcDbAttributeDefinition
  3

  2
TYPE
 70
     8
280
     0
  0
ATTDEF
  5
233
330
226
100
AcDbEntity
  8
AM_6
100
AcDbText
 10
5.148850000028673
 20
-1.19
 30
0.0
 40
0.5
  1
Contact Seal
100
AcDbAttributeDefinition
  3

  2
ST
 70
     8
280
     0
  0
ATTDEF
  5
234
330
226
100
AcDbEntity
  8
AM_6
100
AcDbText
 10
5.148850000028673
 20
-1.69
 30
0.0
 40
0.5
  1
1
100
AcDbAttributeDefinition
  3

  2
ST1
 70
     8
280
     0
  0
ATTDEF
  5
235
330
226
100
AcDbEntity
  8
AM_6
100
AcDbText
 10
5.148850000028673
 20
-2.19
 30
0.0
 40
0.5
  1
3,42
100
AcDbAttributeDefinition
  3

  2
A
 70
     8
280
     0
  0
ATTDEF
  5
236
330
226
100
AcDbEntity
  8
AM_6
100
AcDbText
 10
5.148850000028673
 20
-2.69
 30
0.0
 40
0.5
  1
3.420000
100
AcDbAttributeDefinition
  3

  2
A1
 70
     8
280
     0
  0
ATTDEF
  5
237
330
226
100
AcDbEntity
  8
AM_6
100
AcDbText
 10
5.148850000028673
 20
-3.19
 30
0.0
 40
0.5
  1
6.62
100
AcDbAttributeDefinition
  3

  2
B
 70
     8
280
     0
  0
ATTDEF
  5
238
330
226
100
AcDbEntity
  8
AM_6
100
AcDbText
 10
5.148850000028673
 20
-3.69
 30
0.0
 40
0.5
  1
6.620000
100
AcDbAttributeDefinition
  3

  2
B1
 70
     8
280
     0
  0
ATTDEF
  5
239
330
226
100
AcDbEntity
  8
AM_6
100
AcDbText
 10
5.148850000028673
 20
-4.19
 30
0.0
 40
0.5
  1
3.57
100
AcDbAttributeDefinition
  3

  2
C
 70
     8
280
     0
  0
ATTDEF
  5
23A
330
226
100
AcDbEntity
  8
AM_6
100
AcDbText
 10
5.148850000028673
 20
-4.69
 30
0.0
 40
0.5
  1
3.570000
100
AcDbAttributeDefinition
  3

  2
C1
 70
     8
280
     0
  0
ATTDEF
  5
23B
330
226
100
AcDbEntity
  8
AM_6
100
AcDbText
 10
5.148850000028673
 20
-5.19
 30
0.0
 40
0.5
  1
5.37
100
AcDbAttributeDefinition
  3

  2
D
 70
     8
280
     0
  0
ATTDEF
  5
23C
330
226
100
AcDbEntity
  8
AM_6
100
AcDbText
 10
5.148850000028673
 20
-5.69
 30
0.0
 40
0.5
  1
5.370000
100
AcDbAttributeDefinition
  3

  2
D1
 70
     8
280
     0
  0
ATTDEF
  5
23D
330
226
100
AcDbEntity
  8
AM_6
100
AcDbText
 10
5.148850000028673
 20
-6.19
 30
0.0
 40
0.5
  1
7.60
100
AcDbAttributeDefinition
  3

  2
DD
 70
     8
280
     0
  0
ATTDEF
  5
23E
330
226
100
AcDbEntity
  8
AM_6
100
AcDbText
 10
5.148850000028673
 20
-6.69
 30
0.0
 40
0.5
  1
7.600000
100
AcDbAttributeDefinition
  3

  2
DD1
 70
     8
280
     0
  0
ATTDEF
  5
23F
330
226
100
AcDbEntity
  8
AM_6
100
AcDbText
 10
5.148850000028673
 20
-7.19
 30
0.0
 40
0.5
  1
5/8
100
AcDbAttributeDefinition
  3

  2
F
 70
     8
280
     0
  0
ATTDEF
  5
240
330
226
100
AcDbEntity
  8
AM_6
100
AcDbText
 10
5.148850000028673
 20
-7.69
 30
0.0
 40
0.5
  1
0.625
100
AcDbAttributeDefinition
  3

  2
F1
 70
     8
280
     0
  0
ATTDEF
  5
241
330
226
100
AcDbEntity
  8
AM_6
100
AcDbText
 10
5.148850000028673
 20
-8.19
 30
0.0
 40
0.5
  1
0.95
100
AcDbAttributeDefinition
  3

  2
G
 70
     8
280
     0
  0
ATTDEF
  5
242
330
226
100
AcDbEntity
  8
AM_6
100
AcDbText
 10
5.148850000028673
 20
-8.69
 30
0.0
 40
0.5
  1
0.950000
100
AcDbAttributeDefinition
  3

  2
G1
 70
     8
280
     0
  0
ATTDEF
  5
243
330
226
100
AcDbEntity
  8
AM_6
100
AcDbText
 10
5.148850000028673
 20
-9.19
 30
0.0
 40
0.5
  1
1.00
100
AcDbAttributeDefinition
  3

  2
H
 70
     8
280
     0
  0
ATTDEF
  5
244
330
226
100
AcDbEntity
  8
AM_6
100
AcDbText
 10
5.148850000028673
 20
-9.69
 30
0.0
 40
0.5
  1
1.000000
100
AcDbAttributeDefinition
  3

  2
H1
 70
     8
280
     0
  0
ATTDEF
  5
245
330
226
100
AcDbEntity
  8
AM_6
100
AcDbText
 10
5.148850000028673
 20
-10.19
 30
0.0
 40
0.5
  1
5.63
100
AcDbAttributeDefinition
  3

  2
J
 70
     8
280
     0
  0
ATTDEF
  5
246
330
226
100
AcDbEntity
  8
AM_6
100
AcDbText
 10
5.148850000028673
 20
-10.69
 30
0.0
 40
0.5
  1
5.630000
100
AcDbAttributeDefinition
  3

  2
J1
 70
     8
280
     0
  0
ATTDEF
  5
247
330
226
100
AcDbEntity
  8
AM_6
100
AcDbText
 10
5.148850000028673
 20
-11.19
 30
0.0
 40
0.5
  1
6-3/4
100
AcDbAttributeDefinition
  3

  2
K
 70
     8
280
     0
  0
ATTDEF
  5
248
330
226
100
AcDbEntity
  8
AM_6
100
AcDbText
 10
5.148850000028673
 20
-11.69
 30
0.0
 40
0.5
  1
5.2500
100
AcDbAttributeDefinition
  3

  2
K1
 70
     8
280
     0
  0
ATTDEF
  5
249
330
226
100
AcDbEntity
  8
AM_6
100
AcDbText
 10
5.148850000028673
 20
-12.19
 30
0.0
 40
0.5
  1
3.80
100
AcDbAttributeDefinition
  3

  2
L
 70
     8
280
     0
  0
ATTDEF
  5
24A
330
226
100
AcDbEntity
  8
AM_6
100
AcDbText
 10
5.148850000028673
 20
-12.69
 30
0.0
 40
0.5
  1
3.80000
100
AcDbAttributeDefinition
  3

  2
L1
 70
     8
280
     0
  0
ATTDEF
  5
24B
330
226
100
AcDbEntity
  8
AM_6
100
AcDbText
 10
5.148850000028673
 20
-13.19
 30
0.0
 40
0.5
  1
3.23
100
AcDbAttributeDefinition
  3

  2
N
 70
     8
280
     0
  0
ATTDEF
  5
24C
330
226
100
AcDbEntity
  8
AM_6
100
AcDbText
 10
5.148850000028673
 20
-13.69
 30
0.0
 40
0.5
  1
3.230000
100
AcDbAttributeDefinition
  3

  2
N1
 70
     8
280
     0
  0
ATTDEF
  5
24D
330
226
100
AcDbEntity
  8
AM_6
100
AcDbText
 10
5.148850000028673
 20
-14.19
 30
0.0
 40
0.5
  1
0.15
100
AcDbAttributeDefinition
  3

  2
P
 70
     8
280
     0
  0
ATTDEF
  5
24E
330
226
100
AcDbEntity
  8
AM_6
100
AcDbText
 10
5.148850000028673
 20
-14.69
 30
0.0
 40
0.5
  1
0.150000
100
AcDbAttributeDefinition
  3

  2
P1
 70
     8
280
     0
  0
ATTDEF
  5
24F
330
226
100
AcDbEntity
  8
AM_6
100
AcDbText
 10
5.148850000028673
 20
-15.19
 30
0.0
 40
0.5
  1
0.25
100
AcDbAttributeDefinition
  3

  2
X
 70
     8
280
     0
  0
ATTDEF
  5
250
330
226
100
AcDbEntity
  8
AM_6
100
AcDbText
 10
5.148850000028673
 20
-15.69
 30
0.0
 40
0.5
  1
0.2500
100
AcDbAttributeDefinition
  3

  2
X1
 70
     8
280
     0
  0
ATTDEF
  5
251
330
226
100
AcDbEntity
  8
AM_6
100
AcDbText
 10
5.148850000028673
 20
-16.19
 30
0.0
 40
0.5
  1
0.025
100
AcDbAttributeDefinition
  3

  2
Y
 70
     8
280
     0
  0
ATTDEF
  5
252
330
226
100
AcDbEntity
  8
AM_6
100
AcDbText
 10
5.148850000028673
 20
-16.69
 30
0.0
 40
0.5
  1
2.95
100
AcDbAttributeDefinition
  3

  2
Z
 70
     8
280
     0
  0
ATTDEF
  5
253
330
226
100
AcDbEntity
  8
AM_6
100
AcDbText
 10
5.148850000028673
 20
-17.19
 30
0.0
 40
0.5
  1
2.950000
100
AcDbAttributeDefinition
  3

  2
Z1
 70
     8
280
     0
  0
ATTDEF
  5
254
330
226
100
AcDbEntity
  8
AM_6
100
AcDbText
 10
5.148850000028673
 20
-17.69
 30
0.0
 40
0.5
  1
072238
100
AcDbAttributeDefinition
  3

  2
PN1
 70
     8
280
     0
  0
ATTDEF
  5
255
330
226
100
AcDbEntity
  8
AM_6
100
AcDbText
 10
5.148850000028673
 20
-18.19
 30
0.0
 40
0.5
  1
072263
100
AcDbAttributeDefinition
  3

  2
PN2
 70
     8
280
     0
  0
ATTDEF
  5
256
330
226
100
AcDbEntity
  8
AM_6
100
AcDbText
 10
5.148850000028673
 20
-18.69
 30
0.0
 40
0.5
  1
SEF4B-IP-208R
100
AcDbAttributeDefinition
  3

  2
DESC1
 70
     8
280
     0
  0
ATTDEF
  5
257
330
226
100
AcDbEntity
  8
AM_6
100
AcDbText
 10
5.148850000028673
 20
-19.19
 30
0.0
 40
0.5
  1
0.1003300
100
AcDbAttributeDefinition
  3

  2
O
 70
     8
280
     0
  0
ATTDEF
  5
258
330
226
100
AcDbEntity
  8
AM_6
100
AcDbText
 10
5.148850000028673
 20
-19.69
 30
0.0
 40
0.5
  1
baldor
100
AcDbAttributeDefinition
  3

  2
COMPANY
 70
     8
280
     0
  0
LINE
  5
259
330
226
100
AcDbEntity
  8
AM_9
100
AcDbLine
 10
-0.5714285714285712
 20
3.31
 30
0.0
 11
-0.5714285714285712
 21
1.727272727272728
 31
0.0
  0
LINE
  5
25A
330
226
100
AcDbEntity
  8
AM_9
100
AcDbLine
 10
-0.5714285714285712
 20
-1.727272727272725
 30
0.0
 11
-0.5714285714285712
 21
-3.31
 31
0.0
  0
LINE
  5
25B
330
226
100
AcDbEntity
  8
AM_9
100
AcDbLine
 10
-0.5714285714285715
 20
2.36205
 30
0.0
 11
-2.62
 21
2.36205
 31
0.0
  0
LINE
  5
25C
330
226
100
AcDbEntity
  8
AM_9
100
AcDbLine
 10
-2.62
 20
-2.36205
 30
0.0
 11
-0.5714285714285715
 21
-2.36205
 31
0.0
  0
LINE
  5
25D
330
226
100
AcDbEntity
  8
AM_9
100
AcDbLine
 10
-1.330000000000013
 20
2.814999999999997
 30
0.0
 11
-1.340277435224606
 21
2.81301821153259
 31
0.0
  0
LINE
  5
25E
330
226
100
AcDbEntity
  8
AM_9
100
AcDbLine
 10
-0.9999999999999999
 20
2.3725
 30
0.0
 11
0.0000000000000002
 21
2.3725
 31
0.0
  0
LINE
  5
25F
330
226
100
AcDbEntity
  8
AM_9
100
AcDbLine
 10
0.0000000000000002
 20
2.9975
 30
0.0
 11
-0.9999999999999999
 21
2.9975
 31
0.0
  0
LINE
  5
260
330
226
100
AcDbEntity
  8
AM_9
100
AcDbLine
 10
-0.9999999999999999
 20
-2.9975
 30
0.0
 11
0.0000000000000002
 21
-2.9975
 31
0.0
  0
LINE
  5
261
330
226
100
AcDbEntity
  8
AM_9
100
AcDbLine
 10
0.0000000000000002
 20
-2.3725
 30
0.0
 11
-0.9999999999999999
 21
-2.3725
 31
0.0
  0
LINE
  5
262
330
226
100
AcDbEntity
  8
AM_7
100
AcDbLine
 10
0.1488500000286722
 20
0.0
 30
0.0
 11
-3.742249999999999
 21
0.0
 31
0.0
  0
LINE
  5
263
330
226
100
AcDbEntity
  8
AM_7
100
AcDbLine
 10
0.0599999999999998
 20
2.685
 30
0.0
 11
-1.26
 21
2.685
 31
0.0
  0
LINE
  5
264
330
226
100
AcDbEntity
  8
AM_7
100
AcDbLine
 10
0.0599999999999998
 20
-2.685
 30
0.0
 11
-1.26
 21
-2.685
 31
0.0
  0
LINE
  5
265
330
226
100
AcDbEntity
  8
AM_4
100
AcDbLine
 10
-1.410000000000004
 20
-2.855
 30
0.0
 11
-2.209999999945805
 21
-2.855
 31
0.0
  0
ARC
  5
266
330
226
100
AcDbEntity
  8
AM_4
100
AcDbCircle
 10
-2.210000000000005
 20
-2.755000000000001
 30
0.0
 40
0.0999999999999989
100
AcDbArc
 50
216.9526212332727
 51
270.0
  0
ARC
  5
267
330
226
100
AcDbEntity
  8
AM_4
100
AcDbCircle
 10
-1.410000000000004
 20
-2.754999999999999
 30
0.0
 40
0.1000000000000005
100
AcDbArc
 50
270.0
 51
323.0532912225337
  0
LINE
  5
268
330
226
100
AcDbEntity
  8
AM_4
100
AcDbLine
 10
-1.41
 20
2.855
 30
0.0
 11
-2.2099999999458
 21
2.855
 31
0.0
  0
ARC
  5
269
330
226
100
AcDbEntity
  8
AM_4
100
AcDbCircle
 10
-2.209999999999998
 20
2.754999999999995
 30
0.0
 40
0.1000000000000045
100
AcDbArc
 50
90.0
 51
143.1246237925498
  0
ARC
  5
26A
330
226
100
AcDbEntity
  8
AM_4
100
AcDbCircle
 10
-1.410000000000001
 20
2.754999999999997
 30
0.0
 40
0.1000000000000027
100
AcDbArc
 50
36.97208504878925
 51
90.0
  0
LINE
  5
26B
330
226
100
AcDbEntity
  8
AM_4
100
AcDbLine
 10
-2.62
 20
-2.72
 30
0.0
 11
-2.62
 21
2.72
 31
0.0
  0
ARC
  5
26C
330
226
100
AcDbEntity
  8
AM_4
100
AcDbCircle
 10
-2.524999999999999
 20
2.719999999999999
 30
0.0
 40
0.0950000000000006
100
AcDbArc
 50
90.0
 51
180.0
  0
ARC
  5
26D
330
226
100
AcDbEntity
  8
AM_4
100
AcDbCircle
 10
-2.524999999999999
 20
-2.719999999999999
 30
0.0
 40
0.0950000000000011
100
AcDbArc
 50
180.0
 51
270.0
  0
LINE
  5
26E
330
226
100
AcDbEntity
  8
AM_4
100
AcDbLine
 10
-2.525
 20
-2.815
 30
0.0
 11
-2.525
 21
2.815
 31
0.0
  0
LINE
  5
26F
330
226
100
AcDbEntity
  8
AM_4
100
AcDbLine
 10
-1.0
 20
2.815
 30
0.0
 11
-1.330397235681654
 21
2.815
 31
0.0
  0
LINE
  5
270
330
226
100
AcDbEntity
  8
AM_4
100
AcDbLine
 10
-2.289925048885527
 20
2.815
 30
0.0
 11
-2.525
 21
2.815
 31
0.0
  0
LINE
  5
271
330
226
100
AcDbEntity
  8
AM_4
100
AcDbLine
 10
-2.525
 20
-2.815
 30
0.0
 11
-2.289682154714542
 21
-2.815
 31
0.0
  0
LINE
  5
272
330
226
100
AcDbEntity
  8
AM_4
100
AcDbLine
 10
-1.330315818127396
 20
-2.815
 30
0.0
 11
-1.0
 21
-2.815
 31
0.0
  0
LWPOLYLINE
  5
273
330
226
100
AcDbEntity
  8
AM_4
100
AcDbPolyline
 90
       39
 70
     0
 43
0.0
 10
-1.330000000000054
 20
-2.81499999999999
 10
-1.330930694044475
 20
-2.814817538664832
 10
-1.33508794462175
 20
-2.814012019678665
 10
-1.342993081076687
 20
-2.812502966495293
 10
-1.354541315148299
 20
-2.81035726747379
 10
-1.370280840150956
 20
-2.807537362741864
 10
-1.389858337287276
 20
-2.804195927347959
 10
-1.411411930838281
 20
-2.800721205526373
 10
-1.436105598476191
 20
-2.796995154496836
 10
-1.46479179300063
 20
-2.792998488395596
 10
-1.49646970414473
 20
-2.788986058089415
 10
-1.527386432326684
 20
-2.785467698019976
 10
-1.560315618879187
 20
-2.782140673431754
 10
-1.596109110329885
 20
-2.77900981766883
 10
-1.633514921658146
 20
-2.776266229057252
 10
-1.670326353198987
 20
-2.774089720200939
 10
-1.70808183310121
 20
-2.77238764328286
 10
-1.747626738644865
 20
-2.77117962916936
 10
-1.787613999960578
 20
-2.770548841326709
 10
-1.827063919119448
 20
-2.770510769277427
 10
-1.866397221788257
 20
-2.771046706164175
 10
-1.906459026716585
 20
-2.772186963442181
 10
-1.945819534592014
 20
-2.773890623524481
 10
-1.983228854555384
 20
-2.776053684808562
 10
-2.01943051124942
 20
-2.778653597178372
 10
-2.055168990108889
 20
-2.781718752772667
 10
-2.089082469176302
 20
-2.785089746799108
 10
-2.119677891755217
 20
-2.788526837072935
 10
-2.148152928806327
 20
-2.792068360563228
 10
-2.175035219132069
 20
-2.795723385926046
 10
-2.199315167660576
 20
-2.799290531466221
 10
-2.220394373815568
 20
-2.802598340247885
 10
-2.238765855847529
 20
-2.805645925124946
 10
-2.254729285212119
 20
-2.808421944774158
 10
-2.267734243108535
 20
-2.810774933118733
 10
-2.277963371280952
 20
-2.812683935798631
 10
-2.285069078313072
 20
-2.814042307784784
 10
-2.289112280654314
 20
-2.814825947516292
 10
-2.28999999999996
 20
-2.814999999999991
  0
LWPOLYLINE
  5
274
330
226
100
AcDbEntity
  8
AM_4
100
AcDbPolyline
 90
       40
 70
     0
 43
0.0
 10
-2.289999999999991
 20
2.814999999999998
 10
-2.289996283597304
 20
2.81499927337502
 10
-2.288085083407996
 20
2.814625782874367
 10
-2.282676246880053
 20
2.81358214577256
 10
-2.273551715160703
 20
2.811853773827717
 10
-2.260783263167832
 20
2.809507147752746
 10
-2.243782513008702
 20
2.806504982320373
 10
-2.222959654556578
 20
2.803014628245107
 10
-2.200450286636966
 20
2.799463681679235
 10
-2.174886233159502
 20
2.795702078284648
 10
-2.145408600385802
 20
2.791712889713647
 10
-2.113054774664184
 20
2.787750306179264
 10
-2.081537580914722
 20
2.784300735759532
 10
-2.048100883769235
 20
2.781072406873479
 10
-2.011895085336541
 20
2.778071632029141
 10
-1.974181526704343
 20
2.775481210344812
 10
-1.937010729104635
 20
2.773459352741639
 10
-1.898982275502906
 20
2.771927837209954
 10
-1.859249754846726
 20
2.770907349639409
 10
-1.819168058527641
 20
2.770471380557466
 10
-1.779691059783879
 20
2.770627313465968
 10
-1.740421653305089
 20
2.771355426347254
 10
-1.7005179004773
 20
2.772686550999159
 10
-1.661412833557977
 20
2.774568942343508
 10
-1.624407163925313
 20
2.776885373423862
 10
-1.588695612242806
 20
2.779616590850237
 10
-1.553548414353968
 20
2.782789917240825
 10
-1.52030860181516
 20
2.786238599954479
 10
-1.490433711322226
 20
2.789718885570706
 10
-1.462740111522228
 20
2.79327230111617
 10
-1.436720007885897
 20
2.796906002820347
 10
-1.41334491769785
 20
2.800419818609659
 10
-1.393118710578815
 20
2.803656617760815
 10
-1.375637659534213
 20
2.806605480490518
 10
-1.360619956358964
 20
2.80925375056352
 10
-1.348581376285338
 20
2.811456649583485
 10
-1.339328404086509
 20
2.813198349539698
 10
-1.333234139416164
 20
2.814370420441072
 10
-1.330263322345979
 20
2.814947815911395
 10
-1.330000000000013
 20
2.814999999999997
  0
LINE
  5
275
330
226
100
AcDbEntity
  8
AM_4
100
AcDbLine
 10
0.0000000000000002
 20
-3.31
 30
0.0
 11
0.0000000000000002
 21
-1.727272727272727
 31
0.0
  0
LINE
  5
276
330
226
100
AcDbEntity
  8
AM_4
100
AcDbLine
 10
-0.9999999999999999
 20
-3.31
 30
0.0
 11
0.0000000000000002
 21
-3.31
 31
0.0
  0
LINE
  5
277
330
226
100
AcDbEntity
  8
AM_4
100
AcDbLine
 10
0.0000000000000002
 20
1.727272727272727
 30
0.0
 11
0.0000000000000002
 21
3.31
 31
0.0
  0
LINE
  5
278
330
226
100
AcDbEntity
  8
AM_4
100
AcDbLine
 10
-0.9999999999999999
 20
3.31
 30
0.0
 11
0.0000000000000002
 21
3.31
 31
0.0
  0
LINE
  5
279
330
226
100
AcDbEntity
  8
AM_4
100
AcDbLine
 10
-0.9999999999999999
 20
-3.31
 30
0.0
 11
-0.9999999999999999
 21
3.31
 31
0.0
  0
LINE
  5
27A
330
226
100
AcDbEntity
  8
AM_4
100
AcDbLine
 10
0.0000000000000002
 20
1.727272727272727
 30
0.0
 11
-0.5714285714285712
 21
1.727272727272727
 31
0.0
  0
LINE
  5
27B
330
226
100
AcDbEntity
  8
AM_4
100
AcDbLine
 10
-0.9999999999999999
 20
2.685
 30
0.0
 11
0.0000000000000002
 21
2.685
 31
0.0
  0
LINE
  5
27C
330
226
100
AcDbEntity
  8
AM_4
100
AcDbLine
 10
-0.9999999999999999
 20
-2.685000000000001
 30
0.0
 11
0.0000000000000002
 21
-2.685000000000001
 31
0.0
  0
LINE
  5
27D
330
226
100
AcDbEntity
  8
AM_4
100
AcDbLine
 10
-0.5714285714285712
 20
-1.727272727272727
 30
0.0
 11
0.0000000000000002
 21
-1.727272727272727
 31
0.0
  0
LINE
  5
27E
330
226
100
AcDbEntity
  8
AM_4
100
AcDbLine
 10
-0.5714285714285712
 20
1.727272727272727
 30
0.0
 11
-0.5714285714285712
 21
-1.727272727272727
 31
0.0
  0
ENDBLK
  5
229
330
226
100
AcDbEntity
  8
0
100
AcDbBlockEnd
  0
ENDSEC
  0
SECTION
  2
ENTITIES
  0
INSERT
  5
6F
330
1F
100
AcDbEntity
  8
0
100
AcDbBlockReference
  2
1_072238_2
 10
0.0
 20
0.0
 30
0.0
  0
POINT
  5
280
330
1F
100
AcDbEntity
  8
ConnectionPoints
100
AcDbPoint
 10
-3.468996666666667
 20
-1.663194444444444
 30
0.0000000000000002
  0
POINT
  5
281
330
1F
100
AcDbEntity
  8
ConnectionPoints
100
AcDbPoint
 10
-3.468996666666667
 20
1.663194444444444
 30
0.0000000000000002
  0
POINT
  5
282
330
1F
100
AcDbEntity
  8
ConnectionPoints
100
AcDbPoint
 10
-3.298666666666667
 20
0.0
 30
0.0000000000000002
  0
POINT
  5
283
330
1F
100
AcDbEntity
  8
ConnectionPoints
100
AcDbPoint
 10
-3.57
 20
0.0
 30
0.0000000000000002
  0
POINT
  5
284
330
1F
100
AcDbEntity
  8
ConnectionPoints
100
AcDbPoint
 10
-3.497666666666666
 20
0.0
 30
0.0000000000000002
  0
POINT
  5
285
330
1F
100
AcDbEntity
  8
ConnectionPoints
100
AcDbPoint
 10
-3.298666666666667
 20
1.663194444444444
 30
0.0000000000000002
  0
POINT
  5
286
330
1F
100
AcDbEntity
  8
ConnectionPoints
100
AcDbPoint
 10
-3.298666666666667
 20
-1.663194444444444
 30
0.0000000000000002
  0
POINT
  5
287
330
1F
100
AcDbEntity
  8
ConnectionPoints
100
AcDbPoint
 10
-3.298666666666667
 20
0.0
 30
0.0000000000000002
  0
POINT
  5
288
330
1F
100
AcDbEntity
  8
ConnectionPoints
100
AcDbPoint
 10
-1.81
 20
2.855
 30
0.0000000000000001
  0
POINT
  5
289
330
1F
100
AcDbEntity
  8
ConnectionPoints
100
AcDbPoint
 10
-1.81
 20
2.855
 30
0.0000000000000001
  0
POINT
  5
28A
330
1F
100
AcDbEntity
  8
ConnectionPoints
100
AcDbPoint
 10
-1.81
 20
-2.855
 30
0.0000000000000001
  0
POINT
  5
28B
330
1F
100
AcDbEntity
  8
ConnectionPoints
100
AcDbPoint
 10
-3.32
 20
0.0
 30
0.0000000000000002
  0
POINT
  5
28C
330
1F
100
AcDbEntity
  8
ConnectionPoints
100
AcDbPoint
 10
-3.57
 20
0.0
 30
0.0000000000000002
  0
ENDSEC
  0
SECTION
  2
OBJECTS
  0
DICTIONARY
  5
C
330
0
100
AcDbDictionary
281
     1
  3
ACAD_DETAILVIEWSTYLE
350
294
  3
ACAD_GROUP
350
D
  3
ACAD_LAYOUT
350
1A
  3
ACAD_MATERIAL
350
43
  3
ACAD_MLEADERSTYLE
350
6B
  3
ACAD_MLINESTYLE
350
17
  3
ACAD_PLOTSETTINGS
350
19
  3
ACAD_PLOTSTYLENAME
350
E
  3
ACAD_SCALELIST
350
47
  3
ACAD_SECTIONVIEWSTYLE
350
295
  3
ACAD_TABLESTYLE
350
69
  3
ACAD_VISUALSTYLE
350
2A
  3
ACDB_RECOMPOSE_DATA
350
291
  3
AcDbVariableDictionary
350
28D
  0
SUN
  5
6D
330
29
100
AcDbSun
 90
        1
290
     0
 63
     7
421
 16777215
 40
1.0
291
     1
 91
  2455826
 92
 54000000
292
     0
 70
     2
 71
   256
280
     1
  0
DICTIONARY
  5
294
102
{ACAD_REACTORS
330
C
102
}
330
C
100
AcDbDictionary
281
     1
  0
DICTIONARY
  5
D
102
{ACAD_REACTORS
330
C
102
}
330
C
100
AcDbDictionary
281
     1
  0
DICTIONARY
  5
1A
102
{ACAD_REACTORS
330
C
102
}
330
C
100
AcDbDictionary
281
     1
  3
Layout1
350
1E
  3
Layout2
350
26
  3
Model
350
22
  0
DICTIONARY
  5
43
102
{ACAD_REACTORS
330
C
102
}
330
C
100
AcDbDictionary
281
     1
  3
ByBlock
350
45
  3
ByLayer
350
44
  3
Global
350
46
  0
DICTIONARY
  5
6B
102
{ACAD_REACTORS
330
C
102
}
330
C
100
AcDbDictionary
281
     1
  3
Standard
350
6C
  0
DICTIONARY
  5
17
102
{ACAD_REACTORS
330
C
102
}
330
C
100
AcDbDictionary
281
     1
  3
Standard
350
18
  0
DICTIONARY
  5
19
102
{ACAD_REACTORS
330
C
102
}
330
C
100
AcDbDictionary
281
     1
  0
ACDBDICTIONARYWDFLT
  5
E
102
{ACAD_REACTORS
330
C
102
}
330
C
100
AcDbDictionary
281
     1
  3
Normal
350
F
100
AcDbDictionaryWithDefault
340
F
  0
DICTIONARY
  5
47
102
{ACAD_REACTORS
330
C
102
}
330
C
100
AcDbDictionary
281
     1
  3
A0
350
48
  3
A1
350
49
  3
A2
350
4A
  3
A3
350
4B
  3
A4
350
4C
  3
A5
350
4D
  3
A6
350
4E
  3
A7
350
4F
  3
A8
350
50
  3
A9
350
51
  3
B0
350
52
  3
B1
350
53
  3
B2
350
54
  3
B3
350
55
  3
B4
350
56
  3
B5
350
57
  3
B6
350
58
  3
B7
350
59
  3
B8
350
5A
  3
B9
350
5B
  3
C0
350
5C
  3
C1
350
5D
  3
C2
350
5E
  3
C3
350
5F
  3
C4
350
60
  3
C5
350
61
  3
C6
350
62
  3
C7
350
63
  3
C8
350
64
  3
C9
350
65
  3
D0
350
66
  3
D1
350
67
  3
D2
350
68
  0
DICTIONARY
  5
295
102
{ACAD_REACTORS
330
C
102
}
330
C
100
AcDbDictionary
281
     1
  0
DICTIONARY
  5
69
102
{ACAD_REACTORS
330
C
102
}
330
C
100
AcDbDictionary
281
     1
  3
Standard
350
6A
  0
DICTIONARY
  5
2A
102
{ACAD_REACTORS
330
C
102
}
330
C
100
AcDbDictionary
281
     1
  3
2dWireframe
350
2F
  3
Basic
350
32
  3
Brighten
350
36
  3
ColorChange
350
3A
  3
Conceptual
350
34
  3
Dim
350
35
  3
EdgeColorOff
350
3D
  3
Facepattern
350
39
  3
Flat
350
2B
  3
FlatWithEdges
350
2C
  3
Gouraud
350
2D
  3
GouraudWithEdges
350
2E
  3
Hidden
350
31
  3
JitterOff
350
3B
  3
Linepattern
350
38
  3
OverhangOff
350
3C
  3
Realistic
350
33
  3
Shaded
350
42
  3
Shaded with edges
350
41
  3
Shades of Gray
350
3E
  3
Sketchy
350
3F
  3
Thicken
350
37
  3
Wireframe
350
30
  3
X-Ray
350
40
  0
XRECORD
  5
291
102
{ACAD_REACTORS
330
C
102
}
330
C
100
AcDbXrecord
280
     1
 90
        1
330
6A
  0
DICTIONARY
  5
28D
102
{ACAD_REACTORS
330
C
102
}
330
C
100
AcDbDictionary
281
     1
  3
CANNOSCALE
350
28E
  3
CMLEADERSTYLE
350
293
  3
CTABLESTYLE
350
292
  0
LAYOUT
  5
1E
102
{ACAD_REACTORS
330
1A
102
}
330
1A
100
AcDbPlotSettings
  1

  2
none_device
  4

  6

 40
0.0
 41
0.0
 42
0.0
 43
0.0
 44
0.0
 45
0.0
 46
0.0
 47
0.0
 48
0.0
 49
0.0
140
0.0
141
0.0
142
1.0
143
1.0
 70
   688
 72
     0
 73
     0
 74
     5
  7

 75
    16
 76
     0
 77
     2
 78
   300
147
1.0
148
0.0
149
0.0
100
AcDbLayout
  1
Layout1
 70
     1
 71
     1
 10
0.0
 20
0.0
 11
12.0
 21
9.0
 12
0.0
 22
0.0
 32
0.0
 14
1.000000000000000E+20
 24
1.000000000000000E+20
 34
1.000000000000000E+20
 15
-1.000000000000000E+20
 25
-1.000000000000000E+20
 35
-1.000000000000000E+20
146
0.0
 13
0.0
 23
0.0
 33
0.0
 16
1.0
 26
0.0
 36
0.0
 17
0.0
 27
1.0
 37
0.0
 76
     0
330
1B
  0
LAYOUT
  5
26
102
{ACAD_REACTORS
330
1A
102
}
330
1A
100
AcDbPlotSettings
  1

  2
none_device
  4

  6

 40
0.0
 41
0.0
 42
0.0
 43
0.0
 44
0.0
 45
0.0
 46
0.0
 47
0.0
 48
0.0
 49
0.0
140
0.0
141
0.0
142
1.0
143
1.0
 70
   688
 72
     0
 73
     0
 74
     5
  7

 75
    16
 76
     0
 77
     2
 78
   300
147
1.0
148
0.0
149
0.0
100
AcDbLayout
  1
Layout2
 70
     1
 71
     2
 10
0.0
 20
0.0
 11
0.0
 21
0.0
 12
0.0
 22
0.0
 32
0.0
 14
0.0
 24
0.0
 34
0.0
 15
0.0
 25
0.0
 35
0.0
146
0.0
 13
0.0
 23
0.0
 33
0.0
 16
1.0
 26
0.0
 36
0.0
 17
0.0
 27
1.0
 37
0.0
 76
     0
330
23
  0
LAYOUT
  5
22
102
{ACAD_REACTORS
330
1A
102
}
330
1A
100
AcDbPlotSettings
  1

  2
none_device
  4
Letter_(8.50_x_11.00_Inches)
  6

 40
6.35
 41
6.35
 42
6.35000508
 43
6.35000508
 44
215.9
 45
279.4
 46
0.0
 47
0.0
 48
0.0
 49
0.0
140
0.0
141
0.0
142
1.0
143
1.0
 70
  1712
 72
     0
 73
     0
 74
     0
  7

 75
     0
 76
     0
 77
     2
 78
   300
147
1.0
148
0.0
149
0.0
100
AcDbLayout
  1
Model
 70
     1
 71
     0
 10
0.0
 20
0.0
 11
12.0
 21
9.0
 12
0.0
 22
0.0
 32
0.0
 14
1.000000000000000E+20
 24
1.000000000000000E+20
 34
1.000000000000000E+20
 15
-1.000000000000000E+20
 25
-1.000000000000000E+20
 35
-1.000000000000000E+20
146
0.0
 13
0.0
 23
0.0
 33
0.0
 16
1.0
 26
0.0
 36
0.0
 17
0.0
 27
1.0
 37
0.0
 76
     0
330
1F
331
29
  0
MATERIAL
  5
45
102
{ACAD_REACTORS
330
43
102
}
330
43
100
AcDbMaterial
  1
ByBlock
 72
     1
 94
      127
  0
MATERIAL
  5
44
102
{ACAD_REACTORS
330
43
102
}
330
43
100
AcDbMaterial
  1
ByLayer
 72
     1
 94
      127
  0
MATERIAL
  5
46
102
{ACAD_REACTORS
330
43
102
}
330
43
100
AcDbMaterial
  1
Global
 72
     1
 94
      127
  0
MLEADERSTYLE
  5
6C
102
{ACAD_REACTORS
330
6B
102
}
330
6B
100
AcDbMLeaderStyle
179
     2
170
     2
171
     1
172
     0
 90
        2
 40
0.0
 41
0.0
173
     1
 91
-1056964608
340
14
 92
       -2
290
     1
 42
0.09
291
     1
 43
0.36
  3
Standard
341
0
 44
0.18
300

342
11
174
     1
178
     6
175
     1
176
     0
 93
-1056964608
 45
0.18
292
     0
297
     0
 46
0.18
343
0
 94
-1056964608
 47
1.0
 49
1.0
140
1.0
293
     1
141
0.0
294
     1
177
     0
142
1.0
295
     0
296
     0
143
0.125
271
     0
272
     9
273
     9
298
     0
  0
MLINESTYLE
  5
18
102
{ACAD_REACTORS
330
17
102
}
330
17
100
AcDbMlineStyle
  2
Standard
 70
     0
  3

 62
   256
 51
90.0
 52
90.0
 71
     2
 49
0.5
 62
   256
  6
BYLAYER
 49
-0.5
 62
   256
  6
BYLAYER
  0
ACDBPLACEHOLDER
  5
F
102
{ACAD_REACTORS
330
E
102
}
330
E
  0
SCALE
  5
48
102
{ACAD_REACTORS
330
47
102
}
330
47
100
AcDbScale
 70
     0
300
1:1
140
1.0
141
1.0
290
     1
  0
SCALE
  5
49
102
{ACAD_REACTORS
330
47
102
}
330
47
100
AcDbScale
 70
     0
300
1:2
140
1.0
141
2.0
290
     0
  0
SCALE
  5
4A
102
{ACAD_REACTORS
330
47
102
}
330
47
100
AcDbScale
 70
     0
300
1:4
140
1.0
141
4.0
290
     0
  0
SCALE
  5
4B
102
{ACAD_REACTORS
330
47
102
}
330
47
100
AcDbScale
 70
     0
300
1:5
140
1.0
141
5.0
290
     0
  0
SCALE
  5
4C
102
{ACAD_REACTORS
330
47
102
}
330
47
100
AcDbScale
 70
     0
300
1:8
140
1.0
141
8.0
290
     0
  0
SCALE
  5
4D
102
{ACAD_REACTORS
330
47
102
}
330
47
100
AcDbScale
 70
     0
300
1:10
140
1.0
141
10.0
290
     0
  0
SCALE
  5
4E
102
{ACAD_REACTORS
330
47
102
}
330
47
100
AcDbScale
 70
     0
300
1:16
140
1.0
141
16.0
290
     0
  0
SCALE
  5
4F
102
{ACAD_REACTORS
330
47
102
}
330
47
100
AcDbScale
 70
     0
300
1:20
140
1.0
141
20.0
290
     0
  0
SCALE
  5
50
102
{ACAD_REACTORS
330
47
102
}
330
47
100
AcDbScale
 70
     0
300
1:30
140
1.0
141
30.0
290
     0
  0
SCALE
  5
51
102
{ACAD_REACTORS
330
47
102
}
330
47
100
AcDbScale
 70
     0
300
1:40
140
1.0
141
40.0
290
     0
  0
SCALE
  5
52
102
{ACAD_REACTORS
330
47
102
}
330
47
100
AcDbScale
 70
     0
300
1:50
140
1.0
141
50.0
290
     0
  0
SCALE
  5
53
102
{ACAD_REACTORS
330
47
102
}
330
47
100
AcDbScale
 70
     0
300
1:100
140
1.0
141
100.0
290
     0
  0
SCALE
  5
54
102
{ACAD_REACTORS
330
47
102
}
330
47
100
AcDbScale
 70
     0
300
2:1
140
2.0
141
1.0
290
     0
  0
SCALE
  5
55
102
{ACAD_REACTORS
330
47
102
}
330
47
100
AcDbScale
 70
     0
300
4:1
140
4.0
141
1.0
290
     0
  0
SCALE
  5
56
102
{ACAD_REACTORS
330
47
102
}
330
47
100
AcDbScale
 70
     0
300
8:1
140
8.0
141
1.0
290
     0
  0
SCALE
  5
57
102
{ACAD_REACTORS
330
47
102
}
330
47
100
AcDbScale
 70
     0
300
10:1
140
10.0
141
1.0
290
     0
  0
SCALE
  5
58
102
{ACAD_REACTORS
330
47
102
}
330
47
100
AcDbScale
 70
     0
300
100:1
140
100.0
141
1.0
290
     0
  0
SCALE
  5
59
102
{ACAD_REACTORS
330
47
102
}
330
47
100
AcDbScale
 70
     0
300
1/128" = 1'-0"
140
0.0078125
141
12.0
290
     0
  0
SCALE
  5
5A
102
{ACAD_REACTORS
330
47
102
}
330
47
100
AcDbScale
 70
     0
300
1/64" = 1'-0"
140
0.015625
141
12.0
290
     0
  0
SCALE
  5
5B
102
{ACAD_REACTORS
330
47
102
}
330
47
100
AcDbScale
 70
     0
300
1/32" = 1'-0"
140
0.03125
141
12.0
290
     0
  0
SCALE
  5
5C
102
{ACAD_REACTORS
330
47
102
}
330
47
100
AcDbScale
 70
     0
300
1/16" = 1'-0"
140
0.0625
141
12.0
290
     0
  0
SCALE
  5
5D
102
{ACAD_REACTORS
330
47
102
}
330
47
100
AcDbScale
 70
     0
300
3/32" = 1'-0"
140
0.09375
141
12.0
290
     0
  0
SCALE
  5
5E
102
{ACAD_REACTORS
330
47
102
}
330
47
100
AcDbScale
 70
     0
300
1/8" = 1'-0"
140
0.125
141
12.0
290
     0
  0
SCALE
  5
5F
102
{ACAD_REACTORS
330
47
102
}
330
47
100
AcDbScale
 70
     0
300
3/16" = 1'-0"
140
0.1875
141
12.0
290
     0
  0
SCALE
  5
60
102
{ACAD_REACTORS
330
47
102
}
330
47
100
AcDbScale
 70
     0
300
1/4" = 1'-0"
140
0.25
141
12.0
290
     0
  0
SCALE
  5
61
102
{ACAD_REACTORS
330
47
102
}
330
47
100
AcDbScale
 70
     0
300
3/8" = 1'-0"
140
0.375
141
12.0
290
     0
  0
SCALE
  5
62
102
{ACAD_REACTORS
330
47
102
}
330
47
100
AcDbScale
 70
     0
300
1/2" = 1'-0"
140
0.5
141
12.0
290
     0
  0
SCALE
  5
63
102
{ACAD_REACTORS
330
47
102
}
330
47
100
AcDbScale
 70
     0
300
3/4" = 1'-0"
140
0.75
141
12.0
290
     0
  0
SCALE
  5
64
102
{ACAD_REACTORS
330
47
102
}
330
47
100
AcDbScale
 70
     0
300
1" = 1'-0"
140
1.0
141
12.0
290
     0
  0
SCALE
  5
65
102
{ACAD_REACTORS
330
47
102
}
330
47
100
AcDbScale
 70
     0
300
1-1/2" = 1'-0"
140
1.5
141
12.0
290
     0
  0
SCALE
  5
66
102
{ACAD_REACTORS
330
47
102
}
330
47
100
AcDbScale
 70
     0
300
3" = 1'-0"
140
3.0
141
12.0
290
     0
  0
SCALE
  5
67
102
{ACAD_REACTORS
330
47
102
}
330
47
100
AcDbScale
 70
     0
300
6" = 1'-0"
140
6.0
141
12.0
290
     0
  0
SCALE
  5
68
102
{ACAD_REACTORS
330
47
102
}
330
47
100
AcDbScale
 70
     0
300
1'-0" = 1'-0"
140
12.0
141
12.0
290
     0
  0
TABLESTYLE
  5
6A
102
{ACAD_REACTORS
330
69
102
}
102
{ACAD_XDICTIONARY
360
28F
102
}
330
69
100
AcDbTableStyle
  3
Standard
 70
     0
 71
     0
 40
0.06
 41
0.06
280
     0
281
     0
  7
Standard
140
0.18
170
     2
 62
     0
 63
   257
283
     0
 90
        4
 91
        0
  1

274
    -2
284
     1
 64
     0
275
    -2
285
     1
 65
     0
276
    -2
286
     1
 66
     0
277
    -2
287
     1
 67
     0
278
    -2
288
     1
 68
     0
279
    -2
289
     1
 69
     0
  7
Standard
140
0.25
170
     5
 62
     0
 63
   257
283
     0
 90
        4
 91
        0
  1

274
    -2
284
     1
 64
     0
275
    -2
285
     1
 65
     0
276
    -2
286
     1
 66
     0
277
    -2
287
     1
 67
     0
278
    -2
288
     1
 68
     0
279
    -2
289
     1
 69
     0
  7
Standard
140
0.18
170
     5
 62
     0
 63
   257
283
     0
 90
        4
 91
        0
  1

274
    -2
284
     1
 64
     0
275
    -2
285
     1
 65
     0
276
    -2
286
     1
 66
     0
277
    -2
287
     1
 67
     0
278
    -2
288
     1
 68
     0
279
    -2
289
     1
 69
     0
  0
VISUALSTYLE
  5
2F
102
{ACAD_REACTORS
330
2A
102
}
330
2A
100
AcDbVisualStyle
  2
2dWireframe
 70
     4
177
     3
291
     0
 70
    58
 90
        0
176
     1
 90
        2
176
     1
 90
        0
176
     1
 90
        0
176
     1
 40
0.6
176
     1
 40
30.0
176
     1
 62
     7
420
 16777215
176
     1
 90
        1
176
     1
 90
        4
176
     1
 62
     7
176
     1
 62
   257
176
     1
 90
        1
176
     1
 90
        1
176
     1
 40
1.0
176
     1
 90
        0
176
     1
 62
   257
176
     1
 40
1.0
176
     1
 90
        1
176
     1
 90
        6
176
     1
 90
        2
176
     1
 62
     7
176
     1
 90
        5
176
     1
 90
        0
176
     1
 90
        0
176
     1
290
     0
176
     1
 90
        1
176
     1
 40
0.0
176
     1
 90
        0
176
     1
290
     1
176
     1
290
     1
176
     1
290
     0
176
     1
290
     0
176
     1
290
     0
176
     1
290
     0
176
     1
290
     0
176
     1
290
     0
176
     1
290
     0
176
     1
 90
       50
176
     1
 40
0.0
176
     1
 40
1.0
176
     1
 90
        0
176
     1
 62
    18
420
        0
176
     1
 90
       50
176
     1
 90
        3
176
     1
 62
     5
420
      255
176
     1
290
     0
176
     1
 90
       50
176
     1
 90
       50
176
     1
 90
       50
176
     1
290
     0
176
     1
 90
       50
176
     1
 62
   256
176
     0
 40
1.0
176
     0
 90
        2
176
     1
  1
strokes_ogs.tif
176
     1
290
     0
176
     1
 40
1.0
176
     1
 40
1.0
176
     1
  0
VISUALSTYLE
  5
32
102
{ACAD_REACTORS
330
2A
102
}
330
2A
100
AcDbVisualStyle
  2
Basic
 70
     7
177
     3
291
     1
 70
    58
 90
        1
176
     1
 90
        0
176
     1
 90
        1
176
     1
 90
        0
176
     1
 40
0.6
176
     1
 40
30.0
176
     1
 62
     7
420
 16777215
176
     1
 90
        0
176
     1
 90
        4
176
     1
 62
     7
176
     1
 62
   257
176
     1
 90
        1
176
     1
 90
        1
176
     1
 40
1.0
176
     1
 90
        8
176
     1
 62
     7
176
     1
 40
1.0
176
     1
 90
        1
176
     1
 90
        6
176
     1
 90
        2
176
     1
 62
     7
176
     1
 90
        5
176
     1
 90
        0
176
     1
 90
        0
176
     1
290
     0
176
     1
 90
        1
176
     1
 40
0.0
176
     1
 90
        0
176
     1
290
     0
176
     1
290
     1
176
     1
290
     1
176
     1
290
     0
176
     1
290
     0
176
     1
290
     0
176
     1
290
     0
176
     1
290
     0
176
     1
290
     0
176
     1
 90
       50
176
     1
 40
0.0
176
     1
 40
1.0
176
     1
 90
        0
176
     1
 62
    18
420
        0
176
     1
 90
       50
176
     1
 90
        3
176
     1
 62
     5
420
      255
176
     1
290
     0
176
     1
 90
       50
176
     1
 90
       50
176
     1
 90
       50
176
     1
290
     0
176
     1
 90
       50
176
     1
 62
   256
176
     0
 40
1.0
176
     0
 90
        2
176
     1
  1
strokes_ogs.tif
176
     1
290
     0
176
     1
 40
1.0
176
     1
 40
1.0
176
     1
  0
VISUALSTYLE
  5
36
102
{ACAD_REACTORS
330
2A
102
}
330
2A
100
AcDbVisualStyle
  2
Brighten
 70
    12
177
     3
291
     1
 70
    58
 90
        2
176
     1
 90
        2
176
     1
 90
        0
176
     1
 90
        0
176
     1
 40
0.6
176
     1
 40
30.0
176
     1
 62
     7
420
 16777215
176
     1
 90
        1
176
     1
 90
        4
176
     1
 62
     7
176
     1
 62
   257
176
     1
 90
        1
176
     1
 90
        1
176
     1
 40
1.0
176
     1
 90
        8
176
     1
 62
     7
176
     1
 40
1.0
176
     1
 90
        1
176
     1
 90
        6
176
     1
 90
        2
176
     1
 62
     7
176
     1
 90
        5
176
     1
 90
        0
176
     1
 90
        0
176
     1
290
     0
176
     1
 90
        1
176
     1
 40
50.0
176
     1
 90
        0
176
     1
290
     0
176
     1
290
     1
176
     1
290
     1
176
     1
290
     0
176
     1
290
     0
176
     1
290
     0
176
     1
290
     0
176
     1
290
     0
176
     1
290
     0
176
     1
 90
       50
176
     1
 40
0.0
176
     1
 40
1.0
176
     1
 90
        0
176
     1
 62
    18
420
        0
176
     1
 90
       50
176
     1
 90
        3
176
     1
 62
     5
420
      255
176
     1
290
     0
176
     1
 90
       50
176
     1
 90
       50
176
     1
 90
       50
176
     1
290
     0
176
     1
 90
       50
176
     1
 62
   256
176
     0
 40
1.0
176
     0
 90
        2
176
     1
  1
strokes_ogs.tif
176
     1
290
     0
176
     1
 40
1.0
176
     1
 40
1.0
176
     1
  0
VISUALSTYLE
  5
3A
102
{ACAD_REACTORS
330
2A
102
}
330
2A
100
AcDbVisualStyle
  2
ColorChange
 70
    16
177
     3
291
     1
 70
    58
 90
        2
176
     1
 90
        2
176
     1
 90
        3
176
     1
 90
        0
176
     1
 40
0.6
176
     1
 40
30.0
176
     1
 62
     8
420
  8421504
176
     1
 90
        1
176
     1
 90
        4
176
     1
 62
     7
176
     1
 62
   257
176
     1
 90
        1
176
     1
 90
        1
176
     1
 40
1.0
176
     1
 90
        8
176
     1
 62
     8
420
  8421504
176
     1
 40
1.0
176
     1
 90
        1
176
     1
 90
        6
176
     1
 90
        2
176
     1
 62
     7
176
     1
 90
        5
176
     1
 90
        0
176
     1
 90
        0
176
     1
290
     0
176
     1
 90
        1
176
     1
 40
0.0
176
     1
 90
        0
176
     1
290
     0
176
     1
290
     1
176
     1
290
     1
176
     1
290
     0
176
     1
290
     0
176
     1
290
     0
176
     1
290
     0
176
     1
290
     0
176
     1
290
     0
176
     1
 90
       50
176
     1
 40
0.0
176
     1
 40
1.0
176
     1
 90
        0
176
     1
 62
    18
420
        0
176
     1
 90
       50
176
     1
 90
        3
176
     1
 62
     5
420
      255
176
     1
290
     0
176
     1
 90
       50
176
     1
 90
       50
176
     1
 90
       50
176
     1
290
     0
176
     1
 90
       50
176
     1
 62
   256
176
     0
 40
1.0
176
     0
 90
        2
176
     1
  1
strokes_ogs.tif
176
     1
290
     0
176
     1
 40
1.0
176
     1
 40
1.0
176
     1
  0
VISUALSTYLE
  5
34
102
{ACAD_REACTORS
330
2A
102
}
330
2A
100
AcDbVisualStyle
  2
Conceptual
 70
     9
177
     3
291
     0
 70
    58
 90
        3
176
     1
 90
        2
176
     1
 90
        0
176
     1
 90
        0
176
     1
 40
0.6
176
     1
 40
30.0
176
     1
 62
     7
420
 16777215
176
     1
 90
        2
176
     1
 90
        2
176
     1
 62
     7
176
     1
 62
   257
176
     1
 90
        1
176
     1
 90
        1
176
     1
 40
179.0
176
     1
 90
        8
176
     1
 62
     7
176
     1
 40
1.0
176
     1
 90
        1
176
     1
 90
        6
176
     1
 90
        2
176
     1
 62
     7
176
     1
 90
        3
176
     1
 90
        0
176
     1
 90
        0
176
     1
290
     0
176
     1
 90
        1
176
     1
 40
0.0
176
     1
 90
        0
176
     1
290
     0
176
     1
290
     1
176
     1
290
     1
176
     1
290
     0
176
     1
290
     0
176
     1
290
     0
176
     1
290
     0
176
     1
290
     0
176
     1
290
     0
176
     1
 90
       50
176
     1
 40
0.0
176
     1
 40
1.0
176
     1
 90
        0
176
     1
 62
    18
420
        0
176
     1
 90
       50
176
     1
 90
        3
176
     1
 62
     5
420
      255
176
     1
290
     0
176
     1
 90
       50
176
     1
 90
       50
176
     1
 90
       50
176
     1
290
     0
176
     1
 90
       50
176
     1
 62
   256
176
     0
 40
1.0
176
     0
 90
        2
176
     1
  1
strokes_ogs.tif
176
     1
290
     0
176
     1
 40
1.0
176
     1
 40
1.0
176
     1
  0
VISUALSTYLE
  5
35
102
{ACAD_REACTORS
330
2A
102
}
330
2A
100
AcDbVisualStyle
  2
Dim
 70
    11
177
     3
291
     1
 70
    58
 90
        2
176
     1
 90
        2
176
     1
 90
        0
176
     1
 90
        0
176
     1
 40
0.6
176
     1
 40
30.0
176
     1
 62
     7
420
 16777215
176
     1
 90
        1
176
     1
 90
        4
176
     1
 62
     7
176
     1
 62
   257
176
     1
 90
        1
176
     1
 90
        1
176
     1
 40
1.0
176
     1
 90
        8
176
     1
 62
     7
176
     1
 40
1.0
176
     1
 90
        1
176
     1
 90
        6
176
     1
 90
        2
176
     1
 62
     7
176
     1
 90
        5
176
     1
 90
        0
176
     1
 90
        0
176
     1
290
     0
176
     1
 90
        1
176
     1
 40
-50.0
176
     1
 90
        0
176
     1
290
     0
176
     1
290
     1
176
     1
290
     1
176
     1
290
     0
176
     1
290
     0
176
     1
290
     0
176
     1
290
     0
176
     1
290
     0
176
     1
290
     0
176
     1
 90
       50
176
     1
 40
0.0
176
     1
 40
1.0
176
     1
 90
        0
176
     1
 62
    18
420
        0
176
     1
 90
       50
176
     1
 90
        3
176
     1
 62
     5
420
      255
176
     1
290
     0
176
     1
 90
       50
176
     1
 90
       50
176
     1
 90
       50
176
     1
290
     0
176
     1
 90
       50
176
     1
 62
   256
176
     0
 40
1.0
176
     0
 90
        2
176
     1
  1
strokes_ogs.tif
176
     1
290
     0
176
     1
 40
1.0
176
     1
 40
1.0
176
     1
  0
VISUALSTYLE
  5
3D
102
{ACAD_REACTORS
330
2A
102
}
330
2A
100
AcDbVisualStyle
  2
EdgeColorOff
 70
    22
177
     3
291
     1
 70
    58
 90
        2
176
     0
 90
        2
176
     0
 90
        0
176
     0
 90
        0
176
     0
 40
0.6
176
     0
 40
30.0
176
     0
 62
     7
420
 16777215
176
     0
 90
        1
176
     0
 90
        4
176
     0
 62
     7
176
     0
 62
   257
176
     0
 90
        1
176
     0
 90
        1
176
     0
 40
1.0
176
     0
 90
        8
176
     2
 62
     7
176
     0
 40
1.0
176
     0
 90
        1
176
     0
 90
        6
176
     0
 90
        2
176
     0
 62
     7
176
     0
 90
        5
176
     0
 90
        0
176
     0
 90
        0
176
     0
290
     0
176
     0
 90
        1
176
     0
 40
0.0
176
     0
 90
        0
176
     0
290
     0
176
     0
290
     1
176
     0
290
     1
176
     0
290
     0
176
     0
290
     0
176
     0
290
     0
176
     0
290
     0
176
     0
290
     0
176
     0
290
     0
176
     0
 90
       50
176
     0
 40
0.0
176
     0
 40
1.0
176
     0
 90
        0
176
     0
 62
    18
420
        0
176
     0
 90
       50
176
     0
 90
        3
176
     0
 62
     5
420
      255
176
     0
290
     0
176
     0
 90
       50
176
     0
 90
       50
176
     0
 90
       50
176
     0
290
     0
176
     0
 90
       50
176
     0
 62
   256
176
     0
 40
1.0
176
     0
 90
        2
176
     0
  1
strokes_ogs.tif
176
     0
290
     0
176
     0
 40
1.0
176
     0
 40
1.0
176
     0
  0
VISUALSTYLE
  5
39
102
{ACAD_REACTORS
330
2A
102
}
330
2A
100
AcDbVisualStyle
  2
Facepattern
 70
    15
177
     3
291
     1
 70
    58
 90
        2
176
     1
 90
        2
176
     1
 90
        0
176
     1
 90
        0
176
     1
 40
0.6
176
     1
 40
30.0
176
     1
 62
     7
420
 16777215
176
     1
 90
        1
176
     1
 90
        4
176
     1
 62
     7
176
     1
 62
   257
176
     1
 90
        1
176
     1
 90
        1
176
     1
 40
1.0
176
     1
 90
        8
176
     1
 62
     7
176
     1
 40
1.0
176
     1
 90
        1
176
     1
 90
        6
176
     1
 90
        2
176
     1
 62
     7
176
     1
 90
        5
176
     1
 90
        0
176
     1
 90
        0
176
     1
290
     0
176
     1
 90
        1
176
     1
 40
0.0
176
     1
 90
        0
176
     1
290
     0
176
     1
290
     1
176
     1
290
     1
176
     1
290
     0
176
     1
290
     0
176
     1
290
     0
176
     1
290
     0
176
     1
290
     0
176
     1
290
     0
176
     1
 90
       50
176
     1
 40
0.0
176
     1
 40
1.0
176
     1
 90
        0
176
     1
 62
    18
420
        0
176
     1
 90
       50
176
     1
 90
        3
176
     1
 62
     5
420
      255
176
     1
290
     0
176
     1
 90
       50
176
     1
 90
       50
176
     1
 90
       50
176
     1
290
     0
176
     1
 90
       50
176
     1
 62
   256
176
     0
 40
1.0
176
     0
 90
        2
176
     1
  1
strokes_ogs.tif
176
     1
290
     0
176
     1
 40
1.0
176
     1
 40
1.0
176
     1
  0
VISUALSTYLE
  5
2B
102
{ACAD_REACTORS
330
2A
102
}
330
2A
100
AcDbVisualStyle
  2
Flat
 70
     0
177
     3
291
     1
 70
    58
 90
        2
176
     1
 90
        1
176
     1
 90
        1
176
     1
 90
        2
176
     1
 40
0.6
176
     1
 40
30.0
176
     1
 62
     7
420
 16777215
176
     1
 90
        0
176
     1
 90
        0
176
     1
 62
     7
176
     1
 62
   257
176
     1
 90
        1
176
     1
 90
        1
176
     1
 40
1.0
176
     1
 90
        8
176
     1
 62
     7
176
     1
 40
1.0
176
     1
 90
        1
176
     1
 90
        6
176
     1
 90
        2
176
     1
 62
     7
176
     1
 90
        5
176
     1
 90
        0
176
     1
 90
        0
176
     1
290
     0
176
     1
 90
       13
176
     1
 40
0.0
176
     1
 90
        0
176
     1
290
     0
176
     1
290
     1
176
     1
290
     1
176
     1
290
     0
176
     1
290
     0
176
     1
290
     0
176
     1
290
     0
176
     1
290
     0
176
     1
290
     0
176
     1
 90
       50
176
     1
 40
0.0
176
     1
 40
1.0
176
     1
 90
        0
176
     1
 62
    18
420
        0
176
     1
 90
       50
176
     1
 90
        3
176
     1
 62
     5
420
      255
176
     1
290
     0
176
     1
 90
       50
176
     1
 90
       50
176
     1
 90
       50
176
     1
290
     0
176
     1
 90
       50
176
     1
 62
   256
176
     0
 40
1.0
176
     0
 90
        2
176
     1
  1
strokes_ogs.tif
176
     1
290
     0
176
     1
 40
1.0
176
     1
 40
1.0
176
     1
  0
VISUALSTYLE
  5
2C
102
{ACAD_REACTORS
330
2A
102
}
330
2A
100
AcDbVisualStyle
  2
FlatWithEdges
 70
     1
177
     3
291
     1
 70
    58
 90
        2
176
     1
 90
        1
176
     1
 90
        1
176
     1
 90
        2
176
     1
 40
0.6
176
     1
 40
30.0
176
     1
 62
     7
420
 16777215
176
     1
 90
        1
176
     1
 90
        0
176
     1
 62
     7
176
     1
 62
   257
176
     1
 90
        1
176
     1
 90
        1
176
     1
 40
1.0
176
     1
 90
        0
176
     1
 62
   257
176
     1
 40
1.0
176
     1
 90
        1
176
     1
 90
        6
176
     1
 90
        2
176
     1
 62
     7
176
     1
 90
        5
176
     1
 90
        0
176
     1
 90
        0
176
     1
290
     0
176
     1
 90
       13
176
     1
 40
0.0
176
     1
 90
        0
176
     1
290
     0
176
     1
290
     1
176
     1
290
     1
176
     1
290
     0
176
     1
290
     0
176
     1
290
     0
176
     1
290
     0
176
     1
290
     0
176
     1
290
     0
176
     1
 90
       50
176
     1
 40
0.0
176
     1
 40
1.0
176
     1
 90
        0
176
     1
 62
    18
420
        0
176
     1
 90
       50
176
     1
 90
        3
176
     1
 62
     5
420
      255
176
     1
290
     0
176
     1
 90
       50
176
     1
 90
       50
176
     1
 90
       50
176
     1
290
     0
176
     1
 90
       50
176
     1
 62
   256
176
     0
 40
1.0
176
     0
 90
        2
176
     1
  1
strokes_ogs.tif
176
     1
290
     0
176
     1
 40
1.0
176
     1
 40
1.0
176
     1
  0
VISUALSTYLE
  5
2D
102
{ACAD_REACTORS
330
2A
102
}
330
2A
100
AcDbVisualStyle
  2
Gouraud
 70
     2
177
     3
291
     1
 70
    58
 90
        2
176
     1
 90
        2
176
     1
 90
        1
176
     1
 90
        2
176
     1
 40
0.6
176
     1
 40
30.0
176
     1
 62
     7
420
 16777215
176
     1
 90
        0
176
     1
 90
        0
176
     1
 62
     7
176
     1
 62
   257
176
     1
 90
        1
176
     1
 90
        1
176
     1
 40
1.0
176
     1
 90
        0
176
     1
 62
     7
176
     1
 40
1.0
176
     1
 90
        1
176
     1
 90
        6
176
     1
 90
        2
176
     1
 62
     7
176
     1
 90
        5
176
     1
 90
        0
176
     1
 90
        0
176
     1
290
     0
176
     1
 90
       13
176
     1
 40
0.0
176
     1
 90
        0
176
     1
290
     0
176
     1
290
     1
176
     1
290
     1
176
     1
290
     0
176
     1
290
     0
176
     1
290
     0
176
     1
290
     0
176
     1
290
     0
176
     1
290
     0
176
     1
 90
       50
176
     1
 40
0.0
176
     1
 40
1.0
176
     1
 90
        0
176
     1
 62
    18
420
        0
176
     1
 90
       50
176
     1
 90
        3
176
     1
 62
     5
420
      255
176
     1
290
     0
176
     1
 90
       50
176
     1
 90
       50
176
     1
 90
       50
176
     1
290
     0
176
     1
 90
       50
176
     1
 62
   256
176
     0
 40
1.0
176
     0
 90
        2
176
     1
  1
strokes_ogs.tif
176
     1
290
     0
176
     1
 40
1.0
176
     1
 40
1.0
176
     1
  0
VISUALSTYLE
  5
2E
102
{ACAD_REACTORS
330
2A
102
}
330
2A
100
AcDbVisualStyle
  2
GouraudWithEdges
 70
     3
177
     3
291
     1
 70
    58
 90
        2
176
     1
 90
        2
176
     1
 90
        1
176
     1
 90
        2
176
     1
 40
0.6
176
     1
 40
30.0
176
     1
 62
     7
420
 16777215
176
     1
 90
        1
176
     1
 90
        0
176
     1
 62
     7
176
     1
 62
   257
176
     1
 90
        1
176
     1
 90
        1
176
     1
 40
1.0
176
     1
 90
        0
176
     1
 62
   257
176
     1
 40
1.0
176
     1
 90
        1
176
     1
 90
        6
176
     1
 90
        2
176
     1
 62
     7
176
     1
 90
        5
176
     1
 90
        0
176
     1
 90
        0
176
     1
290
     0
176
     1
 90
       13
176
     1
 40
0.0
176
     1
 90
        0
176
     1
290
     0
176
     1
290
     1
176
     1
290
     1
176
     1
290
     0
176
     1
290
     0
176
     1
290
     0
176
     1
290
     0
176
     1
290
     0
176
     1
290
     0
176
     1
 90
       50
176
     1
 40
0.0
176
     1
 40
1.0
176
     1
 90
        0
176
     1
 62
    18
420
        0
176
     1
 90
       50
176
     1
 90
        3
176
     1
 62
     5
420
      255
176
     1
290
     0
176
     1
 90
       50
176
     1
 90
       50
176
     1
 90
       50
176
     1
290
     0
176
     1
 90
       50
176
     1
 62
   256
176
     0
 40
1.0
176
     0
 90
        2
176
     1
  1
strokes_ogs.tif
176
     1
290
     0
176
     1
 40
1.0
176
     1
 40
1.0
176
     1
  0
VISUALSTYLE
  5
31
102
{ACAD_REACTORS
330
2A
102
}
330
2A
100
AcDbVisualStyle
  2
Hidden
 70
     6
177
     3
291
     0
 70
    58
 90
        1
176
     1
 90
        2
176
     1
 90
        2
176
     1
 90
        0
176
     1
 40
0.6
176
     1
 40
30.0
176
     1
 62
     7
420
 16777215
176
     1
 90
        2
176
     1
 90
        2
176
     1
 62
     7
176
     1
 62
   257
176
     1
 90
        2
176
     1
 90
        1
176
     1
 40
40.0
176
     1
 90
        0
176
     1
 62
   257
176
     1
 40
1.0
176
     1
 90
        1
176
     1
 90
        6
176
     1
 90
        2
176
     1
 62
     7
176
     1
 90
        3
176
     1
 90
        0
176
     1
 90
        0
176
     1
290
     0
176
     1
 90
        1
176
     1
 40
0.0
176
     1
 90
        0
176
     1
290
     0
176
     1
290
     1
176
     1
290
     1
176
     1
290
     0
176
     1
290
     0
176
     1
290
     0
176
     1
290
     0
176
     1
290
     0
176
     1
290
     0
176
     1
 90
       50
176
     1
 40
0.0
176
     1
 40
1.0
176
     1
 90
        0
176
     1
 62
    18
420
        0
176
     1
 90
       50
176
     1
 90
        3
176
     1
 62
     5
420
      255
176
     1
290
     0
176
     1
 90
       50
176
     1
 90
       50
176
     1
 90
       50
176
     1
290
     0
176
     1
 90
       50
176
     1
 62
   256
176
     0
 40
1.0
176
     0
 90
        2
176
     1
  1
strokes_ogs.tif
176
     1
290
     0
176
     1
 40
1.0
176
     1
 40
1.0
176
     1
  0
VISUALSTYLE
  5
3B
102
{ACAD_REACTORS
330
2A
102
}
330
2A
100
AcDbVisualStyle
  2
JitterOff
 70
    20
177
     3
291
     1
 70
    58
 90
        2
176
     0
 90
        2
176
     0
 90
        0
176
     0
 90
        0
176
     0
 40
0.6
176
     0
 40
30.0
176
     0
 62
     7
420
 16777215
176
     0
 90
        1
176
     0
 90
        4
176
     0
 62
     7
176
     0
 62
   257
176
     0
 90
        1
176
     0
 90
        1
176
     0
 40
1.0
176
     0
 90
       10
176
     2
 62
     7
176
     0
 40
1.0
176
     0
 90
        1
176
     0
 90
        6
176
     0
 90
        2
176
     0
 62
     7
176
     0
 90
        5
176
     0
 90
        0
176
     0
 90
        0
176
     0
290
     0
176
     0
 90
        1
176
     0
 40
0.0
176
     0
 90
        0
176
     0
290
     0
176
     0
290
     1
176
     0
290
     1
176
     0
290
     0
176
     0
290
     0
176
     0
290
     0
176
     0
290
     0
176
     0
290
     0
176
     0
290
     0
176
     0
 90
       50
176
     0
 40
0.0
176
     0
 40
1.0
176
     0
 90
        0
176
     0
 62
    18
420
        0
176
     0
 90
       50
176
     0
 90
        3
176
     0
 62
     5
420
      255
176
     0
290
     0
176
     0
 90
       50
176
     0
 90
       50
176
     0
 90
       50
176
     0
290
     0
176
     0
 90
       50
176
     0
 62
   256
176
     0
 40
1.0
176
     0
 90
        2
176
     0
  1
strokes_ogs.tif
176
     0
290
     0
176
     0
 40
1.0
176
     0
 40
1.0
176
     0
  0
VISUALSTYLE
  5
38
102
{ACAD_REACTORS
330
2A
102
}
330
2A
100
AcDbVisualStyle
  2
Linepattern
 70
    14
177
     3
291
     1
 70
    58
 90
        2
176
     1
 90
        2
176
     1
 90
        0
176
     1
 90
        0
176
     1
 40
0.6
176
     1
 40
30.0
176
     1
 62
     7
420
 16777215
176
     1
 90
        1
176
     1
 90
        4
176
     1
 62
     7
176
     1
 62
   257
176
     1
 90
        7
176
     1
 90
        7
176
     1
 40
1.0
176
     1
 90
        8
176
     1
 62
     7
176
     1
 40
1.0
176
     1
 90
        1
176
     1
 90
        6
176
     1
 90
        2
176
     1
 62
     7
176
     1
 90
        5
176
     1
 90
        0
176
     1
 90
        0
176
     1
290
     0
176
     1
 90
        1
176
     1
 40
0.0
176
     1
 90
        0
176
     1
290
     0
176
     1
290
     1
176
     1
290
     1
176
     1
290
     0
176
     1
290
     0
176
     1
290
     0
176
     1
290
     0
176
     1
290
     0
176
     1
290
     0
176
     1
 90
       50
176
     1
 40
0.0
176
     1
 40
1.0
176
     1
 90
        0
176
     1
 62
    18
420
        0
176
     1
 90
       50
176
     1
 90
        3
176
     1
 62
     5
420
      255
176
     1
290
     0
176
     1
 90
       50
176
     1
 90
       50
176
     1
 90
       50
176
     1
290
     0
176
     1
 90
       50
176
     1
 62
   256
176
     0
 40
1.0
176
     0
 90
        2
176
     1
  1
strokes_ogs.tif
176
     1
290
     0
176
     1
 40
1.0
176
     1
 40
1.0
176
     1
  0
VISUALSTYLE
  5
3C
102
{ACAD_REACTORS
330
2A
102
}
330
2A
100
AcDbVisualStyle
  2
OverhangOff
 70
    21
177
     3
291
     1
 70
    58
 90
        2
176
     0
 90
        2
176
     0
 90
        0
176
     0
 90
        0
176
     0
 40
0.6
176
     0
 40
30.0
176
     0
 62
     7
420
 16777215
176
     0
 90
        1
176
     0
 90
        4
176
     0
 62
     7
176
     0
 62
   257
176
     0
 90
        1
176
     0
 90
        1
176
     0
 40
1.0
176
     0
 90
        9
176
     2
 62
     7
176
     0
 40
1.0
176
     0
 90
        1
176
     0
 90
        6
176
     0
 90
        2
176
     0
 62
     7
176
     0
 90
        5
176
     0
 90
        0
176
     0
 90
        0
176
     0
290
     0
176
     0
 90
        1
176
     0
 40
0.0
176
     0
 90
        0
176
     0
290
     0
176
     0
290
     1
176
     0
290
     1
176
     0
290
     0
176
     0
290
     0
176
     0
290
     0
176
     0
290
     0
176
     0
290
     0
176
     0
290
     0
176
     0
 90
       50
176
     0
 40
0.0
176
     0
 40
1.0
176
     0
 90
        0
176
     0
 62
    18
420
        0
176
     0
 90
       50
176
     0
 90
        3
176
     0
 62
     5
420
      255
176
     0
290
     0
176
     0
 90
       50
176
     0
 90
       50
176
     0
 90
       50
176
     0
290
     0
176
     0
 90
       50
176
     0
 62
   256
176
     0
 40
1.0
176
     0
 90
        2
176
     0
  1
strokes_ogs.tif
176
     0
290
     0
176
     0
 40
1.0
176
     0
 40
1.0
176
     0
  0
VISUALSTYLE
  5
33
102
{ACAD_REACTORS
330
2A
102
}
330
2A
100
AcDbVisualStyle
  2
Realistic
 70
     8
177
     3
291
     0
 70
    58
 90
        2
176
     1
 90
        3
176
     1
 90
        0
176
     1
 90
        2
176
     1
 40
0.6
176
     1
 40
30.0
176
     1
 62
     7
420
 16777215
176
     1
 90
        0
176
     1
 90
        0
176
     1
 62
     7
176
     1
 62
   257
176
     1
 90
        1
176
     1
 90
        1
176
     1
 40
1.0
176
     1
 90
        8
176
     1
 62
   257
176
     1
 40
1.0
176
     1
 90
        1
176
     1
 90
        6
176
     1
 90
        2
176
     1
 62
     7
176
     1
 90
        3
176
     1
 90
        0
176
     1
 90
        0
176
     1
290
     0
176
     1
 90
       13
176
     1
 40
0.0
176
     1
 90
        0
176
     1
290
     0
176
     1
290
     1
176
     1
290
     1
176
     1
290
     0
176
     1
290
     0
176
     1
290
     0
176
     1
290
     0
176
     1
290
     0
176
     1
290
     0
176
     1
 90
       50
176
     1
 40
0.0
176
     1
 40
1.0
176
     1
 90
        0
176
     1
 62
    18
420
        0
176
     1
 90
       50
176
     1
 90
        3
176
     1
 62
     5
420
      255
176
     1
290
     0
176
     1
 90
       50
176
     1
 90
       50
176
     1
 90
       50
176
     1
290
     0
176
     1
 90
       50
176
     1
 62
   256
176
     0
 40
1.0
176
     0
 90
        2
176
     1
  1
strokes_ogs.tif
176
     1
290
     0
176
     1
 40
1.0
176
     1
 40
1.0
176
     1
  0
VISUALSTYLE
  5
42
102
{ACAD_REACTORS
330
2A
102
}
330
2A
100
AcDbVisualStyle
  2
Shaded
 70
    27
177
     3
291
     0
 70
    58
 90
        2
176
     1
 90
        2
176
     1
 90
        1
176
     1
 90
        2
176
     1
 40
0.6
176
     1
 40
30.0
176
     1
 62
     7
420
 16777215
176
     1
 90
        0
176
     1
 90
        4
176
     1
 62
     7
176
     1
 62
   257
176
     1
 90
        1
176
     1
 90
        1
176
     1
 40
1.0
176
     1
 90
        8
176
     1
 62
   257
176
     1
 40
1.0
176
     1
 90
        1
176
     1
 90
        6
176
     1
 90
        2
176
     1
 62
     8
420
  7895160
176
     1
 90
        3
176
     1
 90
        0
176
     1
 90
        0
176
     1
290
     0
176
     1
 90
        5
176
     1
 40
0.0
176
     1
 90
        0
176
     1
290
     0
176
     1
290
     1
176
     1
290
     1
176
     1
290
     0
176
     1
290
     0
176
     1
290
     0
176
     1
290
     0
176
     1
290
     0
176
     1
290
     0
176
     1
 90
       50
176
     1
 40
0.0
176
     1
 40
1.0
176
     1
 90
        0
176
     1
 62
    18
420
        0
176
     1
 90
       50
176
     1
 90
        3
176
     1
 62
     5
420
      255
176
     1
290
     0
176
     1
 90
       50
176
     1
 90
       50
176
     1
 90
       50
176
     1
290
     0
176
     1
 90
       50
176
     1
 62
   256
176
     0
 40
1.0
176
     0
 90
        2
176
     1
  1
strokes_ogs.tif
176
     1
290
     0
176
     1
 40
1.0
176
     1
 40
1.0
176
     1
  0
VISUALSTYLE
  5
41
102
{ACAD_REACTORS
330
2A
102
}
330
2A
100
AcDbVisualStyle
  2
Shaded with edges
 70
    26
177
     3
291
     0
 70
    58
 90
        2
176
     1
 90
        2
176
     1
 90
        1
176
     1
 90
        2
176
     1
 40
0.6
176
     1
 40
30.0
176
     1
 62
     7
420
 16777215
176
     1
 90
        1
176
     1
 90
       10
176
     1
 62
     7
176
     1
 62
   257
176
     1
 90
        2
176
     1
 90
        1
176
     1
 40
1.0
176
     1
 90
        8
176
     1
 62
   257
176
     1
 40
1.0
176
     1
 90
        1
176
     1
 90
        6
176
     1
 90
        2
176
     1
 62
     7
176
     1
 90
        3
176
     1
 90
        0
176
     1
 90
        0
176
     1
290
     0
176
     1
 90
        5
176
     1
 40
0.0
176
     1
 90
        0
176
     1
290
     0
176
     1
290
     1
176
     1
290
     1
176
     1
290
     0
176
     1
290
     0
176
     1
290
     0
176
     1
290
     0
176
     1
290
     0
176
     1
290
     0
176
     1
 90
       50
176
     1
 40
0.0
176
     1
 40
1.0
176
     1
 90
        0
176
     1
 62
    18
420
        0
176
     1
 90
       50
176
     1
 90
        3
176
     1
 62
     5
420
      255
176
     1
290
     0
176
     1
 90
       50
176
     1
 90
       50
176
     1
 90
       50
176
     1
290
     0
176
     1
 90
       50
176
     1
 62
   256
176
     0
 40
1.0
176
     0
 90
        2
176
     1
  1
strokes_ogs.tif
176
     1
290
     0
176
     1
 40
1.0
176
     1
 40
1.0
176
     1
  0
VISUALSTYLE
  5
3E
102
{ACAD_REACTORS
330
2A
102
}
330
2A
100
AcDbVisualStyle
  2
Shades of Gray
 70
    23
177
     3
291
     0
 70
    58
 90
        2
176
     1
 90
        2
176
     1
 90
        3
176
     1
 90
        0
176
     1
 40
0.6
176
     1
 40
30.0
176
     1
 62
     7
420
 16777215
176
     1
 90
        2
176
     1
 90
        2
176
     1
 62
     7
176
     1
 62
     7
176
     1
 90
        1
176
     1
 90
        1
176
     1
 40
40.0
176
     1
 90
        8
176
     1
 62
     7
176
     1
 40
1.0
176
     1
 90
        1
176
     1
 90
        6
176
     1
 90
        2
176
     1
 62
     7
176
     1
 90
        3
176
     1
 90
        0
176
     1
 90
        0
176
     1
290
     0
176
     1
 90
        1
176
     1
 40
0.0
176
     1
 90
        0
176
     1
290
     0
176
     1
290
     1
176
     1
290
     1
176
     1
290
     0
176
     1
290
     0
176
     1
290
     0
176
     1
290
     0
176
     1
290
     0
176
     1
290
     0
176
     1
 90
       50
176
     1
 40
0.0
176
     1
 40
1.0
176
     1
 90
        0
176
     1
 62
    18
420
        0
176
     1
 90
       50
176
     1
 90
        3
176
     1
 62
     5
420
      255
176
     1
290
     0
176
     1
 90
       50
176
     1
 90
       50
176
     1
 90
       50
176
     1
290
     0
176
     1
 90
       50
176
     1
 62
   256
176
     0
 40
1.0
176
     0
 90
        2
176
     1
  1
strokes_ogs.tif
176
     1
290
     0
176
     1
 40
1.0
176
     1
 40
1.0
176
     1
  0
VISUALSTYLE
  5
3F
102
{ACAD_REACTORS
330
2A
102
}
330
2A
100
AcDbVisualStyle
  2
Sketchy
 70
    24
177
     3
291
     0
 70
    58
 90
        1
176
     1
 90
        2
176
     1
 90
        2
176
     1
 90
        0
176
     1
 40
0.6
176
     1
 40
30.0
176
     1
 62
     7
420
 16777215
176
     1
 90
        2
176
     1
 90
        2
176
     1
 62
     7
176
     1
 62
     7
176
     1
 90
        1
176
     1
 90
        1
176
     1
 40
40.0
176
     1
 90
       11
176
     1
 62
     7
176
     1
 40
1.0
176
     1
 90
        1
176
     1
 90
        6
176
     1
 90
        2
176
     1
 62
     7
176
     1
 90
        6
176
     1
 90
        0
176
     1
 90
        0
176
     1
290
     0
176
     1
 90
        1
176
     1
 40
0.0
176
     1
 90
        0
176
     1
290
     0
176
     1
290
     1
176
     1
290
     1
176
     1
290
     0
176
     1
290
     0
176
     1
290
     0
176
     1
290
     0
176
     1
290
     0
176
     1
290
     0
176
     1
 90
       50
176
     1
 40
0.0
176
     1
 40
1.0
176
     1
 90
        0
176
     1
 62
    18
420
        0
176
     1
 90
       50
176
     1
 90
        3
176
     1
 62
     5
420
      255
176
     1
290
     0
176
     1
 90
       50
176
     1
 90
       50
176
     1
 90
       50
176
     1
290
     0
176
     1
 90
       50
176
     1
 62
   256
176
     0
 40
1.0
176
     0
 90
        2
176
     1
  1
strokes_ogs.tif
176
     1
290
     0
176
     1
 40
1.0
176
     1
 40
1.0
176
     1
  0
VISUALSTYLE
  5
37
102
{ACAD_REACTORS
330
2A
102
}
330
2A
100
AcDbVisualStyle
  2
Thicken
 70
    13
177
     3
291
     1
 70
    58
 90
        2
176
     1
 90
        2
176
     1
 90
        0
176
     1
 90
        0
176
     1
 40
0.6
176
     1
 40
30.0
176
     1
 62
     7
420
 16777215
176
     1
 90
        1
176
     1
 90
        4
176
     1
 62
     7
176
     1
 62
   257
176
     1
 90
        1
176
     1
 90
        1
176
     1
 40
1.0
176
     1
 90
       12
176
     1
 62
     7
176
     1
 40
1.0
176
     1
 90
        1
176
     1
 90
        6
176
     1
 90
        2
176
     1
 62
     7
176
     1
 90
        5
176
     1
 90
        0
176
     1
 90
        0
176
     1
290
     0
176
     1
 90
        1
176
     1
 40
0.0
176
     1
 90
        0
176
     1
290
     0
176
     1
290
     1
176
     1
290
     1
176
     1
290
     0
176
     1
290
     0
176
     1
290
     0
176
     1
290
     0
176
     1
290
     0
176
     1
290
     0
176
     1
 90
       50
176
     1
 40
0.0
176
     1
 40
1.0
176
     1
 90
        0
176
     1
 62
    18
420
        0
176
     1
 90
       50
176
     1
 90
        3
176
     1
 62
     5
420
      255
176
     1
290
     0
176
     1
 90
       50
176
     1
 90
       50
176
     1
 90
       50
176
     1
290
     0
176
     1
 90
       50
176
     1
 62
   256
176
     0
 40
1.0
176
     0
 90
        2
176
     1
  1
strokes_ogs.tif
176
     1
290
     0
176
     1
 40
1.0
176
     1
 40
1.0
176
     1
  0
VISUALSTYLE
  5
30
102
{ACAD_REACTORS
330
2A
102
}
330
2A
100
AcDbVisualStyle
  2
Wireframe
 70
     5
177
     3
291
     0
 70
    58
 90
        0
176
     1
 90
        2
176
     1
 90
        0
176
     1
 90
        0
176
     1
 40
0.6
176
     1
 40
30.0
176
     1
 62
     7
420
 16777215
176
     1
 90
        1
176
     1
 90
        4
176
     1
 62
     7
176
     1
 62
   257
176
     1
 90
        1
176
     1
 90
        1
176
     1
 40
1.0
176
     1
 90
        0
176
     1
 62
   257
176
     1
 40
1.0
176
     1
 90
        1
176
     1
 90
        6
176
     1
 90
        2
176
     1
 62
     7
176
     1
 90
        3
176
     1
 90
        0
176
     1
 90
        0
176
     1
290
     0
176
     1
 90
        1
176
     1
 40
0.0
176
     1
 90
        0
176
     1
290
     0
176
     1
290
     1
176
     1
290
     1
176
     1
290
     0
176
     1
290
     0
176
     1
290
     0
176
     1
290
     0
176
     1
290
     0
176
     1
290
     0
176
     1
 90
       50
176
     1
 40
0.0
176
     1
 40
1.0
176
     1
 90
        0
176
     1
 62
    18
420
        0
176
     1
 90
       50
176
     1
 90
        3
176
     1
 62
     5
420
      255
176
     1
290
     0
176
     1
 90
       50
176
     1
 90
       50
176
     1
 90
       50
176
     1
290
     0
176
     1
 90
       50
176
     1
 62
   256
176
     0
 40
1.0
176
     0
 90
        2
176
     1
  1
strokes_ogs.tif
176
     1
290
     0
176
     1
 40
1.0
176
     1
 40
1.0
176
     1
  0
VISUALSTYLE
  5
40
102
{ACAD_REACTORS
330
2A
102
}
330
2A
100
AcDbVisualStyle
  2
X-Ray
 70
    25
177
     3
291
     0
 70
    58
 90
        2
176
     1
 90
        2
176
     1
 90
        1
176
     1
 90
        1
176
     1
 40
0.5
176
     1
 40
30.0
176
     1
 62
     7
420
 16777215
176
     1
 90
        1
176
     1
 90
        0
176
     1
 62
     7
176
     1
 62
   257
176
     1
 90
        1
176
     1
 90
        1
176
     1
 40
1.0
176
     1
 90
        8
176
     1
 62
     7
176
     1
 40
1.0
176
     1
 90
        1
176
     1
 90
        6
176
     1
 90
        2
176
     1
 62
     7
176
     1
 90
        3
176
     1
 90
        0
176
     1
 90
        0
176
     1
290
     0
176
     1
 90
       13
176
     1
 40
0.0
176
     1
 90
        0
176
     1
290
     0
176
     1
290
     1
176
     1
290
     1
176
     1
290
     0
176
     1
290
     0
176
     1
290
     0
176
     1
290
     0
176
     1
290
     0
176
     1
290
     0
176
     1
 90
       50
176
     1
 40
0.0
176
     1
 40
1.0
176
     1
 90
        0
176
     1
 62
    18
420
        0
176
     1
 90
       50
176
     1
 90
        3
176
     1
 62
     5
420
      255
176
     1
290
     0
176
     1
 90
       50
176
     1
 90
       50
176
     1
 90
       50
176
     1
290
     0
176
     1
 90
       50
176
     1
 62
   256
176
     0
 40
1.0
176
     0
 90
        2
176
     1
  1
strokes_ogs.tif
176
     1
290
     0
176
     1
 40
1.0
176
     1
 40
1.0
176
     1
  0
DICTIONARYVAR
  5
28E
102
{ACAD_REACTORS
330
28D
102
}
330
28D
100
DictionaryVariables
280
     0
  1
1:1
  0
DICTIONARYVAR
  5
293
102
{ACAD_REACTORS
330
28D
102
}
330
28D
100
DictionaryVariables
280
     0
  1
Standard
  0
DICTIONARYVAR
  5
292
102
{ACAD_REACTORS
330
28D
102
}
330
28D
100
DictionaryVariables
280
     0
  1
Standard
  0
DICTIONARY
  5
28F
330
6A
100
AcDbDictionary
280
     1
281
     1
  3
ACAD_ROUNDTRIP_2008_TABLESTYLE_CELLSTYLEMAP
360
290
  0
CELLSTYLEMAP
  5
290
102
{ACAD_REACTORS
330
28F
102
}
330
28F
100
AcDbCellStyleMap
 90
        3
300
CELLSTYLE
  1
TABLEFORMAT_BEGIN
 90
        5
170
     1
 91
        0
 92
    32768
 62
   257
 93
        1
300
CONTENTFORMAT
  1
CONTENTFORMAT_BEGIN
 90
        0
 91
        0
 92
        4
 93
        0
300

 40
0.0
140
1.0
 94
        5
 62
     0
340
11
144
0.25
309
CONTENTFORMAT_END
171
     1
301
MARGIN
  1
CELLMARGIN_BEGIN
 40
0.06
 40
0.06
 40
0.06
 40
0.06
 40
0.06
 40
0.06
309
CELLMARGIN_END
 94
        6
 95
        1
302
GRIDFORMAT
  1
GRIDFORMAT_BEGIN
 90
        0
 91
        1
 62
     0
 92
       -2
340
14
 93
        0
 40
0.045
309
GRIDFORMAT_END
 95
        2
302
GRIDFORMAT
  1
GRIDFORMAT_BEGIN
 90
        0
 91
        1
 62
     0
 92
       -2
340
14
 93
        0
 40
0.045
309
GRIDFORMAT_END
 95
        4
302
GRIDFORMAT
  1
GRIDFORMAT_BEGIN
 90
        0
 91
        1
 62
     0
 92
       -2
340
14
 93
        0
 40
0.045
309
GRIDFORMAT_END
 95
        8
302
GRIDFORMAT
  1
GRIDFORMAT_BEGIN
 90
        0
 91
        1
 62
     0
 92
       -2
340
14
 93
        0
 40
0.045
309
GRIDFORMAT_END
 95
       16
302
GRIDFORMAT
  1
GRIDFORMAT_BEGIN
 90
        0
 91
        1
 62
     0
 92
       -2
340
14
 93
        0
 40
0.045
309
GRIDFORMAT_END
 95
       32
302
GRIDFORMAT
  1
GRIDFORMAT_BEGIN
 90
        0
 91
        1
 62
     0
 92
       -2
340
14
 93
        0
 40
0.045
309
GRIDFORMAT_END
309
TABLEFORMAT_END
  1
CELLSTYLE_BEGIN
 90
        1
 91
        1
300
_TITLE
309
CELLSTYLE_END
300
CELLSTYLE
  1
TABLEFORMAT_BEGIN
 90
        5
170
     1
 91
        0
 92
        0
 62
   257
 93
        1
300
CONTENTFORMAT
  1
CONTENTFORMAT_BEGIN
 90
        0
 91
        0
 92
        4
 93
        0
300

 40
0.0
140
1.0
 94
        5
 62
     0
340
11
144
0.18
309
CONTENTFORMAT_END
171
     1
301
MARGIN
  1
CELLMARGIN_BEGIN
 40
0.06
 40
0.06
 40
0.06
 40
0.06
 40
0.06
 40
0.06
309
CELLMARGIN_END
 94
        6
 95
        1
302
GRIDFORMAT
  1
GRIDFORMAT_BEGIN
 90
        0
 91
        1
 62
     0
 92
       -2
340
14
 93
        0
 40
0.045
309
GRIDFORMAT_END
 95
        2
302
GRIDFORMAT
  1
GRIDFORMAT_BEGIN
 90
        0
 91
        1
 62
     0
 92
       -2
340
14
 93
        0
 40
0.045
309
GRIDFORMAT_END
 95
        4
302
GRIDFORMAT
  1
GRIDFORMAT_BEGIN
 90
        0
 91
        1
 62
     0
 92
       -2
340
14
 93
        0
 40
0.045
309
GRIDFORMAT_END
 95
        8
302
GRIDFORMAT
  1
GRIDFORMAT_BEGIN
 90
        0
 91
        1
 62
     0
 92
       -2
340
14
 93
        0
 40
0.045
309
GRIDFORMAT_END
 95
       16
302
GRIDFORMAT
  1
GRIDFORMAT_BEGIN
 90
        0
 91
        1
 62
     0
 92
       -2
340
14
 93
        0
 40
0.045
309
GRIDFORMAT_END
 95
       32
302
GRIDFORMAT
  1
GRIDFORMAT_BEGIN
 90
        0
 91
        1
 62
     0
 92
       -2
340
14
 93
        0
 40
0.045
309
GRIDFORMAT_END
309
TABLEFORMAT_END
  1
CELLSTYLE_BEGIN
 90
        2
 91
        1
300
_HEADER
309
CELLSTYLE_END
300
CELLSTYLE
  1
TABLEFORMAT_BEGIN
 90
        5
170
     1
 91
        0
 92
        0
 62
   257
 93
        1
300
CONTENTFORMAT
  1
CONTENTFORMAT_BEGIN
 90
        0
 91
        0
 92
        4
 93
        0
300

 40
0.0
140
1.0
 94
        2
 62
     0
340
11
144
0.18
309
CONTENTFORMAT_END
171
     1
301
MARGIN
  1
CELLMARGIN_BEGIN
 40
0.06
 40
0.06
 40
0.06
 40
0.06
 40
0.06
 40
0.06
309
CELLMARGIN_END
 94
        6
 95
        1
302
GRIDFORMAT
  1
GRIDFORMAT_BEGIN
 90
        0
 91
        1
 62
     0
 92
       -2
340
14
 93
        0
 40
0.045
309
GRIDFORMAT_END
 95
        2
302
GRIDFORMAT
  1
GRIDFORMAT_BEGIN
 90
        0
 91
        1
 62
     0
 92
       -2
340
14
 93
        0
 40
0.045
309
GRIDFORMAT_END
 95
        4
302
GRIDFORMAT
  1
GRIDFORMAT_BEGIN
 90
        0
 91
        1
 62
     0
 92
       -2
340
14
 93
        0
 40
0.045
309
GRIDFORMAT_END
 95
        8
302
GRIDFORMAT
  1
GRIDFORMAT_BEGIN
 90
        0
 91
        1
 62
     0
 92
       -2
340
14
 93
        0
 40
0.045
309
GRIDFORMAT_END
 95
       16
302
GRIDFORMAT
  1
GRIDFORMAT_BEGIN
 90
        0
 91
        1
 62
     0
 92
       -2
340
14
 93
        0
 40
0.045
309
GRIDFORMAT_END
 95
       32
302
GRIDFORMAT
  1
GRIDFORMAT_BEGIN
 90
        0
 91
        1
 62
     0
 92
       -2
340
14
 93
        0
 40
0.045
309
GRIDFORMAT_END
309
TABLEFORMAT_END
  1
CELLSTYLE_BEGIN
 90
        3
 91
        2
300
_DATA
309
CELLSTYLE_END
  0
ENDSEC
  0
EOF