0
SECTION
  2
HEADER
  9
$ACADVER
  1
AC1027
  9
$ACADMAINTVER
 70
     8
  9
$DWGCODEPAGE
  3
ANSI_1252
  9
$REQUIREDVERSIONS
160
                 0
  9
$COMMENTS
  1
File was created by Cadenas
  9
$CUSTOMPROPERTYTAG
  1
NN
  9
$CUSTOMPROPERTY
  1
Steel IMPERIAL-HD Flange - 4 Bolt 1-1/8 thru 2-1/4 Inch Bore
  9
$CUSTOMPROPERTYTAG
  1
NT
  9
$CUSTOMPROPERTY
  1
Imperial 4 Bolt Square Flange Bearing -Inch-102-204
  9
$CUSTOMPROPERTYTAG
  1
NB
  9
$CUSTOMPROPERTY
  1
072207
  9
$CUSTOMPROPERTYTAG
  1
NBSYN
  9
$CUSTOMPROPERTY
  1
$PN.
  9
$CUSTOMPROPERTYTAG
  1
LINA
  9
$CUSTOMPROPERTY
  1
072207
  9
$CUSTOMPROPERTYTAG
  1
SS
  9
$CUSTOMPROPERTY
  1
1-7/8
  9
$CUSTOMPROPERTYTAG
  1
PN
  9
$CUSTOMPROPERTY
  1
072207
  9
$CUSTOMPROPERTYTAG
  1
EF
  9
$CUSTOMPROPERTY
  1
Expansion
  9
$CUSTOMPROPERTYTAG
  1
ST
  9
$CUSTOMPROPERTY
  1
Contact Seal
  9
$CUSTOMPROPERTYTAG
  1
A
  9
$CUSTOMPROPERTY
  1
2.86
  9
$CUSTOMPROPERTYTAG
  1
B
  9
$CUSTOMPROPERTY
  1
5.18
  9
$CUSTOMPROPERTYTAG
  1
C
  9
$CUSTOMPROPERTY
  1
3.15
  9
$CUSTOMPROPERTYTAG
  1
D
  9
$CUSTOMPROPERTY
  1
4.07
  9
$CUSTOMPROPERTYTAG
  1
F
  9
$CUSTOMPROPERTY
  1
1/2
  9
$CUSTOMPROPERTYTAG
  1
G
  9
$CUSTOMPROPERTY
  1
0.91
  9
$CUSTOMPROPERTYTAG
  1
H
  9
$CUSTOMPROPERTY
  1
0.91
  9
$CUSTOMPROPERTYTAG
  1
J
  9
$CUSTOMPROPERTY
  1
4.66
  9
$CUSTOMPROPERTYTAG
  1
K
  9
$CUSTOMPROPERTY
  1
5.75
  9
$CUSTOMPROPERTYTAG
  1
L
  9
$CUSTOMPROPERTY
  1
3.28
  9
$CUSTOMPROPERTYTAG
  1
N
  9
$CUSTOMPROPERTY
  1
2.75
  9
$CUSTOMPROPERTYTAG
  1
P
  9
$CUSTOMPROPERTY
  1
0.29
  9
$CUSTOMPROPERTYTAG
  1
X
  9
$CUSTOMPROPERTY
  1
0.25
  9
$CUSTOMPROPERTYTAG
  1
Y
  9
$CUSTOMPROPERTY
  1
0.020
  9
$CUSTOMPROPERTYTAG
  1
Z
  9
$CUSTOMPROPERTY
  1
2.30
  9
$CUSTOMPROPERTYTAG
  1
COMPANY
  9
$CUSTOMPROPERTY
  1
baldor
  9
$INSBASE
 10
0.0
 20
0.0
 30
0.0
  9
$EXTMIN
 10
1.000000000000000E+20
 20
1.000000000000000E+20
 30
1.000000000000000E+20
  9
$EXTMAX
 10
-1.000000000000000E+20
 20
-1.000000000000000E+20
 30
-1.000000000000000E+20
  9
$LIMMIN
 10
0.0
 20
0.0
  9
$LIMMAX
 10
12.0
 20
9.0
  9
$ORTHOMODE
 70
     0
  9
$REGENMODE
 70
     1
  9
$FILLMODE
 70
     1
  9
$QTEXTMODE
 70
     0
  9
$MIRRTEXT
 70
     1
  9
$LTSCALE
 40
1.0
  9
$ATTMODE
 70
     1
  9
$TEXTSIZE
 40
0.2
  9
$TRACEWID
 40
0.05
  9
$TEXTSTYLE
  7
Standard
  9
$CLAYER
  8
0
  9
$CELTYPE
  6
ByLayer
  9
$CECOLOR
 62
   256
  9
$CELTSCALE
 40
1.0
  9
$DISPSILH
 70
     0
  9
$DIMSCALE
 40
1.0
  9
$DIMASZ
 40
0.18
  9
$DIMEXO
 40
0.0625
  9
$DIMDLI
 40
0.38
  9
$DIMRND
 40
0.0
  9
$DIMDLE
 40
0.0
  9
$DIMEXE
 40
0.18
  9
$DIMTP
 40
0.0
  9
$DIMTM
 40
0.0
  9
$DIMTXT
 40
0.18
  9
$DIMCEN
 40
0.09
  9
$DIMTSZ
 40
0.0
  9
$DIMTOL
 70
     0
  9
$DIMLIM
 70
     0
  9
$DIMTIH
 70
     1
  9
$DIMTOH
 70
     1
  9
$DIMSE1
 70
     0
  9
$DIMSE2
 70
     0
  9
$DIMTAD
 70
     0
  9
$DIMZIN
 70
     0
  9
$DIMBLK
  1

  9
$DIMASO
 70
     1
  9
$DIMSHO
 70
     1
  9
$DIMPOST
  1

  9
$DIMAPOST
  1

  9
$DIMALT
 70
     0
  9
$DIMALTD
 70
     2
  9
$DIMALTF
 40
25.4
  9
$DIMLFAC
 40
1.0
  9
$DIMTOFL
 70
     0
  9
$DIMTVP
 40
0.0
  9
$DIMTIX
 70
     0
  9
$DIMSOXD
 70
     0
  9
$DIMSAH
 70
     0
  9
$DIMBLK1
  1

  9
$DIMBLK2
  1

  9
$DIMSTYLE
  2
Standard
  9
$DIMCLRD
 70
     0
  9
$DIMCLRE
 70
     0
  9
$DIMCLRT
 70
     0
  9
$DIMTFAC
 40
1.0
  9
$DIMGAP
 40
0.09
  9
$DIMJUST
 70
     0
  9
$DIMSD1
 70
     0
  9
$DIMSD2
 70
     0
  9
$DIMTOLJ
 70
     1
  9
$DIMTZIN
 70
     0
  9
$DIMALTZ
 70
     0
  9
$DIMALTTZ
 70
     0
  9
$DIMUPT
 70
     0
  9
$DIMDEC
 70
     4
  9
$DIMTDEC
 70
     4
  9
$DIMALTU
 70
     2
  9
$DIMALTTD
 70
     2
  9
$DIMTXSTY
  7
Standard
  9
$DIMAUNIT
 70
     0
  9
$DIMADEC
 70
     0
  9
$DIMALTRND
 40
0.0
  9
$DIMAZIN
 70
     0
  9
$DIMDSEP
 70
    46
  9
$DIMATFIT
 70
     3
  9
$DIMFRAC
 70
     0
  9
$DIMLDRBLK
  1

  9
$DIMLUNIT
 70
     2
  9
$DIMLWD
 70
    -2
  9
$DIMLWE
 70
    -2
  9
$DIMTMOVE
 70
     0
  9
$DIMFXL
 40
1.0
  9
$DIMFXLON
 70
     0
  9
$DIMJOGANG
 40
0.7853981633974483
  9
$DIMTFILL
 70
     0
  9
$DIMTFILLCLR
 70
     0
  9
$DIMARCSYM
 70
     0
  9
$DIMLTYPE
  6

  9
$DIMLTEX1
  6

  9
$DIMLTEX2
  6

  9
$DIMTXTDIRECTION
 70
     0
  9
$LUNITS
 70
     2
  9
$LUPREC
 70
     4
  9
$SKETCHINC
 40
0.1
  9
$FILLETRAD
 40
0.5
  9
$AUNITS
 70
     0
  9
$AUPREC
 70
     0
  9
$MENU
  1
.
  9
$ELEVATION
 40
0.0
  9
$PELEVATION
 40
0.0
  9
$THICKNESS
 40
0.0
  9
$LIMCHECK
 70
     0
  9
$CHAMFERA
 40
0.0
  9
$CHAMFERB
 40
0.0
  9
$CHAMFERC
 40
0.0
  9
$CHAMFERD
 40
0.0
  9
$SKPOLY
 70
     0
  9
$TDCREATE
 40
2458168.898590857
  9
$TDUCREATE
 40
2458168.85692419
  9
$TDUPDATE
 40
2458168.89859103
  9
$TDUUPDATE
 40
2458168.856924363
  9
$TDINDWG
 40
0.0000000116
  9
$TDUSRTIMER
 40
0.0000000116
  9
$USRTIMER
 70
     1
  9
$ANGBASE
 50
0.0
  9
$ANGDIR
 70
     0
  9
$PDMODE
 70
     0
  9
$PDSIZE
 40
0.0
  9
$PLINEWID
 40
0.0
  9
$SPLFRAME
 70
     0
  9
$SPLINETYPE
 70
     6
  9
$SPLINESEGS
 70
     8
  9
$HANDSEED
  5
28F
  9
$SURFTAB1
 70
     6
  9
$SURFTAB2
 70
     6
  9
$SURFTYPE
 70
     6
  9
$SURFU
 70
     6
  9
$SURFV
 70
     6
  9
$UCSBASE
  2

  9
$UCSNAME
  2

  9
$UCSORG
 10
0.0
 20
0.0
 30
0.0
  9
$UCSXDIR
 10
1.0
 20
0.0
 30
0.0
  9
$UCSYDIR
 10
0.0
 20
1.0
 30
0.0
  9
$UCSORTHOREF
  2

  9
$UCSORTHOVIEW
 70
     0
  9
$UCSORGTOP
 10
0.0
 20
0.0
 30
0.0
  9
$UCSORGBOTTOM
 10
0.0
 20
0.0
 30
0.0
  9
$UCSORGLEFT
 10
0.0
 20
0.0
 30
0.0
  9
$UCSORGRIGHT
 10
0.0
 20
0.0
 30
0.0
  9
$UCSORGFRONT
 10
0.0
 20
0.0
 30
0.0
  9
$UCSORGBACK
 10
0.0
 20
0.0
 30
0.0
  9
$PUCSBASE
  2

  9
$PUCSNAME
  2

  9
$PUCSORG
 10
0.0
 20
0.0
 30
0.0
  9
$PUCSXDIR
 10
1.0
 20
0.0
 30
0.0
  9
$PUCSYDIR
 10
0.0
 20
1.0
 30
0.0
  9
$PUCSORTHOREF
  2

  9
$PUCSORTHOVIEW
 70
     0
  9
$PUCSORGTOP
 10
0.0
 20
0.0
 30
0.0
  9
$PUCSORGBOTTOM
 10
0.0
 20
0.0
 30
0.0
  9
$PUCSORGLEFT
 10
0.0
 20
0.0
 30
0.0
  9
$PUCSORGRIGHT
 10
0.0
 20
0.0
 30
0.0
  9
$PUCSORGFRONT
 10
0.0
 20
0.0
 30
0.0
  9
$PUCSORGBACK
 10
0.0
 20
0.0
 30
0.0
  9
$USERI1
 70
     0
  9
$USERI2
 70
     0
  9
$USERI3
 70
     0
  9
$USERI4
 70
     0
  9
$USERI5
 70
     0
  9
$USERR1
 40
0.0
  9
$USERR2
 40
0.0
  9
$USERR3
 40
0.0
  9
$USERR4
 40
0.0
  9
$USERR5
 40
0.0
  9
$WORLDVIEW
 70
     1
  9
$SHADEDGE
 70
     3
  9
$SHADEDIF
 70
    70
  9
$TILEMODE
 70
     1
  9
$MAXACTVP
 70
    64
  9
$PINSBASE
 10
0.0
 20
0.0
 30
0.0
  9
$PLIMCHECK
 70
     0
  9
$PEXTMIN
 10
1.000000000000000E+20
 20
1.000000000000000E+20
 30
1.000000000000000E+20
  9
$PEXTMAX
 10
-1.000000000000000E+20
 20
-1.000000000000000E+20
 30
-1.000000000000000E+20
  9
$PLIMMIN
 10
0.0
 20
0.0
  9
$PLIMMAX
 10
12.0
 20
9.0
  9
$UNITMODE
 70
     0
  9
$VISRETAIN
 70
     1
  9
$PLINEGEN
 70
     0
  9
$PSLTSCALE
 70
     1
  9
$TREEDEPTH
 70
  3020
  9
$CMLSTYLE
  2
Standard
  9
$CMLJUST
 70
     0
  9
$CMLSCALE
 40
1.0
  9
$PROXYGRAPHICS
 70
     1
  9
$MEASUREMENT
 70
     0
  9
$CELWEIGHT
370
    -1
  9
$ENDCAPS
280
     0
  9
$JOINSTYLE
280
     0
  9
$LWDISPLAY
290
     0
  9
$INSUNITS
 70
     1
  9
$HYPERLINKBASE
  1

  9
$STYLESHEET
  1

  9
$XEDIT
290
     1
  9
$CEPSNTYPE
380
     0
  9
$PSTYLEMODE
290
     1
  9
$FINGERPRINTGUID
  2
{9C2341C2-C4D8-4D22-844A-B8A829535A63}
  9
$VERSIONGUID
  2
{FAEB1C32-E019-11D5-929B-00C0DF256EC4}
  9
$EXTNAMES
290
     1
  9
$PSVPSCALE
 40
0.0
  9
$OLESTARTUP
290
     0
  9
$SORTENTS
280
   127
  9
$INDEXCTL
280
     0
  9
$HIDETEXT
280
     1
  9
$XCLIPFRAME
280
     2
  9
$HALOGAP
280
     0
  9
$OBSCOLOR
 70
   257
  9
$OBSLTYPE
280
     0
  9
$INTERSECTIONDISPLAY
280
     0
  9
$INTERSECTIONCOLOR
 70
   257
  9
$DIMASSOC
280
     2
  9
$PROJECTNAME
  1

  9
$CAMERADISPLAY
290
     0
  9
$LENSLENGTH
 40
50.0
  9
$CAMERAHEIGHT
 40
0.0
  9
$STEPSPERSEC
 40
2.0
  9
$STEPSIZE
 40
6.0
  9
$3DDWFPREC
 40
2.0
  9
$PSOLWIDTH
 40
0.25
  9
$PSOLHEIGHT
 40
4.0
  9
$LOFTANG1
 40
1.570796326794897
  9
$LOFTANG2
 40
1.570796326794897
  9
$LOFTMAG1
 40
0.0
  9
$LOFTMAG2
 40
0.0
  9
$LOFTPARAM
 70
     7
  9
$LOFTNORMALS
280
     1
  9
$LATITUDE
 40
37.795
  9
$LONGITUDE
 40
-122.394
  9
$NORTHDIRECTION
 40
0.0
  9
$TIMEZONE
 70
 -8000
  9
$LIGHTGLYPHDISPLAY
280
     1
  9
$TILEMODELIGHTSYNCH
280
     1
  9
$CMATERIAL
347
44
  9
$SOLIDHIST
280
     0
  9
$SHOWHIST
280
     1
  9
$DWFFRAME
280
     2
  9
$DGNFRAME
280
     2
  9
$REALWORLDSCALE
290
     1
  9
$INTERFERECOLOR
 62
   256
  9
$CSHADOW
280
     0
  9
$SHADOWPLANELOCATION
 40
0.0
  0
ENDSEC
  0
SECTION
  2
CLASSES
  0
CLASS
  1
ACDBDICTIONARYWDFLT
  2
AcDbDictionaryWithDefault
  3
ObjectDBX Classes
 90
        0
 91
        4
280
     0
281
     0
  0
CLASS
  1
VISUALSTYLE
  2
AcDbVisualStyle
  3
ObjectDBX Classes
 90
     4095
 91
        4
280
     0
281
     0
  0
CLASS
  1
MATERIAL
  2
AcDbMaterial
  3
ObjectDBX Classes
 90
     1153
 91
        4
280
     0
281
     0
  0
CLASS
  1
SCALE
  2
AcDbScale
  3
ObjectDBX Classes
 90
     1153
 91
        4
280
     0
281
     0
  0
CLASS
  1
TABLESTYLE
  2
AcDbTableStyle
  3
ObjectDBX Classes
 90
     4095
 91
        4
280
     0
281
     0
  0
CLASS
  1
MLEADERSTYLE
  2
AcDbMLeaderStyle
  3
ACDB_MLEADERSTYLE_CLASS
 90
     4095
 91
        4
280
     0
281
     0
  0
CLASS
  1
SUN
  2
AcDbSun
  3
SCENEOE
 90
     1153
 91
        4
280
     0
281
     0
  0
CLASS
  1
DICTIONARYVAR
  2
AcDbDictionaryVar
  3
ObjectDBX Classes
 90
        0
 91
        4
280
     0
281
     0
  0
CLASS
  1
CELLSTYLEMAP
  2
AcDbCellStyleMap
  3
ObjectDBX Classes
 90
     1152
 91
        4
280
     0
281
     0
  0
ENDSEC
  0
SECTION
  2
TABLES
  0
TABLE
  2
VPORT
  5
8
330
0
100
AcDbSymbolTable
 70
     1
  0
VPORT
  5
29
330
8
100
AcDbSymbolTableRecord
100
AcDbViewportTableRecord
  2
*Active
 70
     0
 10
0.0
 20
0.0
 11
1.0
 21
1.0
 12
-1.618499983333333
 22
0.0
 13
0.0
 23
0.0
 14
0.5
 24
0.5
 15
0.5
 25
0.5
 16
0.0
 26
0.0
 36
1.0
 17
0.0
 27
0.0
 37
0.0
 40
5.67528
 41
0.6220345015576323
 42
50.0
 43
0.0
 44
0.0
 50
0.0
 51
0.0
 71
     0
 72
   100
 73
     1
 74
     3
 75
     0
 76
     0
 77
     0
 78
     0
281
     0
 65
     1
110
0.0
120
0.0
130
0.0
111
1.0
121
0.0
131
0.0
112
0.0
122
1.0
132
0.0
 79
     0
146
0.0
348
2F
 60
     3
 61
     5
292
     1
282
     1
141
0.0
142
0.0
 63
   250
361
6D
  0
ENDTAB
  0
TABLE
  2
LTYPE
  5
5
330
0
100
AcDbSymbolTable
 70
     3
  0
LTYPE
  5
14
330
5
100
AcDbSymbolTableRecord
100
AcDbLinetypeTableRecord
  2
ByBlock
 70
     0
  3

 72
    65
 73
     0
 40
0.0
  0
LTYPE
  5
15
330
5
100
AcDbSymbolTableRecord
100
AcDbLinetypeTableRecord
  2
ByLayer
 70
     0
  3

 72
    65
 73
     0
 40
0.0
  0
LTYPE
  5
16
330
5
100
AcDbSymbolTableRecord
100
AcDbLinetypeTableRecord
  2
Continuous
 70
     0
  3
Solid line
 72
    65
 73
     0
 40
0.0
  0
LTYPE
  5
98
330
5
100
AcDbSymbolTableRecord
100
AcDbLinetypeTableRecord
  2
Dashed
 70
     0
  3

 72
    65
 73
     2
 40
2.0
 49
1.0
 74
     0
 49
-1.0
 74
     0
  0
LTYPE
  5
1CE
330
5
100
AcDbSymbolTableRecord
100
AcDbLinetypeTableRecord
  2
Center
 70
     0
  3

 72
    65
 73
     4
 40
1.5
 49
0.45
 74
     0
 49
-0.5
 74
     0
 49
0.05
 74
     0
 49
-0.5
 74
     0
  0
ENDTAB
  0
TABLE
  2
LAYER
  5
2
330
0
100
AcDbSymbolTable
 70
     7
  0
LAYER
  5
10
330
2
100
AcDbSymbolTableRecord
100
AcDbLayerTableRecord
  2
0
 70
     0
 62
     7
  6
Continuous
370
    -3
390
F
347
46
348
0
  0
LAYER
  5
72
330
2
100
AcDbSymbolTableRecord
100
AcDbLayerTableRecord
  2
AM_6
 70
     0
 62
    -2
  6
Continuous
370
    35
390
F
347
46
348
0
  0
LAYER
  5
99
330
2
100
AcDbSymbolTableRecord
100
AcDbLayerTableRecord
  2
AM_9
 70
     0
 62
     6
  6
Dashed
370
    25
390
F
347
46
348
0
  0
LAYER
  5
A0
330
2
100
AcDbSymbolTableRecord
100
AcDbLayerTableRecord
  2
AM_5
 70
     0
 62
     3
  6
Continuous
370
    25
390
F
347
46
348
0
  0
LAYER
  5
A6
330
2
100
AcDbSymbolTableRecord
100
AcDbLayerTableRecord
  2
AM_4
 70
     0
 62
     7
  6
Continuous
370
    50
390
F
347
46
348
0
  0
LAYER
  5
1CF
330
2
100
AcDbSymbolTableRecord
100
AcDbLayerTableRecord
  2
AM_7
 70
     0
 62
     7
  6
Center
370
    25
390
F
347
46
348
0
  0
LAYER
  5
278
330
2
100
AcDbSymbolTableRecord
100
AcDbLayerTableRecord
  2
ConnectionPoints
 70
     0
 62
     7
  6
Continuous
370
    50
390
F
347
46
348
0
  0
ENDTAB
  0
TABLE
  2
STYLE
  5
3
330
0
100
AcDbSymbolTable
 70
     1
  0
STYLE
  5
11
330
3
100
AcDbSymbolTableRecord
100
AcDbTextStyleTableRecord
  2
Standard
 70
     0
 40
0.0
 41
1.0
 50
0.0
 71
     0
 42
0.2
  3
txt
  4

  0
ENDTAB
  0
TABLE
  2
VIEW
  5
6
330
0
100
AcDbSymbolTable
 70
     0
  0
ENDTAB
  0
TABLE
  2
UCS
  5
7
330
0
100
AcDbSymbolTable
 70
     0
  0
ENDTAB
  0
TABLE
  2
APPID
  5
9
330
0
100
AcDbSymbolTable
 70
     1
  0
APPID
  5
12
330
9
100
AcDbSymbolTableRecord
100
AcDbRegAppTableRecord
  2
ACAD
 70
     0
  0
ENDTAB
  0
TABLE
  2
DIMSTYLE
  5
A
330
0
100
AcDbSymbolTable
 70
     1
100
AcDbDimStyleTable
  0
DIMSTYLE
105
27
330
A
100
AcDbSymbolTableRecord
100
AcDbDimStyleTableRecord
  2
Standard
 70
     0
178
     0
340
11
  0
ENDTAB
  0
TABLE
  2
BLOCK_RECORD
  5
1
330
0
100
AcDbSymbolTable
 70
     9
  0
BLOCK_RECORD
  5
1F
330
1
100
AcDbSymbolTableRecord
100
AcDbBlockTableRecord
  2
*Model_Space
340
22
 70
     0
280
     1
281
     0
  0
BLOCK_RECORD
  5
1B
330
1
100
AcDbSymbolTableRecord
100
AcDbBlockTableRecord
  2
*Paper_Space
340
1E
 70
     0
280
     1
281
     0
  0
BLOCK_RECORD
  5
23
330
1
100
AcDbSymbolTableRecord
100
AcDbBlockTableRecord
  2
*Paper_Space0
340
26
 70
     0
280
     1
281
     0
  0
BLOCK_RECORD
  5
6E
330
1
100
AcDbSymbolTableRecord
100
AcDbBlockTableRecord
  2
1_072207_2
340
0
102
{BLKREFS
331
6F
102
}
 70
     0
280
     1
281
     0
  0
BLOCK_RECORD
  5
8C
330
1
100
AcDbSymbolTableRecord
100
AcDbBlockTableRecord
  2
2_405015E_Inch_1_0_in_072207_2
340
0
102
{BLKREFS
331
8D
102
}
 70
     0
280
     1
281
     0
  0
BLOCK_RECORD
  5
CE
330
1
100
AcDbSymbolTableRecord
100
AcDbBlockTableRecord
  2
3_ASME_B18_3_10_1_0_in_072207_2
340
0
102
{BLKREFS
331
CF
102
}
 70
     0
280
     1
281
     0
  0
BLOCK_RECORD
  5
F7
330
1
100
AcDbSymbolTableRecord
100
AcDbBlockTableRecord
  2
4_ASME_B18_3_10_2_0_in_072207_2
340
0
102
{BLKREFS
331
F8
102
}
 70
     0
280
     1
281
     0
  0
BLOCK_RECORD
  5
120
330
1
100
AcDbSymbolTableRecord
100
AcDbBlockTableRecord
  2
5_070889LWE_0_in_072207_2
340
0
102
{BLKREFS
331
121
102
}
 70
     0
280
     1
281
     0
  0
BLOCK_RECORD
  5
15A
330
1
100
AcDbSymbolTableRecord
100
AcDbBlockTableRecord
  2
6_070889E_0_in_072207_2
340
0
102
{BLKREFS
331
15B
102
}
 70
     0
280
     1
281
     0
  0
BLOCK_RECORD
  5
1E2
330
1
100
AcDbSymbolTableRecord
100
AcDbBlockTableRecord
  2
7_405015E_Inch_2_0_in_072207_2
340
0
102
{BLKREFS
331
1E3
102
}
 70
     0
280
     1
281
     0
  0
BLOCK_RECORD
  5
220
330
1
100
AcDbSymbolTableRecord
100
AcDbBlockTableRecord
  2
8_B072179H_0_in_072207_2
340
0
102
{BLKREFS
331
221
102
}
 70
     0
280
     1
281
     0
  0
ENDTAB
  0
ENDSEC
  0
SECTION
  2
BLOCKS
  0
BLOCK
  5
20
330
1F
100
AcDbEntity
  8
0
100
AcDbBlockBegin
  2
*Model_Space
 70
     0
 10
0.0
 20
0.0
 30
0.0
  3
*Model_Space
  1

  0
ENDBLK
  5
21
330
1F
100
AcDbEntity
  8
0
100
AcDbBlockEnd
  0
BLOCK
  5
1C
330
1B
100
AcDbEntity
 67
     1
  8
0
100
AcDbBlockBegin
  2
*Paper_Space
 70
     0
 10
0.0
 20
0.0
 30
0.0
  3
*Paper_Space
  1

  0
ENDBLK
  5
1D
330
1B
100
AcDbEntity
 67
     1
  8
0
100
AcDbBlockEnd
  0
BLOCK
  5
24
330
23
100
AcDbEntity
  8
0
100
AcDbBlockBegin
  2
*Paper_Space0
 70
     0
 10
0.0
 20
0.0
 30
0.0
  3
*Paper_Space0
  1

  0
ENDBLK
  5
25
330
23
100
AcDbEntity
  8
0
100
AcDbBlockEnd
  0
BLOCK
  5
70
330
6E
100
AcDbEntity
  8
0
100
AcDbBlockBegin
  2
1_072207_2
 70
     2
 10
0.0
 20
0.0
 30
0.0
  3
1_072207_2
  1

  0
ATTDEF
  5
73
330
6E
100
AcDbEntity
  8
AM_6
100
AcDbText
 10
5.111999999999999
 20
2.782
 30
0.0
 40
0.5
  1
Steel IMPERIAL-HD Flange - 4 Bolt 1-1/8 thru 2-1/4 Inch Bore
100
AcDbAttributeDefinition
  3

  2
NN
 70
     8
280
     0
  0
ATTDEF
  5
74
330
6E
100
AcDbEntity
  8
AM_6
100
AcDbText
 10
5.111999999999999
 20
2.282
 30
0.0
 40
0.5
  1
Imperial 4 Bolt Square Flange Bearing -Inch-102-204
100
AcDbAttributeDefinition
  3

  2
NT
 70
     8
280
     0
  0
ATTDEF
  5
75
330
6E
100
AcDbEntity
  8
AM_6
100
AcDbText
 10
5.111999999999999
 20
1.782
 30
0.0
 40
0.5
  1
072207
100
AcDbAttributeDefinition
  3

  2
NB
 70
     8
280
     0
  0
ATTDEF
  5
76
330
6E
100
AcDbEntity
  8
AM_6
100
AcDbText
 10
5.111999999999999
 20
1.282
 30
0.0
 40
0.5
  1
$PN.
100
AcDbAttributeDefinition
  3

  2
NBSYN
 70
     8
280
     0
  0
ATTDEF
  5
77
330
6E
100
AcDbEntity
  8
AM_6
100
AcDbText
 10
5.111999999999999
 20
0.782
 30
0.0
 40
0.5
  1
072207
100
AcDbAttributeDefinition
  3

  2
LINA
 70
     8
280
     0
  0
ATTDEF
  5
78
330
6E
100
AcDbEntity
  8
AM_6
100
AcDbText
 10
5.111999999999999
 20
0.282
 30
0.0
 40
0.5
  1
1-7/8
100
AcDbAttributeDefinition
  3

  2
SS
 70
     8
280
     0
  0
ATTDEF
  5
79
330
6E
100
AcDbEntity
  8
AM_6
100
AcDbText
 10
5.111999999999999
 20
-0.218
 30
0.0
 40
0.5
  1
072207
100
AcDbAttributeDefinition
  3

  2
PN
 70
     8
280
     0
  0
ATTDEF
  5
7A
330
6E
100
AcDbEntity
  8
AM_6
100
AcDbText
 10
5.111999999999999
 20
-0.718
 30
0.0
 40
0.5
  1
Expansion
100
AcDbAttributeDefinition
  3

  2
EF
 70
     8
280
     0
  0
ATTDEF
  5
7B
330
6E
100
AcDbEntity
  8
AM_6
100
AcDbText
 10
5.111999999999999
 20
-1.218
 30
0.0
 40
0.5
  1
Contact Seal
100
AcDbAttributeDefinition
  3

  2
ST
 70
     8
280
     0
  0
ATTDEF
  5
7C
330
6E
100
AcDbEntity
  8
AM_6
100
AcDbText
 10
5.111999999999999
 20
-1.718
 30
0.0
 40
0.5
  1
2.86
100
AcDbAttributeDefinition
  3

  2
A
 70
     8
280
     0
  0
ATTDEF
  5
7D
330
6E
100
AcDbEntity
  8
AM_6
100
AcDbText
 10
5.111999999999999
 20
-2.218
 30
0.0
 40
0.5
  1
5.18
100
AcDbAttributeDefinition
  3

  2
B
 70
     8
280
     0
  0
ATTDEF
  5
7E
330
6E
100
AcDbEntity
  8
AM_6
100
AcDbText
 10
5.111999999999999
 20
-2.718
 30
0.0
 40
0.5
  1
3.15
100
AcDbAttributeDefinition
  3

  2
C
 70
     8
280
     0
  0
ATTDEF
  5
7F
330
6E
100
AcDbEntity
  8
AM_6
100
AcDbText
 10
5.111999999999999
 20
-3.218
 30
0.0
 40
0.5
  1
4.07
100
AcDbAttributeDefinition
  3

  2
D
 70
     8
280
     0
  0
ATTDEF
  5
80
330
6E
100
AcDbEntity
  8
AM_6
100
AcDbText
 10
5.111999999999999
 20
-3.718
 30
0.0
 40
0.5
  1
1/2
100
AcDbAttributeDefinition
  3

  2
F
 70
     8
280
     0
  0
ATTDEF
  5
81
330
6E
100
AcDbEntity
  8
AM_6
100
AcDbText
 10
5.111999999999999
 20
-4.218
 30
0.0
 40
0.5
  1
0.91
100
AcDbAttributeDefinition
  3

  2
G
 70
     8
280
     0
  0
ATTDEF
  5
82
330
6E
100
AcDbEntity
  8
AM_6
100
AcDbText
 10
5.111999999999999
 20
-4.718
 30
0.0
 40
0.5
  1
0.91
100
AcDbAttributeDefinition
  3

  2
H
 70
     8
280
     0
  0
ATTDEF
  5
83
330
6E
100
AcDbEntity
  8
AM_6
100
AcDbText
 10
5.111999999999999
 20
-5.218
 30
0.0
 40
0.5
  1
4.66
100
AcDbAttributeDefinition
  3

  2
J
 70
     8
280
     0
  0
ATTDEF
  5
84
330
6E
100
AcDbEntity
  8
AM_6
100
AcDbText
 10
5.111999999999999
 20
-5.718
 30
0.0
 40
0.5
  1
5.75
100
AcDbAttributeDefinition
  3

  2
K
 70
     8
280
     0
  0
ATTDEF
  5
85
330
6E
100
AcDbEntity
  8
AM_6
100
AcDbText
 10
5.111999999999999
 20
-6.218
 30
0.0
 40
0.5
  1
3.28
100
AcDbAttributeDefinition
  3

  2
L
 70
     8
280
     0
  0
ATTDEF
  5
86
330
6E
100
AcDbEntity
  8
AM_6
100
AcDbText
 10
5.111999999999999
 20
-6.718
 30
0.0
 40
0.5
  1
2.75
100
AcDbAttributeDefinition
  3

  2
N
 70
     8
280
     0
  0
ATTDEF
  5
87
330
6E
100
AcDbEntity
  8
AM_6
100
AcDbText
 10
5.111999999999999
 20
-7.218
 30
0.0
 40
0.5
  1
0.29
100
AcDbAttributeDefinition
  3

  2
P
 70
     8
280
     0
  0
ATTDEF
  5
88
330
6E
100
AcDbEntity
  8
AM_6
100
AcDbText
 10
5.111999999999999
 20
-7.718
 30
0.0
 40
0.5
  1
0.25
100
AcDbAttributeDefinition
  3

  2
X
 70
     8
280
     0
  0
ATTDEF
  5
89
330
6E
100
AcDbEntity
  8
AM_6
100
AcDbText
 10
5.111999999999999
 20
-8.218
 30
0.0
 40
0.5
  1
0.020
100
AcDbAttributeDefinition
  3

  2
Y
 70
     8
280
     0
  0
ATTDEF
  5
8A
330
6E
100
AcDbEntity
  8
AM_6
100
AcDbText
 10
5.111999999999999
 20
-8.718
 30
0.0
 40
0.5
  1
2.30
100
AcDbAttributeDefinition
  3

  2
Z
 70
     8
280
     0
  0
ATTDEF
  5
8B
330
6E
100
AcDbEntity
  8
AM_6
100
AcDbText
 10
5.111999999999999
 20
-9.218
 30
0.0
 40
0.5
  1
baldor
100
AcDbAttributeDefinition
  3

  2
COMPANY
 70
     8
280
     0
  0
INSERT
  5
8D
330
6E
100
AcDbEntity
  8
0
100
AcDbBlockReference
  2
2_405015E_Inch_1_0_in_072207_2
 10
0.0
 20
0.0
 30
0.0
  0
INSERT
  5
CF
330
6E
100
AcDbEntity
  8
0
100
AcDbBlockReference
  2
3_ASME_B18_3_10_1_0_in_072207_2
 10
0.0
 20
0.0
 30
0.0
  0
INSERT
  5
F8
330
6E
100
AcDbEntity
  8
0
100
AcDbBlockReference
  2
4_ASME_B18_3_10_2_0_in_072207_2
 10
0.0
 20
0.0
 30
0.0
  0
INSERT
  5
121
330
6E
100
AcDbEntity
  8
0
100
AcDbBlockReference
  2
5_070889LWE_0_in_072207_2
 10
0.0
 20
0.0
 30
0.0
  0
INSERT
  5
15B
330
6E
100
AcDbEntity
  8
0
100
AcDbBlockReference
  2
6_070889E_0_in_072207_2
 10
0.0
 20
0.0
 30
0.0
  0
INSERT
  5
1E3
330
6E
100
AcDbEntity
  8
0
100
AcDbBlockReference
  2
7_405015E_Inch_2_0_in_072207_2
 10
0.0
 20
0.0
 30
0.0
  0
INSERT
  5
221
330
6E
100
AcDbEntity
  8
0
100
AcDbBlockReference
  2
8_B072179H_0_in_072207_2
 10
0.0
 20
0.0
 30
0.0
  0
ENDBLK
  5
71
330
6E
100
AcDbEntity
  8
0
100
AcDbBlockEnd
  0
BLOCK
  5
8E
330
8C
100
AcDbEntity
  8
0
100
AcDbBlockBegin
  2
2_405015E_Inch_1_0_in_072207_2
 70
     2
 10
0.0
 20
0.0
 30
0.0
  3
2_405015E_Inch_1_0_in_072207_2
  1

  0
ATTDEF
  5
90
330
8C
100
AcDbEntity
  8
AM_6
100
AcDbText
 10
3.677590742770461
 20
-2.109999999999999
 30
0.0
 40
0.5
  1
405015E -Inch
100
AcDbAttributeDefinition
  3

  2
NN
 70
     8
280
     0
  0
ATTDEF
  5
91
330
8C
100
AcDbEntity
  8
AM_6
100
AcDbText
 10
3.677590742770461
 20
-2.609999999999999
 30
0.0
 40
0.5
  1
Grease Fitting
100
AcDbAttributeDefinition
  3

  2
NT
 70
     8
280
     0
  0
ATTDEF
  5
92
330
8C
100
AcDbEntity
  8
AM_6
100
AcDbText
 10
3.677590742770461
 20
-3.109999999999999
 30
0.0
 40
0.5
  1
405015E-Inch
100
AcDbAttributeDefinition
  3

  2
NB
 70
     8
280
     0
  0
ATTDEF
  5
93
330
8C
100
AcDbEntity
  8
AM_6
100
AcDbText
 10
3.677590742770461
 20
-3.609999999999999
 30
0.0
 40
0.5
  1
$MN.-Inch
100
AcDbAttributeDefinition
  3

  2
NBSYN
 70
     8
280
     0
  0
ATTDEF
  5
94
330
8C
100
AcDbEntity
  8
AM_6
100
AcDbText
 10
3.677590742770461
 20
-4.109999999999999
 30
0.0
 40
0.5
  1
405015E
100
AcDbAttributeDefinition
  3

  2
LINA
 70
     8
280
     0
  0
ATTDEF
  5
95
330
8C
100
AcDbEntity
  8
AM_6
100
AcDbText
 10
3.677590742770461
 20
-4.609999999999999
 30
0.0
 40
0.5
  1
405015E
100
AcDbAttributeDefinition
  3

  2
MN
 70
     8
280
     0
  0
ATTDEF
  5
96
330
8C
100
AcDbEntity
  8
AM_6
100
AcDbText
 10
3.677590742770461
 20
-5.109999999999999
 30
0.0
 40
0.5
  1
1/8 x 27PTF
100
AcDbAttributeDefinition
  3

  2
T
 70
     8
280
     0
  0
ATTDEF
  5
97
330
8C
100
AcDbEntity
  8
AM_6
100
AcDbText
 10
3.677590742770461
 20
-5.609999999999999
 30
0.0
 40
0.5
  1
baldor
100
AcDbAttributeDefinition
  3

  2
COMPANY
 70
     8
280
     0
  0
LINE
  5
9A
330
8C
100
AcDbEntity
  8
AM_9
100
AcDbLine
 10
-1.413097127527731
 20
-2.11
 30
0.0
 11
-1.736902872472269
 21
-2.11
 31
0.0
  0
LINE
  5
9B
330
8C
100
AcDbEntity
  8
AM_9
100
AcDbLine
 10
-1.736902872472269
 20
-2.11
 30
0.0
 11
-1.773617626781215
 21
-2.146714754308946
 31
0.0
  0
LINE
  5
9C
330
8C
100
AcDbEntity
  8
AM_9
100
AcDbLine
 10
-1.376382373218784
 20
-2.146714754308946
 30
0.0
 11
-1.413097127527731
 21
-2.11
 31
0.0
  0
LINE
  5
9D
330
8C
100
AcDbEntity
  8
AM_9
100
AcDbLine
 10
-1.376382373218784
 20
-2.146714754308946
 30
0.0
 11
-1.773617626781215
 21
-2.146714754308946
 31
0.0
  0
LINE
  5
9E
330
8C
100
AcDbEntity
  8
AM_9
100
AcDbLine
 10
-1.773617626781215
 20
-2.146714754308946
 30
0.0
 11
-1.780751897223069
 21
-2.375
 31
0.0
  0
LINE
  5
9F
330
8C
100
AcDbEntity
  8
AM_9
100
AcDbLine
 10
-1.36924810277693
 20
-2.375
 30
0.0
 11
-1.376382373218784
 21
-2.146714754308946
 31
0.0
  0
LINE
  5
A1
330
8C
100
AcDbEntity
  8
AM_5
100
AcDbLine
 10
-1.743149124852348
 20
-2.309870087748463
 30
0.0
 11
-1.736902872472269
 21
-2.109999999999999
 31
0.0
  0
LINE
  5
A2
330
8C
100
AcDbEntity
  8
AM_5
100
AcDbLine
 10
-1.780751897223069
 20
-2.375
 30
0.0
 11
-1.743149124852348
 21
-2.309870087748463
 31
0.0
  0
LINE
  5
A3
330
8C
100
AcDbEntity
  8
AM_5
100
AcDbLine
 10
-1.371283514248443
 20
-2.309870087748463
 30
0.0
 11
-1.778716485751556
 21
-2.309870087748463
 31
0.0
  0
LINE
  5
A4
330
8C
100
AcDbEntity
  8
AM_5
100
AcDbLine
 10
-1.406850875147652
 20
-2.309870087748463
 30
0.0
 11
-1.413097127527731
 21
-2.109999999999999
 31
0.0
  0
LINE
  5
A5
330
8C
100
AcDbEntity
  8
AM_5
100
AcDbLine
 10
-1.36924810277693
 20
-2.375
 30
0.0
 11
-1.406850875147652
 21
-2.309870087748463
 31
0.0
  0
LINE
  5
A7
330
8C
100
AcDbEntity
  8
AM_4
100
AcDbLine
 10
-1.68
 20
-2.58
 30
0.0
 11
-1.68
 21
-2.61
 31
0.0
  0
LINE
  5
A8
330
8C
100
AcDbEntity
  8
AM_4
100
AcDbLine
 10
-1.47
 20
-2.61
 30
0.0
 11
-1.47
 21
-2.58
 31
0.0
  0
LINE
  5
A9
330
8C
100
AcDbEntity
  8
AM_4
100
AcDbLine
 10
-1.35625
 20
-2.475
 30
0.0
 11
-1.322409257229539
 21
-2.465932400303386
 31
0.0
  0
LINE
  5
AA
330
8C
100
AcDbEntity
  8
AM_4
100
AcDbLine
 10
-1.35625
 20
-2.475
 30
0.0
 11
-1.79375
 21
-2.475
 31
0.0
  0
LINE
  5
AB
330
8C
100
AcDbEntity
  8
AM_4
100
AcDbLine
 10
-1.827590742770461
 20
-2.465932400303386
 30
0.0
 11
-1.79375
 21
-2.475
 31
0.0
  0
LINE
  5
AC
330
8C
100
AcDbEntity
  8
AM_4
100
AcDbLine
 10
-1.322409257229539
 20
-2.384067599696615
 30
0.0
 11
-1.35625
 21
-2.375
 31
0.0
  0
LINE
  5
AD
330
8C
100
AcDbEntity
  8
AM_4
100
AcDbLine
 10
-1.79375
 20
-2.375
 30
0.0
 11
-1.827590742770461
 21
-2.384067599696615
 31
0.0
  0
LINE
  5
AE
330
8C
100
AcDbEntity
  8
AM_4
100
AcDbLine
 10
-1.47
 20
-2.58
 30
0.0
 11
-1.68
 21
-2.58
 31
0.0
  0
LINE
  5
AF
330
8C
100
AcDbEntity
  8
AM_4
100
AcDbLine
 10
-1.47
 20
-2.58
 30
0.0
 11
-1.456179909265102
 21
-2.547753121618572
 31
0.0
  0
LINE
  5
B0
330
8C
100
AcDbEntity
  8
AM_4
100
AcDbLine
 10
-1.693820090734897
 20
-2.547753121618572
 30
0.0
 11
-1.68
 21
-2.58
 31
0.0
  0
LINE
  5
B1
330
8C
100
AcDbEntity
  8
AM_4
100
AcDbLine
 10
-1.472322098066812
 20
-2.75
 30
0.0
 11
-1.677677901933187
 21
-2.75
 31
0.0
  0
LINE
  5
B2
330
8C
100
AcDbEntity
  8
AM_4
100
AcDbLine
 10
-1.472322098066812
 20
-2.75
 30
0.0
 11
-1.44
 21
-2.669999999999999
 31
0.0
  0
LINE
  5
B3
330
8C
100
AcDbEntity
  8
AM_4
100
AcDbLine
 10
-1.71
 20
-2.669999999999999
 30
0.0
 11
-1.677677901933187
 21
-2.75
 31
0.0
  0
LINE
  5
B4
330
8C
100
AcDbEntity
  8
AM_4
100
AcDbLine
 10
-1.44
 20
-2.669999999999999
 30
0.0
 11
-1.71
 21
-2.669999999999999
 31
0.0
  0
LINE
  5
B5
330
8C
100
AcDbEntity
  8
AM_4
100
AcDbLine
 10
-1.47
 20
-2.61
 30
0.0
 11
-1.68
 21
-2.61
 31
0.0
  0
LINE
  5
B6
330
8C
100
AcDbEntity
  8
AM_4
100
AcDbLine
 10
-1.68
 20
-2.61
 30
0.0
 11
-1.71
 21
-2.669999999999999
 31
0.0
  0
LINE
  5
B7
330
8C
100
AcDbEntity
  8
AM_4
100
AcDbLine
 10
-1.44
 20
-2.669999999999999
 30
0.0
 11
-1.47
 21
-2.61
 31
0.0
  0
LINE
  5
B8
330
8C
100
AcDbEntity
  8
AM_4
100
AcDbLine
 10
-1.456179909265102
 20
-2.547753121618572
 30
0.0
 11
-1.693820090734897
 21
-2.547753121618572
 31
0.0
  0
LINE
  5
B9
330
8C
100
AcDbEntity
  8
AM_4
100
AcDbLine
 10
-1.456179909265102
 20
-2.547753121618572
 30
0.0
 11
-1.402465946716984
 21
-2.493318198540882
 31
0.0
  0
LINE
  5
BA
330
8C
100
AcDbEntity
  8
AM_4
100
AcDbLine
 10
-1.747534053283015
 20
-2.493318198540882
 30
0.0
 11
-1.693820090734897
 21
-2.547753121618572
 31
0.0
  0
LINE
  5
BB
330
8C
100
AcDbEntity
  8
AM_4
100
AcDbLine
 10
-1.402465946716984
 20
-2.493318198540882
 30
0.0
 11
-1.747534053283015
 21
-2.493318198540882
 31
0.0
  0
LINE
  5
BC
330
8C
100
AcDbEntity
  8
AM_4
100
AcDbLine
 10
-1.402465946716984
 20
-2.493318198540882
 30
0.0
 11
-1.36125
 21
-2.475
 31
0.0
  0
LINE
  5
BD
330
8C
100
AcDbEntity
  8
AM_4
100
AcDbLine
 10
-1.78875
 20
-2.475
 30
0.0
 11
-1.747534053283015
 21
-2.493318198540882
 31
0.0
  0
LWPOLYLINE
  5
BE
330
8C
100
AcDbEntity
  8
AM_4
100
AcDbPolyline
 90
        3
 70
     0
 43
0.0
 10
-1.322409257229539
 20
-2.465932400303386
 10
-1.353841135576435
 20
-2.47258547505038
 10
-1.385556942922154
 20
-2.475
  0
LINE
  5
BF
330
8C
100
AcDbEntity
  8
AM_4
100
AcDbLine
 10
-1.322409257229539
 20
-2.465932400303386
 30
0.0
 11
-1.322409257229539
 21
-2.384067599696615
 31
0.0
  0
LWPOLYLINE
  5
C0
330
8C
100
AcDbEntity
  8
AM_4
100
AcDbPolyline
 90
        3
 70
     0
 43
0.0
 10
-1.385556942922154
 20
-2.375
 10
-1.353983100075846
 20
-2.377393380785035
 10
-1.322409257229539
 20
-2.384067599696615
  0
LWPOLYLINE
  5
C1
330
8C
100
AcDbEntity
  8
AM_4
100
AcDbPolyline
 90
        3
 70
     0
 43
0.0
 10
-1.385556942922154
 20
-2.475
 10
-1.417130785768462
 20
-2.472606619214965
 10
-1.448704628614769
 20
-2.465932400303386
  0
LWPOLYLINE
  5
C2
330
8C
100
AcDbEntity
  8
AM_4
100
AcDbPolyline
 90
        4
 70
     0
 43
0.0
 10
-1.575
 20
-2.475
 10
-1.623399816055899
 20
-2.473582439282863
 10
-1.671799632111798
 20
-2.469517587482156
 10
-1.70129537138523
 20
-2.465932400303386
  0
LWPOLYLINE
  5
C3
330
8C
100
AcDbEntity
  8
AM_4
100
AcDbPolyline
 90
        3
 70
     0
 43
0.0
 10
-1.448704628614769
 20
-2.465932400303386
 10
-1.511568385308563
 20
-2.47258547505038
 10
-1.575
 20
-2.475
  0
LINE
  5
C4
330
8C
100
AcDbEntity
  8
AM_4
100
AcDbLine
 10
-1.448704628614769
 20
-2.465932400303386
 30
0.0
 11
-1.448704628614769
 21
-2.384067599696615
 31
0.0
  0
LWPOLYLINE
  5
C5
330
8C
100
AcDbEntity
  8
AM_4
100
AcDbPolyline
 90
        4
 70
     0
 43
0.0
 10
-1.70129537138523
 20
-2.384067599696615
 10
-1.671799632111798
 20
-2.380482412517844
 10
-1.623542441247754
 20
-2.376425828243072
 10
-1.575
 20
-2.375
  0
LWPOLYLINE
  5
C6
330
8C
100
AcDbEntity
  8
AM_4
100
AcDbPolyline
 90
        3
 70
     0
 43
0.0
 10
-1.575
 20
-2.375
 10
-1.511852314307384
 20
-2.377393380785035
 10
-1.448704628614769
 20
-2.384067599696615
  0
LWPOLYLINE
  5
C7
330
8C
100
AcDbEntity
  8
AM_4
100
AcDbPolyline
 90
        3
 70
     0
 43
0.0
 10
-1.448704628614769
 20
-2.384067599696615
 10
-1.417272750267872
 20
-2.37741452494962
 10
-1.385556942922154
 20
-2.375
  0
LINE
  5
C8
330
8C
100
AcDbEntity
  8
AM_4
100
AcDbLine
 10
-1.827590742770461
 20
-2.465932400303386
 30
0.0
 11
-1.827590742770461
 21
-2.384067599696615
 31
0.0
  0
LWPOLYLINE
  5
C9
330
8C
100
AcDbEntity
  8
AM_4
100
AcDbPolyline
 90
        3
 70
     0
 43
0.0
 10
-1.764443057077846
 20
-2.475
 10
-1.796016899924153
 20
-2.472606619214965
 10
-1.827590742770461
 20
-2.465932400303386
  0
LWPOLYLINE
  5
CA
330
8C
100
AcDbEntity
  8
AM_4
100
AcDbPolyline
 90
        3
 70
     0
 43
0.0
 10
-1.70129537138523
 20
-2.465932400303386
 10
-1.732727249732127
 20
-2.47258547505038
 10
-1.764443057077846
 20
-2.475
  0
LINE
  5
CB
330
8C
100
AcDbEntity
  8
AM_4
100
AcDbLine
 10
-1.70129537138523
 20
-2.465932400303386
 30
0.0
 11
-1.70129537138523
 21
-2.384067599696615
 31
0.0
  0
LWPOLYLINE
  5
CC
330
8C
100
AcDbEntity
  8
AM_4
100
AcDbPolyline
 90
        3
 70
     0
 43
0.0
 10
-1.764443057077846
 20
-2.375
 10
-1.732869214231538
 20
-2.377393380785035
 10
-1.70129537138523
 20
-2.384067599696615
  0
LWPOLYLINE
  5
CD
330
8C
100
AcDbEntity
  8
AM_4
100
AcDbPolyline
 90
        3
 70
     0
 43
0.0
 10
-1.827590742770461
 20
-2.384067599696615
 10
-1.796158864423564
 20
-2.37741452494962
 10
-1.764443057077846
 20
-2.375
  0
ENDBLK
  5
8F
330
8C
100
AcDbEntity
  8
0
100
AcDbBlockEnd
  0
BLOCK
  5
D0
330
CE
100
AcDbEntity
  8
0
100
AcDbBlockBegin
  2
3_ASME_B18_3_10_1_0_in_072207_2
 70
     2
 10
0.0
 20
0.0
 30
0.0
  3
3_ASME_B18_3_10_1_0_in_072207_2
  1

  0
ATTDEF
  5
D2
330
CE
100
AcDbEntity
  8
AM_6
100
AcDbText
 10
2.751000033333334
 20
-1.160645833333334
 30
0.0
 40
0.5
  1
ANSI/ASME-B18.3-1998
100
AcDbAttributeDefinition
  3

  2
NN
 70
     8
280
     0
  0
ATTDEF
  5
D3
330
CE
100
AcDbEntity
  8
AM_6
100
AcDbText
 10
2.751000033333334
 20
-1.660645833333334
 30
0.0
 40
0.5
  1
Socket Button Head Cap Screws
100
AcDbAttributeDefinition
  3

  2
NT
 70
     8
280
     0
  0
ATTDEF
  5
D4
330
CE
100
AcDbEntity
  8
AM_6
100
AcDbText
 10
2.751000033333334
 20
-2.160645833333334
 30
0.0
 40
0.5
  1
ASME-B18.3-10
100
AcDbAttributeDefinition
  3

  2
NB
 70
     8
280
     0
  0
ATTDEF
  5
D5
330
CE
100
AcDbEntity
  8
AM_6
100
AcDbText
 10
2.751000033333334
 20
-2.660645833333334
 30
0.0
 40
0.5
  1
ASME-B18.3-$NS.
100
AcDbAttributeDefinition
  3

  2
NBSYN
 70
     8
280
     0
  0
ATTDEF
  5
D6
330
CE
100
AcDbEntity
  8
AM_6
100
AcDbText
 10
2.751000033333334
 20
-3.160645833333334
 30
0.0
 40
0.5
  1
ASME-B18.3-10
100
AcDbAttributeDefinition
  3

  2
LINA
 70
     8
280
     0
  0
ATTDEF
  5
D7
330
CE
100
AcDbEntity
  8
AM_6
100
AcDbText
 10
2.751000033333334
 20
-3.660645833333334
 30
0.0
 40
0.5
  1
10
100
AcDbAttributeDefinition
  3

  2
NS
 70
     8
280
     0
  0
ATTDEF
  5
D8
330
CE
100
AcDbEntity
  8
AM_6
100
AcDbText
 10
2.751000033333334
 20
-4.160645833333334
 30
0.0
 40
0.5
  1
0.361
100
AcDbAttributeDefinition
  3

  2
A
 70
     8
280
     0
  0
ATTDEF
  5
D9
330
CE
100
AcDbEntity
  8
AM_6
100
AcDbText
 10
2.751000033333334
 20
-4.660645833333334
 30
0.0
 40
0.5
  1
0.101
100
AcDbAttributeDefinition
  3

  2
H
 70
     8
280
     0
  0
ATTDEF
  5
DA
330
CE
100
AcDbEntity
  8
AM_6
100
AcDbText
 10
2.751000033333334
 20
-5.160645833333334
 30
0.0
 40
0.5
  1
0.800
100
AcDbAttributeDefinition
  3

  2
L
 70
     8
280
     0
  0
ATTDEF
  5
DB
330
CE
100
AcDbEntity
  8
AM_6
100
AcDbText
 10
2.751000033333334
 20
-5.660645833333334
 30
0.0
 40
0.5
  1
0.020
100
AcDbAttributeDefinition
  3

  2
S
 70
     8
280
     0
  0
ATTDEF
  5
DC
330
CE
100
AcDbEntity
  8
AM_6
100
AcDbText
 10
2.751000033333334
 20
-6.160645833333334
 30
0.0
 40
0.5
  1
0.125000
100
AcDbAttributeDefinition
  3

  2
J
 70
     8
280
     0
  0
ATTDEF
  5
DD
330
CE
100
AcDbEntity
  8
AM_6
100
AcDbText
 10
2.751000033333334
 20
-6.660645833333334
 30
0.0
 40
0.5
  1
baldor
100
AcDbAttributeDefinition
  3

  2
COMPANY
 70
     8
280
     0
  0
LINE
  5
DE
330
CE
100
AcDbEntity
  8
AM_9
100
AcDbLine
 10
-3.088999966666667
 20
-1.26897704968463
 30
0.0
 11
-3.149999966666666
 21
-1.26897704968463
 31
0.0
  0
LINE
  5
DF
330
CE
100
AcDbEntity
  8
AM_9
100
AcDbLine
 10
-3.088999966666667
 20
-1.413314616982037
 30
0.0
 11
-3.149999966666666
 21
-1.413314616982037
 31
0.0
  0
LINE
  5
E0
330
CE
100
AcDbEntity
  8
AM_9
100
AcDbLine
 10
-3.088999966666667
 20
-1.26897704968463
 30
0.0
 11
-3.088999966666667
 21
-1.413314616982037
 31
0.0
  0
LINE
  5
E1
330
CE
100
AcDbEntity
  8
AM_9
100
AcDbLine
 10
-3.088999966666667
 20
-1.305061441508982
 30
0.0
 11
-3.149999966666666
 21
-1.305061441508982
 31
0.0
  0
LINE
  5
E2
330
CE
100
AcDbEntity
  8
AM_9
100
AcDbLine
 10
-3.088999966666667
 20
-1.377230225157685
 30
0.0
 11
-3.149999966666666
 21
-1.377230225157685
 31
0.0
  0
LINE
  5
E3
330
CE
100
AcDbEntity
  8
AM_9
100
AcDbLine
 10
-2.248999966666666
 20
-1.270945833333334
 30
0.0
 11
-2.248999966666666
 21
-1.411345833333334
 31
0.0
  0
LINE
  5
E4
330
CE
100
AcDbEntity
  8
AM_9
100
AcDbLine
 10
-2.248999966666666
 20
-1.270945833333334
 30
0.0
 11
-2.273799966666666
 21
-1.246145833333334
 31
0.0
  0
LINE
  5
E5
330
CE
100
AcDbEntity
  8
AM_9
100
AcDbLine
 10
-2.273799966666666
 20
-1.436145833333333
 30
0.0
 11
-2.248999966666666
 21
-1.411345833333334
 31
0.0
  0
LINE
  5
E6
330
CE
100
AcDbEntity
  8
AM_9
100
AcDbLine
 10
-2.273799966666666
 20
-1.246145833333334
 30
0.0
 11
-2.273799966666666
 21
-1.436145833333333
 31
0.0
  0
LINE
  5
E7
330
CE
100
AcDbEntity
  8
AM_9
100
AcDbLine
 10
-2.987166666666667
 20
-1.436145833333333
 30
0.0
 11
-2.273799966666666
 21
-1.436145833333333
 31
0.0
  0
LINE
  5
E8
330
CE
100
AcDbEntity
  8
AM_9
100
AcDbLine
 10
-2.273799966666666
 20
-1.246145833333334
 30
0.0
 11
-2.987166666666667
 21
-1.246145833333334
 31
0.0
  0
LINE
  5
E9
330
CE
100
AcDbEntity
  8
AM_5
100
AcDbLine
 10
-2.248999966666666
 20
-1.411345833333334
 30
0.0
 11
-2.987166666666666
 21
-1.411345833333334
 31
0.0
  0
LINE
  5
EA
330
CE
100
AcDbEntity
  8
AM_5
100
AcDbLine
 10
-2.248999966666666
 20
-1.270945833333334
 30
0.0
 11
-2.987166666666666
 21
-1.270945833333334
 31
0.0
  0
LINE
  5
EB
330
CE
100
AcDbEntity
  8
AM_4
100
AcDbLine
 10
-3.048999966666666
 20
-1.436145833333333
 30
0.0
 11
-2.987166666666667
 21
-1.436145833333333
 31
0.0
  0
LINE
  5
EC
330
CE
100
AcDbEntity
  8
AM_4
100
AcDbLine
 10
-2.987166666666667
 20
-1.246145833333334
 30
0.0
 11
-3.048999966666666
 21
-1.246145833333334
 31
0.0
  0
LINE
  5
ED
330
CE
100
AcDbEntity
  8
AM_4
100
AcDbLine
 10
-3.149999966666666
 20
-1.241645833333334
 30
0.0
 11
-3.149999966666666
 21
-1.440645833333334
 31
0.0
  0
ARC
  5
EE
330
CE
100
AcDbEntity
  8
AM_4
100
AcDbCircle
 10
-3.068999966666666
 20
-1.440645833333334
 30
0.0
 40
0.081
100
AcDbArc
 50
179.9999991462263
 51
270.0
  0
ARC
  5
EF
330
CE
100
AcDbEntity
  8
AM_4
100
AcDbCircle
 10
-3.068999966666666
 20
-1.241645833333334
 30
0.0
 40
0.0810000000000002
100
AcDbArc
 50
90.0
 51
179.9999991462263
  0
LINE
  5
F0
330
CE
100
AcDbEntity
  8
AM_4
100
AcDbLine
 10
-3.048999966666666
 20
-1.160645833333334
 30
0.0
 11
-3.048999966666666
 21
-1.521645833333334
 31
0.0
  0
LINE
  5
F1
330
CE
100
AcDbEntity
  8
AM_4
100
AcDbLine
 10
-3.068999966666666
 20
-1.160645833333334
 30
0.0
 11
-3.068999966666666
 21
-1.521645833333334
 31
0.0
  0
LINE
  5
F2
330
CE
100
AcDbEntity
  8
AM_4
100
AcDbLine
 10
-3.068999966666666
 20
-1.521645833333334
 30
0.0
 11
-3.048999966666666
 21
-1.521645833333334
 31
0.0
  0
LINE
  5
F3
330
CE
100
AcDbEntity
  8
AM_4
100
AcDbLine
 10
-3.048999966666666
 20
-1.160645833333334
 30
0.0
 11
-3.068999966666666
 21
-1.160645833333334
 31
0.0
  0
LINE
  5
F4
330
CE
100
AcDbEntity
  8
AM_5
100
AcDbLine
 10
-2.987166666666666
 20
-1.411345833333334
 30
0.0
 11
-3.088999966666667
 21
-1.411345833333334
 31
0.0
  0
LINE
  5
F5
330
CE
100
AcDbEntity
  8
AM_5
100
AcDbLine
 10
-3.348999966666666
 20
-1.436145833333333
 30
0.0
 11
-3.348999966666666
 21
-1.246145833333334
 31
0.0
  0
LINE
  5
F6
330
CE
100
AcDbEntity
  8
AM_5
100
AcDbLine
 10
-2.987166666666666
 20
-1.270945833333334
 30
0.0
 11
-3.088999966666667
 21
-1.270945833333334
 31
0.0
  0
ENDBLK
  5
D1
330
CE
100
AcDbEntity
  8
0
100
AcDbBlockEnd
  0
BLOCK
  5
F9
330
F7
100
AcDbEntity
  8
0
100
AcDbBlockBegin
  2
4_ASME_B18_3_10_2_0_in_072207_2
 70
     2
 10
0.0
 20
0.0
 30
0.0
  3
4_ASME_B18_3_10_2_0_in_072207_2
  1

  0
ATTDEF
  5
FB
330
F7
100
AcDbEntity
  8
AM_6
100
AcDbText
 10
2.751000033333334
 20
1.521645833333334
 30
0.0
 40
0.5
  1
ANSI/ASME-B18.3-1998
100
AcDbAttributeDefinition
  3

  2
NN
 70
     8
280
     0
  0
ATTDEF
  5
FC
330
F7
100
AcDbEntity
  8
AM_6
100
AcDbText
 10
2.751000033333334
 20
1.021645833333334
 30
0.0
 40
0.5
  1
Socket Button Head Cap Screws
100
AcDbAttributeDefinition
  3

  2
NT
 70
     8
280
     0
  0
ATTDEF
  5
FD
330
F7
100
AcDbEntity
  8
AM_6
100
AcDbText
 10
2.751000033333334
 20
0.5216458333333336
 30
0.0
 40
0.5
  1
ASME-B18.3-10
100
AcDbAttributeDefinition
  3

  2
NB
 70
     8
280
     0
  0
ATTDEF
  5
FE
330
F7
100
AcDbEntity
  8
AM_6
100
AcDbText
 10
2.751000033333334
 20
0.0216458333333336
 30
0.0
 40
0.5
  1
ASME-B18.3-$NS.
100
AcDbAttributeDefinition
  3

  2
NBSYN
 70
     8
280
     0
  0
ATTDEF
  5
FF
330
F7
100
AcDbEntity
  8
AM_6
100
AcDbText
 10
2.751000033333334
 20
-0.4783541666666664
 30
0.0
 40
0.5
  1
ASME-B18.3-10
100
AcDbAttributeDefinition
  3

  2
LINA
 70
     8
280
     0
  0
ATTDEF
  5
100
330
F7
100
AcDbEntity
  8
AM_6
100
AcDbText
 10
2.751000033333334
 20
-0.9783541666666664
 30
0.0
 40
0.5
  1
10
100
AcDbAttributeDefinition
  3

  2
NS
 70
     8
280
     0
  0
ATTDEF
  5
101
330
F7
100
AcDbEntity
  8
AM_6
100
AcDbText
 10
2.751000033333334
 20
-1.478354166666666
 30
0.0
 40
0.5
  1
0.361
100
AcDbAttributeDefinition
  3

  2
A
 70
     8
280
     0
  0
ATTDEF
  5
102
330
F7
100
AcDbEntity
  8
AM_6
100
AcDbText
 10
2.751000033333334
 20
-1.978354166666666
 30
0.0
 40
0.5
  1
0.101
100
AcDbAttributeDefinition
  3

  2
H
 70
     8
280
     0
  0
ATTDEF
  5
103
330
F7
100
AcDbEntity
  8
AM_6
100
AcDbText
 10
2.751000033333334
 20
-2.478354166666667
 30
0.0
 40
0.5
  1
0.800
100
AcDbAttributeDefinition
  3

  2
L
 70
     8
280
     0
  0
ATTDEF
  5
104
330
F7
100
AcDbEntity
  8
AM_6
100
AcDbText
 10
2.751000033333334
 20
-2.978354166666667
 30
0.0
 40
0.5
  1
0.020
100
AcDbAttributeDefinition
  3

  2
S
 70
     8
280
     0
  0
ATTDEF
  5
105
330
F7
100
AcDbEntity
  8
AM_6
100
AcDbText
 10
2.751000033333334
 20
-3.478354166666667
 30
0.0
 40
0.5
  1
0.125000
100
AcDbAttributeDefinition
  3

  2
J
 70
     8
280
     0
  0
ATTDEF
  5
106
330
F7
100
AcDbEntity
  8
AM_6
100
AcDbText
 10
2.751000033333334
 20
-3.978354166666667
 30
0.0
 40
0.5
  1
baldor
100
AcDbAttributeDefinition
  3

  2
COMPANY
 70
     8
280
     0
  0
LINE
  5
107
330
F7
100
AcDbEntity
  8
AM_9
100
AcDbLine
 10
-3.088999966666667
 20
1.413314616982037
 30
0.0
 11
-3.149999966666666
 21
1.413314616982037
 31
0.0
  0
LINE
  5
108
330
F7
100
AcDbEntity
  8
AM_9
100
AcDbLine
 10
-3.088999966666667
 20
1.26897704968463
 30
0.0
 11
-3.149999966666666
 21
1.26897704968463
 31
0.0
  0
LINE
  5
109
330
F7
100
AcDbEntity
  8
AM_9
100
AcDbLine
 10
-3.088999966666667
 20
1.413314616982037
 30
0.0
 11
-3.088999966666667
 21
1.26897704968463
 31
0.0
  0
LINE
  5
10A
330
F7
100
AcDbEntity
  8
AM_9
100
AcDbLine
 10
-3.088999966666667
 20
1.377230225157685
 30
0.0
 11
-3.149999966666666
 21
1.377230225157685
 31
0.0
  0
LINE
  5
10B
330
F7
100
AcDbEntity
  8
AM_9
100
AcDbLine
 10
-3.088999966666667
 20
1.305061441508982
 30
0.0
 11
-3.149999966666666
 21
1.305061441508982
 31
0.0
  0
LINE
  5
10C
330
F7
100
AcDbEntity
  8
AM_9
100
AcDbLine
 10
-2.248999966666666
 20
1.411345833333334
 30
0.0
 11
-2.248999966666666
 21
1.270945833333334
 31
0.0
  0
LINE
  5
10D
330
F7
100
AcDbEntity
  8
AM_9
100
AcDbLine
 10
-2.248999966666666
 20
1.411345833333334
 30
0.0
 11
-2.273799966666666
 21
1.436145833333333
 31
0.0
  0
LINE
  5
10E
330
F7
100
AcDbEntity
  8
AM_9
100
AcDbLine
 10
-2.273799966666666
 20
1.246145833333334
 30
0.0
 11
-2.248999966666666
 21
1.270945833333334
 31
0.0
  0
LINE
  5
10F
330
F7
100
AcDbEntity
  8
AM_9
100
AcDbLine
 10
-2.273799966666666
 20
1.436145833333333
 30
0.0
 11
-2.273799966666666
 21
1.246145833333334
 31
0.0
  0
LINE
  5
110
330
F7
100
AcDbEntity
  8
AM_9
100
AcDbLine
 10
-2.987166666666667
 20
1.246145833333334
 30
0.0
 11
-2.273799966666666
 21
1.246145833333334
 31
0.0
  0
LINE
  5
111
330
F7
100
AcDbEntity
  8
AM_9
100
AcDbLine
 10
-2.273799966666666
 20
1.436145833333333
 30
0.0
 11
-2.987166666666667
 21
1.436145833333333
 31
0.0
  0
LINE
  5
112
330
F7
100
AcDbEntity
  8
AM_5
100
AcDbLine
 10
-2.248999966666666
 20
1.270945833333334
 30
0.0
 11
-2.987166666666666
 21
1.270945833333334
 31
0.0
  0
LINE
  5
113
330
F7
100
AcDbEntity
  8
AM_5
100
AcDbLine
 10
-2.248999966666666
 20
1.411345833333334
 30
0.0
 11
-2.987166666666666
 21
1.411345833333334
 31
0.0
  0
LINE
  5
114
330
F7
100
AcDbEntity
  8
AM_4
100
AcDbLine
 10
-3.048999966666666
 20
1.246145833333334
 30
0.0
 11
-2.987166666666667
 21
1.246145833333334
 31
0.0
  0
LINE
  5
115
330
F7
100
AcDbEntity
  8
AM_4
100
AcDbLine
 10
-2.987166666666667
 20
1.436145833333333
 30
0.0
 11
-3.048999966666666
 21
1.436145833333333
 31
0.0
  0
LINE
  5
116
330
F7
100
AcDbEntity
  8
AM_4
100
AcDbLine
 10
-3.149999966666666
 20
1.440645833333334
 30
0.0
 11
-3.149999966666666
 21
1.241645833333334
 31
0.0
  0
ARC
  5
117
330
F7
100
AcDbEntity
  8
AM_4
100
AcDbCircle
 10
-3.068999966666666
 20
1.241645833333334
 30
0.0
 40
0.081
100
AcDbArc
 50
179.9999991462263
 51
270.0
  0
ARC
  5
118
330
F7
100
AcDbEntity
  8
AM_4
100
AcDbCircle
 10
-3.068999966666666
 20
1.440645833333334
 30
0.0
 40
0.081
100
AcDbArc
 50
90.0
 51
179.9999991462263
  0
LINE
  5
119
330
F7
100
AcDbEntity
  8
AM_4
100
AcDbLine
 10
-3.048999966666666
 20
1.521645833333334
 30
0.0
 11
-3.048999966666666
 21
1.160645833333334
 31
0.0
  0
LINE
  5
11A
330
F7
100
AcDbEntity
  8
AM_4
100
AcDbLine
 10
-3.068999966666666
 20
1.521645833333334
 30
0.0
 11
-3.068999966666666
 21
1.160645833333334
 31
0.0
  0
LINE
  5
11B
330
F7
100
AcDbEntity
  8
AM_4
100
AcDbLine
 10
-3.068999966666666
 20
1.160645833333334
 30
0.0
 11
-3.048999966666666
 21
1.160645833333334
 31
0.0
  0
LINE
  5
11C
330
F7
100
AcDbEntity
  8
AM_4
100
AcDbLine
 10
-3.048999966666666
 20
1.521645833333334
 30
0.0
 11
-3.068999966666666
 21
1.521645833333334
 31
0.0
  0
LINE
  5
11D
330
F7
100
AcDbEntity
  8
AM_5
100
AcDbLine
 10
-2.987166666666666
 20
1.270945833333334
 30
0.0
 11
-3.088999966666667
 21
1.270945833333334
 31
0.0
  0
LINE
  5
11E
330
F7
100
AcDbEntity
  8
AM_5
100
AcDbLine
 10
-3.348999966666666
 20
1.246145833333334
 30
0.0
 11
-3.348999966666666
 21
1.436145833333333
 31
0.0
  0
LINE
  5
11F
330
F7
100
AcDbEntity
  8
AM_5
100
AcDbLine
 10
-2.987166666666666
 20
1.411345833333334
 30
0.0
 11
-3.088999966666667
 21
1.411345833333334
 31
0.0
  0
ENDBLK
  5
FA
330
F7
100
AcDbEntity
  8
0
100
AcDbBlockEnd
  0
BLOCK
  5
122
330
120
100
AcDbEntity
  8
0
100
AcDbBlockBegin
  2
5_070889LWE_0_in_072207_2
 70
     2
 10
0.0
 20
0.0
 30
0.0
  3
5_070889LWE_0_in_072207_2
  1

  0
ATTDEF
  5
124
330
120
100
AcDbEntity
  8
AM_6
100
AcDbText
 10
2.452833333333334
 20
1.64
 30
0.0
 40
0.5
  1
Imperial/E Insert Lockwasher -Inch
100
AcDbAttributeDefinition
  3

  2
NN
 70
     8
280
     0
  0
ATTDEF
  5
125
330
120
100
AcDbEntity
  8
AM_6
100
AcDbText
 10
2.452833333333334
 20
1.14
 30
0.0
 40
0.5
  1
Imperial/E Bearings
100
AcDbAttributeDefinition
  3

  2
NT
 70
     8
280
     0
  0
ATTDEF
  5
126
330
120
100
AcDbEntity
  8
AM_6
100
AcDbText
 10
2.452833333333334
 20
0.6399999999999999
 30
0.0
 40
0.5
  1
070889LWE
100
AcDbAttributeDefinition
  3

  2
NB
 70
     8
280
     0
  0
ATTDEF
  5
127
330
120
100
AcDbEntity
  8
AM_6
100
AcDbText
 10
2.452833333333334
 20
0.1399999999999999
 30
0.0
 40
0.5
  1
$PN.LWE
100
AcDbAttributeDefinition
  3

  2
NBSYN
 70
     8
280
     0
  0
ATTDEF
  5
128
330
120
100
AcDbEntity
  8
AM_6
100
AcDbText
 10
2.452833333333334
 20
-0.3600000000000001
 30
0.0
 40
0.5
  1
070889
100
AcDbAttributeDefinition
  3

  2
LINA
 70
     8
280
     0
  0
ATTDEF
  5
129
330
120
100
AcDbEntity
  8
AM_6
100
AcDbText
 10
2.452833333333334
 20
-0.8600000000000001
 30
0.0
 40
0.5
  1
1-7/8
100
AcDbAttributeDefinition
  3

  2
SS
 70
     8
280
     0
  0
ATTDEF
  5
12A
330
120
100
AcDbEntity
  8
AM_6
100
AcDbText
 10
2.452833333333334
 20
-1.36
 30
0.0
 40
0.5
  1
3.280000
100
AcDbAttributeDefinition
  3

  2
E1
 70
     8
280
     0
  0
ATTDEF
  5
12B
330
120
100
AcDbEntity
  8
AM_6
100
AcDbText
 10
2.452833333333334
 20
-1.86
 30
0.0
 40
0.5
  1
1.875000
100
AcDbAttributeDefinition
  3

  2
SS1
 70
     8
280
     0
  0
ATTDEF
  5
12C
330
120
100
AcDbEntity
  8
AM_6
100
AcDbText
 10
2.452833333333334
 20
-2.36
 30
0.0
 40
0.5
  1
070889
100
AcDbAttributeDefinition
  3

  2
PN
 70
     8
280
     0
  0
ATTDEF
  5
12D
330
120
100
AcDbEntity
  8
AM_6
100
AcDbText
 10
2.452833333333334
 20
-2.86
 30
0.0
 40
0.5
  1
INS-IP-114R
100
AcDbAttributeDefinition
  3

  2
DESCRIPTION
 70
     8
280
     0
  0
ATTDEF
  5
12E
330
120
100
AcDbEntity
  8
AM_6
100
AcDbText
 10
2.452833333333334
 20
-3.36
 30
0.0
 40
0.5
  1
3.5433
100
AcDbAttributeDefinition
  3

  2
A
 70
     8
280
     0
  0
ATTDEF
  5
12F
330
120
100
AcDbEntity
  8
AM_6
100
AcDbText
 10
2.452833333333334
 20
-3.86
 30
0.0
 40
0.5
  1
61/64
100
AcDbAttributeDefinition
  3

  2
B
 70
     8
280
     0
  0
ATTDEF
  5
130
330
120
100
AcDbEntity
  8
AM_6
100
AcDbText
 10
2.452833333333334
 20
-4.36
 30
0.0
 40
0.5
  1
0.953125
100
AcDbAttributeDefinition
  3

  2
B1
 70
     8
280
     0
  0
ATTDEF
  5
131
330
120
100
AcDbEntity
  8
AM_6
100
AcDbText
 10
2.452833333333334
 20
-4.86
 30
0.0
 40
0.5
  1
2-55/64
100
AcDbAttributeDefinition
  3

  2
C
 70
     8
280
     0
  0
ATTDEF
  5
132
330
120
100
AcDbEntity
  8
AM_6
100
AcDbText
 10
2.452833333333334
 20
-5.36
 30
0.0
 40
0.5
  1
2.859375
100
AcDbAttributeDefinition
  3

  2
C1
 70
     8
280
     0
  0
ATTDEF
  5
133
330
120
100
AcDbEntity
  8
AM_6
100
AcDbText
 10
2.452833333333334
 20
-5.86
 30
0.0
 40
0.5
  1
0.977
100
AcDbAttributeDefinition
  3

  2
D
 70
     8
280
     0
  0
ATTDEF
  5
134
330
120
100
AcDbEntity
  8
AM_6
100
AcDbText
 10
2.452833333333334
 20
-6.36
 30
0.0
 40
0.5
  1
3-9/32
100
AcDbAttributeDefinition
  3

  2
E
 70
     8
280
     0
  0
ATTDEF
  5
135
330
120
100
AcDbEntity
  8
AM_6
100
AcDbText
 10
2.452833333333334
 20
-6.86
 30
0.0
 40
0.5
  1
0.1900
100
AcDbAttributeDefinition
  3

  2
NDM
 70
     8
280
     0
  0
ATTDEF
  5
136
330
120
100
AcDbEntity
  8
AM_6
100
AcDbText
 10
2.452833333333334
 20
-7.36
 30
0.0
 40
0.5
  1
0.1450
100
AcDbAttributeDefinition
  3

  2
KDM
 70
     8
280
     0
  0
ATTDEF
  5
137
330
120
100
AcDbEntity
  8
AM_6
100
AcDbText
 10
2.452833333333334
 20
-7.86
 30
0.0
 40
0.5
  1
2.67
100
AcDbAttributeDefinition
  3

  2
AL
 70
     8
280
     0
  0
ATTDEF
  5
138
330
120
100
AcDbEntity
  8
AM_6
100
AcDbText
 10
2.452833333333334
 20
-8.36
 30
0.0
 40
0.5
  1
0.38
100
AcDbAttributeDefinition
  3

  2
BL
 70
     8
280
     0
  0
ATTDEF
  5
139
330
120
100
AcDbEntity
  8
AM_6
100
AcDbText
 10
2.452833333333334
 20
-8.86
 30
0.0
 40
0.5
  1
0.07
100
AcDbAttributeDefinition
  3

  2
CL
 70
     8
280
     0
  0
ATTDEF
  5
13A
330
120
100
AcDbEntity
  8
AM_6
100
AcDbText
 10
2.452833333333334
 20
-9.36
 30
0.0
 40
0.5
  1
0.44
100
AcDbAttributeDefinition
  3

  2
DL
 70
     8
280
     0
  0
ATTDEF
  5
13B
330
120
100
AcDbEntity
  8
AM_6
100
AcDbText
 10
2.452833333333334
 20
-9.86
 30
0.0
 40
0.5
  1
baldor
100
AcDbAttributeDefinition
  3

  2
COMPANY
 70
     8
280
     0
  0
LINE
  5
13C
330
120
100
AcDbEntity
  8
AM_9
100
AcDbLine
 10
-2.917166666666666
 20
0.8958869703731719
 30
0.0
 11
-2.987166666666667
 21
0.8958869703731719
 31
0.0
  0
LINE
  5
13D
330
120
100
AcDbEntity
  8
AM_9
100
AcDbLine
 10
-2.547166666666666
 20
0.8711338704268434
 30
0.0
 11
-2.917166666666666
 21
0.8711338704268435
 31
0.0
  0
LINE
  5
13E
330
120
100
AcDbEntity
  8
AM_9
100
AcDbLine
 10
-2.547166666666666
 20
0.8253237207252795
 30
0.0
 11
-2.987166666666667
 21
0.8253237207252795
 31
0.0
  0
LINE
  5
13F
330
120
100
AcDbEntity
  8
AM_9
100
AcDbLine
 10
-2.917166666666666
 20
0.9438437225762107
 30
0.0
 11
-2.547166666666666
 21
0.9438437225762107
 31
0.0
  0
LINE
  5
140
330
120
100
AcDbEntity
  8
AM_9
100
AcDbLine
 10
-2.547166666666666
 20
0.8980335728746464
 30
0.0
 11
-2.987166666666667
 21
0.8980335728746464
 31
0.0
  0
LINE
  5
141
330
120
100
AcDbEntity
  8
AM_9
100
AcDbLine
 10
-2.547166666666666
 20
0.8253237207252795
 30
0.0
 11
-2.547166666666666
 21
0.9438437225762107
 31
0.0
  0
LINE
  5
142
330
120
100
AcDbEntity
  8
AM_9
100
AcDbLine
 10
-2.917166666666666
 20
0.9685968225225392
 30
0.0
 11
-2.987166666666667
 21
0.9685968225225392
 31
0.0
  0
LINE
  5
143
330
120
100
AcDbEntity
  8
AM_9
100
AcDbLine
 10
-2.917166666666666
 20
1.340833333333333
 30
0.0
 11
-2.987166666666667
 21
1.340833333333333
 31
0.0
  0
LINE
  5
144
330
120
100
AcDbEntity
  8
AM_9
100
AcDbLine
 10
-2.917166666666666
 20
1.432523397721421
 30
0.0
 11
-2.987166666666667
 21
1.432523397721421
 31
0.0
  0
LINE
  5
145
330
120
100
AcDbEntity
  8
AM_9
100
AcDbLine
 10
-2.917166666666666
 20
-1.340833333333333
 30
0.0
 11
-2.987166666666667
 21
-1.340833333333333
 31
0.0
  0
LINE
  5
146
330
120
100
AcDbEntity
  8
AM_9
100
AcDbLine
 10
-2.987166666666667
 20
-1.43926275488768
 30
0.0
 11
-2.917166666666666
 21
-1.43926275488768
 31
0.0
  0
LINE
  5
147
330
120
100
AcDbEntity
  8
AM_9
100
AcDbLine
 10
-2.917166666666666
 20
1.009051357500948
 30
0.0
 11
-2.987166666666667
 21
1.009051357500948
 31
0.0
  0
LINE
  5
148
330
120
100
AcDbEntity
  8
AM_9
100
AcDbLine
 10
-2.917166666666666
 20
-1.009051357500948
 30
0.0
 11
-2.987166666666667
 21
-1.009051357500948
 31
0.0
  0
LINE
  5
149
330
120
100
AcDbEntity
  8
AM_9
100
AcDbLine
 10
-2.917166666666666
 20
0.7806822016671342
 30
0.0
 11
-2.987166666666667
 21
0.7806822016671342
 31
0.0
  0
LINE
  5
14A
330
120
100
AcDbEntity
  8
AM_9
100
AcDbLine
 10
-2.917166666666666
 20
-0.7806822016671335
 30
0.0
 11
-2.987166666666667
 21
-0.7806822016671336
 31
0.0
  0
LINE
  5
14B
330
120
100
AcDbEntity
  8
AM_9
100
AcDbLine
 10
-2.917166666666666
 20
0.64633191324169
 30
0.0
 11
-2.987166666666667
 21
0.64633191324169
 31
0.0
  0
LINE
  5
14C
330
120
100
AcDbEntity
  8
AM_9
100
AcDbLine
 10
-2.917166666666666
 20
-0.6463319132416898
 30
0.0
 11
-2.987166666666667
 21
-0.6463319132416898
 31
0.0
  0
LINE
  5
14D
330
120
100
AcDbEntity
  8
AM_9
100
AcDbLine
 10
-2.917166666666666
 20
1.015287486653685
 30
0.0
 11
-2.987166666666667
 21
1.015287486653685
 31
0.0
  0
LINE
  5
14E
330
120
100
AcDbEntity
  8
AM_9
100
AcDbLine
 10
-2.917166666666666
 20
0.8809371982282411
 30
0.0
 11
-2.987166666666667
 21
0.8809371982282411
 31
0.0
  0
LINE
  5
14F
330
120
100
AcDbEntity
  8
AM_9
100
AcDbLine
 10
-2.917166666666666
 20
1.043154592599691
 30
0.0
 11
-2.987166666666667
 21
1.043154592599691
 31
0.0
  0
LINE
  5
150
330
120
100
AcDbEntity
  8
AM_9
100
AcDbLine
 10
-2.917166666666666
 20
-0.8809371982282401
 30
0.0
 11
-2.987166666666667
 21
-0.8809371982282401
 31
0.0
  0
LINE
  5
151
330
120
100
AcDbEntity
  8
AM_9
100
AcDbLine
 10
-2.917166666666666
 20
-1.0152874866537
 30
0.0
 11
-2.987166666666667
 21
-1.0152874866537
 31
0.0
  0
LINE
  5
152
330
120
100
AcDbEntity
  8
AM_9
100
AcDbLine
 10
-2.987166666666667
 20
-1.04315459259969
 30
0.0
 11
-2.917166666666666
 21
-1.04315459259969
 31
0.0
  0
LINE
  5
153
330
120
100
AcDbEntity
  8
AM_9
100
AcDbLine
 10
-2.917166666666666
 20
0.0950597429712161
 30
0.0
 11
-2.987166666666667
 21
0.0950597429712161
 31
0.0
  0
LINE
  5
154
330
120
100
AcDbEntity
  8
AM_9
100
AcDbLine
 10
-2.987166666666667
 20
-0.0950597429712153
 30
0.0
 11
-2.917166666666666
 21
-0.0950597429712153
 31
0.0
  0
LINE
  5
155
330
120
100
AcDbEntity
  8
AM_4
100
AcDbLine
 10
-2.917166666666666
 20
1.64
 30
0.0
 11
-2.987166666666667
 21
1.64
 31
0.0
  0
LINE
  5
156
330
120
100
AcDbEntity
  8
AM_4
100
AcDbLine
 10
-2.987166666666667
 20
-1.64
 30
0.0
 11
-2.917166666666666
 21
-1.64
 31
0.0
  0
LINE
  5
157
330
120
100
AcDbEntity
  8
AM_4
100
AcDbLine
 10
-2.987166666666667
 20
1.64
 30
0.0
 11
-2.987166666666667
 21
-1.64
 31
0.0
  0
LINE
  5
158
330
120
100
AcDbEntity
  8
AM_4
100
AcDbLine
 10
-2.917166666666666
 20
-1.017940992159679
 30
0.0
 11
-2.917166666666666
 21
-1.286196632344632
 31
0.0
  0
LINE
  5
159
330
120
100
AcDbEntity
  8
AM_4
100
AcDbLine
 10
-2.917166666666666
 20
1.286641569010567
 30
0.0
 11
-2.917166666666666
 21
1.017940992159678
 31
0.0
  0
ENDBLK
  5
123
330
120
100
AcDbEntity
  8
0
100
AcDbBlockEnd
  0
BLOCK
  5
15C
330
15A
100
AcDbEntity
  8
0
100
AcDbBlockBegin
  2
6_070889E_0_in_072207_2
 70
     2
 10
0.0
 20
0.0
 30
0.0
  3
6_070889E_0_in_072207_2
  1

  0
ATTDEF
  5
15E
330
15A
100
AcDbEntity
  8
AM_6
100
AcDbText
 10
4.73
 20
1.77165
 30
0.0
 40
0.5
  1
Imperial/E Insert -Inch
100
AcDbAttributeDefinition
  3

  2
NN
 70
     8
280
     0
  0
ATTDEF
  5
15F
330
15A
100
AcDbEntity
  8
AM_6
100
AcDbText
 10
4.73
 20
1.27165
 30
0.0
 40
0.5
  1
Imperial Bearings
100
AcDbAttributeDefinition
  3

  2
NT
 70
     8
280
     0
  0
ATTDEF
  5
160
330
15A
100
AcDbEntity
  8
AM_6
100
AcDbText
 10
4.73
 20
0.77165
 30
0.0
 40
0.5
  1
070889E
100
AcDbAttributeDefinition
  3

  2
NB
 70
     8
280
     0
  0
ATTDEF
  5
161
330
15A
100
AcDbEntity
  8
AM_6
100
AcDbText
 10
4.73
 20
0.2716499999999999
 30
0.0
 40
0.5
  1
$PN.
100
AcDbAttributeDefinition
  3

  2
NBSYN
 70
     8
280
     0
  0
ATTDEF
  5
162
330
15A
100
AcDbEntity
  8
AM_6
100
AcDbText
 10
4.73
 20
-0.2283500000000001
 30
0.0
 40
0.5
  1
070889E
100
AcDbAttributeDefinition
  3

  2
LINA
 70
     8
280
     0
  0
ATTDEF
  5
163
330
15A
100
AcDbEntity
  8
AM_6
100
AcDbText
 10
4.73
 20
-0.72835
 30
0.0
 40
0.5
  1
1-7/8
100
AcDbAttributeDefinition
  3

  2
SS
 70
     8
280
     0
  0
ATTDEF
  5
164
330
15A
100
AcDbEntity
  8
AM_6
100
AcDbText
 10
4.73
 20
-1.22835
 30
0.0
 40
0.5
  1
1.875000
100
AcDbAttributeDefinition
  3

  2
SS1
 70
     8
280
     0
  0
ATTDEF
  5
165
330
15A
100
AcDbEntity
  8
AM_6
100
AcDbText
 10
4.73
 20
-1.72835
 30
0.0
 40
0.5
  1
070889E
100
AcDbAttributeDefinition
  3

  2
PN
 70
     8
280
     0
  0
ATTDEF
  5
166
330
15A
100
AcDbEntity
  8
AM_6
100
AcDbText
 10
4.73
 20
-2.22835
 30
0.0
 40
0.5
  1
INS-IP-114R
100
AcDbAttributeDefinition
  3

  2
DESCRIPTION
 70
     8
280
     0
  0
ATTDEF
  5
167
330
15A
100
AcDbEntity
  8
AM_6
100
AcDbText
 10
4.73
 20
-2.72835
 30
0.0
 40
0.5
  1
Contact Seal
100
AcDbAttributeDefinition
  3

  2
ST
 70
     8
280
     0
  0
ATTDEF
  5
168
330
15A
100
AcDbEntity
  8
AM_6
100
AcDbText
 10
4.73
 20
-3.22835
 30
0.0
 40
0.5
  1
1
100
AcDbAttributeDefinition
  3

  2
ST1
 70
     8
280
     0
  0
ATTDEF
  5
169
330
15A
100
AcDbEntity
  8
AM_6
100
AcDbText
 10
4.73
 20
-3.72835
 30
0.0
 40
0.5
  1
3.5433
100
AcDbAttributeDefinition
  3

  2
A
 70
     8
280
     0
  0
ATTDEF
  5
16A
330
15A
100
AcDbEntity
  8
AM_6
100
AcDbText
 10
4.73
 20
-4.22835
 30
0.0
 40
0.5
  1
61/64
100
AcDbAttributeDefinition
  3

  2
B
 70
     8
280
     0
  0
ATTDEF
  5
16B
330
15A
100
AcDbEntity
  8
AM_6
100
AcDbText
 10
4.73
 20
-4.72835
 30
0.0
 40
0.5
  1
0.953125
100
AcDbAttributeDefinition
  3

  2
B1
 70
     8
280
     0
  0
ATTDEF
  5
16C
330
15A
100
AcDbEntity
  8
AM_6
100
AcDbText
 10
4.73
 20
-5.22835
 30
0.0
 40
0.5
  1
2-55/64
100
AcDbAttributeDefinition
  3

  2
C
 70
     8
280
     0
  0
ATTDEF
  5
16D
330
15A
100
AcDbEntity
  8
AM_6
100
AcDbText
 10
4.73
 20
-5.72835
 30
0.0
 40
0.5
  1
2.860000
100
AcDbAttributeDefinition
  3

  2
C1
 70
     8
280
     0
  0
ATTDEF
  5
16E
330
15A
100
AcDbEntity
  8
AM_6
100
AcDbText
 10
4.73
 20
-6.22835
 30
0.0
 40
0.5
  1
3.64000
100
AcDbAttributeDefinition
  3

  2
CR
 70
     8
280
     0
  0
ATTDEF
  5
16F
330
15A
100
AcDbEntity
  8
AM_6
100
AcDbText
 10
4.73
 20
-6.72835
 30
0.0
 40
0.5
  1
0.977
100
AcDbAttributeDefinition
  3

  2
D
 70
     8
280
     0
  0
ATTDEF
  5
170
330
15A
100
AcDbEntity
  8
AM_6
100
AcDbText
 10
4.73
 20
-7.22835
 30
0.0
 40
0.5
  1
3-9/32
100
AcDbAttributeDefinition
  3

  2
E
 70
     8
280
     0
  0
ATTDEF
  5
171
330
15A
100
AcDbEntity
  8
AM_6
100
AcDbText
 10
4.73
 20
-7.72835
 30
0.0
 40
0.5
  1
3.281250
100
AcDbAttributeDefinition
  3

  2
E1
 70
     8
280
     0
  0
ATTDEF
  5
172
330
15A
100
AcDbEntity
  8
AM_6
100
AcDbText
 10
4.73
 20
-8.228349999999999
 30
0.0
 40
0.5
  1
0.1900
100
AcDbAttributeDefinition
  3

  2
NDM
 70
     8
280
     0
  0
ATTDEF
  5
173
330
15A
100
AcDbEntity
  8
AM_6
100
AcDbText
 10
4.73
 20
-8.728349999999999
 30
0.0
 40
0.5
  1
0.1450
100
AcDbAttributeDefinition
  3

  2
KDM
 70
     8
280
     0
  0
ATTDEF
  5
174
330
15A
100
AcDbEntity
  8
AM_6
100
AcDbText
 10
4.73
 20
-9.228349999999999
 30
0.0
 40
0.5
  1
2.67
100
AcDbAttributeDefinition
  3

  2
AL
 70
     8
280
     0
  0
ATTDEF
  5
175
330
15A
100
AcDbEntity
  8
AM_6
100
AcDbText
 10
4.73
 20
-9.728349999999999
 30
0.0
 40
0.5
  1
0.38
100
AcDbAttributeDefinition
  3

  2
BL
 70
     8
280
     0
  0
ATTDEF
  5
176
330
15A
100
AcDbEntity
  8
AM_6
100
AcDbText
 10
4.73
 20
-10.22835
 30
0.0
 40
0.5
  1
0.07
100
AcDbAttributeDefinition
  3

  2
CL
 70
     8
280
     0
  0
ATTDEF
  5
177
330
15A
100
AcDbEntity
  8
AM_6
100
AcDbText
 10
4.73
 20
-10.72835
 30
0.0
 40
0.5
  1
0.44
100
AcDbAttributeDefinition
  3

  2
DL
 70
     8
280
     0
  0
ATTDEF
  5
178
330
15A
100
AcDbEntity
  8
AM_6
100
AcDbText
 10
4.73
 20
-11.22835
 30
0.0
 40
0.5
  1
0.8000
100
AcDbAttributeDefinition
  3

  2
LL
 70
     8
280
     0
  0
ATTDEF
  5
179
330
15A
100
AcDbEntity
  8
AM_6
100
AcDbText
 10
4.73
 20
-11.72835
 30
0.0
 40
0.5
  1
0.020
100
AcDbAttributeDefinition
  3

  2
Y
 70
     8
280
     0
  0
ATTDEF
  5
17A
330
15A
100
AcDbEntity
  8
AM_6
100
AcDbText
 10
4.73
 20
-12.22835
 30
0.0
 40
0.5
  1
0.020000
100
AcDbAttributeDefinition
  3

  2
Y1
 70
     8
280
     0
  0
ATTDEF
  5
17B
330
15A
100
AcDbEntity
  8
AM_6
100
AcDbText
 10
4.73
 20
-12.72835
 30
0.0
 40
0.5
  1
2-19/64
100
AcDbAttributeDefinition
  3

  2
Z
 70
     8
280
     0
  0
ATTDEF
  5
17C
330
15A
100
AcDbEntity
  8
AM_6
100
AcDbText
 10
4.73
 20
-13.22835
 30
0.0
 40
0.5
  1
2.296875
100
AcDbAttributeDefinition
  3

  2
Z1
 70
     8
280
     0
  0
ATTDEF
  5
17D
330
15A
100
AcDbEntity
  8
AM_6
100
AcDbText
 10
4.73
 20
-13.72835
 30
0.0
 40
0.5
  1
0.79000
100
AcDbAttributeDefinition
  3

  2
P1
 70
     8
280
     0
  0
ATTDEF
  5
17E
330
15A
100
AcDbEntity
  8
AM_6
100
AcDbText
 10
4.73
 20
-14.22835
 30
0.0
 40
0.5
  1
1.18000
100
AcDbAttributeDefinition
  3

  2
H1
 70
     8
280
     0
  0
ATTDEF
  5
17F
330
15A
100
AcDbEntity
  8
AM_6
100
AcDbText
 10
4.73
 20
-14.72835
 30
0.0
 40
0.5
  1
0.65000
100
AcDbAttributeDefinition
  3

  2
G1
 70
     8
280
     0
  0
ATTDEF
  5
180
330
15A
100
AcDbEntity
  8
AM_6
100
AcDbText
 10
4.73
 20
-15.22835
 30
0.0
 40
0.5
  1
0.10100
100
AcDbAttributeDefinition
  3

  2
CW
 70
     8
280
     0
  0
ATTDEF
  5
181
330
15A
100
AcDbEntity
  8
AM_6
100
AcDbText
 10
4.73
 20
-15.72835
 30
0.0
 40
0.5
  1
3.28000
100
AcDbAttributeDefinition
  3

  2
L1
 70
     8
280
     0
  0
ATTDEF
  5
182
330
15A
100
AcDbEntity
  8
AM_6
100
AcDbText
 10
4.73
 20
-16.22835
 30
0.0
 40
0.5
  1
baldor
100
AcDbAttributeDefinition
  3

  2
COMPANY
 70
     8
280
     0
  0
LINE
  5
183
330
15A
100
AcDbEntity
  8
AM_9
100
AcDbLine
 10
-0.7904375
 20
0.946260519763662
 30
0.0
 11
-2.917166666666666
 21
0.946260519763662
 31
0.0
  0
LINE
  5
184
330
15A
100
AcDbEntity
  8
AM_9
100
AcDbLine
 10
-0.7904375
 20
0.873550667614295
 30
0.0
 11
-2.917166666666666
 21
0.873550667614295
 31
0.0
  0
LINE
  5
185
330
15A
100
AcDbEntity
  8
AM_9
100
AcDbLine
 10
-2.077166666666654
 20
-1.341145833333334
 30
0.0
 11
-2.118995693669476
 21
-1.268695833333334
 31
0.0
  0
LINE
  5
186
330
15A
100
AcDbEntity
  8
AM_9
100
AcDbLine
 10
-2.118995693669476
 20
-1.413595833333333
 30
0.0
 11
-2.077166666666654
 21
-1.341145833333334
 31
0.0
  0
LINE
  5
187
330
15A
100
AcDbEntity
  8
AM_9
100
AcDbLine
 10
-2.077166666666666
 20
1.341145833333334
 30
0.0
 11
-2.118995693669455
 21
1.413595833333333
 31
0.0
  0
LINE
  5
188
330
15A
100
AcDbEntity
  8
AM_9
100
AcDbLine
 10
-2.118995693669455
 20
1.268695833333334
 30
0.0
 11
-2.077166666666666
 21
1.341145833333334
 31
0.0
  0
LINE
  5
189
330
15A
100
AcDbEntity
  8
AM_9
100
AcDbLine
 10
-2.118995693669455
 20
1.268695833333334
 30
0.0
 11
-2.118995693669455
 21
1.413595833333333
 31
0.0
  0
LINE
  5
18A
330
15A
100
AcDbEntity
  8
AM_9
100
AcDbLine
 10
-2.118995693669455
 20
1.413595833333333
 30
0.0
 11
-2.894616666666666
 21
1.413595833333333
 31
0.0
  0
LINE
  5
18B
330
15A
100
AcDbEntity
  8
AM_9
100
AcDbLine
 10
-2.894616666666666
 20
1.268695833333334
 30
0.0
 11
-2.118995693669455
 21
1.268695833333334
 31
0.0
  0
LINE
  5
18C
330
15A
100
AcDbEntity
  8
AM_9
100
AcDbLine
 10
-2.894616666666685
 20
-1.413595833333333
 30
0.0
 11
-2.118995693669476
 21
-1.413595833333333
 31
0.0
  0
LINE
  5
18D
330
15A
100
AcDbEntity
  8
AM_9
100
AcDbLine
 10
-2.118995693669476
 20
-1.268695833333334
 30
0.0
 11
-2.894616666666685
 21
-1.268695833333334
 31
0.0
  0
LINE
  5
18E
330
15A
100
AcDbEntity
  8
AM_9
100
AcDbLine
 10
-2.118995693669476
 20
-1.268695833333334
 30
0.0
 11
-2.118995693669476
 21
-1.413595833333333
 31
0.0
  0
LINE
  5
18F
330
15A
100
AcDbEntity
  8
AM_9
100
AcDbLine
 10
-2.894616666666666
 20
1.268695833333334
 30
0.0
 11
-2.894616666666666
 21
1.413595833333333
 31
0.0
  0
LINE
  5
190
330
15A
100
AcDbEntity
  8
AM_9
100
AcDbLine
 10
-2.894616666666666
 20
1.413595833333333
 30
0.0
 11
-2.917166666666666
 21
1.436145833333333
 31
0.0
  0
LINE
  5
191
330
15A
100
AcDbEntity
  8
AM_9
100
AcDbLine
 10
-2.917166666666666
 20
1.246145833333334
 30
0.0
 11
-2.894616666666666
 21
1.268695833333334
 31
0.0
  0
LINE
  5
192
330
15A
100
AcDbEntity
  8
AM_9
100
AcDbLine
 10
-2.894616666666685
 20
-1.268695833333334
 30
0.0
 11
-2.91716666666666
 21
-1.246145833333334
 31
0.0
  0
LINE
  5
193
330
15A
100
AcDbEntity
  8
AM_9
100
AcDbLine
 10
-2.91716666666666
 20
-1.436145833333333
 30
0.0
 11
-2.894616666666685
 21
-1.413595833333333
 31
0.0
  0
LINE
  5
194
330
15A
100
AcDbEntity
  8
AM_9
100
AcDbLine
 10
-2.894616666666685
 20
-1.268695833333334
 30
0.0
 11
-2.894616666666685
 21
-1.413595833333333
 31
0.0
  0
LINE
  5
195
330
15A
100
AcDbEntity
  8
AM_9
100
AcDbLine
 10
-0.7904375
 20
0.8980335728746468
 30
0.0
 11
-3.15
 21
0.8980335728746468
 31
0.0
  0
LINE
  5
196
330
15A
100
AcDbEntity
  8
AM_9
100
AcDbLine
 10
-3.15
 20
0.8253237207252796
 30
0.0
 11
-0.7904375
 21
0.8253237207252798
 31
0.0
  0
LINE
  5
197
330
15A
100
AcDbEntity
  8
AM_9
100
AcDbLine
 10
-0.7904374999999998
 20
0.9375000000000003
 30
0.0
 11
-3.15
 21
0.9375000000000003
 31
0.0
  0
LINE
  5
198
330
15A
100
AcDbEntity
  8
AM_9
100
AcDbLine
 10
-3.15
 20
-0.9375000000000003
 30
0.0
 11
-0.7904374999999998
 21
-0.9375000000000003
 31
0.0
  0
LINE
  5
199
330
15A
100
AcDbEntity
  8
AM_9
100
AcDbLine
 10
-0.2899999999999999
 20
0.9868421052631579
 30
0.0
 11
-0.7904374999999998
 21
0.9868421052631579
 31
0.0
  0
LINE
  5
19A
330
15A
100
AcDbEntity
  8
AM_9
100
AcDbLine
 10
-0.7904374999999998
 20
-0.9868421052631579
 30
0.0
 11
-0.2899999999999999
 21
-0.9868421052631579
 31
0.0
  0
LINE
  5
19B
330
15A
100
AcDbEntity
  8
AM_9
100
AcDbLine
 10
-3.15
 20
0.9438437225762107
 30
0.0
 11
-2.917166666666666
 21
0.9438437225762105
 31
0.0
  0
LINE
  5
19C
330
15A
100
AcDbEntity
  8
AM_9
100
AcDbLine
 10
-2.917166666666666
 20
0.8711338704268436
 30
0.0
 11
-3.15
 21
0.8711338704268436
 31
0.0
  0
LINE
  5
19D
330
15A
100
AcDbEntity
  8
AM_9
100
AcDbLine
 10
-2.917166666666666
 20
0.986842105263158
 30
0.0
 11
-2.987166666666667
 21
0.986842105263158
 31
0.0
  0
LINE
  5
19E
330
15A
100
AcDbEntity
  8
AM_9
100
AcDbLine
 10
-2.987166666666667
 20
-0.986842105263158
 30
0.0
 11
-2.917166666666666
 21
-0.986842105263158
 31
0.0
  0
LINE
  5
19F
330
15A
100
AcDbEntity
  8
AM_9
100
AcDbLine
 10
-2.477166666666666
 20
-0.8096372644585969
 30
0.0
 11
-2.917166666666666
 21
-0.8096372644585969
 31
0.0
  0
LINE
  5
1A0
330
15A
100
AcDbEntity
  8
AM_9
100
AcDbLine
 10
-2.477166666666666
 20
0.8096372644585967
 30
0.0
 11
-2.917166666666666
 21
0.8096372644585967
 31
0.0
  0
LINE
  5
1A1
330
15A
100
AcDbEntity
  8
AM_9
100
AcDbLine
 10
-0.2899999999999999
 20
-1.1484375
 30
0.0
 11
-0.2899999999999999
 21
1.1484375
 31
0.0
  0
LINE
  5
1A2
330
15A
100
AcDbEntity
  8
AM_9
100
AcDbLine
 10
-0.2700000000000001
 20
1.1484375
 30
0.0
 11
-0.2899999999999999
 21
1.1484375
 31
0.0
  0
LINE
  5
1A3
330
15A
100
AcDbEntity
  8
AM_9
100
AcDbLine
 10
-0.2899999999999999
 20
-1.1484375
 30
0.0
 11
-0.2700000000000001
 21
-1.1484375
 31
0.0
  0
LINE
  5
1A4
330
15A
100
AcDbEntity
  8
AM_9
100
AcDbLine
 10
-2.477166666666666
 20
-0.8096372644585969
 30
0.0
 11
-2.477166666666666
 21
-1.023408349315165
 31
0.0
  0
LINE
  5
1A5
330
15A
100
AcDbEntity
  8
AM_9
100
AcDbLine
 10
-2.477166666666666
 20
1.023408349315164
 30
0.0
 11
-2.477166666666666
 21
0.8096372644585967
 31
0.0
  0
ARC
  5
1A6
330
15A
100
AcDbEntity
  8
AM_9
100
AcDbCircle
 10
-0.6998124999999991
 20
1.403857578016765
 30
0.0
 40
0.0999999999999991
100
AcDbArc
 50
0.0
 51
60.00000000000006
  0
ARC
  5
1A7
330
15A
100
AcDbEntity
  8
AM_9
100
AcDbCircle
 10
-0.6998124999999991
 20
-1.403857578016765
 30
0.0
 40
0.0999999999999989
100
AcDbArc
 50
300.0
 51
0.0
  0
LINE
  5
1A8
330
15A
100
AcDbEntity
  8
AM_9
100
AcDbLine
 10
-0.2700000000000001
 20
-1.53125
 30
0.0
 11
-0.2700000000000001
 21
1.53125
 31
0.0
  0
LINE
  5
1A9
330
15A
100
AcDbEntity
  8
AM_9
100
AcDbLine
 10
-0.5998125
 20
-1.53125
 30
0.0
 11
-0.5998125
 21
1.53125
 31
0.0
  0
LINE
  5
1AA
330
15A
100
AcDbEntity
  8
AM_9
100
AcDbLine
 10
-0.2700000000000001
 20
1.53125
 30
0.0
 11
-0.5998125
 21
1.53125
 31
0.0
  0
LINE
  5
1AB
330
15A
100
AcDbEntity
  8
AM_9
100
AcDbLine
 10
-0.5998125
 20
-1.53125
 30
0.0
 11
-0.2700000000000001
 21
-1.53125
 31
0.0
  0
LINE
  5
1AC
330
15A
100
AcDbEntity
  8
AM_9
100
AcDbLine
 10
-0.6498124999999997
 20
-1.490460118395209
 30
0.0
 11
-0.6498124999999997
 21
1.490460118395209
 31
0.0
  0
LINE
  5
1AD
330
15A
100
AcDbEntity
  8
AM_9
100
AcDbLine
 10
-0.6498124999999997
 20
1.490460118395209
 30
0.0
 11
-0.7904374999999998
 21
1.57165
 31
0.0
  0
LINE
  5
1AE
330
15A
100
AcDbEntity
  8
AM_9
100
AcDbLine
 10
-0.7904374999999998
 20
-1.57165
 30
0.0
 11
-0.6498124999999997
 21
-1.490460118395209
 31
0.0
  0
LINE
  5
1AF
330
15A
100
AcDbEntity
  8
AM_9
100
AcDbLine
 10
-2.24
 20
-1.652444988133892
 30
0.0
 11
-1.792689879678136
 21
-1.660252815327159
 31
0.0
  0
LINE
  5
1B0
330
15A
100
AcDbEntity
  8
AM_9
100
AcDbLine
 10
-1.792689879678136
 20
1.660252815327159
 30
0.0
 11
-2.24
 21
1.652444988133892
 31
0.0
  0
LINE
  5
1B1
330
15A
100
AcDbEntity
  8
AM_9
100
AcDbLine
 10
-1.792689879678136
 20
-1.660252815327159
 30
0.0
 11
-1.792689879678136
 21
1.660252815327159
 31
0.0
  0
ARC
  5
1B2
330
15A
100
AcDbEntity
  8
AM_9
100
AcDbCircle
 10
-1.7935625
 20
1.710245200084979
 30
0.0
 40
0.0500000000000005
100
AcDbArc
 50
270.9999999999996
 51
0.0
  0
ARC
  5
1B3
330
15A
100
AcDbEntity
  8
AM_9
100
AcDbCircle
 10
-1.7935625
 20
-1.710245200084979
 30
0.0
 40
0.0500000000000005
100
AcDbArc
 50
0.0
 51
89.00000000000038
  0
LINE
  5
1B4
330
15A
100
AcDbEntity
  8
AM_9
100
AcDbLine
 10
-1.259485651233932
 20
1.72399375
 30
0.0
 11
-1.314514348766068
 21
1.72399375
 31
0.0
  0
LINE
  5
1B5
330
15A
100
AcDbEntity
  8
AM_9
100
AcDbLine
 10
-1.314514348766068
 20
-1.72399375
 30
0.0
 11
-1.259485651233932
 21
-1.72399375
 31
0.0
  0
LINE
  5
1B6
330
15A
100
AcDbEntity
  8
AM_9
100
AcDbLine
 10
-1.7435625
 20
-1.76165
 30
0.0
 11
-1.7435625
 21
1.76165
 31
0.0
  0
ARC
  5
1B7
330
15A
100
AcDbEntity
  8
AM_9
100
AcDbCircle
 10
-1.7335625
 20
1.76165
 30
0.0
 40
0.01
100
AcDbArc
 50
90.0
 51
180.0
  0
ARC
  5
1B8
330
15A
100
AcDbEntity
  8
AM_9
100
AcDbCircle
 10
-1.7335625
 20
-1.76165
 30
0.0
 40
0.01
100
AcDbArc
 50
180.0
 51
270.0
  0
LINE
  5
1B9
330
15A
100
AcDbEntity
  8
AM_9
100
AcDbLine
 10
-0.7904375
 20
-1.72165
 30
0.0
 11
-0.7904375
 21
1.72165
 31
0.0
  0
ARC
  5
1BA
330
15A
100
AcDbEntity
  8
AM_9
100
AcDbCircle
 10
-0.8404375000000001
 20
1.72165
 30
0.0
 40
0.05
100
AcDbArc
 50
0.0
 51
90.0
  0
ARC
  5
1BB
330
15A
100
AcDbEntity
  8
AM_9
100
AcDbCircle
 10
-0.8404374999999997
 20
-1.72165
 30
0.0
 40
0.0499999999999996
100
AcDbArc
 50
270.0
 51
0.0
  0
LINE
  5
1BC
330
15A
100
AcDbEntity
  8
AM_9
100
AcDbLine
 10
-1.259485651233932
 20
-1.72399375
 30
0.0
 11
-1.259485651233932
 21
1.72399375
 31
0.0
  0
LINE
  5
1BD
330
15A
100
AcDbEntity
  8
AM_9
100
AcDbLine
 10
-1.259485651233932
 20
-1.72399375
 30
0.0
 11
-1.231971302467864
 21
-1.77165
 31
0.0
  0
LINE
  5
1BE
330
15A
100
AcDbEntity
  8
AM_9
100
AcDbLine
 10
-1.231971302467864
 20
1.77165
 30
0.0
 11
-1.259485651233932
 21
1.72399375
 31
0.0
  0
LINE
  5
1BF
330
15A
100
AcDbEntity
  8
AM_9
100
AcDbLine
 10
-0.8404375000000001
 20
-1.77165
 30
0.0
 11
-0.8404375000000001
 21
1.77165
 31
0.0
  0
LINE
  5
1C0
330
15A
100
AcDbEntity
  8
AM_9
100
AcDbLine
 10
-1.231971302467864
 20
-1.77165
 30
0.0
 11
-1.231971302467864
 21
1.77165
 31
0.0
  0
LINE
  5
1C1
330
15A
100
AcDbEntity
  8
AM_9
100
AcDbLine
 10
-0.8404375000000001
 20
1.77165
 30
0.0
 11
-1.231971302467864
 21
1.77165
 31
0.0
  0
LINE
  5
1C2
330
15A
100
AcDbEntity
  8
AM_9
100
AcDbLine
 10
-1.231971302467864
 20
-1.77165
 30
0.0
 11
-0.8404375000000001
 21
-1.77165
 31
0.0
  0
LINE
  5
1C3
330
15A
100
AcDbEntity
  8
AM_9
100
AcDbLine
 10
-1.7335625
 20
-1.77165
 30
0.0
 11
-1.7335625
 21
1.77165
 31
0.0
  0
LINE
  5
1C4
330
15A
100
AcDbEntity
  8
AM_9
100
AcDbLine
 10
-1.342028697532136
 20
1.77165
 30
0.0
 11
-1.7335625
 21
1.77165
 31
0.0
  0
LINE
  5
1C5
330
15A
100
AcDbEntity
  8
AM_9
100
AcDbLine
 10
-1.7335625
 20
-1.77165
 30
0.0
 11
-1.342028697532136
 21
-1.77165
 31
0.0
  0
LINE
  5
1C6
330
15A
100
AcDbEntity
  8
AM_9
100
AcDbLine
 10
-1.314514348766068
 20
-1.72399375
 30
0.0
 11
-1.314514348766068
 21
1.72399375
 31
0.0
  0
LINE
  5
1C7
330
15A
100
AcDbEntity
  8
AM_9
100
AcDbLine
 10
-1.342028697532136
 20
-1.77165
 30
0.0
 11
-1.342028697532136
 21
1.77165
 31
0.0
  0
LINE
  5
1C8
330
15A
100
AcDbEntity
  8
AM_9
100
AcDbLine
 10
-1.314514348766068
 20
1.72399375
 30
0.0
 11
-1.342028697532136
 21
1.77165
 31
0.0
  0
LINE
  5
1C9
330
15A
100
AcDbEntity
  8
AM_9
100
AcDbLine
 10
-1.342028697532136
 20
-1.77165
 30
0.0
 11
-1.314514348766068
 21
-1.72399375
 31
0.0
  0
LINE
  5
1CA
330
15A
100
AcDbEntity
  8
AM_5
100
AcDbLine
 10
-2.217166666666667
 20
1.436145833333333
 30
0.0
 11
-2.178108920955988
 21
1.413595833333333
 31
0.0
  0
LINE
  5
1CB
330
15A
100
AcDbEntity
  8
AM_5
100
AcDbLine
 10
-2.217166666666667
 20
1.246145833333333
 30
0.0
 11
-2.178108920955988
 21
1.268695833333334
 31
0.0
  0
LINE
  5
1CC
330
15A
100
AcDbEntity
  8
AM_5
100
AcDbLine
 10
-2.217166666666655
 20
-1.436145833333333
 30
0.0
 11
-2.178108920955976
 21
-1.413595833333333
 31
0.0
  0
LINE
  5
1CD
330
15A
100
AcDbEntity
  8
AM_5
100
AcDbLine
 10
-2.217166666666655
 20
-1.246145833333333
 30
0.0
 11
-2.178108920955976
 21
-1.268695833333334
 31
0.0
  0
LINE
  5
1D0
330
15A
100
AcDbEntity
  8
AM_7
100
AcDbLine
 10
-2.035166666666667
 20
1.341145833333334
 30
0.0
 11
-3.195049966666666
 21
1.341145833333334
 31
0.0
  0
LINE
  5
1D1
330
15A
100
AcDbEntity
  8
AM_7
100
AcDbLine
 10
-2.035166666666654
 20
-1.341145833333334
 30
0.0
 11
-3.195049966666666
 21
-1.341145833333334
 31
0.0
  0
LINE
  5
1D2
330
15A
100
AcDbEntity
  8
AM_4
100
AcDbLine
 10
-2.987166666666667
 20
0.986842105263158
 30
0.0
 11
-3.15
 21
0.986842105263158
 31
0.0
  0
LINE
  5
1D3
330
15A
100
AcDbEntity
  8
AM_4
100
AcDbLine
 10
-3.15
 20
-0.986842105263158
 30
0.0
 11
-2.987166666666667
 21
-0.986842105263158
 31
0.0
  0
LINE
  5
1D4
330
15A
100
AcDbEntity
  8
AM_4
100
AcDbLine
 10
-3.15
 20
-0.986842105263158
 30
0.0
 11
-3.15
 21
0.986842105263158
 31
0.0
  0
LINE
  5
1D5
330
15A
100
AcDbEntity
  8
AM_4
100
AcDbLine
 10
-2.477166666666666
 20
-1.078337841309485
 30
0.0
 11
-2.917166666666666
 21
-1.078337841309485
 31
0.0
  0
LINE
  5
1D6
330
15A
100
AcDbEntity
  8
AM_4
100
AcDbLine
 10
-2.477166666666666
 20
1.078337841309485
 30
0.0
 11
-2.917166666666666
 21
1.078337841309485
 31
0.0
  0
LINE
  5
1D7
330
15A
100
AcDbEntity
  8
AM_4
100
AcDbLine
 10
-2.917166666666666
 20
-1.017940992159679
 30
0.0
 11
-2.917166666666666
 21
1.017940992159678
 31
0.0
  0
LINE
  5
1D8
330
15A
100
AcDbEntity
  8
AM_4
100
AcDbLine
 10
-2.917166666666666
 20
-1.017940992159679
 30
0.0
 11
-2.477166666666666
 21
-1.023408349315165
 31
0.0
  0
LINE
  5
1D9
330
15A
100
AcDbEntity
  8
AM_4
100
AcDbLine
 10
-2.477166666666666
 20
-1.023408349315165
 30
0.0
 11
-2.477166666666666
 21
-1.292108926166053
 31
0.0
  0
LINE
  5
1DA
330
15A
100
AcDbEntity
  8
AM_4
100
AcDbLine
 10
-2.477166666666666
 20
-1.292108926166053
 30
0.0
 11
-2.917166666666666
 21
-1.286641569010567
 31
0.0
  0
LINE
  5
1DB
330
15A
100
AcDbEntity
  8
AM_4
100
AcDbLine
 10
-2.917166666666666
 20
1.286641569010567
 30
0.0
 11
-2.917166666666666
 21
1.640625000000001
 31
0.0
  0
LINE
  5
1DC
330
15A
100
AcDbEntity
  8
AM_4
100
AcDbLine
 10
-2.917166666666666
 20
1.286641569010567
 30
0.0
 11
-2.477166666666666
 21
1.292108926166053
 31
0.0
  0
LINE
  5
1DD
330
15A
100
AcDbEntity
  8
AM_4
100
AcDbLine
 10
-2.477166666666666
 20
1.292108926166053
 30
0.0
 11
-2.477166666666666
 21
1.023408349315164
 31
0.0
  0
LINE
  5
1DE
330
15A
100
AcDbEntity
  8
AM_4
100
AcDbLine
 10
-2.477166666666666
 20
1.023408349315164
 30
0.0
 11
-2.917166666666666
 21
1.017940992159678
 31
0.0
  0
LINE
  5
1DF
330
15A
100
AcDbEntity
  8
AM_4
100
AcDbLine
 10
-2.917166666666666
 20
-1.640625000000001
 30
0.0
 11
-2.24
 21
-1.652444988133892
 31
0.0
  0
LINE
  5
1E0
330
15A
100
AcDbEntity
  8
AM_4
100
AcDbLine
 10
-2.24
 20
1.652444988133892
 30
0.0
 11
-2.917166666666666
 21
1.640625000000001
 31
0.0
  0
LINE
  5
1E1
330
15A
100
AcDbEntity
  8
AM_4
100
AcDbLine
 10
-2.917166666666666
 20
-1.640625000000001
 30
0.0
 11
-2.917166666666666
 21
-1.286641569010567
 31
0.0
  0
ENDBLK
  5
15D
330
15A
100
AcDbEntity
  8
0
100
AcDbBlockEnd
  0
BLOCK
  5
1E4
330
1E2
100
AcDbEntity
  8
0
100
AcDbBlockBegin
  2
7_405015E_Inch_2_0_in_072207_2
 70
     2
 10
0.0
 20
0.0
 30
0.0
  3
7_405015E_Inch_2_0_in_072207_2
  1

  0
ATTDEF
  5
1E6
330
1E2
100
AcDbEntity
  8
AM_6
100
AcDbText
 10
3.677590742770461
 20
2.75
 30
0.0
 40
0.5
  1
405015E -Inch
100
AcDbAttributeDefinition
  3

  2
NN
 70
     8
280
     0
  0
ATTDEF
  5
1E7
330
1E2
100
AcDbEntity
  8
AM_6
100
AcDbText
 10
3.677590742770461
 20
2.25
 30
0.0
 40
0.5
  1
Grease Fitting
100
AcDbAttributeDefinition
  3

  2
NT
 70
     8
280
     0
  0
ATTDEF
  5
1E8
330
1E2
100
AcDbEntity
  8
AM_6
100
AcDbText
 10
3.677590742770461
 20
1.75
 30
0.0
 40
0.5
  1
405015E-Inch
100
AcDbAttributeDefinition
  3

  2
NB
 70
     8
280
     0
  0
ATTDEF
  5
1E9
330
1E2
100
AcDbEntity
  8
AM_6
100
AcDbText
 10
3.677590742770461
 20
1.25
 30
0.0
 40
0.5
  1
$MN.-Inch
100
AcDbAttributeDefinition
  3

  2
NBSYN
 70
     8
280
     0
  0
ATTDEF
  5
1EA
330
1E2
100
AcDbEntity
  8
AM_6
100
AcDbText
 10
3.677590742770461
 20
0.75
 30
0.0
 40
0.5
  1
405015E
100
AcDbAttributeDefinition
  3

  2
LINA
 70
     8
280
     0
  0
ATTDEF
  5
1EB
330
1E2
100
AcDbEntity
  8
AM_6
100
AcDbText
 10
3.677590742770461
 20
0.25
 30
0.0
 40
0.5
  1
405015E
100
AcDbAttributeDefinition
  3

  2
MN
 70
     8
280
     0
  0
ATTDEF
  5
1EC
330
1E2
100
AcDbEntity
  8
AM_6
100
AcDbText
 10
3.677590742770461
 20
-0.25
 30
0.0
 40
0.5
  1
1/8 x 27PTF
100
AcDbAttributeDefinition
  3

  2
T
 70
     8
280
     0
  0
ATTDEF
  5
1ED
330
1E2
100
AcDbEntity
  8
AM_6
100
AcDbText
 10
3.677590742770461
 20
-0.75
 30
0.0
 40
0.5
  1
baldor
100
AcDbAttributeDefinition
  3

  2
COMPANY
 70
     8
280
     0
  0
LINE
  5
1EE
330
1E2
100
AcDbEntity
  8
AM_9
100
AcDbLine
 10
-1.736902872472269
 20
2.11
 30
0.0
 11
-1.413097127527731
 21
2.11
 31
0.0
  0
LINE
  5
1EF
330
1E2
100
AcDbEntity
  8
AM_9
100
AcDbLine
 10
-1.413097127527731
 20
2.11
 30
0.0
 11
-1.376382373218784
 21
2.146714754308946
 31
0.0
  0
LINE
  5
1F0
330
1E2
100
AcDbEntity
  8
AM_9
100
AcDbLine
 10
-1.773617626781215
 20
2.146714754308946
 30
0.0
 11
-1.736902872472269
 21
2.11
 31
0.0
  0
LINE
  5
1F1
330
1E2
100
AcDbEntity
  8
AM_9
100
AcDbLine
 10
-1.773617626781215
 20
2.146714754308946
 30
0.0
 11
-1.376382373218784
 21
2.146714754308946
 31
0.0
  0
LINE
  5
1F2
330
1E2
100
AcDbEntity
  8
AM_9
100
AcDbLine
 10
-1.376382373218784
 20
2.146714754308946
 30
0.0
 11
-1.36924810277693
 21
2.375
 31
0.0
  0
LINE
  5
1F3
330
1E2
100
AcDbEntity
  8
AM_9
100
AcDbLine
 10
-1.780751897223069
 20
2.375
 30
0.0
 11
-1.773617626781215
 21
2.146714754308946
 31
0.0
  0
LINE
  5
1F4
330
1E2
100
AcDbEntity
  8
AM_5
100
AcDbLine
 10
-1.406850875147652
 20
2.309870087748463
 30
0.0
 11
-1.413097127527731
 21
2.109999999999999
 31
0.0
  0
LINE
  5
1F5
330
1E2
100
AcDbEntity
  8
AM_5
100
AcDbLine
 10
-1.36924810277693
 20
2.375
 30
0.0
 11
-1.406850875147652
 21
2.309870087748463
 31
0.0
  0
LINE
  5
1F6
330
1E2
100
AcDbEntity
  8
AM_5
100
AcDbLine
 10
-1.778716485751556
 20
2.309870087748463
 30
0.0
 11
-1.371283514248443
 21
2.309870087748463
 31
0.0
  0
LINE
  5
1F7
330
1E2
100
AcDbEntity
  8
AM_5
100
AcDbLine
 10
-1.743149124852348
 20
2.309870087748463
 30
0.0
 11
-1.736902872472269
 21
2.109999999999999
 31
0.0
  0
LINE
  5
1F8
330
1E2
100
AcDbEntity
  8
AM_5
100
AcDbLine
 10
-1.780751897223069
 20
2.375
 30
0.0
 11
-1.743149124852348
 21
2.309870087748463
 31
0.0
  0
LINE
  5
1F9
330
1E2
100
AcDbEntity
  8
AM_4
100
AcDbLine
 10
-1.47
 20
2.58
 30
0.0
 11
-1.47
 21
2.61
 31
0.0
  0
LINE
  5
1FA
330
1E2
100
AcDbEntity
  8
AM_4
100
AcDbLine
 10
-1.68
 20
2.61
 30
0.0
 11
-1.68
 21
2.58
 31
0.0
  0
LINE
  5
1FB
330
1E2
100
AcDbEntity
  8
AM_4
100
AcDbLine
 10
-1.79375
 20
2.475
 30
0.0
 11
-1.35625
 21
2.475
 31
0.0
  0
LINE
  5
1FC
330
1E2
100
AcDbEntity
  8
AM_4
100
AcDbLine
 10
-1.322409257229539
 20
2.465932400303386
 30
0.0
 11
-1.35625
 21
2.475
 31
0.0
  0
LINE
  5
1FD
330
1E2
100
AcDbEntity
  8
AM_4
100
AcDbLine
 10
-1.79375
 20
2.475
 30
0.0
 11
-1.827590742770461
 21
2.465932400303386
 31
0.0
  0
LINE
  5
1FE
330
1E2
100
AcDbEntity
  8
AM_4
100
AcDbLine
 10
-1.35625
 20
2.375
 30
0.0
 11
-1.322409257229539
 21
2.384067599696615
 31
0.0
  0
LINE
  5
1FF
330
1E2
100
AcDbEntity
  8
AM_4
100
AcDbLine
 10
-1.827590742770461
 20
2.384067599696615
 30
0.0
 11
-1.79375
 21
2.375
 31
0.0
  0
LINE
  5
200
330
1E2
100
AcDbEntity
  8
AM_4
100
AcDbLine
 10
-1.68
 20
2.58
 30
0.0
 11
-1.47
 21
2.58
 31
0.0
  0
LINE
  5
201
330
1E2
100
AcDbEntity
  8
AM_4
100
AcDbLine
 10
-1.68
 20
2.58
 30
0.0
 11
-1.693820090734897
 21
2.547753121618572
 31
0.0
  0
LINE
  5
202
330
1E2
100
AcDbEntity
  8
AM_4
100
AcDbLine
 10
-1.456179909265102
 20
2.547753121618572
 30
0.0
 11
-1.47
 21
2.58
 31
0.0
  0
LINE
  5
203
330
1E2
100
AcDbEntity
  8
AM_4
100
AcDbLine
 10
-1.68
 20
2.61
 30
0.0
 11
-1.47
 21
2.61
 31
0.0
  0
LINE
  5
204
330
1E2
100
AcDbEntity
  8
AM_4
100
AcDbLine
 10
-1.47
 20
2.61
 30
0.0
 11
-1.44
 21
2.669999999999999
 31
0.0
  0
LINE
  5
205
330
1E2
100
AcDbEntity
  8
AM_4
100
AcDbLine
 10
-1.71
 20
2.669999999999999
 30
0.0
 11
-1.68
 21
2.61
 31
0.0
  0
LINE
  5
206
330
1E2
100
AcDbEntity
  8
AM_4
100
AcDbLine
 10
-1.677677901933187
 20
2.75
 30
0.0
 11
-1.472322098066812
 21
2.75
 31
0.0
  0
LINE
  5
207
330
1E2
100
AcDbEntity
  8
AM_4
100
AcDbLine
 10
-1.71
 20
2.669999999999999
 30
0.0
 11
-1.44
 21
2.669999999999999
 31
0.0
  0
LINE
  5
208
330
1E2
100
AcDbEntity
  8
AM_4
100
AcDbLine
 10
-1.677677901933187
 20
2.75
 30
0.0
 11
-1.71
 21
2.669999999999999
 31
0.0
  0
LINE
  5
209
330
1E2
100
AcDbEntity
  8
AM_4
100
AcDbLine
 10
-1.44
 20
2.669999999999999
 30
0.0
 11
-1.472322098066812
 21
2.75
 31
0.0
  0
LINE
  5
20A
330
1E2
100
AcDbEntity
  8
AM_4
100
AcDbLine
 10
-1.693820090734897
 20
2.547753121618572
 30
0.0
 11
-1.456179909265102
 21
2.547753121618572
 31
0.0
  0
LINE
  5
20B
330
1E2
100
AcDbEntity
  8
AM_4
100
AcDbLine
 10
-1.693820090734897
 20
2.547753121618572
 30
0.0
 11
-1.747534053283015
 21
2.493318198540882
 31
0.0
  0
LINE
  5
20C
330
1E2
100
AcDbEntity
  8
AM_4
100
AcDbLine
 10
-1.402465946716984
 20
2.493318198540882
 30
0.0
 11
-1.456179909265102
 21
2.547753121618572
 31
0.0
  0
LINE
  5
20D
330
1E2
100
AcDbEntity
  8
AM_4
100
AcDbLine
 10
-1.747534053283015
 20
2.493318198540882
 30
0.0
 11
-1.402465946716984
 21
2.493318198540882
 31
0.0
  0
LINE
  5
20E
330
1E2
100
AcDbEntity
  8
AM_4
100
AcDbLine
 10
-1.747534053283015
 20
2.493318198540882
 30
0.0
 11
-1.78875
 21
2.475
 31
0.0
  0
LINE
  5
20F
330
1E2
100
AcDbEntity
  8
AM_4
100
AcDbLine
 10
-1.36125
 20
2.475
 30
0.0
 11
-1.402465946716984
 21
2.493318198540882
 31
0.0
  0
LWPOLYLINE
  5
210
330
1E2
100
AcDbEntity
  8
AM_4
100
AcDbPolyline
 90
        3
 70
     0
 43
0.0
 10
-1.70129537138523
 20
2.465932400303386
 10
-1.638431614691436
 20
2.47258547505038
 10
-1.575
 20
2.475
  0
LWPOLYLINE
  5
211
330
1E2
100
AcDbEntity
  8
AM_4
100
AcDbPolyline
 90
        4
 70
     0
 43
0.0
 10
-1.575
 20
2.475
 10
-1.526600183944101
 20
2.473582439282863
 10
-1.478200367888202
 20
2.469517587482156
 10
-1.448704628614769
 20
2.465932400303386
  0
LINE
  5
212
330
1E2
100
AcDbEntity
  8
AM_4
100
AcDbLine
 10
-1.70129537138523
 20
2.465932400303386
 30
0.0
 11
-1.70129537138523
 21
2.384067599696615
 31
0.0
  0
LWPOLYLINE
  5
213
330
1E2
100
AcDbEntity
  8
AM_4
100
AcDbPolyline
 90
        3
 70
     0
 43
0.0
 10
-1.764443057077846
 20
2.475
 10
-1.732869214231538
 20
2.472606619214965
 10
-1.70129537138523
 20
2.465932400303386
  0
LWPOLYLINE
  5
214
330
1E2
100
AcDbEntity
  8
AM_4
100
AcDbPolyline
 90
        3
 70
     0
 43
0.0
 10
-1.827590742770461
 20
2.465932400303386
 10
-1.796158864423564
 20
2.47258547505038
 10
-1.764443057077846
 20
2.475
  0
LINE
  5
215
330
1E2
100
AcDbEntity
  8
AM_4
100
AcDbLine
 10
-1.827590742770461
 20
2.465932400303386
 30
0.0
 11
-1.827590742770461
 21
2.384067599696615
 31
0.0
  0
LWPOLYLINE
  5
216
330
1E2
100
AcDbEntity
  8
AM_4
100
AcDbPolyline
 90
        3
 70
     0
 43
0.0
 10
-1.764443057077846
 20
2.375
 10
-1.796016899924153
 20
2.377393380785035
 10
-1.827590742770461
 20
2.384067599696615
  0
LINE
  5
217
330
1E2
100
AcDbEntity
  8
AM_4
100
AcDbLine
 10
-1.322409257229539
 20
2.465932400303386
 30
0.0
 11
-1.322409257229539
 21
2.384067599696615
 31
0.0
  0
LWPOLYLINE
  5
218
330
1E2
100
AcDbEntity
  8
AM_4
100
AcDbPolyline
 90
        3
 70
     0
 43
0.0
 10
-1.385556942922154
 20
2.475
 10
-1.353983100075846
 20
2.472606619214965
 10
-1.322409257229539
 20
2.465932400303386
  0
LWPOLYLINE
  5
219
330
1E2
100
AcDbEntity
  8
AM_4
100
AcDbPolyline
 90
        3
 70
     0
 43
0.0
 10
-1.448704628614769
 20
2.465932400303386
 10
-1.417272750267872
 20
2.47258547505038
 10
-1.385556942922154
 20
2.475
  0
LINE
  5
21A
330
1E2
100
AcDbEntity
  8
AM_4
100
AcDbLine
 10
-1.448704628614769
 20
2.465932400303386
 30
0.0
 11
-1.448704628614769
 21
2.384067599696615
 31
0.0
  0
LWPOLYLINE
  5
21B
330
1E2
100
AcDbEntity
  8
AM_4
100
AcDbPolyline
 90
        3
 70
     0
 43
0.0
 10
-1.322409257229539
 20
2.384067599696615
 10
-1.353841135576435
 20
2.37741452494962
 10
-1.385556942922154
 20
2.375
  0
LWPOLYLINE
  5
21C
330
1E2
100
AcDbEntity
  8
AM_4
100
AcDbPolyline
 90
        3
 70
     0
 43
0.0
 10
-1.385556942922154
 20
2.375
 10
-1.417130785768462
 20
2.377393380785035
 10
-1.448704628614769
 20
2.384067599696615
  0
LWPOLYLINE
  5
21D
330
1E2
100
AcDbEntity
  8
AM_4
100
AcDbPolyline
 90
        4
 70
     0
 43
0.0
 10
-1.448704628614769
 20
2.384067599696615
 10
-1.478200367888202
 20
2.380482412517844
 10
-1.526457558752245
 20
2.376425828243072
 10
-1.575
 20
2.375
  0
LWPOLYLINE
  5
21E
330
1E2
100
AcDbEntity
  8
AM_4
100
AcDbPolyline
 90
        3
 70
     0
 43
0.0
 10
-1.575
 20
2.375
 10
-1.638147685692615
 20
2.377393380785035
 10
-1.70129537138523
 20
2.384067599696615
  0
LWPOLYLINE
  5
21F
330
1E2
100
AcDbEntity
  8
AM_4
100
AcDbPolyline
 90
        3
 70
     0
 43
0.0
 10
-1.70129537138523
 20
2.384067599696615
 10
-1.732727249732127
 20
2.37741452494962
 10
-1.764443057077846
 20
2.375
  0
ENDBLK
  5
1E5
330
1E2
100
AcDbEntity
  8
0
100
AcDbBlockEnd
  0
BLOCK
  5
222
330
220
100
AcDbEntity
  8
0
100
AcDbBlockBegin
  2
8_B072179H_0_in_072207_2
 70
     2
 10
0.0
 20
0.0
 30
0.0
  3
8_B072179H_0_in_072207_2
  1

  0
ATTDEF
  5
224
330
220
100
AcDbEntity
  8
AM_6
100
AcDbText
 10
5.111999999999999
 20
2.782
 30
0.0
 40
0.5
  1
SF4B-IP-102-204-(Contact Seal) Housing
100
AcDbAttributeDefinition
  3

  2
NN
 70
     8
280
     0
  0
ATTDEF
  5
225
330
220
100
AcDbEntity
  8
AM_6
100
AcDbText
 10
5.111999999999999
 20
2.282
 30
0.0
 40
0.5
  1
Imperial 4 Bolt Square Flange Bearing -Inch-102-204
100
AcDbAttributeDefinition
  3

  2
NT
 70
     8
280
     0
  0
ATTDEF
  5
226
330
220
100
AcDbEntity
  8
AM_6
100
AcDbText
 10
5.111999999999999
 20
1.782
 30
0.0
 40
0.5
  1
B072179H
100
AcDbAttributeDefinition
  3

  2
NB
 70
     8
280
     0
  0
ATTDEF
  5
227
330
220
100
AcDbEntity
  8
AM_6
100
AcDbText
 10
5.111999999999999
 20
1.282
 30
0.0
 40
0.5
  1
$PN.H
100
AcDbAttributeDefinition
  3

  2
NBSYN
 70
     8
280
     0
  0
ATTDEF
  5
228
330
220
100
AcDbEntity
  8
AM_6
100
AcDbText
 10
5.111999999999999
 20
0.782
 30
0.0
 40
0.5
  1
B072179H
100
AcDbAttributeDefinition
  3

  2
LINA
 70
     8
280
     0
  0
ATTDEF
  5
229
330
220
100
AcDbEntity
  8
AM_6
100
AcDbText
 10
5.111999999999999
 20
0.282
 30
0.0
 40
0.5
  1
1-7/8
100
AcDbAttributeDefinition
  3

  2
SS
 70
     8
280
     0
  0
ATTDEF
  5
22A
330
220
100
AcDbEntity
  8
AM_6
100
AcDbText
 10
5.111999999999999
 20
-0.218
 30
0.0
 40
0.5
  1
1.875000
100
AcDbAttributeDefinition
  3

  2
SS1
 70
     8
280
     0
  0
ATTDEF
  5
22B
330
220
100
AcDbEntity
  8
AM_6
100
AcDbText
 10
5.111999999999999
 20
-0.718
 30
0.0
 40
0.5
  1
072179
100
AcDbAttributeDefinition
  3

  2
PN1
 70
     8
280
     0
  0
ATTDEF
  5
22C
330
220
100
AcDbEntity
  8
AM_6
100
AcDbText
 10
5.111999999999999
 20
-1.218
 30
0.0
 40
0.5
  1
072207
100
AcDbAttributeDefinition
  3

  2
PN2
 70
     8
280
     0
  0
ATTDEF
  5
22D
330
220
100
AcDbEntity
  8
AM_6
100
AcDbText
 10
5.111999999999999
 20
-1.718
 30
0.0
 40
0.5
  1
Non-Expansion
100
AcDbAttributeDefinition
  3

  2
TYPE
 70
     8
280
     0
  0
ATTDEF
  5
22E
330
220
100
AcDbEntity
  8
AM_6
100
AcDbText
 10
5.111999999999999
 20
-2.218
 30
0.0
 40
0.5
  1
SF4S-IP-114R
100
AcDbAttributeDefinition
  3

  2
DESCRIPTIONS
 70
     8
280
     0
  0
ATTDEF
  5
22F
330
220
100
AcDbEntity
  8
AM_6
100
AcDbText
 10
5.111999999999999
 20
-2.718
 30
0.0
 40
0.5
  1
Contact Seal
100
AcDbAttributeDefinition
  3

  2
ST
 70
     8
280
     0
  0
ATTDEF
  5
230
330
220
100
AcDbEntity
  8
AM_6
100
AcDbText
 10
5.111999999999999
 20
-3.218
 30
0.0
 40
0.5
  1
2.86
100
AcDbAttributeDefinition
  3

  2
A
 70
     8
280
     0
  0
ATTDEF
  5
231
330
220
100
AcDbEntity
  8
AM_6
100
AcDbText
 10
5.111999999999999
 20
-3.718
 30
0.0
 40
0.5
  1
2.86
100
AcDbAttributeDefinition
  3

  2
A1
 70
     8
280
     0
  0
ATTDEF
  5
232
330
220
100
AcDbEntity
  8
AM_6
100
AcDbText
 10
5.111999999999999
 20
-4.218
 30
0.0
 40
0.5
  1
5.18
100
AcDbAttributeDefinition
  3

  2
B
 70
     8
280
     0
  0
ATTDEF
  5
233
330
220
100
AcDbEntity
  8
AM_6
100
AcDbText
 10
5.111999999999999
 20
-4.718
 30
0.0
 40
0.5
  1
5.1800000
100
AcDbAttributeDefinition
  3

  2
B1
 70
     8
280
     0
  0
ATTDEF
  5
234
330
220
100
AcDbEntity
  8
AM_6
100
AcDbText
 10
5.111999999999999
 20
-5.218
 30
0.0
 40
0.5
  1
3.15
100
AcDbAttributeDefinition
  3

  2
C
 70
     8
280
     0
  0
ATTDEF
  5
235
330
220
100
AcDbEntity
  8
AM_6
100
AcDbText
 10
5.111999999999999
 20
-5.718
 30
0.0
 40
0.5
  1
3.15
100
AcDbAttributeDefinition
  3

  2
C1
 70
     8
280
     0
  0
ATTDEF
  5
236
330
220
100
AcDbEntity
  8
AM_6
100
AcDbText
 10
5.111999999999999
 20
-6.218
 30
0.0
 40
0.5
  1
4.07
100
AcDbAttributeDefinition
  3

  2
D
 70
     8
280
     0
  0
ATTDEF
  5
237
330
220
100
AcDbEntity
  8
AM_6
100
AcDbText
 10
5.111999999999999
 20
-6.718
 30
0.0
 40
0.5
  1
4.07
100
AcDbAttributeDefinition
  3

  2
D1
 70
     8
280
     0
  0
ATTDEF
  5
238
330
220
100
AcDbEntity
  8
AM_6
100
AcDbText
 10
5.111999999999999
 20
-7.218
 30
0.0
 40
0.5
  1
1/2
100
AcDbAttributeDefinition
  3

  2
F
 70
     8
280
     0
  0
ATTDEF
  5
239
330
220
100
AcDbEntity
  8
AM_6
100
AcDbText
 10
5.111999999999999
 20
-7.718
 30
0.0
 40
0.5
  1
0.5000000
100
AcDbAttributeDefinition
  3

  2
F1
 70
     8
280
     0
  0
ATTDEF
  5
23A
330
220
100
AcDbEntity
  8
AM_6
100
AcDbText
 10
5.111999999999999
 20
-8.218
 30
0.0
 40
0.5
  1
0.91
100
AcDbAttributeDefinition
  3

  2
G
 70
     8
280
     0
  0
ATTDEF
  5
23B
330
220
100
AcDbEntity
  8
AM_6
100
AcDbText
 10
5.111999999999999
 20
-8.718
 30
0.0
 40
0.5
  1
0.91
100
AcDbAttributeDefinition
  3

  2
G1
 70
     8
280
     0
  0
ATTDEF
  5
23C
330
220
100
AcDbEntity
  8
AM_6
100
AcDbText
 10
5.111999999999999
 20
-9.218
 30
0.0
 40
0.5
  1
0.91
100
AcDbAttributeDefinition
  3

  2
H
 70
     8
280
     0
  0
ATTDEF
  5
23D
330
220
100
AcDbEntity
  8
AM_6
100
AcDbText
 10
5.111999999999999
 20
-9.718
 30
0.0
 40
0.5
  1
0.91
100
AcDbAttributeDefinition
  3

  2
H1
 70
     8
280
     0
  0
ATTDEF
  5
23E
330
220
100
AcDbEntity
  8
AM_6
100
AcDbText
 10
5.111999999999999
 20
-10.218
 30
0.0
 40
0.5
  1
4.66
100
AcDbAttributeDefinition
  3

  2
J
 70
     8
280
     0
  0
ATTDEF
  5
23F
330
220
100
AcDbEntity
  8
AM_6
100
AcDbText
 10
5.111999999999999
 20
-10.718
 30
0.0
 40
0.5
  1
4.66
100
AcDbAttributeDefinition
  3

  2
J1
 70
     8
280
     0
  0
ATTDEF
  5
240
330
220
100
AcDbEntity
  8
AM_6
100
AcDbText
 10
5.111999999999999
 20
-11.218
 30
0.0
 40
0.5
  1
5.75
100
AcDbAttributeDefinition
  3

  2
K
 70
     8
280
     0
  0
ATTDEF
  5
241
330
220
100
AcDbEntity
  8
AM_6
100
AcDbText
 10
5.111999999999999
 20
-11.718
 30
0.0
 40
0.5
  1
5.75
100
AcDbAttributeDefinition
  3

  2
K1
 70
     8
280
     0
  0
ATTDEF
  5
242
330
220
100
AcDbEntity
  8
AM_6
100
AcDbText
 10
5.111999999999999
 20
-12.218
 30
0.0
 40
0.5
  1
3.28
100
AcDbAttributeDefinition
  3

  2
L
 70
     8
280
     0
  0
ATTDEF
  5
243
330
220
100
AcDbEntity
  8
AM_6
100
AcDbText
 10
5.111999999999999
 20
-12.718
 30
0.0
 40
0.5
  1
3.28
100
AcDbAttributeDefinition
  3

  2
L1
 70
     8
280
     0
  0
ATTDEF
  5
244
330
220
100
AcDbEntity
  8
AM_6
100
AcDbText
 10
5.111999999999999
 20
-13.218
 30
0.0
 40
0.5
  1
2.75
100
AcDbAttributeDefinition
  3

  2
N
 70
     8
280
     0
  0
ATTDEF
  5
245
330
220
100
AcDbEntity
  8
AM_6
100
AcDbText
 10
5.111999999999999
 20
-13.718
 30
0.0
 40
0.5
  1
2.75
100
AcDbAttributeDefinition
  3

  2
N1
 70
     8
280
     0
  0
ATTDEF
  5
246
330
220
100
AcDbEntity
  8
AM_6
100
AcDbText
 10
5.111999999999999
 20
-14.218
 30
0.0
 40
0.5
  1
0.29
100
AcDbAttributeDefinition
  3

  2
P
 70
     8
280
     0
  0
ATTDEF
  5
247
330
220
100
AcDbEntity
  8
AM_6
100
AcDbText
 10
5.111999999999999
 20
-14.718
 30
0.0
 40
0.5
  1
0.29
100
AcDbAttributeDefinition
  3

  2
P1
 70
     8
280
     0
  0
ATTDEF
  5
248
330
220
100
AcDbEntity
  8
AM_6
100
AcDbText
 10
5.111999999999999
 20
-15.218
 30
0.0
 40
0.5
  1
0.25
100
AcDbAttributeDefinition
  3

  2
X
 70
     8
280
     0
  0
ATTDEF
  5
249
330
220
100
AcDbEntity
  8
AM_6
100
AcDbText
 10
5.111999999999999
 20
-15.718
 30
0.0
 40
0.5
  1
0.25
100
AcDbAttributeDefinition
  3

  2
X1
 70
     8
280
     0
  0
ATTDEF
  5
24A
330
220
100
AcDbEntity
  8
AM_6
100
AcDbText
 10
5.111999999999999
 20
-16.218
 30
0.0
 40
0.5
  1
0.020
100
AcDbAttributeDefinition
  3

  2
Y
 70
     8
280
     0
  0
ATTDEF
  5
24B
330
220
100
AcDbEntity
  8
AM_6
100
AcDbText
 10
5.111999999999999
 20
-16.718
 30
0.0
 40
0.5
  1
2.30
100
AcDbAttributeDefinition
  3

  2
Z
 70
     8
280
     0
  0
ATTDEF
  5
24C
330
220
100
AcDbEntity
  8
AM_6
100
AcDbText
 10
5.111999999999999
 20
-17.218
 30
0.0
 40
0.5
  1
2.300000
100
AcDbAttributeDefinition
  3

  2
Z1
 70
     8
280
     0
  0
ATTDEF
  5
24D
330
220
100
AcDbEntity
  8
AM_6
100
AcDbText
 10
5.111999999999999
 20
-17.718
 30
0.0
 40
0.5
  1
0
100
AcDbAttributeDefinition
  3

  2
CS
 70
     8
280
     0
  0
ATTDEF
  5
24E
330
220
100
AcDbEntity
  8
AM_6
100
AcDbText
 10
5.111999999999999
 20
-18.218
 30
0.0
 40
0.5
  1
0.1900
100
AcDbAttributeDefinition
  3

  2
NDM
 70
     8
280
     0
  0
ATTDEF
  5
24F
330
220
100
AcDbEntity
  8
AM_6
100
AcDbText
 10
5.111999999999999
 20
-18.718
 30
0.0
 40
0.5
  1
0.1450
100
AcDbAttributeDefinition
  3

  2
KDM
 70
     8
280
     0
  0
ATTDEF
  5
250
330
220
100
AcDbEntity
  8
AM_6
100
AcDbText
 10
5.111999999999999
 20
-19.218
 30
0.0
 40
0.5
  1
3.5433
100
AcDbAttributeDefinition
  3

  2
BORE
 70
     8
280
     0
  0
ATTDEF
  5
251
330
220
100
AcDbEntity
  8
AM_6
100
AcDbText
 10
5.111999999999999
 20
-19.718
 30
0.0
 40
0.5
  1
1
100
AcDbAttributeDefinition
  3

  2
ST1
 70
     8
280
     0
  0
ATTDEF
  5
252
330
220
100
AcDbEntity
  8
AM_6
100
AcDbText
 10
5.111999999999999
 20
-20.218
 30
0.0
 40
0.5
  1
0.0618333
100
AcDbAttributeDefinition
  3

  2
O
 70
     8
280
     0
  0
ATTDEF
  5
253
330
220
100
AcDbEntity
  8
AM_6
100
AcDbText
 10
5.111999999999999
 20
-20.718
 30
0.0
 40
0.5
  1
baldor
100
AcDbAttributeDefinition
  3

  2
COMPANY
 70
     8
280
     0
  0
LINE
  5
254
330
220
100
AcDbEntity
  8
AM_9
100
AcDbLine
 10
-2.24
 20
-1.77165
 30
0.0
 11
-0.13
 21
-1.77165
 31
0.0
  0
LINE
  5
255
330
220
100
AcDbEntity
  8
AM_9
100
AcDbLine
 10
-0.13
 20
1.77165
 30
0.0
 11
-2.24
 21
1.77165
 31
0.0
  0
LINE
  5
256
330
220
100
AcDbEntity
  8
AM_9
100
AcDbLine
 10
-0.0389999999999997
 20
-2.050825
 30
0.0
 11
0.0
 21
-2.050825
 31
0.0
  0
LINE
  5
257
330
220
100
AcDbEntity
  8
AM_9
100
AcDbLine
 10
0.0
 20
2.050825
 30
0.0
 11
-0.0389999999999997
 21
2.050825
 31
0.0
  0
LINE
  5
258
330
220
100
AcDbEntity
  8
AM_9
100
AcDbLine
 10
-0.13
 20
1.959825
 30
0.0
 11
-0.13
 21
-1.959825
 31
0.0
  0
ARC
  5
259
330
220
100
AcDbEntity
  8
AM_9
100
AcDbCircle
 10
-0.039
 20
-1.959825
 30
0.0
 40
0.0910000000000001
100
AcDbArc
 50
179.9999991462263
 51
270.0
  0
ARC
  5
25A
330
220
100
AcDbEntity
  8
AM_9
100
AcDbCircle
 10
-0.0389999999999997
 20
1.959824999999999
 30
0.0
 40
0.0910000000000006
100
AcDbArc
 50
90.0
 51
180.0
  0
LINE
  5
25B
330
220
100
AcDbEntity
  8
AM_9
100
AcDbLine
 10
-0.0389999999999997
 20
2.050825
 30
0.0
 11
-0.0389999999999997
 21
-2.050825
 31
0.0
  0
LINE
  5
25C
330
220
100
AcDbEntity
  8
AM_9
100
AcDbLine
 10
-0.9099999999999998
 20
-2.282931995911324
 30
0.0
 11
0.0000000000000001
 21
-2.282931995911324
 31
0.0
  0
LINE
  5
25D
330
220
100
AcDbEntity
  8
AM_9
100
AcDbLine
 10
0.0000000000000001
 20
-1.782931995911324
 30
0.0
 11
-0.9099999999999998
 21
-1.782931995911324
 31
0.0
  0
LINE
  5
25E
330
220
100
AcDbEntity
  8
AM_9
100
AcDbLine
 10
-0.9099999999999998
 20
1.782931995911324
 30
0.0
 11
0.0000000000000001
 21
1.782931995911324
 31
0.0
  0
LINE
  5
25F
330
220
100
AcDbEntity
  8
AM_9
100
AcDbLine
 10
0.0000000000000001
 20
2.282931995911324
 30
0.0
 11
-0.9099999999999998
 21
2.282931995911324
 31
0.0
  0
LINE
  5
260
330
220
100
AcDbEntity
  8
AM_7
100
AcDbLine
 10
0.0454999999999999
 20
2.032931995911324
 30
0.0
 11
-0.9555000000000001
 21
2.032931995911324
 31
0.0
  0
LINE
  5
261
330
220
100
AcDbEntity
  8
AM_7
100
AcDbLine
 10
0.0454999999999999
 20
-2.032931995911324
 30
0.0
 11
-0.9555000000000001
 21
-2.032931995911324
 31
0.0
  0
LINE
  5
262
330
220
100
AcDbEntity
  8
AM_7
100
AcDbLine
 10
-1.575
 20
2.782
 30
0.0
 11
-1.575
 21
1.7887325
 31
0.0
  0
LINE
  5
263
330
220
100
AcDbEntity
  8
AM_7
100
AcDbLine
 10
-1.575000000000006
 20
-1.7887325
 30
0.0
 11
-1.575
 21
-2.782
 31
0.0
  0
LINE
  5
264
330
220
100
AcDbEntity
  8
AM_7
100
AcDbLine
 10
-3.294
 20
0.0
 30
0.0
 11
0.1119999999999994
 21
0.0
 31
0.0
  0
LINE
  5
265
330
220
100
AcDbEntity
  8
AM_4
100
AcDbLine
 10
-1.975000000000003
 20
-2.375
 30
0.0
 11
-1.175000000206293
 21
-2.375
 31
0.0
  0
ARC
  5
266
330
220
100
AcDbEntity
  8
AM_4
100
AcDbCircle
 10
-1.175000000000005
 20
-2.275000000000001
 30
0.0
 40
0.0999999999999988
100
AcDbArc
 50
270.0
 51
326.5676185698951
  0
ARC
  5
267
330
220
100
AcDbEntity
  8
AM_4
100
AcDbCircle
 10
-1.975000000000007
 20
-2.275000000000002
 30
0.0
 40
0.0999999999999977
100
AcDbArc
 50
213.3990721578301
 51
270.0
  0
LINE
  5
268
330
220
100
AcDbEntity
  8
AM_4
100
AcDbLine
 10
-1.975
 20
2.375
 30
0.0
 11
-1.175000000206284
 21
2.375
 31
0.0
  0
ARC
  5
269
330
220
100
AcDbEntity
  8
AM_4
100
AcDbCircle
 10
-1.174999999999999
 20
2.275000000000001
 30
0.0
 40
0.0999999999999992
100
AcDbArc
 50
33.44333356774669
 51
90.0
  0
ARC
  5
26A
330
220
100
AcDbEntity
  8
AM_4
100
AcDbCircle
 10
-1.975
 20
2.275000000000001
 30
0.0
 40
0.0999999999999992
100
AcDbArc
 50
90.0
 51
146.5925336208283
  0
LINE
  5
26B
330
220
100
AcDbEntity
  8
AM_4
100
AcDbLine
 10
-2.24
 20
-2.33
 30
0.0
 11
-2.24
 21
2.33
 31
0.0
  0
LINE
  5
26C
330
220
100
AcDbEntity
  8
AM_4
100
AcDbLine
 10
-2.24
 20
-2.33
 30
0.0
 11
-2.058402964585912
 21
-2.33
 31
0.0
  0
LINE
  5
26D
330
220
100
AcDbEntity
  8
AM_4
100
AcDbLine
 10
-1.091896090970651
 20
-2.33
 30
0.0
 11
-0.9100000000000001
 21
-2.33
 31
0.0
  0
LINE
  5
26E
330
220
100
AcDbEntity
  8
AM_4
100
AcDbLine
 10
-0.9100000000000001
 20
2.33
 30
0.0
 11
-1.09189141984203
 21
2.33
 31
0.0
  0
LINE
  5
26F
330
220
100
AcDbEntity
  8
AM_4
100
AcDbLine
 10
-2.05829646068944
 20
2.33
 30
0.0
 11
-2.24
 21
2.33
 31
0.0
  0
LWPOLYLINE
  5
270
330
220
100
AcDbEntity
  8
AM_4
100
AcDbPolyline
 90
       40
 70
     0
 43
0.0
 10
-2.058516465442478
 20
-2.329999999999991
 10
-2.058506933271471
 20
-2.329997708815602
 10
-2.05648749992532
 20
-2.329512697066946
 10
-2.050944096170983
 20
-2.328199563768448
 10
-2.041531194159545
 20
-2.326014418522742
 10
-2.028345197976339
 20
-2.323052381129888
 10
-2.011971606597684
 20
-2.319524122559913
 10
-1.992087339110695
 20
-2.315456269732751
 10
-1.967879529510006
 20
-2.31080999024429
 10
-1.940128333829299
 20
-2.305879892918292
 10
-1.912651525325958
 20
-2.301400923944881
 10
-1.88271307458081
 20
-2.296959344748824
 10
-1.849462204480399
 20
-2.292549521669411
 10
-1.814081248458763
 20
-2.288441952143343
 10
-1.779449599291696
 20
-2.284995446164776
 10
-1.743460246983281
 20
-2.282000021252035
 10
-1.70530240772564
 20
-2.279470007572753
 10
-1.666247244540636
 20
-2.277555425207465
 10
-1.626990862642279
 20
-2.276316421077931
 10
-1.587388924111101
 20
-2.275754013102415
 10
-1.546597994422619
 20
-2.275898943974574
 10
-1.506006112332245
 20
-2.276768718896809
 10
-1.466241477781128
 20
-2.278330297371706
 10
-1.427234614877674
 20
-2.280545652930609
 10
-1.388153422460893
 20
-2.28345683116192
 10
-1.350479828624656
 20
-2.286924195451267
 10
-1.316043298137031
 20
-2.290676127435362
 10
-1.283422109291106
 20
-2.294751352391177
 10
-1.25196753425047
 20
-2.299176016753314
 10
-1.222926135524702
 20
-2.303702681825333
 10
-1.197762581264324
 20
-2.307980206886116
 10
-1.175105280534041
 20
-2.312122494353469
 10
-1.154558334510603
 20
-2.316126231000337
 10
-1.136857992839815
 20
-2.31977125620722
 10
-1.122087622666119
 20
-2.322956596467726
 10
-1.110222281257923
 20
-2.325614862948036
 10
-1.101081682352518
 20
-2.327723842192427
 10
-1.094977234311327
 20
-2.329164448858621
 10
-1.091818504203022
 20
-2.32991857013042
 10
-1.091483534557564
 20
-2.329999999999998
  0
LWPOLYLINE
  5
271
330
220
100
AcDbEntity
  8
AM_4
100
AcDbPolyline
 90
       40
 70
     0
 43
0.0
 10
-1.091483534557589
 20
2.32999999999999
 10
-1.091739489073765
 20
2.329937483032746
 10
-1.094783724948546
 20
2.329210508734372
 10
-1.101516516599953
 20
2.327621932442141
 10
-1.111917325442075
 20
2.325229654834899
 10
-1.12585012523597
 20
2.322132172187474
 10
-1.143387775554645
 20
2.318405062367278
 10
-1.165291270583079
 20
2.314004956819933
 10
-1.190907550863396
 20
2.309203760031079
 10
-1.216789746710615
 20
2.304715375790653
 10
-1.245344419839159
 20
2.300169971686511
 10
-1.277433317940169
 20
2.29555680134931
 10
-1.311906675689117
 20
2.291163754241281
 10
-1.345461924306909
 20
2.287436844992194
 10
-1.380555963741726
 20
2.284102325687364
 10
-1.418000374299742
 20
2.281171690211356
 10
-1.456537583656956
 20
2.27881684362768
 10
-1.49520551303173
 20
2.27712414122031
 10
-1.534400763272977
 20
2.276083074805399
 10
-1.574959261897724
 20
2.275721377711756
 10
-1.615518042943628
 20
2.276081624524684
 10
-1.655603137481864
 20
2.27715285185225
 10
-1.695130929273251
 20
2.278904935720764
 10
-1.734946584820946
 20
2.28137941871745
 10
-1.773569406275104
 20
2.284464599948344
 10
-1.809329713871951
 20
2.287936659504623
 10
-1.843440054074236
 20
2.291807273604271
 10
-1.876592072386296
 20
2.296107377408627
 10
-1.907467802602977
 20
2.300599008157333
 10
-1.934392614903511
 20
2.304912603567393
 10
-1.958903627940215
 20
2.309169710976822
 10
-1.981438572649251
 20
2.313371706634765
 10
-2.001169405680995
 20
2.317285631399566
 10
-2.017814006847697
 20
2.320764195996557
 10
-2.031616586592299
 20
2.323777142029929
 10
-2.042795814331897
 20
2.326304785997075
 10
-2.05098080905347
 20
2.328208198599924
 10
-2.056351247717235
 20
2.329480303303377
 10
-2.058477060384254
 20
2.329990528877481
 10
-2.058516465442343
 20
2.329999999999974
  0
LINE
  5
272
330
220
100
AcDbEntity
  8
AM_4
100
AcDbLine
 10
-0.9099999999999998
 20
2.59
 30
0.0
 11
0.0000000000000001
 21
2.59
 31
0.0
  0
LINE
  5
273
330
220
100
AcDbEntity
  8
AM_4
100
AcDbLine
 10
-0.9099999999999998
 20
-2.59
 30
0.0
 11
-0.9099999999999998
 21
2.59
 31
0.0
  0
LINE
  5
274
330
220
100
AcDbEntity
  8
AM_4
100
AcDbLine
 10
0.0000000000000001
 20
-2.59
 30
0.0
 11
0.0000000000000001
 21
2.59
 31
0.0
  0
LINE
  5
275
330
220
100
AcDbEntity
  8
AM_4
100
AcDbLine
 10
-0.9099999999999998
 20
-2.59
 30
0.0
 11
0.0000000000000001
 21
-2.59
 31
0.0
  0
LINE
  5
276
330
220
100
AcDbEntity
  8
AM_4
100
AcDbLine
 10
-0.9099999999999998
 20
2.035
 30
0.0
 11
0.0000000000000002
 21
2.035
 31
0.0
  0
LINE
  5
277
330
220
100
AcDbEntity
  8
AM_4
100
AcDbLine
 10
-0.9099999999999998
 20
-2.034999999999999
 30
0.0
 11
0.0000000000000002
 21
-2.034999999999999
 31
0.0
  0
ENDBLK
  5
223
330
220
100
AcDbEntity
  8
0
100
AcDbBlockEnd
  0
ENDSEC
  0
SECTION
  2
ENTITIES
  0
INSERT
  5
6F
330
1F
100
AcDbEntity
  8
0
100
AcDbBlockReference
  2
1_072207_2
 10
0.0
 20
0.0
 30
0.0
  0
POINT
  5
279
330
1F
100
AcDbEntity
  8
ConnectionPoints
100
AcDbPoint
 10
-3.048999966666667
 20
-1.341145833333333
 30
0.0000000000000002
  0
POINT
  5
27A
330
1F
100
AcDbEntity
  8
ConnectionPoints
100
AcDbPoint
 10
-3.048999966666667
 20
1.341145833333333
 30
0.0000000000000002
  0
POINT
  5
27B
330
1F
100
AcDbEntity
  8
ConnectionPoints
100
AcDbPoint
 10
-2.917166666666667
 20
0.0
 30
0.0000000000000002
  0
POINT
  5
27C
330
1F
100
AcDbEntity
  8
ConnectionPoints
100
AcDbPoint
 10
-3.15
 20
0.0
 30
0.0000000000000002
  0
POINT
  5
27D
330
1F
100
AcDbEntity
  8
ConnectionPoints
100
AcDbPoint
 10
-3.116166666666667
 20
0.0
 30
0.0000000000000002
  0
POINT
  5
27E
330
1F
100
AcDbEntity
  8
ConnectionPoints
100
AcDbPoint
 10
-2.917166666666667
 20
1.341145833333333
 30
0.0000000000000002
  0
POINT
  5
27F
330
1F
100
AcDbEntity
  8
ConnectionPoints
100
AcDbPoint
 10
-2.917166666666667
 20
-1.341145833333333
 30
0.0000000000000002
  0
POINT
  5
280
330
1F
100
AcDbEntity
  8
ConnectionPoints
100
AcDbPoint
 10
-2.917166666666667
 20
0.0
 30
0.0000000000000002
  0
POINT
  5
281
330
1F
100
AcDbEntity
  8
ConnectionPoints
100
AcDbPoint
 10
-1.575
 20
2.375
 30
0.0000000000000001
  0
POINT
  5
282
330
1F
100
AcDbEntity
  8
ConnectionPoints
100
AcDbPoint
 10
-1.575
 20
2.375
 30
0.0000000000000001
  0
POINT
  5
283
330
1F
100
AcDbEntity
  8
ConnectionPoints
100
AcDbPoint
 10
-1.575
 20
-2.375
 30
0.0000000000000001
  0
POINT
  5
284
330
1F
100
AcDbEntity
  8
ConnectionPoints
100
AcDbPoint
 10
-2.9
 20
0.0
 30
0.0000000000000002
  0
POINT
  5
285
330
1F
100
AcDbEntity
  8
ConnectionPoints
100
AcDbPoint
 10
-3.15
 20
0.0
 30
0.0000000000000002
  0
ENDSEC
  0
SECTION
  2
OBJECTS
  0
DICTIONARY
  5
C
330
0
100
AcDbDictionary
281
     1
  3
ACAD_DETAILVIEWSTYLE
350
28D
  3
ACAD_GROUP
350
D
  3
ACAD_LAYOUT
350
1A
  3
ACAD_MATERIAL
350
43
  3
ACAD_MLEADERSTYLE
350
6B
  3
ACAD_MLINESTYLE
350
17
  3
ACAD_PLOTSETTINGS
350
19
  3
ACAD_PLOTSTYLENAME
350
E
  3
ACAD_SCALELIST
350
47
  3
ACAD_SECTIONVIEWSTYLE
350
28E
  3
ACAD_TABLESTYLE
350
69
  3
ACAD_VISUALSTYLE
350
2A
  3
ACDB_RECOMPOSE_DATA
350
28A
  3
AcDbVariableDictionary
350
286
  0
SUN
  5
6D
330
29
100
AcDbSun
 90
        1
290
     0
 63
     7
421
 16777215
 40
1.0
291
     1
 91
  2455826
 92
 54000000
292
     0
 70
     2
 71
   256
280
     1
  0
DICTIONARY
  5
28D
102
{ACAD_REACTORS
330
C
102
}
330
C
100
AcDbDictionary
281
     1
  0
DICTIONARY
  5
D
102
{ACAD_REACTORS
330
C
102
}
330
C
100
AcDbDictionary
281
     1
  0
DICTIONARY
  5
1A
102
{ACAD_REACTORS
330
C
102
}
330
C
100
AcDbDictionary
281
     1
  3
Layout1
350
1E
  3
Layout2
350
26
  3
Model
350
22
  0
DICTIONARY
  5
43
102
{ACAD_REACTORS
330
C
102
}
330
C
100
AcDbDictionary
281
     1
  3
ByBlock
350
45
  3
ByLayer
350
44
  3
Global
350
46
  0
DICTIONARY
  5
6B
102
{ACAD_REACTORS
330
C
102
}
330
C
100
AcDbDictionary
281
     1
  3
Standard
350
6C
  0
DICTIONARY
  5
17
102
{ACAD_REACTORS
330
C
102
}
330
C
100
AcDbDictionary
281
     1
  3
Standard
350
18
  0
DICTIONARY
  5
19
102
{ACAD_REACTORS
330
C
102
}
330
C
100
AcDbDictionary
281
     1
  0
ACDBDICTIONARYWDFLT
  5
E
102
{ACAD_REACTORS
330
C
102
}
330
C
100
AcDbDictionary
281
     1
  3
Normal
350
F
100
AcDbDictionaryWithDefault
340
F
  0
DICTIONARY
  5
47
102
{ACAD_REACTORS
330
C
102
}
330
C
100
AcDbDictionary
281
     1
  3
A0
350
48
  3
A1
350
49
  3
A2
350
4A
  3
A3
350
4B
  3
A4
350
4C
  3
A5
350
4D
  3
A6
350
4E
  3
A7
350
4F
  3
A8
350
50
  3
A9
350
51
  3
B0
350
52
  3
B1
350
53
  3
B2
350
54
  3
B3
350
55
  3
B4
350
56
  3
B5
350
57
  3
B6
350
58
  3
B7
350
59
  3
B8
350
5A
  3
B9
350
5B
  3
C0
350
5C
  3
C1
350
5D
  3
C2
350
5E
  3
C3
350
5F
  3
C4
350
60
  3
C5
350
61
  3
C6
350
62
  3
C7
350
63
  3
C8
350
64
  3
C9
350
65
  3
D0
350
66
  3
D1
350
67
  3
D2
350
68
  0
DICTIONARY
  5
28E
102
{ACAD_REACTORS
330
C
102
}
330
C
100
AcDbDictionary
281
     1
  0
DICTIONARY
  5
69
102
{ACAD_REACTORS
330
C
102
}
330
C
100
AcDbDictionary
281
     1
  3
Standard
350
6A
  0
DICTIONARY
  5
2A
102
{ACAD_REACTORS
330
C
102
}
330
C
100
AcDbDictionary
281
     1
  3
2dWireframe
350
2F
  3
Basic
350
32
  3
Brighten
350
36
  3
ColorChange
350
3A
  3
Conceptual
350
34
  3
Dim
350
35
  3
EdgeColorOff
350
3D
  3
Facepattern
350
39
  3
Flat
350
2B
  3
FlatWithEdges
350
2C
  3
Gouraud
350
2D
  3
GouraudWithEdges
350
2E
  3
Hidden
350
31
  3
JitterOff
350
3B
  3
Linepattern
350
38
  3
OverhangOff
350
3C
  3
Realistic
350
33
  3
Shaded
350
42
  3
Shaded with edges
350
41
  3
Shades of Gray
350
3E
  3
Sketchy
350
3F
  3
Thicken
350
37
  3
Wireframe
350
30
  3
X-Ray
350
40
  0
XRECORD
  5
28A
102
{ACAD_REACTORS
330
C
102
}
330
C
100
AcDbXrecord
280
     1
 90
        1
330
6A
  0
DICTIONARY
  5
286
102
{ACAD_REACTORS
330
C
102
}
330
C
100
AcDbDictionary
281
     1
  3
CANNOSCALE
350
287
  3
CMLEADERSTYLE
350
28C
  3
CTABLESTYLE
350
28B
  0
LAYOUT
  5
1E
102
{ACAD_REACTORS
330
1A
102
}
330
1A
100
AcDbPlotSettings
  1

  2
none_device
  4

  6

 40
0.0
 41
0.0
 42
0.0
 43
0.0
 44
0.0
 45
0.0
 46
0.0
 47
0.0
 48
0.0
 49
0.0
140
0.0
141
0.0
142
1.0
143
1.0
 70
   688
 72
     0
 73
     0
 74
     5
  7

 75
    16
 76
     0
 77
     2
 78
   300
147
1.0
148
0.0
149
0.0
100
AcDbLayout
  1
Layout1
 70
     1
 71
     1
 10
0.0
 20
0.0
 11
12.0
 21
9.0
 12
0.0
 22
0.0
 32
0.0
 14
1.000000000000000E+20
 24
1.000000000000000E+20
 34
1.000000000000000E+20
 15
-1.000000000000000E+20
 25
-1.000000000000000E+20
 35
-1.000000000000000E+20
146
0.0
 13
0.0
 23
0.0
 33
0.0
 16
1.0
 26
0.0
 36
0.0
 17
0.0
 27
1.0
 37
0.0
 76
     0
330
1B
  0
LAYOUT
  5
26
102
{ACAD_REACTORS
330
1A
102
}
330
1A
100
AcDbPlotSettings
  1

  2
none_device
  4

  6

 40
0.0
 41
0.0
 42
0.0
 43
0.0
 44
0.0
 45
0.0
 46
0.0
 47
0.0
 48
0.0
 49
0.0
140
0.0
141
0.0
142
1.0
143
1.0
 70
   688
 72
     0
 73
     0
 74
     5
  7

 75
    16
 76
     0
 77
     2
 78
   300
147
1.0
148
0.0
149
0.0
100
AcDbLayout
  1
Layout2
 70
     1
 71
     2
 10
0.0
 20
0.0
 11
0.0
 21
0.0
 12
0.0
 22
0.0
 32
0.0
 14
0.0
 24
0.0
 34
0.0
 15
0.0
 25
0.0
 35
0.0
146
0.0
 13
0.0
 23
0.0
 33
0.0
 16
1.0
 26
0.0
 36
0.0
 17
0.0
 27
1.0
 37
0.0
 76
     0
330
23
  0
LAYOUT
  5
22
102
{ACAD_REACTORS
330
1A
102
}
330
1A
100
AcDbPlotSettings
  1

  2
none_device
  4
Letter_(8.50_x_11.00_Inches)
  6

 40
6.35
 41
6.35
 42
6.35000508
 43
6.35000508
 44
215.9
 45
279.4
 46
0.0
 47
0.0
 48
0.0
 49
0.0
140
0.0
141
0.0
142
1.0
143
1.0
 70
  1712
 72
     0
 73
     0
 74
     0
  7

 75
     0
 76
     0
 77
     2
 78
   300
147
1.0
148
0.0
149
0.0
100
AcDbLayout
  1
Model
 70
     1
 71
     0
 10
0.0
 20
0.0
 11
12.0
 21
9.0
 12
0.0
 22
0.0
 32
0.0
 14
1.000000000000000E+20
 24
1.000000000000000E+20
 34
1.000000000000000E+20
 15
-1.000000000000000E+20
 25
-1.000000000000000E+20
 35
-1.000000000000000E+20
146
0.0
 13
0.0
 23
0.0
 33
0.0
 16
1.0
 26
0.0
 36
0.0
 17
0.0
 27
1.0
 37
0.0
 76
     0
330
1F
331
29
  0
MATERIAL
  5
45
102
{ACAD_REACTORS
330
43
102
}
330
43
100
AcDbMaterial
  1
ByBlock
 72
     1
 94
      127
  0
MATERIAL
  5
44
102
{ACAD_REACTORS
330
43
102
}
330
43
100
AcDbMaterial
  1
ByLayer
 72
     1
 94
      127
  0
MATERIAL
  5
46
102
{ACAD_REACTORS
330
43
102
}
330
43
100
AcDbMaterial
  1
Global
 72
     1
 94
      127
  0
MLEADERSTYLE
  5
6C
102
{ACAD_REACTORS
330
6B
102
}
330
6B
100
AcDbMLeaderStyle
179
     2
170
     2
171
     1
172
     0
 90
        2
 40
0.0
 41
0.0
173
     1
 91
-1056964608
340
14
 92
       -2
290
     1
 42
0.09
291
     1
 43
0.36
  3
Standard
341
0
 44
0.18
300

342
11
174
     1
178
     6
175
     1
176
     0
 93
-1056964608
 45
0.18
292
     0
297
     0
 46
0.18
343
0
 94
-1056964608
 47
1.0
 49
1.0
140
1.0
293
     1
141
0.0
294
     1
177
     0
142
1.0
295
     0
296
     0
143
0.125
271
     0
272
     9
273
     9
298
     0
  0
MLINESTYLE
  5
18
102
{ACAD_REACTORS
330
17
102
}
330
17
100
AcDbMlineStyle
  2
Standard
 70
     0
  3

 62
   256
 51
90.0
 52
90.0
 71
     2
 49
0.5
 62
   256
  6
BYLAYER
 49
-0.5
 62
   256
  6
BYLAYER
  0
ACDBPLACEHOLDER
  5
F
102
{ACAD_REACTORS
330
E
102
}
330
E
  0
SCALE
  5
48
102
{ACAD_REACTORS
330
47
102
}
330
47
100
AcDbScale
 70
     0
300
1:1
140
1.0
141
1.0
290
     1
  0
SCALE
  5
49
102
{ACAD_REACTORS
330
47
102
}
330
47
100
AcDbScale
 70
     0
300
1:2
140
1.0
141
2.0
290
     0
  0
SCALE
  5
4A
102
{ACAD_REACTORS
330
47
102
}
330
47
100
AcDbScale
 70
     0
300
1:4
140
1.0
141
4.0
290
     0
  0
SCALE
  5
4B
102
{ACAD_REACTORS
330
47
102
}
330
47
100
AcDbScale
 70
     0
300
1:5
140
1.0
141
5.0
290
     0
  0
SCALE
  5
4C
102
{ACAD_REACTORS
330
47
102
}
330
47
100
AcDbScale
 70
     0
300
1:8
140
1.0
141
8.0
290
     0
  0
SCALE
  5
4D
102
{ACAD_REACTORS
330
47
102
}
330
47
100
AcDbScale
 70
     0
300
1:10
140
1.0
141
10.0
290
     0
  0
SCALE
  5
4E
102
{ACAD_REACTORS
330
47
102
}
330
47
100
AcDbScale
 70
     0
300
1:16
140
1.0
141
16.0
290
     0
  0
SCALE
  5
4F
102
{ACAD_REACTORS
330
47
102
}
330
47
100
AcDbScale
 70
     0
300
1:20
140
1.0
141
20.0
290
     0
  0
SCALE
  5
50
102
{ACAD_REACTORS
330
47
102
}
330
47
100
AcDbScale
 70
     0
300
1:30
140
1.0
141
30.0
290
     0
  0
SCALE
  5
51
102
{ACAD_REACTORS
330
47
102
}
330
47
100
AcDbScale
 70
     0
300
1:40
140
1.0
141
40.0
290
     0
  0
SCALE
  5
52
102
{ACAD_REACTORS
330
47
102
}
330
47
100
AcDbScale
 70
     0
300
1:50
140
1.0
141
50.0
290
     0
  0
SCALE
  5
53
102
{ACAD_REACTORS
330
47
102
}
330
47
100
AcDbScale
 70
     0
300
1:100
140
1.0
141
100.0
290
     0
  0
SCALE
  5
54
102
{ACAD_REACTORS
330
47
102
}
330
47
100
AcDbScale
 70
     0
300
2:1
140
2.0
141
1.0
290
     0
  0
SCALE
  5
55
102
{ACAD_REACTORS
330
47
102
}
330
47
100
AcDbScale
 70
     0
300
4:1
140
4.0
141
1.0
290
     0
  0
SCALE
  5
56
102
{ACAD_REACTORS
330
47
102
}
330
47
100
AcDbScale
 70
     0
300
8:1
140
8.0
141
1.0
290
     0
  0
SCALE
  5
57
102
{ACAD_REACTORS
330
47
102
}
330
47
100
AcDbScale
 70
     0
300
10:1
140
10.0
141
1.0
290
     0
  0
SCALE
  5
58
102
{ACAD_REACTORS
330
47
102
}
330
47
100
AcDbScale
 70
     0
300
100:1
140
100.0
141
1.0
290
     0
  0
SCALE
  5
59
102
{ACAD_REACTORS
330
47
102
}
330
47
100
AcDbScale
 70
     0
300
1/128" = 1'-0"
140
0.0078125
141
12.0
290
     0
  0
SCALE
  5
5A
102
{ACAD_REACTORS
330
47
102
}
330
47
100
AcDbScale
 70
     0
300
1/64" = 1'-0"
140
0.015625
141
12.0
290
     0
  0
SCALE
  5
5B
102
{ACAD_REACTORS
330
47
102
}
330
47
100
AcDbScale
 70
     0
300
1/32" = 1'-0"
140
0.03125
141
12.0
290
     0
  0
SCALE
  5
5C
102
{ACAD_REACTORS
330
47
102
}
330
47
100
AcDbScale
 70
     0
300
1/16" = 1'-0"
140
0.0625
141
12.0
290
     0
  0
SCALE
  5
5D
102
{ACAD_REACTORS
330
47
102
}
330
47
100
AcDbScale
 70
     0
300
3/32" = 1'-0"
140
0.09375
141
12.0
290
     0
  0
SCALE
  5
5E
102
{ACAD_REACTORS
330
47
102
}
330
47
100
AcDbScale
 70
     0
300
1/8" = 1'-0"
140
0.125
141
12.0
290
     0
  0
SCALE
  5
5F
102
{ACAD_REACTORS
330
47
102
}
330
47
100
AcDbScale
 70
     0
300
3/16" = 1'-0"
140
0.1875
141
12.0
290
     0
  0
SCALE
  5
60
102
{ACAD_REACTORS
330
47
102
}
330
47
100
AcDbScale
 70
     0
300
1/4" = 1'-0"
140
0.25
141
12.0
290
     0
  0
SCALE
  5
61
102
{ACAD_REACTORS
330
47
102
}
330
47
100
AcDbScale
 70
     0
300
3/8" = 1'-0"
140
0.375
141
12.0
290
     0
  0
SCALE
  5
62
102
{ACAD_REACTORS
330
47
102
}
330
47
100
AcDbScale
 70
     0
300
1/2" = 1'-0"
140
0.5
141
12.0
290
     0
  0
SCALE
  5
63
102
{ACAD_REACTORS
330
47
102
}
330
47
100
AcDbScale
 70
     0
300
3/4" = 1'-0"
140
0.75
141
12.0
290
     0
  0
SCALE
  5
64
102
{ACAD_REACTORS
330
47
102
}
330
47
100
AcDbScale
 70
     0
300
1" = 1'-0"
140
1.0
141
12.0
290
     0
  0
SCALE
  5
65
102
{ACAD_REACTORS
330
47
102
}
330
47
100
AcDbScale
 70
     0
300
1-1/2" = 1'-0"
140
1.5
141
12.0
290
     0
  0
SCALE
  5
66
102
{ACAD_REACTORS
330
47
102
}
330
47
100
AcDbScale
 70
     0
300
3" = 1'-0"
140
3.0
141
12.0
290
     0
  0
SCALE
  5
67
102
{ACAD_REACTORS
330
47
102
}
330
47
100
AcDbScale
 70
     0
300
6" = 1'-0"
140
6.0
141
12.0
290
     0
  0
SCALE
  5
68
102
{ACAD_REACTORS
330
47
102
}
330
47
100
AcDbScale
 70
     0
300
1'-0" = 1'-0"
140
12.0
141
12.0
290
     0
  0
TABLESTYLE
  5
6A
102
{ACAD_REACTORS
330
69
102
}
102
{ACAD_XDICTIONARY
360
288
102
}
330
69
100
AcDbTableStyle
  3
Standard
 70
     0
 71
     0
 40
0.06
 41
0.06
280
     0
281
     0
  7
Standard
140
0.18
170
     2
 62
     0
 63
   257
283
     0
 90
        4
 91
        0
  1

274
    -2
284
     1
 64
     0
275
    -2
285
     1
 65
     0
276
    -2
286
     1
 66
     0
277
    -2
287
     1
 67
     0
278
    -2
288
     1
 68
     0
279
    -2
289
     1
 69
     0
  7
Standard
140
0.25
170
     5
 62
     0
 63
   257
283
     0
 90
        4
 91
        0
  1

274
    -2
284
     1
 64
     0
275
    -2
285
     1
 65
     0
276
    -2
286
     1
 66
     0
277
    -2
287
     1
 67
     0
278
    -2
288
     1
 68
     0
279
    -2
289
     1
 69
     0
  7
Standard
140
0.18
170
     5
 62
     0
 63
   257
283
     0
 90
        4
 91
        0
  1

274
    -2
284
     1
 64
     0
275
    -2
285
     1
 65
     0
276
    -2
286
     1
 66
     0
277
    -2
287
     1
 67
     0
278
    -2
288
     1
 68
     0
279
    -2
289
     1
 69
     0
  0
VISUALSTYLE
  5
2F
102
{ACAD_REACTORS
330
2A
102
}
330
2A
100
AcDbVisualStyle
  2
2dWireframe
 70
     4
177
     3
291
     0
 70
    58
 90
        0
176
     1
 90
        2
176
     1
 90
        0
176
     1
 90
        0
176
     1
 40
0.6
176
     1
 40
30.0
176
     1
 62
     7
420
 16777215
176
     1
 90
        1
176
     1
 90
        4
176
     1
 62
     7
176
     1
 62
   257
176
     1
 90
        1
176
     1
 90
        1
176
     1
 40
1.0
176
     1
 90
        0
176
     1
 62
   257
176
     1
 40
1.0
176
     1
 90
        1
176
     1
 90
        6
176
     1
 90
        2
176
     1
 62
     7
176
     1
 90
        5
176
     1
 90
        0
176
     1
 90
        0
176
     1
290
     0
176
     1
 90
        1
176
     1
 40
0.0
176
     1
 90
        0
176
     1
290
     1
176
     1
290
     1
176
     1
290
     0
176
     1
290
     0
176
     1
290
     0
176
     1
290
     0
176
     1
290
     0
176
     1
290
     0
176
     1
290
     0
176
     1
 90
       50
176
     1
 40
0.0
176
     1
 40
1.0
176
     1
 90
        0
176
     1
 62
    18
420
        0
176
     1
 90
       50
176
     1
 90
        3
176
     1
 62
     5
420
      255
176
     1
290
     0
176
     1
 90
       50
176
     1
 90
       50
176
     1
 90
       50
176
     1
290
     0
176
     1
 90
       50
176
     1
 62
   256
176
     0
 40
1.0
176
     0
 90
        2
176
     1
  1
strokes_ogs.tif
176
     1
290
     0
176
     1
 40
1.0
176
     1
 40
1.0
176
     1
  0
VISUALSTYLE
  5
32
102
{ACAD_REACTORS
330
2A
102
}
330
2A
100
AcDbVisualStyle
  2
Basic
 70
     7
177
     3
291
     1
 70
    58
 90
        1
176
     1
 90
        0
176
     1
 90
        1
176
     1
 90
        0
176
     1
 40
0.6
176
     1
 40
30.0
176
     1
 62
     7
420
 16777215
176
     1
 90
        0
176
     1
 90
        4
176
     1
 62
     7
176
     1
 62
   257
176
     1
 90
        1
176
     1
 90
        1
176
     1
 40
1.0
176
     1
 90
        8
176
     1
 62
     7
176
     1
 40
1.0
176
     1
 90
        1
176
     1
 90
        6
176
     1
 90
        2
176
     1
 62
     7
176
     1
 90
        5
176
     1
 90
        0
176
     1
 90
        0
176
     1
290
     0
176
     1
 90
        1
176
     1
 40
0.0
176
     1
 90
        0
176
     1
290
     0
176
     1
290
     1
176
     1
290
     1
176
     1
290
     0
176
     1
290
     0
176
     1
290
     0
176
     1
290
     0
176
     1
290
     0
176
     1
290
     0
176
     1
 90
       50
176
     1
 40
0.0
176
     1
 40
1.0
176
     1
 90
        0
176
     1
 62
    18
420
        0
176
     1
 90
       50
176
     1
 90
        3
176
     1
 62
     5
420
      255
176
     1
290
     0
176
     1
 90
       50
176
     1
 90
       50
176
     1
 90
       50
176
     1
290
     0
176
     1
 90
       50
176
     1
 62
   256
176
     0
 40
1.0
176
     0
 90
        2
176
     1
  1
strokes_ogs.tif
176
     1
290
     0
176
     1
 40
1.0
176
     1
 40
1.0
176
     1
  0
VISUALSTYLE
  5
36
102
{ACAD_REACTORS
330
2A
102
}
330
2A
100
AcDbVisualStyle
  2
Brighten
 70
    12
177
     3
291
     1
 70
    58
 90
        2
176
     1
 90
        2
176
     1
 90
        0
176
     1
 90
        0
176
     1
 40
0.6
176
     1
 40
30.0
176
     1
 62
     7
420
 16777215
176
     1
 90
        1
176
     1
 90
        4
176
     1
 62
     7
176
     1
 62
   257
176
     1
 90
        1
176
     1
 90
        1
176
     1
 40
1.0
176
     1
 90
        8
176
     1
 62
     7
176
     1
 40
1.0
176
     1
 90
        1
176
     1
 90
        6
176
     1
 90
        2
176
     1
 62
     7
176
     1
 90
        5
176
     1
 90
        0
176
     1
 90
        0
176
     1
290
     0
176
     1
 90
        1
176
     1
 40
50.0
176
     1
 90
        0
176
     1
290
     0
176
     1
290
     1
176
     1
290
     1
176
     1
290
     0
176
     1
290
     0
176
     1
290
     0
176
     1
290
     0
176
     1
290
     0
176
     1
290
     0
176
     1
 90
       50
176
     1
 40
0.0
176
     1
 40
1.0
176
     1
 90
        0
176
     1
 62
    18
420
        0
176
     1
 90
       50
176
     1
 90
        3
176
     1
 62
     5
420
      255
176
     1
290
     0
176
     1
 90
       50
176
     1
 90
       50
176
     1
 90
       50
176
     1
290
     0
176
     1
 90
       50
176
     1
 62
   256
176
     0
 40
1.0
176
     0
 90
        2
176
     1
  1
strokes_ogs.tif
176
     1
290
     0
176
     1
 40
1.0
176
     1
 40
1.0
176
     1
  0
VISUALSTYLE
  5
3A
102
{ACAD_REACTORS
330
2A
102
}
330
2A
100
AcDbVisualStyle
  2
ColorChange
 70
    16
177
     3
291
     1
 70
    58
 90
        2
176
     1
 90
        2
176
     1
 90
        3
176
     1
 90
        0
176
     1
 40
0.6
176
     1
 40
30.0
176
     1
 62
     8
420
  8421504
176
     1
 90
        1
176
     1
 90
        4
176
     1
 62
     7
176
     1
 62
   257
176
     1
 90
        1
176
     1
 90
        1
176
     1
 40
1.0
176
     1
 90
        8
176
     1
 62
     8
420
  8421504
176
     1
 40
1.0
176
     1
 90
        1
176
     1
 90
        6
176
     1
 90
        2
176
     1
 62
     7
176
     1
 90
        5
176
     1
 90
        0
176
     1
 90
        0
176
     1
290
     0
176
     1
 90
        1
176
     1
 40
0.0
176
     1
 90
        0
176
     1
290
     0
176
     1
290
     1
176
     1
290
     1
176
     1
290
     0
176
     1
290
     0
176
     1
290
     0
176
     1
290
     0
176
     1
290
     0
176
     1
290
     0
176
     1
 90
       50
176
     1
 40
0.0
176
     1
 40
1.0
176
     1
 90
        0
176
     1
 62
    18
420
        0
176
     1
 90
       50
176
     1
 90
        3
176
     1
 62
     5
420
      255
176
     1
290
     0
176
     1
 90
       50
176
     1
 90
       50
176
     1
 90
       50
176
     1
290
     0
176
     1
 90
       50
176
     1
 62
   256
176
     0
 40
1.0
176
     0
 90
        2
176
     1
  1
strokes_ogs.tif
176
     1
290
     0
176
     1
 40
1.0
176
     1
 40
1.0
176
     1
  0
VISUALSTYLE
  5
34
102
{ACAD_REACTORS
330
2A
102
}
330
2A
100
AcDbVisualStyle
  2
Conceptual
 70
     9
177
     3
291
     0
 70
    58
 90
        3
176
     1
 90
        2
176
     1
 90
        0
176
     1
 90
        0
176
     1
 40
0.6
176
     1
 40
30.0
176
     1
 62
     7
420
 16777215
176
     1
 90
        2
176
     1
 90
        2
176
     1
 62
     7
176
     1
 62
   257
176
     1
 90
        1
176
     1
 90
        1
176
     1
 40
179.0
176
     1
 90
        8
176
     1
 62
     7
176
     1
 40
1.0
176
     1
 90
        1
176
     1
 90
        6
176
     1
 90
        2
176
     1
 62
     7
176
     1
 90
        3
176
     1
 90
        0
176
     1
 90
        0
176
     1
290
     0
176
     1
 90
        1
176
     1
 40
0.0
176
     1
 90
        0
176
     1
290
     0
176
     1
290
     1
176
     1
290
     1
176
     1
290
     0
176
     1
290
     0
176
     1
290
     0
176
     1
290
     0
176
     1
290
     0
176
     1
290
     0
176
     1
 90
       50
176
     1
 40
0.0
176
     1
 40
1.0
176
     1
 90
        0
176
     1
 62
    18
420
        0
176
     1
 90
       50
176
     1
 90
        3
176
     1
 62
     5
420
      255
176
     1
290
     0
176
     1
 90
       50
176
     1
 90
       50
176
     1
 90
       50
176
     1
290
     0
176
     1
 90
       50
176
     1
 62
   256
176
     0
 40
1.0
176
     0
 90
        2
176
     1
  1
strokes_ogs.tif
176
     1
290
     0
176
     1
 40
1.0
176
     1
 40
1.0
176
     1
  0
VISUALSTYLE
  5
35
102
{ACAD_REACTORS
330
2A
102
}
330
2A
100
AcDbVisualStyle
  2
Dim
 70
    11
177
     3
291
     1
 70
    58
 90
        2
176
     1
 90
        2
176
     1
 90
        0
176
     1
 90
        0
176
     1
 40
0.6
176
     1
 40
30.0
176
     1
 62
     7
420
 16777215
176
     1
 90
        1
176
     1
 90
        4
176
     1
 62
     7
176
     1
 62
   257
176
     1
 90
        1
176
     1
 90
        1
176
     1
 40
1.0
176
     1
 90
        8
176
     1
 62
     7
176
     1
 40
1.0
176
     1
 90
        1
176
     1
 90
        6
176
     1
 90
        2
176
     1
 62
     7
176
     1
 90
        5
176
     1
 90
        0
176
     1
 90
        0
176
     1
290
     0
176
     1
 90
        1
176
     1
 40
-50.0
176
     1
 90
        0
176
     1
290
     0
176
     1
290
     1
176
     1
290
     1
176
     1
290
     0
176
     1
290
     0
176
     1
290
     0
176
     1
290
     0
176
     1
290
     0
176
     1
290
     0
176
     1
 90
       50
176
     1
 40
0.0
176
     1
 40
1.0
176
     1
 90
        0
176
     1
 62
    18
420
        0
176
     1
 90
       50
176
     1
 90
        3
176
     1
 62
     5
420
      255
176
     1
290
     0
176
     1
 90
       50
176
     1
 90
       50
176
     1
 90
       50
176
     1
290
     0
176
     1
 90
       50
176
     1
 62
   256
176
     0
 40
1.0
176
     0
 90
        2
176
     1
  1
strokes_ogs.tif
176
     1
290
     0
176
     1
 40
1.0
176
     1
 40
1.0
176
     1
  0
VISUALSTYLE
  5
3D
102
{ACAD_REACTORS
330
2A
102
}
330
2A
100
AcDbVisualStyle
  2
EdgeColorOff
 70
    22
177
     3
291
     1
 70
    58
 90
        2
176
     0
 90
        2
176
     0
 90
        0
176
     0
 90
        0
176
     0
 40
0.6
176
     0
 40
30.0
176
     0
 62
     7
420
 16777215
176
     0
 90
        1
176
     0
 90
        4
176
     0
 62
     7
176
     0
 62
   257
176
     0
 90
        1
176
     0
 90
        1
176
     0
 40
1.0
176
     0
 90
        8
176
     2
 62
     7
176
     0
 40
1.0
176
     0
 90
        1
176
     0
 90
        6
176
     0
 90
        2
176
     0
 62
     7
176
     0
 90
        5
176
     0
 90
        0
176
     0
 90
        0
176
     0
290
     0
176
     0
 90
        1
176
     0
 40
0.0
176
     0
 90
        0
176
     0
290
     0
176
     0
290
     1
176
     0
290
     1
176
     0
290
     0
176
     0
290
     0
176
     0
290
     0
176
     0
290
     0
176
     0
290
     0
176
     0
290
     0
176
     0
 90
       50
176
     0
 40
0.0
176
     0
 40
1.0
176
     0
 90
        0
176
     0
 62
    18
420
        0
176
     0
 90
       50
176
     0
 90
        3
176
     0
 62
     5
420
      255
176
     0
290
     0
176
     0
 90
       50
176
     0
 90
       50
176
     0
 90
       50
176
     0
290
     0
176
     0
 90
       50
176
     0
 62
   256
176
     0
 40
1.0
176
     0
 90
        2
176
     0
  1
strokes_ogs.tif
176
     0
290
     0
176
     0
 40
1.0
176
     0
 40
1.0
176
     0
  0
VISUALSTYLE
  5
39
102
{ACAD_REACTORS
330
2A
102
}
330
2A
100
AcDbVisualStyle
  2
Facepattern
 70
    15
177
     3
291
     1
 70
    58
 90
        2
176
     1
 90
        2
176
     1
 90
        0
176
     1
 90
        0
176
     1
 40
0.6
176
     1
 40
30.0
176
     1
 62
     7
420
 16777215
176
     1
 90
        1
176
     1
 90
        4
176
     1
 62
     7
176
     1
 62
   257
176
     1
 90
        1
176
     1
 90
        1
176
     1
 40
1.0
176
     1
 90
        8
176
     1
 62
     7
176
     1
 40
1.0
176
     1
 90
        1
176
     1
 90
        6
176
     1
 90
        2
176
     1
 62
     7
176
     1
 90
        5
176
     1
 90
        0
176
     1
 90
        0
176
     1
290
     0
176
     1
 90
        1
176
     1
 40
0.0
176
     1
 90
        0
176
     1
290
     0
176
     1
290
     1
176
     1
290
     1
176
     1
290
     0
176
     1
290
     0
176
     1
290
     0
176
     1
290
     0
176
     1
290
     0
176
     1
290
     0
176
     1
 90
       50
176
     1
 40
0.0
176
     1
 40
1.0
176
     1
 90
        0
176
     1
 62
    18
420
        0
176
     1
 90
       50
176
     1
 90
        3
176
     1
 62
     5
420
      255
176
     1
290
     0
176
     1
 90
       50
176
     1
 90
       50
176
     1
 90
       50
176
     1
290
     0
176
     1
 90
       50
176
     1
 62
   256
176
     0
 40
1.0
176
     0
 90
        2
176
     1
  1
strokes_ogs.tif
176
     1
290
     0
176
     1
 40
1.0
176
     1
 40
1.0
176
     1
  0
VISUALSTYLE
  5
2B
102
{ACAD_REACTORS
330
2A
102
}
330
2A
100
AcDbVisualStyle
  2
Flat
 70
     0
177
     3
291
     1
 70
    58
 90
        2
176
     1
 90
        1
176
     1
 90
        1
176
     1
 90
        2
176
     1
 40
0.6
176
     1
 40
30.0
176
     1
 62
     7
420
 16777215
176
     1
 90
        0
176
     1
 90
        0
176
     1
 62
     7
176
     1
 62
   257
176
     1
 90
        1
176
     1
 90
        1
176
     1
 40
1.0
176
     1
 90
        8
176
     1
 62
     7
176
     1
 40
1.0
176
     1
 90
        1
176
     1
 90
        6
176
     1
 90
        2
176
     1
 62
     7
176
     1
 90
        5
176
     1
 90
        0
176
     1
 90
        0
176
     1
290
     0
176
     1
 90
       13
176
     1
 40
0.0
176
     1
 90
        0
176
     1
290
     0
176
     1
290
     1
176
     1
290
     1
176
     1
290
     0
176
     1
290
     0
176
     1
290
     0
176
     1
290
     0
176
     1
290
     0
176
     1
290
     0
176
     1
 90
       50
176
     1
 40
0.0
176
     1
 40
1.0
176
     1
 90
        0
176
     1
 62
    18
420
        0
176
     1
 90
       50
176
     1
 90
        3
176
     1
 62
     5
420
      255
176
     1
290
     0
176
     1
 90
       50
176
     1
 90
       50
176
     1
 90
       50
176
     1
290
     0
176
     1
 90
       50
176
     1
 62
   256
176
     0
 40
1.0
176
     0
 90
        2
176
     1
  1
strokes_ogs.tif
176
     1
290
     0
176
     1
 40
1.0
176
     1
 40
1.0
176
     1
  0
VISUALSTYLE
  5
2C
102
{ACAD_REACTORS
330
2A
102
}
330
2A
100
AcDbVisualStyle
  2
FlatWithEdges
 70
     1
177
     3
291
     1
 70
    58
 90
        2
176
     1
 90
        1
176
     1
 90
        1
176
     1
 90
        2
176
     1
 40
0.6
176
     1
 40
30.0
176
     1
 62
     7
420
 16777215
176
     1
 90
        1
176
     1
 90
        0
176
     1
 62
     7
176
     1
 62
   257
176
     1
 90
        1
176
     1
 90
        1
176
     1
 40
1.0
176
     1
 90
        0
176
     1
 62
   257
176
     1
 40
1.0
176
     1
 90
        1
176
     1
 90
        6
176
     1
 90
        2
176
     1
 62
     7
176
     1
 90
        5
176
     1
 90
        0
176
     1
 90
        0
176
     1
290
     0
176
     1
 90
       13
176
     1
 40
0.0
176
     1
 90
        0
176
     1
290
     0
176
     1
290
     1
176
     1
290
     1
176
     1
290
     0
176
     1
290
     0
176
     1
290
     0
176
     1
290
     0
176
     1
290
     0
176
     1
290
     0
176
     1
 90
       50
176
     1
 40
0.0
176
     1
 40
1.0
176
     1
 90
        0
176
     1
 62
    18
420
        0
176
     1
 90
       50
176
     1
 90
        3
176
     1
 62
     5
420
      255
176
     1
290
     0
176
     1
 90
       50
176
     1
 90
       50
176
     1
 90
       50
176
     1
290
     0
176
     1
 90
       50
176
     1
 62
   256
176
     0
 40
1.0
176
     0
 90
        2
176
     1
  1
strokes_ogs.tif
176
     1
290
     0
176
     1
 40
1.0
176
     1
 40
1.0
176
     1
  0
VISUALSTYLE
  5
2D
102
{ACAD_REACTORS
330
2A
102
}
330
2A
100
AcDbVisualStyle
  2
Gouraud
 70
     2
177
     3
291
     1
 70
    58
 90
        2
176
     1
 90
        2
176
     1
 90
        1
176
     1
 90
        2
176
     1
 40
0.6
176
     1
 40
30.0
176
     1
 62
     7
420
 16777215
176
     1
 90
        0
176
     1
 90
        0
176
     1
 62
     7
176
     1
 62
   257
176
     1
 90
        1
176
     1
 90
        1
176
     1
 40
1.0
176
     1
 90
        0
176
     1
 62
     7
176
     1
 40
1.0
176
     1
 90
        1
176
     1
 90
        6
176
     1
 90
        2
176
     1
 62
     7
176
     1
 90
        5
176
     1
 90
        0
176
     1
 90
        0
176
     1
290
     0
176
     1
 90
       13
176
     1
 40
0.0
176
     1
 90
        0
176
     1
290
     0
176
     1
290
     1
176
     1
290
     1
176
     1
290
     0
176
     1
290
     0
176
     1
290
     0
176
     1
290
     0
176
     1
290
     0
176
     1
290
     0
176
     1
 90
       50
176
     1
 40
0.0
176
     1
 40
1.0
176
     1
 90
        0
176
     1
 62
    18
420
        0
176
     1
 90
       50
176
     1
 90
        3
176
     1
 62
     5
420
      255
176
     1
290
     0
176
     1
 90
       50
176
     1
 90
       50
176
     1
 90
       50
176
     1
290
     0
176
     1
 90
       50
176
     1
 62
   256
176
     0
 40
1.0
176
     0
 90
        2
176
     1
  1
strokes_ogs.tif
176
     1
290
     0
176
     1
 40
1.0
176
     1
 40
1.0
176
     1
  0
VISUALSTYLE
  5
2E
102
{ACAD_REACTORS
330
2A
102
}
330
2A
100
AcDbVisualStyle
  2
GouraudWithEdges
 70
     3
177
     3
291
     1
 70
    58
 90
        2
176
     1
 90
        2
176
     1
 90
        1
176
     1
 90
        2
176
     1
 40
0.6
176
     1
 40
30.0
176
     1
 62
     7
420
 16777215
176
     1
 90
        1
176
     1
 90
        0
176
     1
 62
     7
176
     1
 62
   257
176
     1
 90
        1
176
     1
 90
        1
176
     1
 40
1.0
176
     1
 90
        0
176
     1
 62
   257
176
     1
 40
1.0
176
     1
 90
        1
176
     1
 90
        6
176
     1
 90
        2
176
     1
 62
     7
176
     1
 90
        5
176
     1
 90
        0
176
     1
 90
        0
176
     1
290
     0
176
     1
 90
       13
176
     1
 40
0.0
176
     1
 90
        0
176
     1
290
     0
176
     1
290
     1
176
     1
290
     1
176
     1
290
     0
176
     1
290
     0
176
     1
290
     0
176
     1
290
     0
176
     1
290
     0
176
     1
290
     0
176
     1
 90
       50
176
     1
 40
0.0
176
     1
 40
1.0
176
     1
 90
        0
176
     1
 62
    18
420
        0
176
     1
 90
       50
176
     1
 90
        3
176
     1
 62
     5
420
      255
176
     1
290
     0
176
     1
 90
       50
176
     1
 90
       50
176
     1
 90
       50
176
     1
290
     0
176
     1
 90
       50
176
     1
 62
   256
176
     0
 40
1.0
176
     0
 90
        2
176
     1
  1
strokes_ogs.tif
176
     1
290
     0
176
     1
 40
1.0
176
     1
 40
1.0
176
     1
  0
VISUALSTYLE
  5
31
102
{ACAD_REACTORS
330
2A
102
}
330
2A
100
AcDbVisualStyle
  2
Hidden
 70
     6
177
     3
291
     0
 70
    58
 90
        1
176
     1
 90
        2
176
     1
 90
        2
176
     1
 90
        0
176
     1
 40
0.6
176
     1
 40
30.0
176
     1
 62
     7
420
 16777215
176
     1
 90
        2
176
     1
 90
        2
176
     1
 62
     7
176
     1
 62
   257
176
     1
 90
        2
176
     1
 90
        1
176
     1
 40
40.0
176
     1
 90
        0
176
     1
 62
   257
176
     1
 40
1.0
176
     1
 90
        1
176
     1
 90
        6
176
     1
 90
        2
176
     1
 62
     7
176
     1
 90
        3
176
     1
 90
        0
176
     1
 90
        0
176
     1
290
     0
176
     1
 90
        1
176
     1
 40
0.0
176
     1
 90
        0
176
     1
290
     0
176
     1
290
     1
176
     1
290
     1
176
     1
290
     0
176
     1
290
     0
176
     1
290
     0
176
     1
290
     0
176
     1
290
     0
176
     1
290
     0
176
     1
 90
       50
176
     1
 40
0.0
176
     1
 40
1.0
176
     1
 90
        0
176
     1
 62
    18
420
        0
176
     1
 90
       50
176
     1
 90
        3
176
     1
 62
     5
420
      255
176
     1
290
     0
176
     1
 90
       50
176
     1
 90
       50
176
     1
 90
       50
176
     1
290
     0
176
     1
 90
       50
176
     1
 62
   256
176
     0
 40
1.0
176
     0
 90
        2
176
     1
  1
strokes_ogs.tif
176
     1
290
     0
176
     1
 40
1.0
176
     1
 40
1.0
176
     1
  0
VISUALSTYLE
  5
3B
102
{ACAD_REACTORS
330
2A
102
}
330
2A
100
AcDbVisualStyle
  2
JitterOff
 70
    20
177
     3
291
     1
 70
    58
 90
        2
176
     0
 90
        2
176
     0
 90
        0
176
     0
 90
        0
176
     0
 40
0.6
176
     0
 40
30.0
176
     0
 62
     7
420
 16777215
176
     0
 90
        1
176
     0
 90
        4
176
     0
 62
     7
176
     0
 62
   257
176
     0
 90
        1
176
     0
 90
        1
176
     0
 40
1.0
176
     0
 90
       10
176
     2
 62
     7
176
     0
 40
1.0
176
     0
 90
        1
176
     0
 90
        6
176
     0
 90
        2
176
     0
 62
     7
176
     0
 90
        5
176
     0
 90
        0
176
     0
 90
        0
176
     0
290
     0
176
     0
 90
        1
176
     0
 40
0.0
176
     0
 90
        0
176
     0
290
     0
176
     0
290
     1
176
     0
290
     1
176
     0
290
     0
176
     0
290
     0
176
     0
290
     0
176
     0
290
     0
176
     0
290
     0
176
     0
290
     0
176
     0
 90
       50
176
     0
 40
0.0
176
     0
 40
1.0
176
     0
 90
        0
176
     0
 62
    18
420
        0
176
     0
 90
       50
176
     0
 90
        3
176
     0
 62
     5
420
      255
176
     0
290
     0
176
     0
 90
       50
176
     0
 90
       50
176
     0
 90
       50
176
     0
290
     0
176
     0
 90
       50
176
     0
 62
   256
176
     0
 40
1.0
176
     0
 90
        2
176
     0
  1
strokes_ogs.tif
176
     0
290
     0
176
     0
 40
1.0
176
     0
 40
1.0
176
     0
  0
VISUALSTYLE
  5
38
102
{ACAD_REACTORS
330
2A
102
}
330
2A
100
AcDbVisualStyle
  2
Linepattern
 70
    14
177
     3
291
     1
 70
    58
 90
        2
176
     1
 90
        2
176
     1
 90
        0
176
     1
 90
        0
176
     1
 40
0.6
176
     1
 40
30.0
176
     1
 62
     7
420
 16777215
176
     1
 90
        1
176
     1
 90
        4
176
     1
 62
     7
176
     1
 62
   257
176
     1
 90
        7
176
     1
 90
        7
176
     1
 40
1.0
176
     1
 90
        8
176
     1
 62
     7
176
     1
 40
1.0
176
     1
 90
        1
176
     1
 90
        6
176
     1
 90
        2
176
     1
 62
     7
176
     1
 90
        5
176
     1
 90
        0
176
     1
 90
        0
176
     1
290
     0
176
     1
 90
        1
176
     1
 40
0.0
176
     1
 90
        0
176
     1
290
     0
176
     1
290
     1
176
     1
290
     1
176
     1
290
     0
176
     1
290
     0
176
     1
290
     0
176
     1
290
     0
176
     1
290
     0
176
     1
290
     0
176
     1
 90
       50
176
     1
 40
0.0
176
     1
 40
1.0
176
     1
 90
        0
176
     1
 62
    18
420
        0
176
     1
 90
       50
176
     1
 90
        3
176
     1
 62
     5
420
      255
176
     1
290
     0
176
     1
 90
       50
176
     1
 90
       50
176
     1
 90
       50
176
     1
290
     0
176
     1
 90
       50
176
     1
 62
   256
176
     0
 40
1.0
176
     0
 90
        2
176
     1
  1
strokes_ogs.tif
176
     1
290
     0
176
     1
 40
1.0
176
     1
 40
1.0
176
     1
  0
VISUALSTYLE
  5
3C
102
{ACAD_REACTORS
330
2A
102
}
330
2A
100
AcDbVisualStyle
  2
OverhangOff
 70
    21
177
     3
291
     1
 70
    58
 90
        2
176
     0
 90
        2
176
     0
 90
        0
176
     0
 90
        0
176
     0
 40
0.6
176
     0
 40
30.0
176
     0
 62
     7
420
 16777215
176
     0
 90
        1
176
     0
 90
        4
176
     0
 62
     7
176
     0
 62
   257
176
     0
 90
        1
176
     0
 90
        1
176
     0
 40
1.0
176
     0
 90
        9
176
     2
 62
     7
176
     0
 40
1.0
176
     0
 90
        1
176
     0
 90
        6
176
     0
 90
        2
176
     0
 62
     7
176
     0
 90
        5
176
     0
 90
        0
176
     0
 90
        0
176
     0
290
     0
176
     0
 90
        1
176
     0
 40
0.0
176
     0
 90
        0
176
     0
290
     0
176
     0
290
     1
176
     0
290
     1
176
     0
290
     0
176
     0
290
     0
176
     0
290
     0
176
     0
290
     0
176
     0
290
     0
176
     0
290
     0
176
     0
 90
       50
176
     0
 40
0.0
176
     0
 40
1.0
176
     0
 90
        0
176
     0
 62
    18
420
        0
176
     0
 90
       50
176
     0
 90
        3
176
     0
 62
     5
420
      255
176
     0
290
     0
176
     0
 90
       50
176
     0
 90
       50
176
     0
 90
       50
176
     0
290
     0
176
     0
 90
       50
176
     0
 62
   256
176
     0
 40
1.0
176
     0
 90
        2
176
     0
  1
strokes_ogs.tif
176
     0
290
     0
176
     0
 40
1.0
176
     0
 40
1.0
176
     0
  0
VISUALSTYLE
  5
33
102
{ACAD_REACTORS
330
2A
102
}
330
2A
100
AcDbVisualStyle
  2
Realistic
 70
     8
177
     3
291
     0
 70
    58
 90
        2
176
     1
 90
        3
176
     1
 90
        0
176
     1
 90
        2
176
     1
 40
0.6
176
     1
 40
30.0
176
     1
 62
     7
420
 16777215
176
     1
 90
        0
176
     1
 90
        0
176
     1
 62
     7
176
     1
 62
   257
176
     1
 90
        1
176
     1
 90
        1
176
     1
 40
1.0
176
     1
 90
        8
176
     1
 62
   257
176
     1
 40
1.0
176
     1
 90
        1
176
     1
 90
        6
176
     1
 90
        2
176
     1
 62
     7
176
     1
 90
        3
176
     1
 90
        0
176
     1
 90
        0
176
     1
290
     0
176
     1
 90
       13
176
     1
 40
0.0
176
     1
 90
        0
176
     1
290
     0
176
     1
290
     1
176
     1
290
     1
176
     1
290
     0
176
     1
290
     0
176
     1
290
     0
176
     1
290
     0
176
     1
290
     0
176
     1
290
     0
176
     1
 90
       50
176
     1
 40
0.0
176
     1
 40
1.0
176
     1
 90
        0
176
     1
 62
    18
420
        0
176
     1
 90
       50
176
     1
 90
        3
176
     1
 62
     5
420
      255
176
     1
290
     0
176
     1
 90
       50
176
     1
 90
       50
176
     1
 90
       50
176
     1
290
     0
176
     1
 90
       50
176
     1
 62
   256
176
     0
 40
1.0
176
     0
 90
        2
176
     1
  1
strokes_ogs.tif
176
     1
290
     0
176
     1
 40
1.0
176
     1
 40
1.0
176
     1
  0
VISUALSTYLE
  5
42
102
{ACAD_REACTORS
330
2A
102
}
330
2A
100
AcDbVisualStyle
  2
Shaded
 70
    27
177
     3
291
     0
 70
    58
 90
        2
176
     1
 90
        2
176
     1
 90
        1
176
     1
 90
        2
176
     1
 40
0.6
176
     1
 40
30.0
176
     1
 62
     7
420
 16777215
176
     1
 90
        0
176
     1
 90
        4
176
     1
 62
     7
176
     1
 62
   257
176
     1
 90
        1
176
     1
 90
        1
176
     1
 40
1.0
176
     1
 90
        8
176
     1
 62
   257
176
     1
 40
1.0
176
     1
 90
        1
176
     1
 90
        6
176
     1
 90
        2
176
     1
 62
     8
420
  7895160
176
     1
 90
        3
176
     1
 90
        0
176
     1
 90
        0
176
     1
290
     0
176
     1
 90
        5
176
     1
 40
0.0
176
     1
 90
        0
176
     1
290
     0
176
     1
290
     1
176
     1
290
     1
176
     1
290
     0
176
     1
290
     0
176
     1
290
     0
176
     1
290
     0
176
     1
290
     0
176
     1
290
     0
176
     1
 90
       50
176
     1
 40
0.0
176
     1
 40
1.0
176
     1
 90
        0
176
     1
 62
    18
420
        0
176
     1
 90
       50
176
     1
 90
        3
176
     1
 62
     5
420
      255
176
     1
290
     0
176
     1
 90
       50
176
     1
 90
       50
176
     1
 90
       50
176
     1
290
     0
176
     1
 90
       50
176
     1
 62
   256
176
     0
 40
1.0
176
     0
 90
        2
176
     1
  1
strokes_ogs.tif
176
     1
290
     0
176
     1
 40
1.0
176
     1
 40
1.0
176
     1
  0
VISUALSTYLE
  5
41
102
{ACAD_REACTORS
330
2A
102
}
330
2A
100
AcDbVisualStyle
  2
Shaded with edges
 70
    26
177
     3
291
     0
 70
    58
 90
        2
176
     1
 90
        2
176
     1
 90
        1
176
     1
 90
        2
176
     1
 40
0.6
176
     1
 40
30.0
176
     1
 62
     7
420
 16777215
176
     1
 90
        1
176
     1
 90
       10
176
     1
 62
     7
176
     1
 62
   257
176
     1
 90
        2
176
     1
 90
        1
176
     1
 40
1.0
176
     1
 90
        8
176
     1
 62
   257
176
     1
 40
1.0
176
     1
 90
        1
176
     1
 90
        6
176
     1
 90
        2
176
     1
 62
     7
176
     1
 90
        3
176
     1
 90
        0
176
     1
 90
        0
176
     1
290
     0
176
     1
 90
        5
176
     1
 40
0.0
176
     1
 90
        0
176
     1
290
     0
176
     1
290
     1
176
     1
290
     1
176
     1
290
     0
176
     1
290
     0
176
     1
290
     0
176
     1
290
     0
176
     1
290
     0
176
     1
290
     0
176
     1
 90
       50
176
     1
 40
0.0
176
     1
 40
1.0
176
     1
 90
        0
176
     1
 62
    18
420
        0
176
     1
 90
       50
176
     1
 90
        3
176
     1
 62
     5
420
      255
176
     1
290
     0
176
     1
 90
       50
176
     1
 90
       50
176
     1
 90
       50
176
     1
290
     0
176
     1
 90
       50
176
     1
 62
   256
176
     0
 40
1.0
176
     0
 90
        2
176
     1
  1
strokes_ogs.tif
176
     1
290
     0
176
     1
 40
1.0
176
     1
 40
1.0
176
     1
  0
VISUALSTYLE
  5
3E
102
{ACAD_REACTORS
330
2A
102
}
330
2A
100
AcDbVisualStyle
  2
Shades of Gray
 70
    23
177
     3
291
     0
 70
    58
 90
        2
176
     1
 90
        2
176
     1
 90
        3
176
     1
 90
        0
176
     1
 40
0.6
176
     1
 40
30.0
176
     1
 62
     7
420
 16777215
176
     1
 90
        2
176
     1
 90
        2
176
     1
 62
     7
176
     1
 62
     7
176
     1
 90
        1
176
     1
 90
        1
176
     1
 40
40.0
176
     1
 90
        8
176
     1
 62
     7
176
     1
 40
1.0
176
     1
 90
        1
176
     1
 90
        6
176
     1
 90
        2
176
     1
 62
     7
176
     1
 90
        3
176
     1
 90
        0
176
     1
 90
        0
176
     1
290
     0
176
     1
 90
        1
176
     1
 40
0.0
176
     1
 90
        0
176
     1
290
     0
176
     1
290
     1
176
     1
290
     1
176
     1
290
     0
176
     1
290
     0
176
     1
290
     0
176
     1
290
     0
176
     1
290
     0
176
     1
290
     0
176
     1
 90
       50
176
     1
 40
0.0
176
     1
 40
1.0
176
     1
 90
        0
176
     1
 62
    18
420
        0
176
     1
 90
       50
176
     1
 90
        3
176
     1
 62
     5
420
      255
176
     1
290
     0
176
     1
 90
       50
176
     1
 90
       50
176
     1
 90
       50
176
     1
290
     0
176
     1
 90
       50
176
     1
 62
   256
176
     0
 40
1.0
176
     0
 90
        2
176
     1
  1
strokes_ogs.tif
176
     1
290
     0
176
     1
 40
1.0
176
     1
 40
1.0
176
     1
  0
VISUALSTYLE
  5
3F
102
{ACAD_REACTORS
330
2A
102
}
330
2A
100
AcDbVisualStyle
  2
Sketchy
 70
    24
177
     3
291
     0
 70
    58
 90
        1
176
     1
 90
        2
176
     1
 90
        2
176
     1
 90
        0
176
     1
 40
0.6
176
     1
 40
30.0
176
     1
 62
     7
420
 16777215
176
     1
 90
        2
176
     1
 90
        2
176
     1
 62
     7
176
     1
 62
     7
176
     1
 90
        1
176
     1
 90
        1
176
     1
 40
40.0
176
     1
 90
       11
176
     1
 62
     7
176
     1
 40
1.0
176
     1
 90
        1
176
     1
 90
        6
176
     1
 90
        2
176
     1
 62
     7
176
     1
 90
        6
176
     1
 90
        0
176
     1
 90
        0
176
     1
290
     0
176
     1
 90
        1
176
     1
 40
0.0
176
     1
 90
        0
176
     1
290
     0
176
     1
290
     1
176
     1
290
     1
176
     1
290
     0
176
     1
290
     0
176
     1
290
     0
176
     1
290
     0
176
     1
290
     0
176
     1
290
     0
176
     1
 90
       50
176
     1
 40
0.0
176
     1
 40
1.0
176
     1
 90
        0
176
     1
 62
    18
420
        0
176
     1
 90
       50
176
     1
 90
        3
176
     1
 62
     5
420
      255
176
     1
290
     0
176
     1
 90
       50
176
     1
 90
       50
176
     1
 90
       50
176
     1
290
     0
176
     1
 90
       50
176
     1
 62
   256
176
     0
 40
1.0
176
     0
 90
        2
176
     1
  1
strokes_ogs.tif
176
     1
290
     0
176
     1
 40
1.0
176
     1
 40
1.0
176
     1
  0
VISUALSTYLE
  5
37
102
{ACAD_REACTORS
330
2A
102
}
330
2A
100
AcDbVisualStyle
  2
Thicken
 70
    13
177
     3
291
     1
 70
    58
 90
        2
176
     1
 90
        2
176
     1
 90
        0
176
     1
 90
        0
176
     1
 40
0.6
176
     1
 40
30.0
176
     1
 62
     7
420
 16777215
176
     1
 90
        1
176
     1
 90
        4
176
     1
 62
     7
176
     1
 62
   257
176
     1
 90
        1
176
     1
 90
        1
176
     1
 40
1.0
176
     1
 90
       12
176
     1
 62
     7
176
     1
 40
1.0
176
     1
 90
        1
176
     1
 90
        6
176
     1
 90
        2
176
     1
 62
     7
176
     1
 90
        5
176
     1
 90
        0
176
     1
 90
        0
176
     1
290
     0
176
     1
 90
        1
176
     1
 40
0.0
176
     1
 90
        0
176
     1
290
     0
176
     1
290
     1
176
     1
290
     1
176
     1
290
     0
176
     1
290
     0
176
     1
290
     0
176
     1
290
     0
176
     1
290
     0
176
     1
290
     0
176
     1
 90
       50
176
     1
 40
0.0
176
     1
 40
1.0
176
     1
 90
        0
176
     1
 62
    18
420
        0
176
     1
 90
       50
176
     1
 90
        3
176
     1
 62
     5
420
      255
176
     1
290
     0
176
     1
 90
       50
176
     1
 90
       50
176
     1
 90
       50
176
     1
290
     0
176
     1
 90
       50
176
     1
 62
   256
176
     0
 40
1.0
176
     0
 90
        2
176
     1
  1
strokes_ogs.tif
176
     1
290
     0
176
     1
 40
1.0
176
     1
 40
1.0
176
     1
  0
VISUALSTYLE
  5
30
102
{ACAD_REACTORS
330
2A
102
}
330
2A
100
AcDbVisualStyle
  2
Wireframe
 70
     5
177
     3
291
     0
 70
    58
 90
        0
176
     1
 90
        2
176
     1
 90
        0
176
     1
 90
        0
176
     1
 40
0.6
176
     1
 40
30.0
176
     1
 62
     7
420
 16777215
176
     1
 90
        1
176
     1
 90
        4
176
     1
 62
     7
176
     1
 62
   257
176
     1
 90
        1
176
     1
 90
        1
176
     1
 40
1.0
176
     1
 90
        0
176
     1
 62
   257
176
     1
 40
1.0
176
     1
 90
        1
176
     1
 90
        6
176
     1
 90
        2
176
     1
 62
     7
176
     1
 90
        3
176
     1
 90
        0
176
     1
 90
        0
176
     1
290
     0
176
     1
 90
        1
176
     1
 40
0.0
176
     1
 90
        0
176
     1
290
     0
176
     1
290
     1
176
     1
290
     1
176
     1
290
     0
176
     1
290
     0
176
     1
290
     0
176
     1
290
     0
176
     1
290
     0
176
     1
290
     0
176
     1
 90
       50
176
     1
 40
0.0
176
     1
 40
1.0
176
     1
 90
        0
176
     1
 62
    18
420
        0
176
     1
 90
       50
176
     1
 90
        3
176
     1
 62
     5
420
      255
176
     1
290
     0
176
     1
 90
       50
176
     1
 90
       50
176
     1
 90
       50
176
     1
290
     0
176
     1
 90
       50
176
     1
 62
   256
176
     0
 40
1.0
176
     0
 90
        2
176
     1
  1
strokes_ogs.tif
176
     1
290
     0
176
     1
 40
1.0
176
     1
 40
1.0
176
     1
  0
VISUALSTYLE
  5
40
102
{ACAD_REACTORS
330
2A
102
}
330
2A
100
AcDbVisualStyle
  2
X-Ray
 70
    25
177
     3
291
     0
 70
    58
 90
        2
176
     1
 90
        2
176
     1
 90
        1
176
     1
 90
        1
176
     1
 40
0.5
176
     1
 40
30.0
176
     1
 62
     7
420
 16777215
176
     1
 90
        1
176
     1
 90
        0
176
     1
 62
     7
176
     1
 62
   257
176
     1
 90
        1
176
     1
 90
        1
176
     1
 40
1.0
176
     1
 90
        8
176
     1
 62
     7
176
     1
 40
1.0
176
     1
 90
        1
176
     1
 90
        6
176
     1
 90
        2
176
     1
 62
     7
176
     1
 90
        3
176
     1
 90
        0
176
     1
 90
        0
176
     1
290
     0
176
     1
 90
       13
176
     1
 40
0.0
176
     1
 90
        0
176
     1
290
     0
176
     1
290
     1
176
     1
290
     1
176
     1
290
     0
176
     1
290
     0
176
     1
290
     0
176
     1
290
     0
176
     1
290
     0
176
     1
290
     0
176
     1
 90
       50
176
     1
 40
0.0
176
     1
 40
1.0
176
     1
 90
        0
176
     1
 62
    18
420
        0
176
     1
 90
       50
176
     1
 90
        3
176
     1
 62
     5
420
      255
176
     1
290
     0
176
     1
 90
       50
176
     1
 90
       50
176
     1
 90
       50
176
     1
290
     0
176
     1
 90
       50
176
     1
 62
   256
176
     0
 40
1.0
176
     0
 90
        2
176
     1
  1
strokes_ogs.tif
176
     1
290
     0
176
     1
 40
1.0
176
     1
 40
1.0
176
     1
  0
DICTIONARYVAR
  5
287
102
{ACAD_REACTORS
330
286
102
}
330
286
100
DictionaryVariables
280
     0
  1
1:1
  0
DICTIONARYVAR
  5
28C
102
{ACAD_REACTORS
330
286
102
}
330
286
100
DictionaryVariables
280
     0
  1
Standard
  0
DICTIONARYVAR
  5
28B
102
{ACAD_REACTORS
330
286
102
}
330
286
100
DictionaryVariables
280
     0
  1
Standard
  0
DICTIONARY
  5
288
330
6A
100
AcDbDictionary
280
     1
281
     1
  3
ACAD_ROUNDTRIP_2008_TABLESTYLE_CELLSTYLEMAP
360
289
  0
CELLSTYLEMAP
  5
289
102
{ACAD_REACTORS
330
288
102
}
330
288
100
AcDbCellStyleMap
 90
        3
300
CELLSTYLE
  1
TABLEFORMAT_BEGIN
 90
        5
170
     1
 91
        0
 92
    32768
 62
   257
 93
        1
300
CONTENTFORMAT
  1
CONTENTFORMAT_BEGIN
 90
        0
 91
        0
 92
        4
 93
        0
300

 40
0.0
140
1.0
 94
        5
 62
     0
340
11
144
0.25
309
CONTENTFORMAT_END
171
     1
301
MARGIN
  1
CELLMARGIN_BEGIN
 40
0.06
 40
0.06
 40
0.06
 40
0.06
 40
0.06
 40
0.06
309
CELLMARGIN_END
 94
        6
 95
        1
302
GRIDFORMAT
  1
GRIDFORMAT_BEGIN
 90
        0
 91
        1
 62
     0
 92
       -2
340
14
 93
        0
 40
0.045
309
GRIDFORMAT_END
 95
        2
302
GRIDFORMAT
  1
GRIDFORMAT_BEGIN
 90
        0
 91
        1
 62
     0
 92
       -2
340
14
 93
        0
 40
0.045
309
GRIDFORMAT_END
 95
        4
302
GRIDFORMAT
  1
GRIDFORMAT_BEGIN
 90
        0
 91
        1
 62
     0
 92
       -2
340
14
 93
        0
 40
0.045
309
GRIDFORMAT_END
 95
        8
302
GRIDFORMAT
  1
GRIDFORMAT_BEGIN
 90
        0
 91
        1
 62
     0
 92
       -2
340
14
 93
        0
 40
0.045
309
GRIDFORMAT_END
 95
       16
302
GRIDFORMAT
  1
GRIDFORMAT_BEGIN
 90
        0
 91
        1
 62
     0
 92
       -2
340
14
 93
        0
 40
0.045
309
GRIDFORMAT_END
 95
       32
302
GRIDFORMAT
  1
GRIDFORMAT_BEGIN
 90
        0
 91
        1
 62
     0
 92
       -2
340
14
 93
        0
 40
0.045
309
GRIDFORMAT_END
309
TABLEFORMAT_END
  1
CELLSTYLE_BEGIN
 90
        1
 91
        1
300
_TITLE
309
CELLSTYLE_END
300
CELLSTYLE
  1
TABLEFORMAT_BEGIN
 90
        5
170
     1
 91
        0
 92
        0
 62
   257
 93
        1
300
CONTENTFORMAT
  1
CONTENTFORMAT_BEGIN
 90
        0
 91
        0
 92
        4
 93
        0
300

 40
0.0
140
1.0
 94
        5
 62
     0
340
11
144
0.18
309
CONTENTFORMAT_END
171
     1
301
MARGIN
  1
CELLMARGIN_BEGIN
 40
0.06
 40
0.06
 40
0.06
 40
0.06
 40
0.06
 40
0.06
309
CELLMARGIN_END
 94
        6
 95
        1
302
GRIDFORMAT
  1
GRIDFORMAT_BEGIN
 90
        0
 91
        1
 62
     0
 92
       -2
340
14
 93
        0
 40
0.045
309
GRIDFORMAT_END
 95
        2
302
GRIDFORMAT
  1
GRIDFORMAT_BEGIN
 90
        0
 91
        1
 62
     0
 92
       -2
340
14
 93
        0
 40
0.045
309
GRIDFORMAT_END
 95
        4
302
GRIDFORMAT
  1
GRIDFORMAT_BEGIN
 90
        0
 91
        1
 62
     0
 92
       -2
340
14
 93
        0
 40
0.045
309
GRIDFORMAT_END
 95
        8
302
GRIDFORMAT
  1
GRIDFORMAT_BEGIN
 90
        0
 91
        1
 62
     0
 92
       -2
340
14
 93
        0
 40
0.045
309
GRIDFORMAT_END
 95
       16
302
GRIDFORMAT
  1
GRIDFORMAT_BEGIN
 90
        0
 91
        1
 62
     0
 92
       -2
340
14
 93
        0
 40
0.045
309
GRIDFORMAT_END
 95
       32
302
GRIDFORMAT
  1
GRIDFORMAT_BEGIN
 90
        0
 91
        1
 62
     0
 92
       -2
340
14
 93
        0
 40
0.045
309
GRIDFORMAT_END
309
TABLEFORMAT_END
  1
CELLSTYLE_BEGIN
 90
        2
 91
        1
300
_HEADER
309
CELLSTYLE_END
300
CELLSTYLE
  1
TABLEFORMAT_BEGIN
 90
        5
170
     1
 91
        0
 92
        0
 62
   257
 93
        1
300
CONTENTFORMAT
  1
CONTENTFORMAT_BEGIN
 90
        0
 91
        0
 92
        4
 93
        0
300

 40
0.0
140
1.0
 94
        2
 62
     0
340
11
144
0.18
309
CONTENTFORMAT_END
171
     1
301
MARGIN
  1
CELLMARGIN_BEGIN
 40
0.06
 40
0.06
 40
0.06
 40
0.06
 40
0.06
 40
0.06
309
CELLMARGIN_END
 94
        6
 95
        1
302
GRIDFORMAT
  1
GRIDFORMAT_BEGIN
 90
        0
 91
        1
 62
     0
 92
       -2
340
14
 93
        0
 40
0.045
309
GRIDFORMAT_END
 95
        2
302
GRIDFORMAT
  1
GRIDFORMAT_BEGIN
 90
        0
 91
        1
 62
     0
 92
       -2
340
14
 93
        0
 40
0.045
309
GRIDFORMAT_END
 95
        4
302
GRIDFORMAT
  1
GRIDFORMAT_BEGIN
 90
        0
 91
        1
 62
     0
 92
       -2
340
14
 93
        0
 40
0.045
309
GRIDFORMAT_END
 95
        8
302
GRIDFORMAT
  1
GRIDFORMAT_BEGIN
 90
        0
 91
        1
 62
     0
 92
       -2
340
14
 93
        0
 40
0.045
309
GRIDFORMAT_END
 95
       16
302
GRIDFORMAT
  1
GRIDFORMAT_BEGIN
 90
        0
 91
        1
 62
     0
 92
       -2
340
14
 93
        0
 40
0.045
309
GRIDFORMAT_END
 95
       32
302
GRIDFORMAT
  1
GRIDFORMAT_BEGIN
 90
        0
 91
        1
 62
     0
 92
       -2
340
14
 93
        0
 40
0.045
309
GRIDFORMAT_END
309
TABLEFORMAT_END
  1
CELLSTYLE_BEGIN
 90
        3
 91
        2
300
_DATA
309
CELLSTYLE_END
  0
ENDSEC
  0
EOF